  0
SECTION
  2
HEADER
  9
$ACADVER
  1
AC1015
  9
$ACADMAINTVER
 70
    14
  9
$DWGCODEPAGE
  3
ANSI_932
  9
$INSBASE
 10
0.0
 20
0.0
 30
0.0
  9
$EXTMIN
 10
121.3720523909032
 20
-93.57223010103167
 30
-0.000000000000013
  9
$EXTMAX
 10
2126.449033757382
 20
702.903570478911
 30
0.0000000000000023
  9
$LIMMIN
 10
-580.5701293945312
 20
0.0
  9
$LIMMAX
 10
0.0
 20
407.8999938964844
  9
$ORTHOMODE
 70
     0
  9
$REGENMODE
 70
     1
  9
$FILLMODE
 70
     1
  9
$QTEXTMODE
 70
     0
  9
$MIRRTEXT
 70
     1
  9
$LTSCALE
 40
1.0
  9
$ATTMODE
 70
     1
  9
$TEXTSIZE
 40
0.2
  9
$TRACEWID
 40
0.05
  9
$TEXTSTYLE
  7
STANDARD
  9
$CLAYER
  8
0
  9
$CELTYPE
  6
CONTINUOUS
  9
$CECOLOR
 62
   256
  9
$CELTSCALE
 40
1.0
  9
$DISPSILH
 70
     0
  9
$DIMSCALE
 40
1.0
  9
$DIMASZ
 40
1.0
  9
$DIMEXO
 40
2.54
  9
$DIMDLI
 40
0.38
  9
$DIMRND
 40
0.0
  9
$DIMDLE
 40
0.0
  9
$DIMEXE
 40
2.54
  9
$DIMTP
 40
0.0
  9
$DIMTM
 40
0.0
  9
$DIMTXT
 40
3.200000047683714
  9
$DIMCEN
 40
0.09
  9
$DIMTSZ
 40
0.0
  9
$DIMTOL
 70
     0
  9
$DIMLIM
 70
     0
  9
$DIMTIH
 70
     0
  9
$DIMTOH
 70
     0
  9
$DIMSE1
 70
     0
  9
$DIMSE2
 70
     0
  9
$DIMTAD
 70
     1
  9
$DIMZIN
 70
     0
  9
$DIMBLK
  1

  9
$DIMASO
 70
     1
  9
$DIMSHO
 70
     0
  9
$DIMPOST
  1

  9
$DIMAPOST
  1

  9
$DIMALT
 70
     0
  9
$DIMALTD
 70
     2
  9
$DIMALTF
 40
25.4
  9
$DIMLFAC
 40
1.0
  9
$DIMTOFL
 70
     0
  9
$DIMTVP
 40
1.0
  9
$DIMTIX
 70
     0
  9
$DIMSOXD
 70
     0
  9
$DIMSAH
 70
     0
  9
$DIMBLK1
  1

  9
$DIMBLK2
  1

  9
$DIMSTYLE
  2
STANDARD
  9
$DIMCLRD
 70
     0
  9
$DIMCLRE
 70
     0
  9
$DIMCLRT
 70
     0
  9
$DIMTFAC
 40
1.0
  9
$DIMGAP
 40
1.600000023841857
  9
$DIMJUST
 70
     0
  9
$DIMSD1
 70
     0
  9
$DIMSD2
 70
     0
  9
$DIMTOLJ
 70
     1
  9
$DIMTZIN
 70
     0
  9
$DIMALTZ
 70
     0
  9
$DIMALTTZ
 70
     0
  9
$DIMUPT
 70
     0
  9
$DIMDEC
 70
     4
  9
$DIMTDEC
 70
     4
  9
$DIMALTU
 70
     2
  9
$DIMALTTD
 70
     2
  9
$DIMTXSTY
  7
STANDARD
  9
$DIMAUNIT
 70
     0
  9
$DIMADEC
 70
     0
  9
$DIMALTRND
 40
0.0
  9
$DIMAZIN
 70
     0
  9
$DIMDSEP
 70
    46
  9
$DIMATFIT
 70
     3
  9
$DIMFRAC
 70
     0
  9
$DIMLDRBLK
  1

  9
$DIMLUNIT
 70
     2
  9
$DIMLWD
 70
    -2
  9
$DIMLWE
 70
    -2
  9
$DIMTMOVE
 70
     0
  9
$LUNITS
 70
     2
  9
$LUPREC
 70
     4
  9
$SKETCHINC
 40
0.1
  9
$FILLETRAD
 40
0.0
  9
$AUNITS
 70
     0
  9
$AUPREC
 70
     0
  9
$MENU
  1
.
  9
$ELEVATION
 40
0.0
  9
$PELEVATION
 40
0.0
  9
$THICKNESS
 40
0.0
  9
$LIMCHECK
 70
     0
  9
$CHAMFERA
 40
0.0
  9
$CHAMFERB
 40
0.0
  9
$CHAMFERC
 40
0.0
  9
$CHAMFERD
 40
0.0
  9
$SKPOLY
 70
     0
  9
$TDCREATE
 40
2452717.604314595
  9
$TDUCREATE
 40
2452717.229314595
  9
$TDUPDATE
 40
2456899.672928912
  9
$TDUUPDATE
 40
2456899.297928912
  9
$TDINDWG
 40
0.2847204861
  9
$TDUSRTIMER
 40
0.2847204861
  9
$USRTIMER
 70
     1
  9
$ANGBASE
 50
0.0
  9
$ANGDIR
 70
     0
  9
$PDMODE
 70
     0
  9
$PDSIZE
 40
0.0
  9
$PLINEWID
 40
0.0
  9
$SPLFRAME
 70
     0
  9
$SPLINETYPE
 70
     6
  9
$SPLINESEGS
 70
     8
  9
$HANDSEED
  5
9216
  9
$SURFTAB1
 70
     6
  9
$SURFTAB2
 70
     6
  9
$SURFTYPE
 70
     6
  9
$SURFU
 70
     6
  9
$SURFV
 70
     6
  9
$UCSBASE
  2

  9
$UCSNAME
  2

  9
$UCSORG
 10
0.0
 20
0.0
 30
0.0
  9
$UCSXDIR
 10
1.0
 20
0.0
 30
0.0
  9
$UCSYDIR
 10
0.0
 20
1.0
 30
0.0
  9
$UCSORTHOREF
  2

  9
$UCSORTHOVIEW
 70
     0
  9
$UCSORGTOP
 10
0.0
 20
0.0
 30
0.0
  9
$UCSORGBOTTOM
 10
0.0
 20
0.0
 30
0.0
  9
$UCSORGLEFT
 10
0.0
 20
0.0
 30
0.0
  9
$UCSORGRIGHT
 10
0.0
 20
0.0
 30
0.0
  9
$UCSORGFRONT
 10
0.0
 20
0.0
 30
0.0
  9
$UCSORGBACK
 10
0.0
 20
0.0
 30
0.0
  9
$PUCSBASE
  2

  9
$PUCSNAME
  2

  9
$PUCSORG
 10
0.0
 20
0.0
 30
0.0
  9
$PUCSXDIR
 10
1.0
 20
0.0
 30
0.0
  9
$PUCSYDIR
 10
0.0
 20
1.0
 30
0.0
  9
$PUCSORTHOREF
  2

  9
$PUCSORTHOVIEW
 70
     0
  9
$PUCSORGTOP
 10
0.0
 20
0.0
 30
0.0
  9
$PUCSORGBOTTOM
 10
0.0
 20
0.0
 30
0.0
  9
$PUCSORGLEFT
 10
0.0
 20
0.0
 30
0.0
  9
$PUCSORGRIGHT
 10
0.0
 20
0.0
 30
0.0
  9
$PUCSORGFRONT
 10
0.0
 20
0.0
 30
0.0
  9
$PUCSORGBACK
 10
0.0
 20
0.0
 30
0.0
  9
$USERI1
 70
     0
  9
$USERI2
 70
     0
  9
$USERI3
 70
     0
  9
$USERI4
 70
     0
  9
$USERI5
 70
     0
  9
$USERR1
 40
0.0
  9
$USERR2
 40
0.0
  9
$USERR3
 40
0.0
  9
$USERR4
 40
0.0
  9
$USERR5
 40
0.0
  9
$WORLDVIEW
 70
     1
  9
$SHADEDGE
 70
     3
  9
$SHADEDIF
 70
    70
  9
$TILEMODE
 70
     1
  9
$MAXACTVP
 70
    48
  9
$PINSBASE
 10
0.0
 20
0.0
 30
0.0
  9
$PLIMCHECK
 70
     0
  9
$PEXTMIN
 10
-580.5701293945312
 20
0.0
 30
0.0
  9
$PEXTMAX
 10
0.0
 20
407.8999938964844
 30
0.0
  9
$PLIMMIN
 10
-580.5701293945312
 20
0.0
  9
$PLIMMAX
 10
0.0
 20
407.8999938964844
  9
$UNITMODE
 70
     0
  9
$VISRETAIN
 70
     1
  9
$PLINEGEN
 70
     0
  9
$PSLTSCALE
 70
     1
  9
$TREEDEPTH
 70
  3020
  9
$CMLSTYLE
  2
Standard
  9
$CMLJUST
 70
     0
  9
$CMLSCALE
 40
1.0
  9
$PROXYGRAPHICS
 70
     1
  9
$MEASUREMENT
 70
     0
  9
$CELWEIGHT
370
    -1
  9
$ENDCAPS
280
     0
  9
$JOINSTYLE
280
     0
  9
$LWDISPLAY
290
     0
  9
$INSUNITS
 70
     0
  9
$HYPERLINKBASE
  1

  9
$STYLESHEET
  1

  9
$XEDIT
290
     1
  9
$CEPSNTYPE
380
     0
  9
$PSTYLEMODE
290
     1
  9
$FINGERPRINTGUID
  2
{F5FC7E47-38F6-4427-BFB7-32897CB327C8}
  9
$VERSIONGUID
  2
{ACC1EA98-EAA2-4A95-BC25-71E3BDD420CC}
  9
$EXTNAMES
290
     1
  9
$PSVPSCALE
 40
0.0
  9
$OLESTARTUP
290
     0
  0
ENDSEC
  0
SECTION
  2
CLASSES
  0
CLASS
  1
ACDBDICTIONARYWDFLT
  2
AcDbDictionaryWithDefault
  3
AutoCAD 2000
 90
        0
280
     0
281
     0
  0
CLASS
  1
ACDBPLACEHOLDER
  2
AcDbPlaceHolder
  3
AutoCAD 2000
 90
        0
280
     0
281
     0
  0
CLASS
  1
LAYOUT
  2
AcDbLayout
  3
AutoCAD 2000
 90
        0
280
     0
281
     0
  0
CLASS
  1
DICTIONARYVAR
  2
AcDbDictionaryVar
  3
AutoCAD 2000
 90
        0
280
     0
281
     0
  0
CLASS
  1
LONG_TRANSACTION
  2
AcDbLongTransaction
  3
AutoCAD 2000
 90
    32768
280
     0
281
     0
  0
CLASS
  1
LWPOLYLINE
  2
AcDbPolyline
  3
AutoCAD 2000
 90
    32768
280
     0
281
     1
  0
CLASS
  1
HATCH
  2
AcDbHatch
  3
AutoCAD 2000
 90
    32768
280
     0
281
     1
  0
CLASS
  1
XRECORD
  2
AcDbXrecord
  3
AutoCAD 2000
 90
    32768
280
     0
281
     0
  0
CLASS
  1
LONG_TRANSACTION
  2
AcDbLongTransaction
  3
AutoCAD 2000
 90
    32768
280
     0
281
     0
  0
CLASS
  1
LWPOLYLINE
  2
AcDbPolyline
  3
AutoCAD 2000
 90
    32768
280
     0
281
     1
  0
CLASS
  1
HATCH
  2
AcDbHatch
  3
AutoCAD 2000
 90
    32768
280
     0
281
     1
  0
CLASS
  1
XRECORD
  2
AcDbXrecord
  3
AutoCAD 2000
 90
    32768
280
     0
281
     0
  0
CLASS
  1
LONG_TRANSACTION
  2
AcDbLongTransaction
  3
AutoCAD 2000
 90
    32768
280
     0
281
     0
  0
CLASS
  1
LWPOLYLINE
  2
AcDbPolyline
  3
AutoCAD 2000
 90
    32768
280
     0
281
     1
  0
CLASS
  1
HATCH
  2
AcDbHatch
  3
AutoCAD 2000
 90
    32768
280
     0
281
     1
  0
CLASS
  1
XRECORD
  2
AcDbXrecord
  3
AutoCAD 2000
 90
    32768
280
     0
281
     0
  0
ENDSEC
  0
SECTION
  2
TABLES
  0
TABLE
  2
VPORT
  5
8C40
330
0
100
AcDbSymbolTable
 70
     2
  0
VPORT
  5
9215
330
8C40
100
AcDbSymbolTableRecord
100
AcDbViewportTableRecord
  2
*Active
 70
     0
 10
0.0
 20
0.0
 11
1.0
 21
1.0
 12
1123.910543074142
 22
304.6656701889396
 13
0.0
 23
0.0
 14
1.0
 24
1.0
 15
0.0
 25
0.0
 16
0.0
 26
0.0
 36
1.0
 17
0.0
 27
0.0
 37
0.0
 40
1264.365091913039
 41
1.592161016949152
 42
50.0
 43
0.0
 44
0.0
 50
0.0
 51
0.0
 71
     0
 72
   100
 73
     1
 74
     3
 75
     0
 76
     0
 77
     0
 78
     0
281
     0
 65
     1
110
0.0
120
0.0
130
0.0
111
1.0
121
0.0
131
0.0
112
0.0
122
1.0
132
0.0
 79
     0
146
0.0
  0
ENDTAB
  0
TABLE
  2
LTYPE
  5
8C3D
330
0
100
AcDbSymbolTable
 70
     2
  0
LTYPE
  5
8C4B
330
8C3D
100
AcDbSymbolTableRecord
100
AcDbLinetypeTableRecord
  2
ByBlock
 70
     0
  3

 72
    65
 73
     0
 40
0.0
  0
LTYPE
  5
8C4C
330
8C3D
100
AcDbSymbolTableRecord
100
AcDbLinetypeTableRecord
  2
ByLayer
 70
     0
  3

 72
    65
 73
     0
 40
0.0
  0
LTYPE
  5
8C4D
330
8C3D
100
AcDbSymbolTableRecord
100
AcDbLinetypeTableRecord
  2
CONTINUOUS
 70
     0
  3
Solid line
 72
    65
 73
     0
 40
0.0
  0
LTYPE
  5
8D12
330
8C3D
100
AcDbSymbolTableRecord
100
AcDbLinetypeTableRecord
  2
CENTER
 70
     0
  3
Center ____ _ ____ _ ____ _ ____ _ ____ _ ____
 72
    65
 73
     4
 40
50.8
 49
31.75
 74
     0
 49
-6.349999999999999
 74
     0
 49
6.349999999999999
 74
     0
 49
-6.349999999999999
 74
     0
  0
ENDTAB
  0
TABLE
  2
LAYER
  5
8C3A
102
{ACAD_XDICTIONARY
360
8D13
102
}
330
0
100
AcDbSymbolTable
 70
     2
  0
LAYER
  5
8C48
330
8C3A
100
AcDbSymbolTableRecord
100
AcDbLayerTableRecord
  2
0
 70
     0
 62
     7
  6
CONTINUOUS
370
    -3
390
8C47
  0
LAYER
  5
8D2A
330
8C3A
100
AcDbSymbolTableRecord
100
AcDbLayerTableRecord
  2
Visible (ISO)
 70
     0
 62
     7
  6
CONTINUOUS
370
    35
390
8C47
  0
ENDTAB
  0
TABLE
  2
STYLE
  5
8C3B
330
0
100
AcDbSymbolTable
 70
     1
  0
STYLE
  5
8C49
330
8C3B
100
AcDbSymbolTableRecord
100
AcDbTextStyleTableRecord
  2
STANDARD
 70
     0
 40
0.0
 41
1.0
 50
0.0
 71
     0
 42
0.2
  3
txt
  4
BIGFONT
  0
ENDTAB
  0
TABLE
  2
VIEW
  5
8C3E
330
0
100
AcDbSymbolTable
 70
     0
  0
ENDTAB
  0
TABLE
  2
UCS
  5
8C3F
330
0
100
AcDbSymbolTable
 70
     0
  0
ENDTAB
  0
TABLE
  2
APPID
  5
8C41
330
0
100
AcDbSymbolTable
 70
     4
  0
APPID
  5
8C4A
330
8C41
100
AcDbSymbolTableRecord
100
AcDbRegAppTableRecord
  2
ACAD
 70
     0
  0
APPID
  5
8C5C
330
8C41
100
AcDbSymbolTableRecord
100
AcDbRegAppTableRecord
  2
MCAD_NO_VIS
 70
     0
  0
APPID
  5
8C5D
330
8C41
100
AcDbSymbolTableRecord
100
AcDbRegAppTableRecord
  2
ACAD_TEMP_GRAPHIC
 70
     0
  0
APPID
  5
8C5E
330
8C41
100
AcDbSymbolTableRecord
100
AcDbRegAppTableRecord
  2
ACATTRIBSERVICES
 70
     0
  0
ENDTAB
  0
TABLE
  2
DIMSTYLE
  5
8C42
330
0
100
AcDbSymbolTable
 70
     1
100
AcDbDimStyleTable
 71
     0
  0
DIMSTYLE
105
8C5F
330
8C42
100
AcDbSymbolTableRecord
100
AcDbDimStyleTableRecord
  2
STANDARD
 70
     0
279
     2
340
8C49
  0
ENDTAB
  0
TABLE
  2
BLOCK_RECORD
  5
8C39
330
0
100
AcDbSymbolTable
 70
     0
  0
BLOCK_RECORD
  5
8C56
102
{ACAD_XDICTIONARY
360
8C68
102
}
330
8C39
100
AcDbSymbolTableRecord
100
AcDbBlockTableRecord
  2
*Model_Space
340
8C59
  0
BLOCK_RECORD
  5
8C52
102
{ACAD_XDICTIONARY
360
8C6A
102
}
330
8C39
100
AcDbSymbolTableRecord
100
AcDbBlockTableRecord
  2
*Paper_Space
340
8C55
  0
ENDTAB
  0
ENDSEC
  0
SECTION
  2
BLOCKS
  0
BLOCK
  5
8C57
330
8C56
100
AcDbEntity
  8
0
100
AcDbBlockBegin
  2
*Model_Space
 70
     0
 10
0.0
 20
0.0
 30
0.0
  3
*Model_Space
  1

  0
ENDBLK
  5
8C58
330
8C56
100
AcDbEntity
  8
0
100
AcDbBlockEnd
  0
BLOCK
  5
8C53
330
8C52
100
AcDbEntity
 67
     1
  8
0
100
AcDbBlockBegin
  2
*Paper_Space
 70
     0
 10
0.0
 20
0.0
 30
0.0
  3
*Paper_Space
  1

  0
ENDBLK
  5
8C54
330
8C52
100
AcDbEntity
 67
     1
  8
0
100
AcDbBlockEnd
  0
ENDSEC
  0
SECTION
  2
ENTITIES
  0
TEXT
  5
1107
330
8C56
100
AcDbEntity
  8
0
100
AcDbText
 10
209.9819484203925
 20
654.8441634919773
 30
0.0
 40
48.000002
  1
DHS2S 3S
 41
1.32095
100
AcDbText
  0
LINE
  5
29A6
330
8C56
100
AcDbEntity
  8
0
100
AcDbLine
 10
285.0111889839224
 20
464.9050479070323
 30
0.0
 11
291.9766447350566
 21
460.430666685241
 31
0.0
  0
ARC
  5
29A7
330
8C56
100
AcDbEntity
  8
0
100
AcDbCircle
 10
292.6811465788986
 20
364.3987761233757
 30
0.0
 40
6.500000238418579
100
AcDbArc
 50
108.9969305864309
 51
169.4467616846527
  0
LINE
  5
29A8
330
8C56
100
AcDbEntity
  8
0
100
AcDbLine
 10
239.8026508680004
 20
400.8015317539074
 30
0.0
 11
291.0667664679756
 21
371.2041802812736
 31
0.0
  0
LINE
  5
29A9
330
8C56
100
AcDbEntity
  8
0
100
AcDbLine
 10
249.3026519495561
 20
417.2560160037916
 30
0.0
 11
300.5667675495308
 21
387.6586645311579
 31
0.0
  0
CIRCLE
  5
29AC
330
8C56
100
AcDbEntity
  8
0
100
AcDbCircle
 10
228.3333987761645
 20
418.3929167483756
 30
0.0
 40
100.0000076293944
  0
ARC
  5
29AD
330
8C56
100
AcDbEntity
  8
0
100
AcDbCircle
 10
228.3333987761645
 20
418.3929167483756
 30
0.0
 40
78.50000381469726
100
AcDbArc
 50
316.9313645091637
 51
343.0686423589003
  0
CIRCLE
  5
29AE
330
8C56
100
AcDbEntity
  8
0
100
AcDbCircle
 10
228.3333987761645
 20
418.3929167483756
 30
0.0
 40
84.0
  0
ARC
  5
29AF
330
8C56
100
AcDbEntity
  8
0
100
AcDbCircle
 10
228.3333987761645
 20
418.3929167483756
 30
0.0
 40
96.0
100
AcDbArc
 50
32.46174786076405
 51
57.53825805881461
  0
ARC
  5
29B0
330
8C56
100
AcDbEntity
  8
0
100
AcDbCircle
 10
228.3333987761645
 20
418.3929167483756
 30
0.0
 40
96.0
100
AcDbArc
 50
302.4617419411852
 51
327.5382589694219
  0
ARC
  5
29B5
330
8C56
100
AcDbEntity
  8
0
100
AcDbCircle
 10
248.7622350736614
 20
-52.75703771600456
 30
0.0
 40
10.00000047683716
100
AcDbArc
 50
269.9999984909092
 51
336.5154337230467
  0
ARC
  5
29C8
330
8C56
100
AcDbEntity
  8
0
100
AcDbCircle
 10
207.9045277906732
 20
-52.75705892507176
 30
0.0
 40
10.00000047683716
100
AcDbArc
 50
203.4845664464884
 51
269.9999948484359
  0
ARC
  5
29CF
330
8C56
100
AcDbEntity
  8
0
100
AcDbCircle
 10
244.9531497527268
 20
489.9892607425162
 30
0.0
 40
5.000000238418579
100
AcDbArc
 50
48.71537485882178
 51
76.93132345224693
  0
ARC
  5
29D0
330
8C56
100
AcDbEntity
  8
0
100
AcDbCircle
 10
211.7138309050708
 20
489.9892607425162
 30
0.0
 40
5.000000238418579
100
AcDbArc
 50
103.0686405755707
 51
131.2846779614634
  0
ARC
  5
29D1
330
8C56
100
AcDbEntity
  8
0
100
AcDbCircle
 10
228.3333987761645
 20
418.3929167483756
 30
0.0
 40
78.50000381469726
100
AcDbArc
 50
76.93132345224693
 51
103.0686405755707
  0
LINE
  5
29D2
330
8C56
100
AcDbEntity
  8
0
100
AcDbLine
 10
218.8334292937426
 20
437.1212645266959
 30
0.0
 11
218.8334292937426
 21
496.3159666751335
 31
0.0
  0
LINE
  5
29D3
330
8C56
100
AcDbEntity
  8
0
100
AcDbLine
 10
237.8334598113208
 20
437.1212645266959
 30
0.0
 11
237.8334598113208
 21
496.3159666751335
 31
0.0
  0
ARC
  5
29D4
330
8C56
100
AcDbEntity
  8
0
100
AcDbCircle
 10
228.3333987761645
 20
418.3929167483756
 30
0.0
 40
96.0
100
AcDbArc
 50
122.4617401199594
 51
147.5382469029141
  0
LINE
  5
29D7
330
8C56
100
AcDbEntity
  8
0
100
AcDbLine
 10
266.4834231902271
 20
296.9181062140664
 30
0.0
 11
266.4834231902271
 21
325.9560118411491
 31
0.0
  0
LINE
  5
29D9
330
8C56
100
AcDbEntity
  8
0
100
AcDbLine
 10
190.1833743621018
 20
296.9180950398105
 30
0.0
 11
190.1833743621018
 21
325.9560576175163
 31
0.0
  0
LINE
  5
29DD
330
8C56
100
AcDbEntity
  8
0
100
AcDbLine
 10
182.8334292937427
 20
291.3929320071645
 30
0.0
 11
273.833368258586
 21
291.3929320071645
 31
0.0
  0
LINE
  5
29DE
330
8C56
100
AcDbEntity
  8
0
100
AcDbLine
 10
190.1833743621018
 20
296.9181395266959
 30
0.0
 11
266.4834231902271
 21
296.9181395266959
 31
0.0
  0
LINE
  5
29E1
330
8C56
100
AcDbEntity
  8
0
100
AcDbLine
 10
182.8334292937427
 20
294.2429337156432
 30
0.0
 11
190.1833743621018
 21
296.9180950398105
 31
0.0
  0
LINE
  5
29E2
330
8C56
100
AcDbEntity
  8
0
100
AcDbLine
 10
182.8334292937427
 20
291.3929320071645
 30
0.0
 11
182.8334292937427
 21
294.2429337156432
 31
0.0
  0
LINE
  5
29E7
330
8C56
100
AcDbEntity
  8
0
100
AcDbLine
 10
273.833368258586
 20
294.2429448898988
 30
0.0
 11
266.4834231902271
 21
296.9181062140664
 31
0.0
  0
LINE
  5
29E9
330
8C56
100
AcDbEntity
  8
0
100
AcDbLine
 10
273.833368258586
 20
291.3929320071645
 30
0.0
 11
273.833368258586
 21
294.2429448898988
 31
0.0
  0
ARC
  5
29EB
330
8C56
100
AcDbEntity
  8
0
100
AcDbCircle
 10
170.0948733855395
 20
452.0169859622428
 30
0.0
 40
10.00000047683716
100
AcDbArc
 50
122.715345043843
 51
177.2846359836705
  0
ARC
  5
29EC
330
8C56
100
AcDbEntity
  8
0
100
AcDbCircle
 10
228.3333987761645
 20
418.3929167483756
 30
0.0
 40
78.50000381469726
100
AcDbArc
 50
196.9313645849671
 51
223.0686407271475
  0
ARC
  5
29ED
330
8C56
100
AcDbEntity
  8
0
100
AcDbCircle
 10
228.3333987761645
 20
418.3929167483756
 30
0.0
 40
96.0
100
AcDbArc
 50
212.4617530970856
 51
237.5382598800404
  0
LINE
  5
29EE
330
8C56
100
AcDbEntity
  8
0
100
AcDbLine
 10
207.3642222316371
 20
417.2559013536766
 30
0.0
 11
156.1002255621524
 21
387.6586185455943
 31
0.0
  0
LINE
  5
29F0
330
8C56
100
AcDbEntity
  8
0
100
AcDbLine
 10
153.1160039251898
 20
397.9662395625537
 30
0.0
 11
155.5037518926958
 21
409.9324640116
 31
0.0
  0
ARC
  5
29F2
330
8C56
100
AcDbEntity
  8
0
100
AcDbCircle
 10
158.01934237968
 20
396.9877958987663
 30
0.0
 40
5.000000238418579
100
AcDbArc
 50
168.7153713679317
 51
196.9313609424984
  0
LINE
  5
29F3
330
8C56
100
AcDbEntity
  8
0
100
AcDbLine
 10
159.7139621918464
 20
444.2211264170136
 30
0.0
 11
160.1061686274142
 21
452.4907158321911
 31
0.0
  0
LINE
  5
29F4
330
8C56
100
AcDbEntity
  8
0
100
AcDbLine
 10
147.3333987761643
 20
366.8662131431279
 30
0.0
 11
147.3333987761643
 21
469.919619629235
 31
0.0
  0
ARC
  5
29F5
330
8C56
100
AcDbEntity
  8
0
100
AcDbCircle
 10
161.5866031218677
 20
426.5884428714223
 30
0.0
 40
10.00000047683716
100
AcDbArc
 50
145.7153650360834
 51
200.2846286551328
  0
ARC
  5
29F6
330
8C56
100
AcDbEntity
  8
0
100
AcDbCircle
 10
145.6971683074145
 20
411.8892851565788
 30
0.0
 40
10.00000047683716
100
AcDbArc
 50
348.7153774580481
 51
20.28462364618025
  0
LINE
  5
29F7
330
8C56
100
AcDbEntity
  8
0
100
AcDbLine
 10
152.2066868816889
 20
423.121576520818
 30
0.0
 11
155.0768589914437
 21
415.3560884485369
 31
0.0
  0
LINE
  5
29F8
330
8C56
100
AcDbEntity
  8
0
100
AcDbLine
 10
157.9876728880226
 20
439.0617861509239
 30
0.0
 11
153.3241652375108
 21
432.2214006775111
 31
0.0
  0
ARC
  5
29F9
330
8C56
100
AcDbEntity
  8
0
100
AcDbCircle
 10
149.725122408977
 20
444.6949187015007
 30
0.0
 40
10.00000047683716
100
AcDbArc
 50
325.7153600271262
 51
357.2846356704498
  0
CIRCLE
  5
29FB
330
8C56
100
AcDbEntity
  8
0
100
AcDbCircle
 10
228.3333987761645
 20
418.3929167483756
 30
0.0
 40
21.0
  0
CIRCLE
  5
29FC
330
8C56
100
AcDbEntity
  8
0
100
AcDbCircle
 10
228.3333987761645
 20
418.3929167483756
 30
0.0
 40
21.0
  0
CIRCLE
  5
29FD
330
8C56
100
AcDbEntity
  8
0
100
AcDbCircle
 10
228.3333987761645
 20
418.3929167483756
 30
0.0
 40
21.0
  0
ARC
  5
2A00
330
8C56
100
AcDbEntity
  8
0
100
AcDbCircle
 10
228.3333987761645
 20
351.1448240970084
 30
0.0
 40
10.00000047683716
100
AcDbArc
 50
242.7153520256036
 51
297.28463613525
  0
LINE
  5
2A01
330
8C56
100
AcDbEntity
  8
0
100
AcDbLine
 10
176.8066958953051
 20
337.3929167483757
 30
0.0
 11
279.8601016570235
 21
337.3929167483757
 31
0.0
  0
ARC
  5
2A02
330
8C56
100
AcDbEntity
  8
0
100
AcDbCircle
 10
181.3830508757737
 20
350.0795622561881
 30
0.0
 40
10.00000047683716
100
AcDbArc
 50
39.71531655176357
 51
71.28468312199649
  0
LINE
  5
2A03
330
8C56
100
AcDbEntity
  8
0
100
AcDbLine
 10
194.3652728682424
 20
350.1009532963669
 30
0.0
 11
189.0752557259645
 21
356.4693448966663
 31
0.0
  0
LINE
  5
2A04
330
8C56
100
AcDbEntity
  8
0
100
AcDbLine
 10
211.0602962296054
 20
347.1371686939303
 30
0.0
 11
202.8045951993788
 21
346.5186401733499
 31
0.0
  0
ARC
  5
2A05
330
8C56
100
AcDbEntity
  8
0
100
AcDbCircle
 10
202.0575809050708
 20
356.4907255862663
 30
0.0
 40
10.00000047683716
100
AcDbArc
 50
219.7153183730011
 51
274.2846707845159
  0
ARC
  5
2A06
330
8C56
100
AcDbEntity
  8
0
100
AcDbCircle
 10
211.807397799602
 20
337.1651335452507
 30
0.0
 40
10.00000047683716
100
AcDbArc
 50
62.71535020438508
 51
94.28467579347422
  0
LINE
  5
2A07
330
8C56
100
AcDbEntity
  8
0
100
AcDbLine
 10
223.7493194644207
 20
342.2574075822331
 30
0.0
 11
216.3915834315295
 21
346.0525225345836
 31
0.0
  0
LINE
  5
2A08
330
8C56
100
AcDbEntity
  8
0
100
AcDbLine
 10
216.86431077243
 20
400.8015402781516
 30
0.0
 11
165.6001951724551
 21
371.2041888055172
 31
0.0
  0
LINE
  5
2A09
330
8C56
100
AcDbEntity
  8
0
100
AcDbLine
 10
173.0347406371797
 20
363.4660176989032
 30
0.0
 11
184.5916080894148
 21
359.5507901307371
 31
0.0
  0
ARC
  5
2A0A
330
8C56
100
AcDbEntity
  8
0
100
AcDbCircle
 10
163.98565097343
 20
364.3987761233757
 30
0.0
 40
6.500000238418579
100
AcDbArc
 50
8.997187920050221
 51
71.00278072438271
  0
ARC
  5
2A0B
330
8C56
100
AcDbEntity
  8
0
100
AcDbCircle
 10
174.6390933562427
 20
368.2016936038444
 30
0.0
 40
5.000000238418579
100
AcDbArc
 50
223.0686407271475
 51
251.2846849432312
  0
ARC
  5
2A0C
330
8C56
100
AcDbEntity
  8
0
100
AcDbCircle
 10
275.2840213347582
 20
350.0795622561881
 30
0.0
 40
10.00000047683716
100
AcDbArc
 50
108.7153765284737
 51
140.2846269854819
  0
ARC
  5
2A0D
330
8C56
100
AcDbEntity
  8
0
100
AcDbCircle
 10
254.609399752727
 20
356.4907255862663
 30
0.0
 40
10.00000047683716
100
AcDbArc
 50
265.7153583574791
 51
320.2846219765254
  0
ARC
  5
2A0E
330
8C56
100
AcDbEntity
  8
0
100
AcDbCircle
 10
244.8593997527268
 20
337.1651335452507
 30
0.0
 40
10.00000047683716
100
AcDbArc
 50
85.71536336642255
 51
117.2846343140077
  0
LINE
  5
2A0F
330
8C56
100
AcDbEntity
  8
0
100
AcDbLine
 10
240.2753261968407
 20
346.0524928529903
 30
0.0
 11
232.9175484691063
 21
342.2573588773619
 31
0.0
  0
LINE
  5
2A10
330
8C56
100
AcDbEntity
  8
0
100
AcDbLine
 10
245.60659142814
 20
347.1371782039259
 30
0.0
 11
253.8622928287614
 21
346.5186546271382
 31
0.0
  0
LINE
  5
2A11
330
8C56
100
AcDbEntity
  8
0
100
AcDbLine
 10
262.3016926314576
 20
350.100941110174
 30
0.0
 11
267.5916872796431
 21
356.4692918861505
 31
0.0
  0
LINE
  5
2A12
330
8C56
100
AcDbEntity
  8
0
100
AcDbLine
 10
283.6322242846022
 20
363.4660308640736
 30
0.0
 11
272.0753176831934
 21
359.5507761904745
 31
0.0
  0
ARC
  5
2A13
330
8C56
100
AcDbEntity
  8
0
100
AcDbCircle
 10
282.0278873015549
 20
368.2016936038444
 30
0.0
 40
5.000000238418579
100
AcDbArc
 50
288.7153783497168
 51
316.9313645091637
  0
CIRCLE
  5
2A17
330
8C56
100
AcDbEntity
  8
0
100
AcDbCircle
 10
228.3333987761645
 20
418.3929167483756
 30
0.0
 40
6.75
  0
CIRCLE
  5
2A19
330
8C56
100
AcDbEntity
  8
0
100
AcDbCircle
 10
228.3333987761645
 20
418.3929167483756
 30
0.0
 40
6.75
  0
LINE
  5
2A28
330
8C56
100
AcDbEntity
  8
0
100
AcDbLine
 10
186.1750401447996
 20
481.9561838466905
 30
0.0
 11
194.3351473745422
 21
483.3532618797167
 31
0.0
  0
LINE
  5
2A29
330
8C56
100
AcDbEntity
  8
0
100
AcDbLine
 10
175.2607091501048
 20
468.9797352557318
 30
0.0
 11
178.8529081417113
 21
476.4386669762707
 31
0.0
  0
LINE
  5
2A2A
330
8C56
100
AcDbEntity
  8
0
100
AcDbLine
 10
164.690302157725
 20
460.4306498287159
 30
0.0
 11
171.6558747828669
 21
464.9051032017641
 31
0.0
  0
ARC
  5
2A2B
330
8C56
100
AcDbEntity
  8
0
100
AcDbCircle
 10
166.2511233855395
 20
473.3187437747428
 30
0.0
 40
10.00000047683716
100
AcDbArc
 50
302.7153502801715
 51
334.2846741617256
  0
ARC
  5
2A2C
330
8C56
100
AcDbEntity
  8
0
100
AcDbCircle
 10
187.8625125456958
 20
472.0996733401725
 30
0.0
 40
10.00000047683716
100
AcDbArc
 50
99.7153182214126
 51
154.2846706329417
  0
ARC
  5
2A2D
330
8C56
100
AcDbEntity
  8
0
100
AcDbCircle
 10
192.6476077605395
 20
493.2099028323599
 30
0.0
 40
10.00000047683716
100
AcDbArc
 50
279.7153200426516
 51
311.2846831977914
  0
LINE
  5
2A2E
330
8C56
100
AcDbEntity
  8
0
100
AcDbLine
 10
208.4147574257094
 20
493.7464240089119
 30
0.0
 11
199.2456201699208
 21
485.6954816559996
 31
0.0
  0
LINE
  5
2A3B
330
8C56
100
AcDbEntity
  8
0
100
AcDbLine
 10
248.2521560973655
 20
493.7464443776643
 30
0.0
 11
257.421353437728
 21
485.6954663858751
 31
0.0
  0
LINE
  5
2A3C
330
8C56
100
AcDbEntity
  8
0
100
AcDbLine
 10
281.4061832553635
 20
468.9797449725001
 30
0.0
 11
277.8140295431179
 21
476.4385714784936
 31
0.0
  0
ARC
  5
2A3D
330
8C56
100
AcDbEntity
  8
0
100
AcDbCircle
 10
290.4158572722582
 20
473.3187895511098
 30
0.0
 40
10.00000047683716
100
AcDbArc
 50
205.7153566878163
 51
237.2846412957767
  0
ARC
  5
2A3E
330
8C56
100
AcDbEntity
  8
0
100
AcDbCircle
 10
268.8043765593675
 20
472.0996733401725
 30
0.0
 40
10.00000047683716
100
AcDbArc
 50
25.71535998923505
 51
80.28462531584445
  0
ARC
  5
2A3F
330
8C56
100
AcDbEntity
  8
0
100
AcDbCircle
 10
264.0193728972582
 20
493.2099028323599
 30
0.0
 40
10.00000047683716
100
AcDbArc
 50
228.7153766800586
 51
260.2846203068779
  0
LINE
  5
2A40
330
8C56
100
AcDbEntity
  8
0
100
AcDbLine
 10
270.4918784986011
 20
481.9562550892296
 30
0.0
 11
262.3317727063477
 21
483.3533415183708
 31
0.0
  0
LINE
  5
2A41
330
8C56
100
AcDbEntity
  8
0
100
AcDbLine
 10
176.8066958953051
 20
499.3929167483757
 30
0.0
 11
279.8601016570235
 21
499.3929167483757
 31
0.0
  0
LINE
  5
2A42
330
8C56
100
AcDbEntity
  8
0
100
AcDbLine
 10
182.8334292937427
 20
545.3929014895865
 30
0.0
 11
273.833368258586
 21
545.3929014895865
 31
0.0
  0
LINE
  5
2A43
330
8C56
100
AcDbEntity
  8
0
100
AcDbLine
 10
190.1833743621018
 20
539.8677397464223
 30
0.0
 11
266.4834231902271
 21
539.8677397464223
 31
0.0
  0
LINE
  5
2A45
330
8C56
100
AcDbEntity
  8
0
100
AcDbLine
 10
182.8334292937427
 20
542.542927292793
 30
0.0
 11
190.1833743621018
 21
539.8677659686253
 31
0.0
  0
LINE
  5
2A47
330
8C56
100
AcDbEntity
  8
0
100
AcDbLine
 10
190.1833743621018
 20
539.8677659686253
 30
0.0
 11
190.1833743621018
 21
510.829821655602
 31
0.0
  0
LINE
  5
2A49
330
8C56
100
AcDbEntity
  8
0
100
AcDbLine
 10
182.8334292937427
 20
545.3929014895865
 30
0.0
 11
182.8334292937427
 21
542.542927292793
 31
0.0
  0
LINE
  5
2A4C
330
8C56
100
AcDbEntity
  8
0
100
AcDbLine
 10
273.833368258586
 20
542.5429282970854
 30
0.0
 11
266.4834231902271
 21
539.8677669729171
 31
0.0
  0
LINE
  5
2A4E
330
8C56
100
AcDbEntity
  8
0
100
AcDbLine
 10
266.4834231902271
 20
539.8677669729171
 30
0.0
 11
266.4834231902271
 21
510.829821655602
 31
0.0
  0
LINE
  5
2A52
330
8C56
100
AcDbEntity
  8
0
100
AcDbLine
 10
273.833368258586
 20
545.3929014895865
 30
0.0
 11
273.833368258586
 21
542.5429282970854
 31
0.0
  0
LINE
  5
2A70
330
8C56
100
AcDbEntity
  8
0
100
AcDbLine
 10
288.0377331645247
 20
12.54302973693756
 30
0.0
 11
273.8115460403006
 21
-20.19907373569913
 31
0.0
  0
LINE
  5
2A76
330
8C56
100
AcDbEntity
  8
0
100
AcDbLine
 10
309.333387332073
 20
43.54292318194346
 30
0.0
 11
309.333387705501
 21
12.54302999346689
 31
0.0
  0
LINE
  5
2A99
330
8C56
100
AcDbEntity
  8
0
100
AcDbLine
 10
309.333387332073
 20
43.54292318194346
 30
0.0
 11
147.3334102202558
 21
43.54292123047842
 31
0.0
  0
LINE
  5
2A9A
330
8C56
100
AcDbEntity
  8
0
100
AcDbLine
 10
147.3334103889005
 20
29.54299752442329
 30
0.0
 11
309.3333875007172
 21
29.54299947588923
 31
0.0
  0
LINE
  5
2A9B
330
8C56
100
AcDbEntity
  8
0
100
AcDbLine
 10
147.3334105936844
 20
12.54302804200142
 30
0.0
 11
198.2665172967783
 21
12.54302865554609
 31
0.0
  0
LINE
  5
2A9D
330
8C56
100
AcDbEntity
  8
0
100
AcDbLine
 10
168.6290438027143
 20
12.5430282985303
 30
0.0
 11
182.8552121512243
 21
-20.19903075914044
 31
0.0
  0
LINE
  5
2AB2
330
8C56
100
AcDbEntity
  8
0
100
AcDbLine
 10
147.3334102202558
 20
43.54292123047842
 30
0.0
 11
147.3334105936844
 21
12.54302804200142
 31
0.0
  0
LINE
  5
2AFF
330
8C56
100
AcDbEntity
  8
0
100
AcDbLine
 10
452.9785861540979
 20
43.54295047728146
 30
0.0
 11
614.9786319304652
 21
43.54295047728101
 31
0.0
  0
LINE
  5
2B05
330
8C56
100
AcDbEntity
  8
0
100
AcDbLine
 10
601.6116285904522
 20
165.5068481823591
 30
0.0
 11
554.9786017835795
 21
153.0115662041098
 31
0.0
  0
LINE
  5
2B06
330
8C56
100
AcDbEntity
  8
0
100
AcDbLine
 10
582.293053260309
 20
165.5068481823591
 30
0.0
 11
556.1687666639476
 21
158.5068666273546
 31
0.0
  0
LINE
  5
2B08
330
8C56
100
AcDbEntity
  8
0
100
AcDbLine
 10
433.9786014128866
 20
176.5068634411482
 30
0.0
 11
633.9786166716767
 21
176.5068634411482
 31
0.0
  0
LINE
  5
2B0C
330
8C56
100
AcDbEntity
  8
0
100
AcDbLine
 10
554.9786627110179
 20
81.64298709837472
 30
0.0
 11
601.3785647917935
 21
75.94579556920416
 31
0.0
  0
LINE
  5
2B0E
330
8C56
100
AcDbEntity
  8
0
100
AcDbLine
 10
512.9785768044972
 20
81.64298506453222
 30
0.0
 11
466.5786532927698
 21
75.94579090397201
 31
0.0
  0
LINE
  5
2B1A
330
8C56
100
AcDbEntity
  8
0
100
AcDbLine
 10
303.5508943284934
 20
397.9662505126892
 30
0.0
 11
301.1631382159882
 21
409.9324499970711
 31
0.0
  0
LINE
  5
2B1B
330
8C56
100
AcDbEntity
  8
0
100
AcDbLine
 10
309.3333987761645
 20
469.9196129509487
 30
0.0
 11
309.3333987761645
 21
366.8662138675163
 31
0.0
  0
ARC
  5
2B1C
330
8C56
100
AcDbEntity
  8
0
100
AcDbCircle
 10
298.6475467253831
 20
396.9878416751335
 30
0.0
 40
5.000000238418579
100
AcDbArc
 50
343.0686423589003
 51
11.28468230610772
  0
LINE
  5
2B20
330
8C56
100
AcDbEntity
  8
0
100
AcDbLine
 10
296.5608027108221
 20
452.4907533657112
 30
0.0
 11
296.9530091609597
 21
444.2211181234033
 31
0.0
  0
ARC
  5
2B21
330
8C56
100
AcDbEntity
  8
0
100
AcDbCircle
 10
295.0802859831958
 20
426.5883970950551
 30
0.0
 40
10.00000047683716
100
AcDbArc
 50
339.715316589668
 51
34.28467412381453
  0
LINE
  5
2B22
330
8C56
100
AcDbEntity
  8
0
100
AcDbLine
 10
304.4601461408062
 20
423.121551208952
 30
0.0
 11
301.5899976446748
 21
415.3561520150015
 31
0.0
  0
ARC
  5
2B23
330
8C56
100
AcDbEntity
  8
0
100
AcDbCircle
 10
310.9698123503831
 20
411.8892851565788
 30
0.0
 40
10.00000047683716
100
AcDbArc
 50
159.7153130608818
 51
191.2846932914916
  0
LINE
  5
2B24
330
8C56
100
AcDbEntity
  8
0
100
AcDbLine
 10
298.679327370557
 20
439.0618350033851
 30
0.0
 11
303.342839430982
 21
432.2214525364816
 31
0.0
  0
ARC
  5
2B25
330
8C56
100
AcDbEntity
  8
0
100
AcDbCircle
 10
306.941766696086
 20
444.6948729251332
 30
0.0
 40
10.00000047683716
100
AcDbArc
 50
182.7153503559594
 51
214.2846759450628
  0
ARC
  5
2B26
330
8C56
100
AcDbEntity
  8
0
100
AcDbCircle
 10
286.5721072722582
 20
452.0170317386098
 30
0.0
 40
10.00000047683716
100
AcDbArc
 50
2.715349388489463
 51
57.28463605944836
  0
LINE
  5
2B29
330
8C56
100
AcDbEntity
  8
0
100
AcDbLine
 10
512.9785861540977
 20
85.50687869993726
 30
0.0
 11
554.978586154098
 21
85.50687869993726
 31
0.0
  0
LINE
  5
2B2A
330
8C56
100
AcDbEntity
  8
0
100
AcDbLine
 10
512.9785861540979
 20
81.64298709837472
 30
0.0
 11
554.9786627110179
 21
81.64298709837472
 31
0.0
  0
LINE
  5
2B2D
330
8C56
100
AcDbEntity
  8
0
100
AcDbLine
 10
433.9786014128872
 20
165.5068481823595
 30
0.0
 11
633.9786166716756
 21
165.5068481823591
 31
0.0
  0
LINE
  5
2B2F
330
8C56
100
AcDbEntity
  8
0
100
AcDbLine
 10
512.9785861540977
 20
158.5068634411481
 30
0.0
 11
512.9785861540977
 21
85.50687869993726
 31
0.0
  0
LINE
  5
2B30
330
8C56
100
AcDbEntity
  8
0
100
AcDbLine
 10
466.3455955295177
 20
165.5068476436245
 30
0.0
 11
512.9785845352967
 21
153.0115757941474
 31
0.0
  0
LINE
  5
2B34
330
8C56
100
AcDbEntity
  8
0
100
AcDbLine
 10
433.9786014128866
 20
176.5068634411482
 30
0.0
 11
433.9786014128872
 21
165.5068481823595
 31
0.0
  0
LINE
  5
2B3C
330
8C56
100
AcDbEntity
  8
0
100
AcDbLine
 10
485.6641173513401
 20
165.5068619811363
 30
0.0
 11
511.7884196549282
 21
158.5068762173928
 31
0.0
  0
LINE
  5
2B40
330
8C56
100
AcDbEntity
  8
0
100
AcDbLine
 10
518.978586154098
 20
85.50687869993726
 30
0.0
 11
518.978586154098
 21
81.64298709837472
 31
0.0
  0
LINE
  5
2B46
330
8C56
100
AcDbEntity
  8
0
100
AcDbLine
 10
554.9785861540986
 20
158.5068634411481
 30
0.0
 11
554.978586154098
 21
85.50687869993726
 31
0.0
  0
LINE
  5
2B4F
330
8C56
100
AcDbEntity
  8
0
100
AcDbLine
 10
554.9785861540986
 20
158.5068634411481
 30
0.0
 11
512.9785861540977
 21
158.5068634411481
 31
0.0
  0
LINE
  5
2BEA
330
8C56
100
AcDbEntity
  8
0
100
AcDbLine
 10
412.5037416034919
 20
16.54290470091427
 30
0.0
 11
452.9785861540979
 21
16.54290470091427
 31
0.0
  0
LINE
  5
2BED
330
8C56
100
AcDbEntity
  8
0
100
AcDbLine
 10
409.8285636180885
 20
23.89289554564037
 30
0.0
 11
412.5037416034919
 21
16.54290470091427
 31
0.0
  0
LINE
  5
2BF0
330
8C56
100
AcDbEntity
  8
0
100
AcDbLine
 10
406.9786014128871
 20
23.89289554564037
 30
0.0
 11
409.8285636180885
 21
23.89289554564037
 31
0.0
  0
LINE
  5
2BFB
330
8C56
100
AcDbEntity
  8
0
100
AcDbLine
 10
452.9785861540979
 20
29.54293521849194
 30
0.0
 11
614.9786319304652
 21
29.54293521849194
 31
0.0
  0
ARC
  5
2BFD
330
8C56
100
AcDbEntity
  8
0
100
AcDbCircle
 10
532.2717227507776
 20
-41.55705562623415
 30
0.0
 40
20.00000095367429
100
AcDbArc
 50
90.00000865141487
 51
149.9999966606939
  0
LINE
  5
2C04
330
8C56
100
AcDbEntity
  8
0
100
AcDbLine
 10
466.5786532927698
 20
75.94579090397201
 30
0.0
 11
466.5786532927698
 21
43.54295047728146
 31
0.0
  0
LINE
  5
2C08
330
8C56
100
AcDbEntity
  8
0
100
AcDbLine
 10
452.9785861540979
 20
42.54296573607052
 30
0.0
 11
452.9785861540979
 21
30.54296573607051
 31
0.0
  0
LINE
  5
2C5B
330
8C56
100
AcDbEntity
  8
0
100
AcDbLine
 10
601.3785647917935
 20
75.94579556920416
 30
0.0
 11
601.3785647917935
 21
43.54295047728101
 31
0.0
  0
ARC
  5
2CBD
330
8C56
100
AcDbEntity
  8
0
100
AcDbCircle
 10
535.6854495574185
 20
-41.55705562623415
 30
0.0
 40
20.00000095367429
100
AcDbArc
 50
30.000003339306
 51
90.00000500896343
  0
LINE
  5
2CBE
330
8C56
100
AcDbEntity
  8
0
100
AcDbLine
 10
532.2717227507776
 20
-21.55708614381273
 30
0.0
 11
535.6854495574185
 21
-21.55708614381273
 31
0.0
  0
LINE
  5
2CC7
330
8C56
100
AcDbEntity
  8
0
100
AcDbLine
 10
633.9786166716767
 20
176.5068634411482
 30
0.0
 11
633.9786166716756
 21
165.5068481823591
 31
0.0
  0
LINE
  5
2CD0
330
8C56
100
AcDbEntity
  8
0
100
AcDbLine
 10
658.1285631305039
 20
23.89289554564037
 30
0.0
 11
655.453385145101
 21
16.54290470091382
 31
0.0
  0
LINE
  5
2CD2
330
8C56
100
AcDbEntity
  8
0
100
AcDbLine
 10
655.453385145101
 20
16.54290470091382
 30
0.0
 11
614.9786319304652
 21
16.54290470091382
 31
0.0
  0
LINE
  5
2CD4
330
8C56
100
AcDbEntity
  8
0
100
AcDbLine
 10
614.9786319304652
 20
43.54295047728101
 30
0.0
 11
614.9786319304652
 21
-62.75705257447635
 31
0.0
  0
LINE
  5
2CDC
330
8C56
100
AcDbEntity
  8
0
100
AcDbLine
 10
660.9785708953088
 20
23.89289554564037
 30
0.0
 11
658.1285631305039
 21
23.89289554564037
 31
0.0
  0
LINE
  5
2CE5
330
8C56
100
AcDbEntity
  8
0
100
AcDbLine
 10
614.9786319304652
 20
-62.75705257447635
 30
0.0
 11
578.5390414763638
 21
-62.75705257447635
 31
0.0
  0
LINE
  5
2CE8
330
8C56
100
AcDbEntity
  8
0
100
AcDbLine
 10
412.5037785874217
 20
-59.75709835084399
 30
0.0
 11
448.4785861540979
 21
-59.75709835084353
 31
0.0
  0
LINE
  5
2CEA
330
8C56
100
AcDbEntity
  8
0
100
AcDbLine
 10
406.9786014128871
 20
23.89289554564037
 30
0.0
 11
406.9786014128871
 21
-67.10708919557055
 31
0.0
  0
LINE
  5
2CED
330
8C56
100
AcDbEntity
  8
0
100
AcDbLine
 10
409.8286006020187
 20
-67.1070891955701
 30
0.0
 11
412.5037785874217
 21
-59.75709835084399
 31
0.0
  0
LINE
  5
2CF5
330
8C56
100
AcDbEntity
  8
0
100
AcDbLine
 10
406.9786014128871
 20
-67.10708919557055
 30
0.0
 11
409.8286006020187
 21
-67.1070891955701
 31
0.0
  0
LINE
  5
2CF7
330
8C56
100
AcDbEntity
  8
0
100
AcDbLine
 10
553.0059480266993
 20
-31.55704065497593
 30
0.0
 11
567.2664996713002
 21
-56.25704020406239
 31
0.0
  0
LINE
  5
2CF9
330
8C56
100
AcDbEntity
  8
0
100
AcDbLine
 10
514.9512107996429
 20
-31.55705520310266
 30
0.0
 11
500.6906591550423
 21
-56.25705475218956
 31
0.0
  0
LINE
  5
2CFB
330
8C56
100
AcDbEntity
  8
0
100
AcDbLine
 10
452.9785861540979
 20
43.54295047728146
 30
0.0
 11
452.9785861540979
 21
-62.75705257447635
 31
0.0
  0
LINE
  5
2CFC
330
8C56
100
AcDbEntity
  8
0
100
AcDbLine
 10
452.9785861540979
 20
-62.75705257447635
 30
0.0
 11
489.4465579558559
 21
-62.75705257447635
 31
0.0
  0
LINE
  5
2CFD
330
8C56
100
AcDbEntity
  8
0
100
AcDbLine
 10
448.4785861540979
 20
-59.75705257447635
 30
0.0
 11
452.9785861540979
 21
-59.75705257447635
 31
0.0
  0
ARC
  5
2CFF
330
8C56
100
AcDbEntity
  8
0
100
AcDbCircle
 10
489.4323215056604
 20
-49.75706783326541
 30
0.0
 40
13.00000047683716
100
AcDbArc
 50
269.9999974955312
 51
330.0000016696627
  0
ARC
  5
2D01
330
8C56
100
AcDbEntity
  8
0
100
AcDbCircle
 10
578.5248508025356
 20
-49.75706783326541
 30
0.0
 40
13.00000047683716
100
AcDbArc
 50
210.0000051605295
 51
269.9999974955312
  0
LINE
  5
2D02
330
8C56
100
AcDbEntity
  8
0
100
AcDbLine
 10
660.9785708953088
 20
23.89289554564037
 30
0.0
 11
660.9785708953088
 21
-67.1070891955701
 31
0.0
  0
LINE
  5
2D03
330
8C56
100
AcDbEntity
  8
0
100
AcDbLine
 10
658.1286235749585
 20
-67.1070891955701
 30
0.0
 11
655.453445589555
 21
-59.75709835084399
 31
0.0
  0
LINE
  5
2D05
330
8C56
100
AcDbEntity
  8
0
100
AcDbLine
 10
655.453445589555
 20
-59.75709835084399
 30
0.0
 11
614.9786319304652
 21
-59.75709835084353
 31
0.0
  0
LINE
  5
2D11
330
8C56
100
AcDbEntity
  8
0
100
AcDbLine
 10
660.9785708953088
 20
-67.1070891955701
 30
0.0
 11
658.1286235749585
 21
-67.1070891955701
 31
0.0
  0
ARC
  5
2D12
330
8C56
100
AcDbEntity
  8
0
100
AcDbCircle
 10
658.688745455856
 20
-66.30710140260133
 30
0.0
 40
0.8000000417232513
100
AcDbArc
 50
200.0000071589904
 51
270.0000043257204
  0
LINE
  5
2D22
330
8C56
100
AcDbEntity
  8
0
100
AcDbLine
 10
548.9786013532826
 20
85.50687869993726
 30
0.0
 11
548.9786013532826
 21
81.64298709837472
 31
0.0
  0
LINE
  5
2D64
330
8C56
100
AcDbEntity
  8
0
100
AcDbLine
 10
207.3333758879804
 20
158.5068351700778
 30
0.0
 11
207.3333758879804
 21
85.50685042886742
 31
0.0
  0
LINE
  5
2D65
330
8C56
100
AcDbEntity
  8
0
100
AcDbLine
 10
249.3333758879813
 20
158.5068351700781
 30
0.0
 11
249.3333758879809
 21
85.50685042886742
 31
0.0
  0
LINE
  5
2D66
330
8C56
100
AcDbEntity
  8
0
100
AcDbLine
 10
295.9664183243351
 20
165.5068199112893
 30
0.0
 11
249.3333915174621
 21
153.0115379330395
 31
0.0
  0
LINE
  5
2D67
330
8C56
100
AcDbEntity
  8
0
100
AcDbLine
 10
276.6478429941918
 20
165.5068199112893
 30
0.0
 11
250.5235563978305
 21
158.5068383562845
 31
0.0
  0
LINE
  5
2D68
330
8C56
100
AcDbEntity
  8
0
100
AcDbLine
 10
128.3333911467692
 20
176.5068351700778
 30
0.0
 11
328.3334064055591
 21
176.5068351700783
 31
0.0
  0
LINE
  5
2D69
330
8C56
100
AcDbEntity
  8
0
100
AcDbLine
 10
128.3333911467698
 20
165.5068199112893
 30
0.0
 11
328.3334064055583
 21
165.5068199112893
 31
0.0
  0
LINE
  5
2D6A
330
8C56
100
AcDbEntity
  8
0
100
AcDbLine
 10
128.3333911467692
 20
176.5068351700778
 30
0.0
 11
128.3333911467698
 21
165.5068199112893
 31
0.0
  0
LINE
  5
2D6B
330
8C56
100
AcDbEntity
  8
0
100
AcDbLine
 10
160.7003852634009
 20
165.5068193725542
 30
0.0
 11
207.3333742691795
 21
153.0115475230776
 31
0.0
  0
LINE
  5
2D6C
330
8C56
100
AcDbEntity
  8
0
100
AcDbLine
 10
180.0189070852231
 20
165.5068337100655
 30
0.0
 11
206.1432093888113
 21
158.5068479463224
 31
0.0
  0
LINE
  5
2D6D
330
8C56
100
AcDbEntity
  8
0
100
AcDbLine
 10
249.3333758879813
 20
158.5068351700781
 30
0.0
 11
207.3333758879804
 21
158.5068351700778
 31
0.0
  0
LINE
  5
2D6E
330
8C56
100
AcDbEntity
  8
0
100
AcDbLine
 10
328.3334064055591
 20
176.5068351700783
 30
0.0
 11
328.3334064055583
 21
165.5068199112893
 31
0.0
  0
LINE
  5
2D6F
330
8C56
100
AcDbEntity
  8
0
100
AcDbLine
 10
249.3334524449007
 20
81.64295882730494
 30
0.0
 11
295.7333545256762
 21
75.94576729813434
 31
0.0
  0
LINE
  5
2D70
330
8C56
100
AcDbEntity
  8
0
100
AcDbLine
 10
207.3333665383798
 20
81.64295679346194
 30
0.0
 11
160.9334430266528
 21
75.94576263290218
 31
0.0
  0
LINE
  5
2D71
330
8C56
100
AcDbEntity
  8
0
100
AcDbLine
 10
213.3333758879808
 20
85.50685042886742
 30
0.0
 11
213.3333758879808
 21
81.64295882730494
 31
0.0
  0
LINE
  5
2D72
330
8C56
100
AcDbEntity
  8
0
100
AcDbLine
 10
243.3333910871654
 20
85.50685042886742
 30
0.0
 11
243.3333910871654
 21
81.64295882730494
 31
0.0
  0
LINE
  5
2D73
330
8C56
100
AcDbEntity
  8
0
100
AcDbLine
 10
207.3333758879807
 20
81.64295882730494
 30
0.0
 11
249.3334524449007
 21
81.64295882730494
 31
0.0
  0
LINE
  5
2D74
330
8C56
100
AcDbEntity
  8
0
100
AcDbLine
 10
207.3333758879804
 20
85.50685042886742
 30
0.0
 11
249.3333758879809
 21
85.50685042886742
 31
0.0
  0
LINE
  5
2D75
330
8C56
100
AcDbEntity
  8
0
100
AcDbLine
 10
295.7333545256762
 20
75.94576729813434
 30
0.0
 11
295.7333545256762
 21
43.54292220621117
 31
0.0
  0
LINE
  5
2D76
330
8C56
100
AcDbEntity
  8
0
100
AcDbLine
 10
160.9334430266528
 20
75.94576263290218
 30
0.0
 11
160.9334430266528
 21
43.54292220621117
 31
0.0
  0
CIRCLE
  5
2D7A
330
8C56
100
AcDbEntity
  8
0
100
AcDbCircle
 10
228.3333786655123
 20
-21.60709682496506
 30
0.0
 40
36.14999485015868
  0
CIRCLE
  5
2D7B
330
8C56
100
AcDbEntity
  8
0
100
AcDbCircle
 10
228.3333786655123
 20
-21.60709682496506
 30
0.0
 40
45.49996948242188
  0
LINE
  5
2D7C
330
8C56
100
AcDbEntity
  8
0
100
AcDbLine
 10
258.4002392114957
 20
12.54302937992179
 30
0.0
 11
309.333387705501
 21
12.54302999346689
 31
0.0
  0
LINE
  5
2D7E
330
8C56
100
AcDbEntity
  8
0
100
AcDbLine
 10
655.453385145101
 20
16.54290470091382
 30
0.0
 11
655.453385145101
 21
-59.75693228107592
 31
0.0
  0
LINE
  5
2D7F
330
8C56
100
AcDbEntity
  8
0
100
AcDbLine
 10
412.5037416034919
 20
16.54290470091427
 30
0.0
 11
412.5037785874217
 21
-59.75709835084399
 31
0.0
  0
LINE
  5
33E7
330
8C56
100
AcDbEntity
  8
0
100
AcDbLine
 10
279.8600866101302
 20
43.54292318194346
 30
0.0
 11
279.8600866101302
 21
12.54302999346689
 31
0.0
  0
LINE
  5
33E8
330
8C56
100
AcDbEntity
  8
0
100
AcDbLine
 10
176.8067155225524
 20
43.54295861524497
 30
0.0
 11
176.8066942048884
 21
12.54306542677568
 31
0.0
  0
LINE
  5
33E9
330
8C56
100
AcDbEntity
  8
0
100
AcDbLine
 10
482.4519257886696
 20
43.54298688631479
 30
0.0
 11
482.4519044710057
 21
12.54309369784549
 31
0.0
  0
LINE
  5
33EA
330
8C56
100
AcDbEntity
  8
0
100
AcDbLine
 10
585.5052968762472
 20
43.54295145301328
 30
0.0
 11
585.5052968762472
 21
12.54305826453673
 31
0.0
  0
LINE
  5
33EB
330
8C56
100
AcDbEntity
  8
0
100
AcDbLine
 10
452.9785862022806
 20
12.54305631307102
 30
0.0
 11
614.9785979716183
 21
12.54305826453719
 31
0.0
  0
LINE
  5
8D1F
330
8C56
100
AcDbEntity
  8
0
  6
CENTER
100
AcDbLine
 10
335.1074109513015
 20
418.3929167483757
 30
0.0
 11
121.5593866010274
 21
418.3929167483754
 31
0.0
  0
LINE
  5
8D20
330
8C56
100
AcDbEntity
  8
0
  6
CENTER
100
AcDbLine
 10
228.3333987761644
 20
264.0556742315113
 30
0.0
 11
228.3333987761645
 21
577.4081392433559
 31
0.0
  0
LINE
  5
8D21
330
8C56
100
AcDbEntity
  8
0
  6
CENTER
100
AcDbLine
 10
289.8578683176537
 20
-21.60709682496495
 30
0.0
 11
166.808889013371
 21
-21.60709682496518
 31
0.0
  0
LINE
  5
8D22
330
8C56
100
AcDbEntity
  8
0
  6
CENTER
100
AcDbLine
 10
228.3333786655123
 20
-88.24645310050232
 30
0.0
 11
228.3333786655123
 21
202.8589353238924
 31
0.0
  0
LINE
  5
8D23
330
8C56
100
AcDbEntity
  8
0
  6
CENTER
100
AcDbLine
 10
692.4992488440535
 20
-21.60709682496509
 30
0.0
 11
378.8716502707835
 21
-21.60709682496509
 31
0.0
  0
LINE
  5
8D24
330
8C56
100
AcDbEntity
  8
0
  6
CENTER
100
AcDbLine
 10
535.6854495574185
 20
-41.55705562623415
 30
0.0
 11
535.6854495574185
 21
204.5999051295448
 31
0.0
  0
LINE
  5
8F9C
330
8C56
100
AcDbEntity
  8
Visible (ISO)
100
AcDbLine
 10
1768.29789362961
 20
-20.3596136144315
 30
0.0
 11
1690.542399060246
 21
162.8208522226032
 31
0.0
  0
LINE
  5
8F9D
330
8C56
100
AcDbEntity
  8
Visible (ISO)
100
AcDbLine
 10
1758.172340241635
 20
-24.65765602781357
 30
0.0
 11
1680.416845672268
 21
158.5228098092229
 31
0.0
  0
LINE
  5
8F9E
330
8C56
100
AcDbEntity
  8
Visible (ISO)
100
AcDbLine
 10
1721.056412681059
 20
44.86685706877779
 30
0.0
 11
1716.563004703431
 21
55.45266288348102
 31
0.0
  0
LINE
  5
8F9F
330
8C56
100
AcDbEntity
  8
Visible (ISO)
100
AcDbLine
 10
1709.139113262135
 20
72.94225509907755
 30
0.0
 11
1704.64570528451
 21
83.52806091378079
 31
0.0
  0
LINE
  5
8FA0
330
8C56
100
AcDbEntity
  8
Visible (ISO)
100
AcDbLine
 10
1653.859558379031
 20
16.34348468906137
 30
0.0
 11
1637.448850982481
 21
55.00468853406346
 31
0.0
  0
LINE
  5
8FA1
330
8C56
100
AcDbEntity
  8
Visible (ISO)
100
AcDbLine
 10
1615.751286486638
 20
-24.27562551014762
 30
0.0
 11
1581.757678308072
 21
55.80829674021515
 31
0.0
  0
LINE
  5
8FA2
330
8C56
100
AcDbEntity
  8
Visible (ISO)
100
AcDbLine
 10
1609.714897837034
 20
4.123350283292893
 30
0.0
 11
1597.992963982356
 21
31.73849588686607
 31
0.0
  0
LINE
  5
8FA3
330
8C56
100
AcDbEntity
  8
Visible (ISO)
100
AcDbLine
 10
1637.448850982481
 20
55.00468853406346
 30
0.0
 11
1704.64570528451
 21
83.52806091378079
 31
0.0
  0
LINE
  5
8FA4
330
8C56
100
AcDbEntity
  8
0
  6
CENTER
100
AcDbLine
 10
1460.466333684394
 20
-42.93350089386694
 30
0.0
 11
1755.19607820576
 21
82.17185324334513
 31
0.0
  0
LINE
  5
8FA5
330
8C56
100
AcDbEntity
  8
Visible (ISO)
100
AcDbLine
 10
1653.859558379031
 20
16.34348468906137
 30
0.0
 11
1721.056412681059
 21
44.86685706877779
 31
0.0
  0
LINE
  5
8FA6
330
8C56
100
AcDbEntity
  8
Visible (ISO)
100
AcDbLine
 10
1553.68228027777
 20
43.89099732129216
 30
0.0
 11
1581.757678308072
 21
55.80829674021515
 31
0.0
  0
LINE
  5
8FA7
330
8C56
100
AcDbEntity
  8
Visible (ISO)
100
AcDbLine
 10
1587.675888456338
 20
-36.1929249290697
 30
0.0
 11
1615.751286486638
 21
-24.27562551014762
 31
0.0
  0
LINE
  5
8FA8
330
8C56
100
AcDbEntity
  8
Visible (ISO)
100
AcDbLine
 10
1609.714897837034
 20
4.123350283292893
 30
0.0
 11
1615.751286486638
 21
-24.27562551014671
 31
0.0
  0
LINE
  5
8FA9
330
8C56
100
AcDbEntity
  8
Visible (ISO)
100
AcDbLine
 10
1597.992963982356
 20
31.73849588686607
 30
0.0
 11
1581.757678308072
 21
55.80829674021515
 31
0.0
  0
LINE
  5
8FAA
330
8C56
100
AcDbEntity
  8
Visible (ISO)
100
AcDbLine
 10
1597.992963982356
 20
31.73849588686607
 30
0.0
 11
1639.793237753417
 21
49.48165941334901
 31
0.0
  0
LINE
  5
8FAB
330
8C56
100
AcDbEntity
  8
Visible (ISO)
100
AcDbLine
 10
1609.714897837034
 20
4.123350283292893
 30
0.0
 11
1651.515171608095
 21
21.86651380977491
 31
0.0
  0
LINE
  5
8FAC
330
8C56
100
AcDbEntity
  8
Visible (ISO)
100
AcDbLine
 10
1680.416845672268
 20
158.5228098092229
 30
0.0
 11
1690.542399060246
 21
162.8208522226032
 31
0.0
  0
LINE
  5
8FAD
330
8C56
100
AcDbEntity
  8
Visible (ISO)
100
AcDbLine
 10
1758.172340241635
 20
-24.65765602781357
 30
0.0
 11
1768.297893629609
 21
-20.3596136144315
 31
0.0
  0
LINE
  5
8FAE
330
8C56
100
AcDbEntity
  8
Visible (ISO)
100
AcDbLine
 10
1707.600987093366
 20
76.56585327270931
 30
0.0
 11
1705.015496918314
 21
100.572019075149
 31
0.0
  0
LINE
  5
8FAF
330
8C56
100
AcDbEntity
  8
Visible (ISO)
100
AcDbLine
 10
1701.303551197666
 20
109.3168151829486
 30
0.0
 11
1704.105714523375
 21
83.29884843469153
 31
0.0
  0
LINE
  5
8FB0
330
8C56
100
AcDbEntity
  8
Visible (ISO)
100
AcDbLine
 10
1699.347446267714
 20
81.27908339139684
 30
0.0
 11
1694.636011434387
 21
125.0245545084926
 31
0.0
  0
LINE
  5
8FB1
330
8C56
100
AcDbEntity
  8
Visible (ISO)
100
AcDbLine
 10
1720.516421919922
 20
44.63764458968944
 30
0.0
 11
1737.285634716233
 21
24.54833859845894
 31
0.0
  0
LINE
  5
8FB2
330
8C56
100
AcDbEntity
  8
Visible (ISO)
100
AcDbLine
 10
1733.573688995587
 20
33.29313470625857
 30
0.0
 11
1718.101130872202
 21
51.82906470984926
 31
0.0
  0
LINE
  5
8FB3
330
8C56
100
AcDbEntity
  8
Visible (ISO)
100
AcDbLine
 10
1743.953174479512
 20
8.840599272914005
 30
0.0
 11
1715.758153664264
 21
42.61787954639385
 31
0.0
  0
ELLIPSE
  5
8FB4
330
8C56
100
AcDbEntity
  8
Visible (ISO)
100
AcDbEllipse
 10
1703.021584801637
 20
60.02509474480029
 30
0.0
 11
-8.205353698274713
 21
19.33060192250123
 31
0.0
210
0.0
220
0.0
230
1.0
 40
0.2623408182435611
 41
4.242955689976566
 42
5.18182227079277
  0
LINE
  5
8FB5
330
8C56
100
AcDbEntity
  8
Visible (ISO)
100
AcDbLine
 10
1715.5826472363
 20
75.67737299850159
 30
0.0
 11
1703.832266291326
 21
70.6896322064913
 31
0.0
  0
LINE
  5
8FB6
330
8C56
100
AcDbEntity
  8
Visible (ISO)
100
AcDbLine
 10
1711.256157732623
 20
53.20003999089386
 30
0.0
 11
1723.006538677596
 21
58.18778078290598
 31
0.0
  0
LINE
  5
8FB7
330
8C56
100
AcDbEntity
  8
Visible (ISO)
100
AcDbLine
 10
1510.970712412342
 20
38.63192033603354
 30
0.0
 11
1493.456631946146
 21
20.49555909511945
 31
0.0
  0
LINE
  5
8FB8
330
8C56
100
AcDbEntity
  8
Visible (ISO)
100
AcDbLine
 10
1529.010367864
 20
-63.26379378083948
 30
0.0
 11
1554.222876934648
 21
-63.26379378083948
 31
0.0
  0
LINE
  5
8FB9
330
8C56
100
AcDbEntity
  8
Visible (ISO)
100
AcDbLine
 10
1526.357896319062
 20
28.92476729242207
 30
0.0
 11
1514.189374099585
 21
23.75953605976792
 31
0.0
  0
LINE
  5
8FBA
330
8C56
100
AcDbEntity
  8
Visible (ISO)
100
AcDbLine
 10
1545.760449281518
 20
-50.61725609919085
 30
0.0
 11
1557.928971500994
 21
-45.45202486653488
 31
0.0
  0
LINE
  5
8FBB
330
8C56
100
AcDbEntity
  8
Visible (ISO)
100
AcDbLine
 10
1522.010351353804
 20
39.1669413843465
 30
0.0
 11
1526.357896319062
 21
28.92476729242207
 31
0.0
  0
LINE
  5
8FBC
330
8C56
100
AcDbEntity
  8
Visible (ISO)
100
AcDbLine
 10
1522.010351353804
 20
39.1669413843465
 30
0.0
 11
1510.494212502398
 21
66.29726434259101
 31
0.0
  0
LINE
  5
8FBD
330
8C56
100
AcDbEntity
  8
Visible (ISO)
100
AcDbLine
 10
1573.792655317659
 20
-82.82452191670381
 30
0.0
 11
1562.27651646625
 21
-55.69419895845931
 31
0.0
  0
LINE
  5
8FBE
330
8C56
100
AcDbEntity
  8
Visible (ISO)
100
AcDbLine
 10
1557.928971500994
 20
-45.45202486653488
 30
0.0
 11
1562.276516466251
 21
-55.69419895845931
 31
0.0
  0
LINE
  5
8FBF
330
8C56
100
AcDbEntity
  8
Visible (ISO)
100
AcDbLine
 10
1526.142795011089
 20
72.93969352690874
 30
0.0
 11
1537.658933862497
 21
45.80937056866332
 31
0.0
  0
LINE
  5
8FC0
330
8C56
100
AcDbEntity
  8
Visible (ISO)
100
AcDbLine
 10
1577.925098974943
 20
-49.05176977414157
 30
0.0
 11
1537.658933862497
 21
45.80937056866424
 31
0.0
  0
LINE
  5
8FC1
330
8C56
100
AcDbEntity
  8
Visible (ISO)
100
AcDbLine
 10
1577.925098974941
 20
-49.05176977414157
 30
0.0
 11
1589.441237826351
 21
-76.18209273238608
 31
0.0
  0
LINE
  5
8FC2
330
8C56
100
AcDbEntity
  8
Visible (ISO)
100
AcDbLine
 10
1537.658933862497
 20
45.80937056866424
 30
0.0
 11
1522.010351353804
 21
39.1669413843465
 31
0.0
  0
LINE
  5
8FC3
330
8C56
100
AcDbEntity
  8
Visible (ISO)
100
AcDbLine
 10
1526.142795011089
 20
72.93969352690874
 30
0.0
 11
1510.494212502398
 21
66.29726434259101
 31
0.0
  0
LINE
  5
8FC4
330
8C56
100
AcDbEntity
  8
Visible (ISO)
100
AcDbLine
 10
1577.925098974943
 20
-49.05176977414157
 30
0.0
 11
1562.276516466251
 21
-55.69419895845931
 31
0.0
  0
LINE
  5
8FC5
330
8C56
100
AcDbEntity
  8
Visible (ISO)
100
AcDbLine
 10
1589.441237826351
 20
-76.18209273238608
 30
0.0
 11
1573.792655317659
 21
-82.82452191670381
 31
0.0
  0
LINE
  5
8FC6
330
8C56
100
AcDbEntity
  8
Visible (ISO)
100
AcDbLine
 10
1461.972154471477
 20
-12.10757174375794
 30
0.0
 11
1468.029114241096
 21
-5.835406292905645
 31
0.0
  0
LINE
  5
8FC7
330
8C56
100
AcDbEntity
  8
Visible (ISO)
100
AcDbLine
 10
1492.406018465251
 20
-63.26379378083948
 30
0.0
 11
1483.686682418643
 21
-63.26379378083948
 31
0.0
  0
LINE
  5
8FC8
330
8C56
100
AcDbEntity
  8
Visible (ISO)
100
AcDbLine
 10
1483.686682418643
 20
-63.26379378083948
 30
0.0
 11
1480.415315131307
 21
-55.55693541748951
 31
0.0
  0
LINE
  5
8FC9
330
8C56
100
AcDbEntity
  8
Visible (ISO)
100
AcDbLine
 10
1465.243521758813
 20
-19.8144301071079
 30
0.0
 11
1461.972154471477
 21
-12.10757174375794
 31
0.0
  0
LINE
  5
8FCA
330
8C56
100
AcDbEntity
  8
Visible (ISO)
100
AcDbLine
 10
1500.136870961008
 20
53.58771427042938
 30
0.0
 11
1507.170031273815
 21
37.01862690828602
 31
0.0
  0
LINE
  5
8FCB
330
8C56
100
AcDbEntity
  8
Visible (ISO)
100
AcDbLine
 10
1500.136870961008
 20
53.58771427042938
 30
0.0
 11
1513.484191336068
 21
59.25331563352301
 31
0.0
  0
LINE
  5
8FCC
330
8C56
100
AcDbEntity
  8
Visible (ISO)
100
AcDbLine
 10
1507.170031273815
 20
37.01862690828602
 30
0.0
 11
1520.517351648875
 21
42.68422827138055
 31
0.0
  0
LINE
  5
8FCD
330
8C56
100
AcDbEntity
  8
Visible (ISO)
100
AcDbLine
 10
1557.455356108928
 20
-81.44617457073128
 30
0.0
 11
1550.422195796121
 21
-64.8770872085879
 31
0.0
  0
LINE
  5
8FCE
330
8C56
100
AcDbEntity
  8
Visible (ISO)
100
AcDbLine
 10
1570.802676483988
 20
-75.78057320763673
 30
0.0
 11
1557.455356108928
 21
-81.44617457073128
 31
0.0
  0
LINE
  5
8FCF
330
8C56
100
AcDbEntity
  8
Visible (ISO)
100
AcDbLine
 10
1563.769516171181
 20
-59.21148584549337
 30
0.0
 11
1550.422195796121
 21
-64.8770872085879
 31
0.0
  0
CIRCLE
  5
8FD0
330
8C56
100
AcDbEntity
  8
Visible (ISO)
100
AcDbCircle
 10
1510.708193164627
 20
-21.60709682496599
 30
0.0
 40
45.49999999999996
  0
CIRCLE
  5
8FD1
330
8C56
100
AcDbEntity
  8
Visible (ISO)
100
AcDbCircle
 10
1510.708193164627
 20
-21.60709682496599
 30
0.0
 40
36.14999999999997
  0
LINE
  5
8FD2
330
8C56
100
AcDbEntity
  8
Visible (ISO)
100
AcDbLine
 10
1601.407800921233
 20
-71.10258806202546
 30
0.0
 11
1589.891662069825
 21
-43.97226510378096
 31
0.0
  0
SPLINE
  5
8FD3
330
8C56
100
AcDbEntity
  8
Visible (ISO)
100
AcDbSpline
210
0.0
220
0.0
230
1.0
 70
    24
 71
     3
 72
     8
 73
     4
 74
     0
 42
0.0000000001
 43
0.0000000001
 40
-0.1444018675914813
 40
-0.1444018675914813
 40
-0.1444018675914813
 40
-0.1444018675914813
 40
0.0
 40
0.0
 40
0.0
 40
0.0
 10
1601.407800921233
 20
-71.10258806202546
 30
0.0
 10
1601.584410971383
 20
-70.66546284872129
 30
0.0
 10
1601.761005603489
 20
-70.22837579641145
 30
0.0
 10
1601.937574646195
 20
-69.79135208008483
 30
0.0
  0
LINE
  5
8FD4
330
8C56
100
AcDbEntity
  8
Visible (ISO)
100
AcDbLine
 10
1590.698097548841
 20
-43.31280336965938
 30
0.0
 11
1601.937574646195
 21
-69.79135208008483
 31
0.0
  0
SPLINE
  5
8FD5
330
8C56
100
AcDbEntity
  8
Visible (ISO)
100
AcDbSpline
210
0.0
220
0.0
230
1.0
 70
     8
 71
     3
 72
     8
 73
     4
 74
     0
 42
0.0000000001
 43
0.0000000001
 40
-0.1444018675898508
 40
-0.1444018675898508
 40
-0.1444018675898508
 40
-0.1444018675898508
 40
0.0
 40
0.0
 40
0.0
 40
0.0
 10
1589.891662069825
 20
-43.97226510378096
 30
0.0
 10
1590.160610253527
 20
-43.75267490084662
 30
0.0
 10
1590.429427829574
 20
-43.53285148921169
 30
0.0
 10
1590.69809754884
 20
-43.31280336965938
 30
0.0
  0
SPLINE
  5
8FD6
330
8C56
100
AcDbEntity
  8
Visible (ISO)
100
AcDbSpline
210
0.0
220
0.0
230
1.0
 70
    24
 71
     3
 72
     8
 73
     4
 74
     0
 42
0.0000000001
 43
0.0000000001
 40
-0.1444018675898508
 40
-0.1444018675898508
 40
-0.1444018675898508
 40
-0.1444018675898508
 40
0.0
 40
0.0
 40
0.0
 40
0.0
 10
1538.109358105971
 20
78.01919819726936
 30
0.0
 10
1538.546483319285
 20
77.84258814711666
 30
0.0
 10
1538.98357037159
 20
77.66599351501191
 30
0.0
 10
1539.420594087912
 20
77.48942447230638
 30
0.0
  0
LINE
  5
8FD7
330
8C56
100
AcDbEntity
  8
Visible (ISO)
100
AcDbLine
 10
1549.625496957378
 20
50.88887523902394
 30
0.0
 11
1538.109358105971
 21
78.01919819726936
 31
0.0
  0
SPLINE
  5
8FD8
330
8C56
100
AcDbEntity
  8
Visible (ISO)
100
AcDbSpline
210
0.0
220
0.0
230
1.0
 70
     8
 71
     3
 72
     8
 73
     4
 74
     0
 42
0.0000000001
 43
0.0000000001
 40
-0.1444018675914813
 40
-0.1444018675914813
 40
-0.1444018675914813
 40
-0.1444018675914813
 40
0.0
 40
0.0
 40
0.0
 40
0.0
 10
1549.625496957378
 20
50.88887523902394
 30
0.0
 10
1549.970284037135
 20
50.92980019925016
 30
0.0
 10
1550.315148145502
 20
50.97046920781758
 30
0.0
 10
1550.660071185267
 20
51.01087576188092
 30
0.0
  0
LINE
  5
8FD9
330
8C56
100
AcDbEntity
  8
Visible (ISO)
100
AcDbLine
 10
1539.420594087912
 20
77.48942447230638
 30
0.0
 11
1550.660071185267
 21
51.01087576188092
 31
0.0
  0
LINE
  5
8FDA
330
8C56
100
AcDbEntity
  8
Visible (ISO)
100
AcDbLine
 10
1549.625496957378
 20
50.88887523902394
 30
0.0
 11
1589.891662069825
 21
-43.97226510378096
 31
0.0
  0
LINE
  5
8FDB
330
8C56
100
AcDbEntity
  8
Visible (ISO)
100
AcDbLine
 10
1590.69809754884
 20
-43.31280336965938
 30
0.0
 11
1550.660071185267
 21
51.01087576188092
 31
0.0
  0
LINE
  5
8FDC
330
8C56
100
AcDbEntity
  8
Visible (ISO)
100
AcDbLine
 10
1527.063299864541
 20
73.33042465539802
 30
0.0
 11
1538.579438715949
 21
46.2001016971526
 31
0.0
  0
SPLINE
  5
8FDD
330
8C56
100
AcDbEntity
  8
Visible (ISO)
100
AcDbSpline
210
0.0
220
0.0
230
1.0
 70
    24
 71
     3
 72
     8
 73
     4
 74
     0
 42
0.0000000001
 43
0.0000000001
 40
-0.144401865407123
 40
-0.144401865407123
 40
-0.144401865407123
 40
-0.144401865407123
 40
0.0
 40
0.0
 40
0.0
 40
0.0
 10
1589.050506697861
 20
-75.26158787893473
 30
0.0
 10
1589.487530414187
 20
-75.43815692164208
 30
0.0
 10
1589.924617466494
 20
-75.61475155374683
 30
0.0
 10
1590.361742679804
 20
-75.7913616038968
 30
0.0
  0
SPLINE
  5
8FDE
330
8C56
100
AcDbEntity
  8
Visible (ISO)
100
AcDbSpline
210
0.0
220
0.0
230
1.0
 70
    24
 71
     3
 72
     8
 73
     4
 74
     0
 42
0.0000000001
 43
0.0000000001
 40
-0.1444018654063367
 40
-0.1444018654063367
 40
-0.1444018654063367
 40
-0.1444018654063367
 40
0.0
 40
0.0
 40
0.0
 40
0.0
 10
1526.533526139577
 20
72.01918867345558
 30
0.0
 10
1526.710095182286
 20
72.4562123897831
 30
0.0
 10
1526.886689814392
 20
72.89329944209203
 30
0.0
 10
1527.063299864541
 20
73.33042465539802
 30
0.0
  0
SPLINE
  5
8FDF
330
8C56
100
AcDbEntity
  8
Visible (ISO)
100
AcDbSpline
210
0.0
220
0.0
230
1.0
 70
     8
 71
     3
 72
     8
 73
     4
 74
     0
 42
0.0000000001
 43
0.0000000001
 40
-0.144401865407123
 40
-0.144401865407123
 40
-0.144401865407123
 40
-0.144401865407123
 40
0.0
 40
0.0
 40
0.0
 40
0.0
 10
1537.773003236932
 20
45.54063996303193
 30
0.0
 10
1538.041672956201
 20
45.76068808258514
 30
0.0
 10
1538.31049053225
 20
45.98051149422189
 30
0.0
 10
1538.579438715949
 20
46.2001016971526
 30
0.0
  0
SPLINE
  5
8FE0
330
8C56
100
AcDbEntity
  8
Visible (ISO)
100
AcDbSpline
210
0.0
220
0.0
230
1.0
 70
     8
 71
     3
 72
     8
 73
     4
 74
     0
 42
0.0000000001
 43
0.0000000001
 40
-0.1444018654065061
 40
-0.1444018654065061
 40
-0.1444018654065061
 40
-0.1444018654065061
 40
0.0
 40
0.0
 40
0.0
 40
0.0
 10
1577.811029600506
 20
-48.78303916850928
 30
0.0
 10
1578.155952640272
 20
-48.74263261444504
 30
0.0
 10
1578.500816748637
 20
-48.70196360587943
 30
0.0
 10
1578.845603828394
 20
-48.6610386456523
 30
0.0
  0
LINE
  5
8FE1
330
8C56
100
AcDbEntity
  8
Visible (ISO)
100
AcDbLine
 10
1578.845603828394
 20
-48.66103864565229
 30
0.0
 11
1538.579438715951
 21
46.2001016971526
 31
0.0
  0
LINE
  5
8FE2
330
8C56
100
AcDbEntity
  8
Visible (ISO)
100
AcDbLine
 10
1578.845603828394
 20
-48.66103864565229
 30
0.0
 11
1590.361742679804
 21
-75.7913616038968
 31
0.0
  0
LINE
  5
8FE3
330
8C56
100
AcDbEntity
  8
Visible (ISO)
100
AcDbLine
 10
1538.109358105971
 20
78.01919819726936
 30
0.0
 11
1527.063299864541
 21
73.33042465539802
 31
0.0
  0
LINE
  5
8FE4
330
8C56
100
AcDbEntity
  8
Visible (ISO)
100
AcDbLine
 10
1549.625496957378
 20
50.88887523902394
 30
0.0
 11
1538.579438715949
 21
46.2001016971526
 31
0.0
  0
LINE
  5
8FE5
330
8C56
100
AcDbEntity
  8
Visible (ISO)
100
AcDbLine
 10
1589.891662069825
 20
-43.97226510378096
 30
0.0
 11
1578.845603828394
 21
-48.66103864565229
 31
0.0
  0
LINE
  5
8FE6
330
8C56
100
AcDbEntity
  8
Visible (ISO)
100
AcDbLine
 10
1601.407800921233
 20
-71.10258806202546
 30
0.0
 11
1590.361742679804
 21
-75.7913616038968
 31
0.0
  0
ELLIPSE
  5
8FE7
330
8C56
100
AcDbEntity
  8
Visible (ISO)
100
AcDbEllipse
 10
1724.053429028901
 20
351.3984819150346
 30
0.0
 11
0.0000000000010641
 21
-10.00000000000021
 31
0.0
210
0.0
220
0.0
230
1.0
 40
0.3907311284892733
 41
5.56263190204574
 42
6.073137493983286
  0
ELLIPSE
  5
8FE8
330
8C56
100
AcDbEntity
  8
Visible (ISO)
100
AcDbEllipse
 10
1715.690546986066
 20
343.5759356778881
 30
0.0
 11
-0.0000000000010645
 21
9.999999999999765
 31
0.0
210
0.0
220
0.0
230
1.0
 40
0.3907311284892733
 41
5.56263190204574
 42
6.113620793795803
  0
ELLIPSE
  5
8FE9
330
8C56
100
AcDbEntity
  8
Visible (ISO)
100
AcDbEllipse
 10
1713.820876618168
 20
364.6861846427264
 30
0.0
 11
0.0000000000010648
 21
-9.999999999999996
 31
0.0
210
0.0
220
0.0
230
1.0
 40
0.3907311284892733
 41
5.161206174087096
 42
6.113620793795624
  0
ELLIPSE
  5
8FEA
330
8C56
100
AcDbEntity
  8
Visible (ISO)
100
AcDbEllipse
 10
1705.376624464622
 20
363.467102574502
 30
0.0
 11
0.0000000000006609
 21
-10.00000000000004
 31
0.0
210
0.0
220
0.0
230
1.0
 40
0.3907311284892732
 41
2.019613520497635
 42
2.570602412248199
  0
ELLIPSE
  5
8FEB
330
8C56
100
AcDbEntity
  8
Visible (ISO)
100
AcDbEllipse
 10
1706.878502726087
 20
384.7688595721202
 30
0.0
 11
0.0000000000010648
 21
-9.999999999999959
 31
0.0
210
0.0
220
0.0
230
1.0
 40
0.3907311284892733
 41
4.759780446128294
 42
5.712195065837047
  0
ELLIPSE
  5
8FEC
330
8C56
100
AcDbEntity
  8
Visible (ISO)
100
AcDbEllipse
 10
1698.919409382345
 20
392.0909407651061
 30
0.0
 11
0.0000000000006595
 21
-10.00000000000013
 31
0.0
210
0.0
220
0.0
230
1.0
 40
0.3907311284892733
 41
1.618187792538652
 42
2.169176684288967
  0
ELLIPSE
  5
8FED
330
8C56
100
AcDbEntity
  8
Visible (ISO)
100
AcDbEllipse
 10
1703.554052208187
 20
410.197433207014
 30
0.0
 11
0.0000000000010644
 21
-10.0
 31
0.0
210
0.0
220
0.0
230
1.0
 40
0.3907311284892733
 41
4.358354718169687
 42
5.310769337878314
  0
ELLIPSE
  5
8FEE
330
8C56
100
AcDbEntity
  8
Visible (ISO)
100
AcDbEllipse
 10
1697.345536257738
 20
424.8965378262719
 30
0.0
 11
0.0000000000010649
 21
-9.999999999999955
 31
0.0
210
0.0
220
0.0
230
1.0
 40
0.3907311284892734
 41
1.216762064579764
 42
1.767750956329798
  0
ELLIPSE
  5
8FEF
330
8C56
100
AcDbEntity
  8
Visible (ISO)
100
AcDbEllipse
 10
1704.173994594306
 20
439.5209476105347
 30
0.0
 11
0.0000000000010644
 21
-9.999999999999911
 31
0.0
210
0.0
220
0.0
230
1.0
 40
0.3907311284892733
 41
4.39883801798203
 42
4.909343609919591
  0
ELLIPSE
  5
8FF0
330
8C56
100
AcDbEntity
  8
Visible (ISO)
100
AcDbEllipse
 10
1709.754692573632
 20
464.2593207195851
 30
0.0
 11
-0.0000000000010639
 21
9.999999999999952
 31
0.0
210
0.0
220
0.0
230
1.0
 40
0.3907311284892733
 41
0.3266441460626632
 42
0.837149738000177
  0
ELLIPSE
  5
8FF1
330
8C56
100
AcDbEntity
  8
Visible (ISO)
100
AcDbEllipse
 10
1711.289116279901
 20
486.7062767410034
 30
0.0
 11
0.0000000000010637
 21
-9.999999999999998
 31
0.0
210
0.0
220
0.0
230
1.0
 40
0.3907311284892732
 41
0.3266441460626623
 42
0.8776330378127514
  0
ELLIPSE
  5
8FF2
330
8C56
100
AcDbEntity
  8
Visible (ISO)
100
AcDbEllipse
 10
1719.367302598247
 20
480.295132395414
 30
0.0
 11
-0.0000000000010641
 21
9.999999999999939
 31
0.0
210
0.0
220
0.0
230
1.0
 40
0.3907311284892733
 41
6.20840372528367
 42
7.160818344992392
  0
ELLIPSE
  5
8FF3
330
8C56
100
AcDbEntity
  8
Visible (ISO)
100
AcDbEllipse
 10
1723.176911925949
 20
499.6207069055536
 30
0.0
 11
0.0000000000010641
 21
-9.999999999999989
 31
0.0
210
0.0
220
0.0
230
1.0
 40
0.3907311284892734
 41
6.208403725283488
 42
6.75939261703355
  0
ELLIPSE
  5
8FF4
330
8C56
100
AcDbEntity
  8
Visible (ISO)
100
AcDbEllipse
 10
1729.634127008228
 20
485.6410311009086
 30
0.0
 11
-0.0000000000010637
 21
9.999999999999978
 31
0.0
210
0.0
220
0.0
230
1.0
 40
0.3907311284892732
 41
5.80697799732485
 42
6.75939261703355
  0
ELLIPSE
  5
8FF5
330
8C56
100
AcDbEntity
  8
Visible (ISO)
100
AcDbEllipse
 10
1736.091342090508
 20
499.6207069055444
 30
0.0
 11
0.0000000000010646
 21
-9.999999999999989
 31
0.0
210
0.0
220
0.0
230
1.0
 40
0.3907311284892733
 41
5.80697799732485
 42
6.35796688907496
  0
ELLIPSE
  5
8FF6
330
8C56
100
AcDbEntity
  8
Visible (ISO)
100
AcDbEllipse
 10
1739.90095141821
 20
480.2951323953994
 30
0.0
 11
-0.0000000000010641
 21
9.99999999999996
 31
0.0
210
0.0
220
0.0
230
1.0
 40
0.3907311284892734
 41
5.405552269366235
 42
6.357966889074961
  0
ELLIPSE
  5
8FF7
330
8C56
100
AcDbEntity
  8
Visible (ISO)
100
AcDbEllipse
 10
1747.979137736555
 20
486.7062767409779
 30
0.0
 11
0.0000000000010649
 21
-10.00000000000016
 31
0.0
210
0.0
220
0.0
230
1.0
 40
0.3907311284892734
 41
5.40555226936618
 42
5.956541161116185
  0
ELLIPSE
  5
8FF8
330
8C56
100
AcDbEntity
  8
Visible (ISO)
100
AcDbEllipse
 10
1749.513561442824
 20
464.259320719556
 30
0.0
 11
-0.0000000000010641
 21
10.00000000000006
 31
0.0
210
0.0
220
0.0
230
1.0
 40
0.3907311284892732
 41
5.446035569178628
 42
5.956541161116186
  0
ELLIPSE
  5
8FF9
330
8C56
100
AcDbEntity
  8
Visible (ISO)
100
AcDbEllipse
 10
1755.09425942215
 20
439.5209476104983
 30
0.0
 11
-0.0000000000010648
 21
9.999999999999955
 31
0.0
210
0.0
220
0.0
230
1.0
 40
0.3907311284892734
 41
4.515434350849094
 42
5.025939942786692
  0
ELLIPSE
  5
8FFA
330
8C56
100
AcDbEntity
  8
Visible (ISO)
100
AcDbEllipse
 10
1761.922717758715
 20
424.8965378262246
 30
0.0
 11
-0.0000000000010646
 21
9.99999999999985
 31
0.0
210
0.0
220
0.0
230
1.0
 40
0.3907311284892733
 41
1.373841697259301
 42
1.924830589009422
  0
ELLIPSE
  5
8FFB
330
8C56
100
AcDbEntity
  8
Visible (ISO)
100
AcDbEllipse
 10
1755.714201808268
 20
410.1974332069758
 30
0.0
 11
-0.0000000000014676
 21
10.00000000000001
 31
0.0
210
0.0
220
0.0
230
1.0
 40
0.3907311284892733
 41
4.114008622890038
 42
5.066423242598987
  0
ELLIPSE
  5
8FFC
330
8C56
100
AcDbEntity
  8
Visible (ISO)
100
AcDbEllipse
 10
1760.348844634108
 20
392.0909407650625
 30
0.0
 11
-0.0000000000010644
 21
9.999999999999921
 31
0.0
210
0.0
220
0.0
230
1.0
 40
0.3907311284892734
 41
0.9724159693006315
 42
1.523404861050639
  0
ELLIPSE
  5
8FFD
330
8C56
100
AcDbEntity
  8
Visible (ISO)
100
AcDbEllipse
 10
1752.389751290365
 20
384.7688595720875
 30
0.0
 11
-0.0000000000014669
 21
9.999999999999978
 31
0.0
210
0.0
220
0.0
230
1.0
 40
0.3907311284892733
 41
3.712582894930864
 42
4.664997514640131
  0
ELLIPSE
  5
8FFE
330
8C56
100
AcDbEntity
  8
Visible (ISO)
100
AcDbEllipse
 10
1753.891629551829
 20
363.4671025744674
 30
0.0
 11
-0.0000000000010641
 21
10.00000000000011
 31
0.0
210
0.0
220
0.0
230
1.0
 40
0.3907311284892733
 41
0.570990241341784
 42
1.121979133092
  0
ELLIPSE
  5
8FFF
330
8C56
100
AcDbEntity
  8
Visible (ISO)
100
AcDbEllipse
 10
1745.447377398284
 20
364.6861846427046
 30
0.0
 11
0.0000000000010642
 21
-9.999999999999946
 31
0.0
210
0.0
220
0.0
230
1.0
 40
0.3907311284892734
 41
0.1695645133832393
 42
1.121979133091999
  0
ELLIPSE
  5
9000
330
8C56
100
AcDbEntity
  8
Visible (ISO)
100
AcDbEllipse
 10
1743.577707030386
 20
343.5759356778699
 30
0.0
 11
-0.0000000000010644
 21
9.999999999999882
 31
0.0
210
0.0
220
0.0
230
1.0
 40
0.3907311284892733
 41
0.1695645133830599
 42
0.7205534051332663
  0
ELLIPSE
  5
9001
330
8C56
100
AcDbEntity
  8
Visible (ISO)
100
AcDbEllipse
 10
1735.214824987551
 20
351.3984819150255
 30
0.0
 11
0.0000000000010641
 21
-9.999999999999939
 31
0.0
210
0.0
220
0.0
230
1.0
 40
0.3907311284892734
 41
0.2100478131957605
 42
0.7205534051333137
  0
ELLIPSE
  5
9002
330
8C56
100
AcDbEntity
  8
Visible (ISO)
100
AcDbEllipse
 10
1733.452153642408
 20
343.5759356778681
 30
0.0
 11
-0.0000000000010644
 21
9.999999999999872
 31
0.0
210
0.0
220
0.0
230
1.0
 40
0.3907311284892733
 41
0.1695645133832389
 42
0.7205534051332665
  0
ELLIPSE
  5
9003
330
8C56
100
AcDbEntity
  8
Visible (ISO)
100
AcDbEllipse
 10
1735.32182401031
 20
364.6861846427046
 30
0.0
 11
0.0000000000010648
 21
-9.999999999999946
 31
0.0
210
0.0
220
0.0
230
1.0
 40
0.3907311284892733
 41
0.1695645133830599
 42
1.121979133092
  0
ELLIPSE
  5
9004
330
8C56
100
AcDbEntity
  8
Visible (ISO)
100
AcDbEllipse
 10
1743.766076163852
 20
363.4671025744656
 30
0.0
 11
0.0000000000014697
 21
-10.00000000000011
 31
0.0
210
0.0
220
0.0
230
1.0
 40
0.3907311284892734
 41
3.712582894930861
 42
4.263571786681253
  0
ELLIPSE
  5
9005
330
8C56
100
AcDbEntity
  8
Visible (ISO)
100
AcDbEllipse
 10
1742.264197902389
 20
384.7688595720875
 30
0.0
 11
0.0000000000010645
 21
-9.999999999999975
 31
0.0
210
0.0
220
0.0
230
1.0
 40
0.3907311284892734
 41
0.570990241341784
 42
1.523404861050639
  0
ELLIPSE
  5
9006
330
8C56
100
AcDbEntity
  8
Visible (ISO)
100
AcDbEllipse
 10
1750.223291246132
 20
392.0909407650606
 30
0.0
 11
0.0000000000014686
 21
-9.999999999999923
 31
0.0
210
0.0
220
0.0
230
1.0
 40
0.3907311284892734
 41
4.114008622890036
 42
4.664997514640344
  0
ELLIPSE
  5
9007
330
8C56
100
AcDbEntity
  8
Visible (ISO)
100
AcDbEllipse
 10
1745.58864842029
 20
410.197433206974
 30
0.0
 11
0.0000000000010648
 21
-10.0
 31
0.0
210
0.0
220
0.0
230
1.0
 40
0.3907311284892734
 41
0.9724159693006315
 42
1.924830589009422
  0
ELLIPSE
  5
9008
330
8C56
100
AcDbEntity
  8
Visible (ISO)
100
AcDbEllipse
 10
1751.79716437074
 20
424.8965378262246
 30
0.0
 11
0.0000000000010646
 21
-9.999999999999852
 31
0.0
210
0.0
220
0.0
230
1.0
 40
0.3907311284892733
 41
4.515434350849094
 42
5.066423242599149
  0
ELLIPSE
  5
9009
330
8C56
100
AcDbEntity
  8
Visible (ISO)
100
AcDbEllipse
 10
1744.968706034172
 20
439.5209476104983
 30
0.0
 11
0.0000000000010653
 21
-9.999999999999978
 31
0.0
210
0.0
220
0.0
230
1.0
 40
0.3907311284892733
 41
1.373841697259301
 42
1.884347289196831
  0
ELLIPSE
  5
900A
330
8C56
100
AcDbEntity
  8
Visible (ISO)
100
AcDbEllipse
 10
1739.388008054849
 20
464.259320719556
 30
0.0
 11
-0.0000000000010648
 21
10.00000000000006
 31
0.0
210
0.0
220
0.0
230
1.0
 40
0.3907311284892734
 41
5.446035569178576
 42
5.956541161116184
  0
ELLIPSE
  5
900B
330
8C56
100
AcDbEntity
  8
Visible (ISO)
100
AcDbEllipse
 10
1737.85358434858
 20
486.7062767409762
 30
0.0
 11
0.0000000000010644
 21
-9.999999999999973
 31
0.0
210
0.0
220
0.0
230
1.0
 40
0.3907311284892733
 41
5.405552269366234
 42
5.956541161116185
  0
ELLIPSE
  5
900C
330
8C56
100
AcDbEntity
  8
Visible (ISO)
100
AcDbEllipse
 10
1729.775398030234
 20
480.2951323953994
 30
0.0
 11
-0.0000000000010646
 21
9.999999999999882
 31
0.0
210
0.0
220
0.0
230
1.0
 40
0.3907311284892733
 41
5.405552269366125
 42
5.913822156352418
  0
ELLIPSE
  5
900D
330
8C56
100
AcDbEntity
  8
Visible (ISO)
100
AcDbEllipse
 10
1725.965788702532
 20
499.6207069055427
 30
0.0
 11
0.000000000001063
 21
-9.999999999999687
 31
0.0
210
0.0
220
0.0
230
1.0
 40
0.3907311284892733
 41
5.91826027178423
 42
6.283185307179133
  0
LINE
  5
900E
330
8C56
100
AcDbEntity
  8
Visible (ISO)
100
AcDbLine
 10
1723.176911925949
 20
489.6207069055535
 30
0.0
 11
1717.956678800008
 21
489.6207069055518
 31
0.0
  0
LINE
  5
900F
330
8C56
100
AcDbEntity
  8
Visible (ISO)
100
AcDbLine
 10
1736.091342090506
 20
489.6207069055445
 30
0.0
 11
1725.965788702531
 21
489.6207069055427
 31
0.0
  0
LINE
  5
9010
330
8C56
100
AcDbEntity
  8
Visible (ISO)
100
AcDbLine
 10
1721.475382604459
 20
343.8840748432949
 30
0.0
 11
1718.268593410506
 21
351.0903427496278
 31
0.0
  0
LINE
  5
9011
330
8C56
100
AcDbEntity
  8
Visible (ISO)
100
AcDbLine
 10
1716.349917972076
 20
353.4325191788748
 30
0.0
 11
1713.161505632158
 21
354.8296011417415
 31
0.0
  0
LINE
  5
9012
330
8C56
100
AcDbEntity
  8
Visible (ISO)
100
AcDbLine
 10
1710.300541721884
 20
360.347182886816
 30
0.0
 11
1708.896959360906
 21
367.8061043304142
 31
0.0
  0
LINE
  5
9013
330
8C56
100
AcDbEntity
  8
Visible (ISO)
100
AcDbLine
 10
1707.48839129142
 20
371.8807645396055
 30
0.0
 11
1704.766735899289
 21
376.3551976070148
 31
0.0
  0
LINE
  5
9014
330
8C56
100
AcDbEntity
  8
Visible (ISO)
100
AcDbLine
 10
1702.975578434916
 20
384.2951222929487
 30
0.0
 11
1702.822333673518
 21
392.5646780442776
 31
0.0
  0
LINE
  5
9015
330
8C56
100
AcDbEntity
  8
Visible (ISO)
100
AcDbLine
 10
1702.147821623189
 20
397.7239906124951
 30
0.0
 11
1700.325639967344
 21
404.564383359625
 31
0.0
  0
LINE
  5
9016
330
8C56
100
AcDbEntity
  8
Visible (ISO)
100
AcDbLine
 10
1699.889065599107
 20
413.6642800334476
 30
0.0
 11
1701.010522866819
 21
421.4296909998384
 31
0.0
  0
LINE
  5
9017
330
8C56
100
AcDbEntity
  8
Visible (ISO)
100
AcDbLine
 10
1701.177307704225
 20
426.8533753096881
 30
0.0
 11
1700.342223147819
 21
437.5641101271185
 31
0.0
  0
LINE
  5
9018
330
8C56
100
AcDbEntity
  8
Visible (ISO)
100
AcDbLine
 10
1708.500967551588
 20
473.7305652747464
 30
0.0
 11
1712.542841301945
 21
477.2350321858422
 31
0.0
  0
LINE
  5
9019
330
8C56
100
AcDbEntity
  8
Visible (ISO)
100
AcDbLine
 10
1714.294731902971
 20
480.3165400664466
 30
0.0
 11
1716.361686975176
 21
486.6848690699708
 31
0.0
  0
LINE
  5
901A
330
8C56
100
AcDbEntity
  8
Visible (ISO)
100
AcDbLine
 10
1719.659225253688
 20
490.2671839987188
 30
0.0
 11
1722.88498927051
 21
489.6486553022487
 31
0.0
  0
LINE
  5
901B
330
8C56
100
AcDbEntity
  8
Visible (ISO)
100
AcDbLine
 10
1724.968069390326
 20
490.7333076612713
 30
0.0
 11
1727.842969543855
 21
494.5284303451908
 31
0.0
  0
LINE
  5
901C
330
8C56
100
AcDbEntity
  8
Visible (ISO)
100
AcDbLine
 10
1731.425284472605
 20
494.5284303451891
 30
0.0
 11
1734.300184626133
 21
490.7333076612641
 31
0.0
  0
LINE
  5
901D
330
8C56
100
AcDbEntity
  8
Visible (ISO)
100
AcDbLine
 10
1736.383264745947
 20
489.6486553022378
 30
0.0
 11
1739.609028762771
 21
490.2671839987043
 31
0.0
  0
LINE
  5
901E
330
8C56
100
AcDbEntity
  8
Visible (ISO)
100
AcDbLine
 10
1742.906567041279
 20
486.6848690699526
 30
0.0
 11
1744.973522113488
 21
480.3165400664248
 31
0.0
  0
LINE
  5
901F
330
8C56
100
AcDbEntity
  8
Visible (ISO)
100
AcDbLine
 10
1746.725412714511
 20
477.2350321858184
 30
0.0
 11
1750.767286464872
 21
473.7305652747173
 31
0.0
  0
LINE
  5
9020
330
8C56
100
AcDbEntity
  8
Visible (ISO)
100
AcDbLine
 10
1740.641733076894
 20
473.7305652747155
 30
0.0
 11
1736.599859326533
 21
477.2350321858167
 31
0.0
  0
LINE
  5
9021
330
8C56
100
AcDbEntity
  8
Visible (ISO)
100
AcDbLine
 10
1734.84796872551
 20
480.3165400664229
 30
0.0
 11
1732.781013653303
 21
486.6848690699508
 31
0.0
  0
ELLIPSE
  5
9022
330
8C56
100
AcDbEntity
  8
Visible (ISO)
100
AcDbEllipse
 10
1729.634127008228
 20
418.3929167483721
 30
0.0
 11
0.0000000000115297
 21
-78.49999999999946
 31
0.0
210
0.0
220
0.0
230
1.0
 40
0.3907311284892733
 41
3.97874239158955
 42
4.398838017981779
  0
ELLIPSE
  5
9023
330
8C56
100
AcDbEntity
  8
Visible (ISO)
100
AcDbEllipse
 10
1729.634127008228
 20
418.3929167483721
 30
0.0
 11
-0.0000000000083517
 21
78.50000000000041
 31
0.0
210
0.0
220
0.0
230
1.0
 40
0.3907311284892734
 41
5.025939942786676
 42
5.446035569178669
  0
ELLIPSE
  5
9024
330
8C56
100
AcDbEntity
  8
Visible (ISO)
100
AcDbEllipse
 10
1729.634127008228
 20
418.3929167483721
 30
0.0
 11
0.0000000000083572
 21
-78.49999999999981
 31
0.0
210
0.0
220
0.0
230
1.0
 40
0.3907311284892733
 41
6.073137493983283
 42
6.493233120375271
  0
ELLIPSE
  5
9025
330
8C56
100
AcDbEntity
  8
Visible (ISO)
100
AcDbEllipse
 10
1729.634127008228
 20
418.3929167483721
 30
0.0
 11
-0.0000000000019307
 21
-99.4999999999997
 31
0.0
210
0.0
220
0.0
230
1.0
 40
0.3907311284892734
 41
0.0
 42
6.283185307179585
  0
ELLIPSE
  5
9026
330
8C56
100
AcDbEntity
  8
Visible (ISO)
100
AcDbEllipse
 10
1719.508573620161
 20
418.3929167482957
 30
0.0
 11
-0.0000000000083544
 21
78.50000000024171
 31
0.0
210
0.0
220
0.0
230
1.0
 40
0.3907311284892733
 41
5.025939942786696
 42
5.038579211396711
  0
ELLIPSE
  5
9027
330
8C56
100
AcDbEntity
  8
Visible (ISO)
100
AcDbEllipse
 10
1719.50857362025
 20
418.3929167483721
 30
0.0
 11
-0.00000000000836
 21
78.49999999999884
 31
0.0
210
0.0
220
0.0
230
1.0
 40
0.3907311284892733
 41
5.329527938295378
 42
5.446035569178661
  0
ELLIPSE
  5
9028
330
8C56
100
AcDbEntity
  8
Visible (ISO)
100
AcDbEllipse
 10
1719.50857362025
 20
418.3929167483721
 30
0.0
 11
0.0000000000019295
 21
99.49999999999974
 31
0.0
210
0.0
220
0.0
230
1.0
 40
0.3907311284892733
 41
0.0000000000035734
 42
3.141592653593366
  0
ELLIPSE
  5
9029
330
8C56
100
AcDbEntity
  8
Visible (ISO)
100
AcDbEllipse
 10
1713.065039646083
 20
418.3929167483702
 30
0.0
 11
-0.00000000000041
 21
-20.99999999999992
 31
0.0
210
0.0
220
0.0
230
1.0
 40
0.3907311284892733
 41
0.0000000000034847
 42
2.094395102395206
  0
ELLIPSE
  5
902A
330
8C56
100
AcDbEntity
  8
Visible (ISO)
100
AcDbEllipse
 10
1713.065039646083
 20
418.3929167483702
 30
0.0
 11
0.0000000000030871
 21
-20.99999999999992
 31
0.0
210
0.0
220
0.0
230
1.0
 40
0.3907311284892734
 41
4.188790204785775
 42
6.283185307178461
  0
ELLIPSE
  5
902B
330
8C56
100
AcDbEntity
  8
Visible (ISO)
100
AcDbEllipse
 10
1713.065039646083
 20
418.3929167483702
 30
0.0
 11
-0.0000000000022364
 21
20.99999999999992
 31
0.0
210
0.0
220
0.0
230
1.0
 40
0.3907311284892733
 41
5.235987755982653
 42
7.330382858375851
  0
ELLIPSE
  5
902C
330
8C56
100
AcDbEntity
  8
Visible (ISO)
100
AcDbEllipse
 10
1645.868185344055
 20
418.392916748363
 30
0.0
 11
0.0000000000003846
 21
20.99999999999993
 31
0.0
210
0.0
220
0.0
230
1.0
 40
0.3907311284892733
 41
0.0000000000034644
 42
3.141592653593257
  0
ELLIPSE
  5
902D
330
8C56
100
AcDbEntity
  8
Visible (ISO)
100
AcDbEllipse
 10
1598.968463060654
 20
418.3929167483594
 30
0.0
 11
-0.0000000000046296
 21
43.49999999999986
 31
0.0
210
0.0
220
0.0
230
1.0
 40
0.3907311284892734
 41
5.06444407969337
 42
10.64351918825493
  0
ELLIPSE
  5
902E
330
8C56
100
AcDbEntity
  8
Visible (ISO)
100
AcDbEllipse
 10
1570.893065030355
 20
418.3929167483557
 30
0.0
 11
-0.0000000000008475
 21
-43.49999999999986
 31
0.0
210
0.0
220
0.0
230
1.0
 40
0.3907311284892733
 41
3.141592653593387
 42
6.28318530718318
  0
ELLIPSE
  5
902F
330
8C56
100
AcDbEntity
  8
Visible (ISO)
100
AcDbEllipse
 10
1604.067911572995
 20
418.3929167483594
 30
0.0
 11
0.0000000000002669
 21
14.99999999999995
 31
0.0
210
0.0
220
0.0
230
1.0
 40
0.3907311284892733
 41
0.0000000000036289
 42
3.141592653593421
  0
LINE
  5
9030
330
8C56
100
AcDbEntity
  8
Visible (ISO)
100
AcDbLine
 10
1645.868185344055
 20
439.392916748363
 30
0.0
 11
1681.506581506444
 21
439.3929167483666
 31
0.0
  0
LINE
  5
9031
330
8C56
100
AcDbEntity
  8
0
  6
CENTER
100
AcDbLine
 10
1468.042924120919
 20
418.3929167483448
 30
0.0
 11
1746.994879005287
 21
418.392916748373
 31
0.0
  0
LINE
  5
9032
330
8C56
100
AcDbEntity
  8
Visible (ISO)
100
AcDbLine
 10
1707.374520369261
 20
439.3929167483703
 30
0.0
 11
1713.065039646085
 21
439.3929167483703
 31
0.0
  0
LINE
  5
9033
330
8C56
100
AcDbEntity
  8
Visible (ISO)
100
AcDbLine
 10
1645.868185344055
 20
397.3929167483648
 30
0.0
 11
1681.506581506442
 21
397.3929167483684
 31
0.0
  0
LINE
  5
9034
330
8C56
100
AcDbEntity
  8
Visible (ISO)
100
AcDbLine
 10
1702.232317461249
 20
397.3929167483703
 30
0.0
 11
1704.594825669778
 21
397.3929167483703
 31
0.0
  0
LINE
  5
9035
330
8C56
100
AcDbEntity
  8
Visible (ISO)
100
AcDbLine
 10
1570.893065030356
 20
461.8929167483557
 30
0.0
 11
1598.968463060654
 21
461.8929167483593
 31
0.0
  0
LINE
  5
9036
330
8C56
100
AcDbEntity
  8
Visible (ISO)
100
AcDbLine
 10
1570.893065030353
 20
374.8929167483557
 30
0.0
 11
1598.968463060653
 21
374.8929167483593
 31
0.0
  0
LINE
  5
9037
330
8C56
100
AcDbEntity
  8
Visible (ISO)
100
AcDbLine
 10
1604.067911572995
 20
433.3929167483593
 30
0.0
 11
1640.125633995533
 21
433.3929167483629
 31
0.0
  0
LINE
  5
9038
330
8C56
100
AcDbEntity
  8
Visible (ISO)
100
AcDbLine
 10
1604.067911572994
 20
403.3929167483593
 30
0.0
 11
1640.125633995532
 21
403.392916748363
 31
0.0
  0
LINE
  5
9039
330
8C56
100
AcDbEntity
  8
Visible (ISO)
100
AcDbLine
 10
1719.508573620253
 20
517.8929167483702
 30
0.0
 11
1729.634127008229
 21
517.892916748372
 31
0.0
  0
LINE
  5
903A
330
8C56
100
AcDbEntity
  8
Visible (ISO)
100
AcDbLine
 10
1719.50857362025
 20
318.8929167483721
 30
0.0
 11
1729.634127008226
 21
318.8929167483721
 31
0.0
  0
LINE
  5
903B
330
8C56
100
AcDbEntity
  8
Visible (ISO)
100
AcDbLine
 10
1758.926030868636
 20
437.5641101270767
 30
0.0
 11
1758.090946312231
 21
426.8533753096463
 31
0.0
  0
LINE
  5
903C
330
8C56
100
AcDbEntity
  8
Visible (ISO)
100
AcDbLine
 10
1758.257731149636
 20
421.4296909997965
 30
0.0
 11
1759.379188417349
 21
413.6642800334039
 31
0.0
  0
LINE
  5
903D
330
8C56
100
AcDbEntity
  8
Visible (ISO)
100
AcDbLine
 10
1758.94261404911
 20
404.5643833595832
 30
0.0
 11
1757.120432393266
 21
397.7239906124569
 31
0.0
  0
LINE
  5
903E
330
8C56
100
AcDbEntity
  8
Visible (ISO)
100
AcDbLine
 10
1756.445920342937
 20
392.5646780442394
 30
0.0
 11
1756.29267558154
 21
384.2951222929105
 31
0.0
  0
LINE
  5
903F
330
8C56
100
AcDbEntity
  8
Visible (ISO)
100
AcDbLine
 10
1754.501518117163
 20
376.3551976069803
 30
0.0
 11
1751.779862725031
 21
371.8807645395746
 31
0.0
  0
LINE
  5
9040
330
8C56
100
AcDbEntity
  8
Visible (ISO)
100
AcDbLine
 10
1750.371294655547
 20
367.8061043303833
 30
0.0
 11
1748.967712294568
 21
360.3471828867869
 31
0.0
  0
LINE
  5
9041
330
8C56
100
AcDbEntity
  8
Visible (ISO)
100
AcDbLine
 10
1738.842158906592
 20
360.3471828867869
 30
0.0
 11
1740.245741267569
 21
367.8061043303833
 31
0.0
  0
LINE
  5
9042
330
8C56
100
AcDbEntity
  8
Visible (ISO)
100
AcDbLine
 10
1741.654309337054
 20
371.8807645395727
 30
0.0
 11
1744.375964729186
 21
376.3551976069785
 31
0.0
  0
LINE
  5
9043
330
8C56
100
AcDbEntity
  8
Visible (ISO)
100
AcDbLine
 10
1746.167122193562
 20
384.2951222929105
 30
0.0
 11
1746.32036695496
 21
392.5646780442394
 31
0.0
  0
LINE
  5
9044
330
8C56
100
AcDbEntity
  8
Visible (ISO)
100
AcDbLine
 10
1746.994879005288
 20
397.7239906124551
 30
0.0
 11
1748.817060661134
 21
404.5643833595814
 31
0.0
  0
LINE
  5
9045
330
8C56
100
AcDbEntity
  8
Visible (ISO)
100
AcDbLine
 10
1749.253635029371
 20
413.6642800334039
 30
0.0
 11
1748.132177761658
 21
421.4296909997948
 31
0.0
  0
LINE
  5
9046
330
8C56
100
AcDbEntity
  8
Visible (ISO)
100
AcDbLine
 10
1747.965392924253
 20
426.8533753096463
 30
0.0
 11
1748.800477480659
 21
437.5641101270749
 31
0.0
  0
LINE
  5
9047
330
8C56
100
AcDbEntity
  8
Visible (ISO)
100
AcDbLine
 10
1746.106748384295
 20
354.8296011417178
 30
0.0
 11
1742.918336044376
 21
353.4325191788548
 31
0.0
  0
LINE
  5
9048
330
8C56
100
AcDbEntity
  8
Visible (ISO)
100
AcDbLine
 10
1740.999660605946
 20
351.0903427496114
 30
0.0
 11
1737.792871411993
 21
343.884074843284
 31
0.0
  0
LINE
  5
9049
330
8C56
100
AcDbEntity
  8
Visible (ISO)
100
AcDbLine
 10
1728.984067371603
 20
346.8430621637135
 30
0.0
 11
1730.87410721797
 21
351.0903427496096
 31
0.0
  0
LINE
  5
904A
330
8C56
100
AcDbEntity
  8
Visible (ISO)
100
AcDbLine
 10
1732.792782656398
 20
353.4325191788548
 30
0.0
 11
1735.98119499632
 21
354.829601141716
 31
0.0
  0
LINE
  5
904B
330
8C56
100
AcDbEntity
  8
Visible (ISO)
100
AcDbLine
 10
1746.564753496627
 20
465.5816775618633
 30
0.0
 11
1751.323021752284
 21
465.5816775618633
 31
0.0
  0
ELLIPSE
  5
904C
330
8C56
100
AcDbEntity
  8
Visible (ISO)
100
AcDbEllipse
 10
1707.993833720594
 20
418.3929167483702
 30
0.0
 11
14.53866073077104
 21
78.03524973771385
 31
0.0
210
0.0
220
0.0
230
0.9999999999999998
 40
0.5866667771503714
 41
5.223540347889997
 42
5.466173292564841
  0
ELLIPSE
  5
904D
330
8C56
100
AcDbEntity
  8
Visible (ISO)
100
AcDbEllipse
 10
1707.993833720594
 20
418.3929167483702
 30
0.0
 11
2.620093699364117
 21
20.99476796636146
 31
0.0
210
0.0
220
0.0
230
1.0
 40
0.1789023453328907
 41
1.069520400707096
 42
1.538953691115885
  0
ELLIPSE
  5
904E
330
8C56
100
AcDbEntity
  8
Visible (ISO)
100
AcDbEllipse
 10
1707.993833720594
 20
418.3929167483702
 30
0.0
 11
2.620093699364117
 21
20.99476796636146
 31
0.0
210
0.0
220
0.0
230
1.0
 40
0.1789023453328907
 41
0.6000871102975598
 42
1.069520400707096
  0
LINE
  5
904F
330
8C56
100
AcDbEntity
  8
Visible (ISO)
100
AcDbLine
 10
1708.035086853416
 20
435.9843184844895
 30
0.0
 11
1703.489294901968
 21
459.4411224934056
 31
0.0
  0
LINE
  5
9050
330
8C56
100
AcDbEntity
  8
Visible (ISO)
100
AcDbLine
 10
1700.281331428139
 20
440.3860340494293
 30
0.0
 11
1704.323141132766
 21
419.5298358125883
 31
0.0
  0
LINE
  5
9051
330
8C56
100
AcDbEntity
  8
Visible (ISO)
100
AcDbLine
 10
1704.323141132766
 20
419.5298358125883
 30
0.0
 11
1700.73615150173
 21
419.5298358125883
 31
0.0
  0
LINE
  5
9052
330
8C56
100
AcDbEntity
  8
Visible (ISO)
100
AcDbLine
 10
1721.246549983033
 20
419.9926724016123
 30
0.0
 11
1755.034967472933
 21
449.1271948899567
 31
0.0
  0
LINE
  5
9053
330
8C56
100
AcDbEntity
  8
Visible (ISO)
100
AcDbLine
 10
1751.323021752284
 20
465.5816775618633
 30
0.0
 11
1717.355770718029
 21
436.2929534178375
 31
0.0
  0
LINE
  5
9054
330
8C56
100
AcDbEntity
  8
Visible (ISO)
100
AcDbLine
 10
1715.284655426277
 20
438.6099876050693
 30
0.0
 11
1746.564753496627
 21
465.5816775618633
 31
0.0
  0
ELLIPSE
  5
9055
330
8C56
100
AcDbEntity
  8
Visible (ISO)
100
AcDbEllipse
 10
1707.993833720594
 20
418.3929167483702
 30
0.0
 11
22.00176983401573
 21
-78.08624691852447
 31
0.0
210
0.0
220
0.0
230
1.0
 40
0.3658388397532957
 41
6.224529487382906
 42
6.301784920854669
  0
LINE
  5
9056
330
8C56
100
AcDbEntity
  8
Visible (ISO)
100
AcDbLine
 10
1704.046246954627
 20
399.6645959480439
 30
0.0
 11
1708.804515210283
 21
399.6645959480457
 31
0.0
  0
ELLIPSE
  5
9057
330
8C56
100
AcDbEntity
  8
Visible (ISO)
100
AcDbEllipse
 10
1707.993833720594
 20
418.3929167483702
 30
0.0
 11
5.885823777252609
 21
-20.88931446228041
 31
0.0
210
0.0
220
0.0
230
1.0
 40
0.3658388397532957
 41
5.711035158109193
 42
6.180468448517249
  0
LINE
  5
9058
330
8C56
100
AcDbEntity
  8
Visible (ISO)
100
AcDbLine
 10
1715.075831016323
 20
353.9907919852785
 30
0.0
 11
1704.046246954627
 21
399.6645959480439
 31
0.0
  0
LINE
  5
9059
330
8C56
100
AcDbEntity
  8
Visible (ISO)
100
AcDbLine
 10
1708.804515210283
 20
399.6645959480457
 30
0.0
 11
1722.732865904109
 21
341.9869214721976
 31
0.0
  0
LINE
  5
905A
330
8C56
100
AcDbEntity
  8
Visible (ISO)
100
AcDbLine
 10
1730.523102149876
 20
340.4698777932581
 30
0.0
 11
1716.352248381591
 21
399.1517640164448
 31
0.0
  0
ELLIPSE
  5
905B
330
8C56
100
AcDbEntity
  8
Visible (ISO)
100
AcDbEllipse
 10
1502.388403128779
 20
364.2095244588445
 30
0.0
 11
-17.77842408268898
 21
-0.0000000000051167
 31
0.0
210
0.0
220
0.0
230
1.0
 40
0.5624795512520744
 41
5.461627070273221
 42
6.283185307180615
  0
ELLIPSE
  5
905C
330
8C56
100
AcDbEntity
  8
Visible (ISO)
100
AcDbEllipse
 10
1502.388403128783
 20
472.576309037885
 30
0.0
 11
-17.77842408268898
 21
-0.0000000000051145
 31
0.0
210
0.0
220
0.0
230
1.0
 40
0.5624795512520744
 41
0.0000000000010295
 42
0.8215582369077475
  0
ELLIPSE
  5
905D
330
8C56
100
AcDbEntity
  8
Visible (ISO)
100
AcDbEllipse
 10
1412.785145752027
 20
418.3929167483393
 30
0.0
 11
-113.7819141292094
 21
-0.0000000000327396
 31
0.0
210
0.0
220
0.0
230
1.0
 40
0.5624795512520745
 41
2.320034416683429
 42
2.60728320651303
  0
ELLIPSE
  5
905E
330
8C56
100
AcDbEntity
  8
Visible (ISO)
100
AcDbEllipse
 10
1412.785145752027
 20
418.3929167483393
 30
0.0
 11
-113.7819141292094
 21
-0.0000000000327396
 31
0.0
210
0.0
220
0.0
230
1.0
 40
0.5624795512520745
 41
3.675902100668364
 42
3.963150890497566
  0
LINE
  5
905F
330
8C56
100
AcDbEntity
  8
Visible (ISO)
100
AcDbLine
 10
1484.609979046093
 20
499.3929167483593
 30
0.0
 11
1522.224332017108
 21
499.392916748363
 31
0.0
  0
LINE
  5
9060
330
8C56
100
AcDbEntity
  8
Visible (ISO)
100
AcDbLine
 10
1484.609979046093
 20
472.5763090378796
 30
0.0
 11
1484.609979046093
 21
499.3929167483593
 31
0.0
  0
LINE
  5
9061
330
8C56
100
AcDbEntity
  8
Visible (ISO)
100
AcDbLine
 10
1484.609979046091
 20
337.3929167483593
 30
0.0
 11
1484.609979046091
 21
364.2095244588391
 31
0.0
  0
LINE
  5
9062
330
8C56
100
AcDbEntity
  8
Visible (ISO)
100
AcDbLine
 10
1522.224332017105
 20
337.3929167483648
 30
0.0
 11
1484.609979046091
 21
337.3929167483593
 31
0.0
  0
ELLIPSE
  5
9063
330
8C56
100
AcDbEntity
  8
Visible (ISO)
100
AcDbEllipse
 10
1542.35741457333
 20
418.3929167483521
 30
0.0
 11
0.0000000000102224
 21
-96.00000000000006
 31
0.0
210
0.0
220
0.0
230
1.0
 40
0.3907311284892734
 41
5.27895331100545
 42
5.716620976558184
  0
LINE
  5
9064
330
8C56
100
AcDbEntity
  8
Visible (ISO)
100
AcDbLine
 10
1510.708193165699
 20
469.9196088603285
 30
0.0
 11
1510.708193165699
 21
366.8662246364229
 31
0.0
  0
ELLIPSE
  5
9065
330
8C56
100
AcDbEntity
  8
Visible (ISO)
100
AcDbEllipse
 10
1542.35741457333
 20
418.3929167483521
 30
0.0
 11
0.0000000000140887
 21
-96.00000000000008
 31
0.0
210
0.0
220
0.0
230
1.0
 40
0.3907311284892733
 41
3.708156984209674
 42
4.145824649762699
  0
LINE
  5
9066
330
8C56
100
AcDbEntity
  8
Visible (ISO)
100
AcDbLine
 10
1537.8729145258
 20
499.3929167483684
 30
0.0
 11
1522.224332017108
 21
499.3929167483666
 31
0.0
  0
LINE
  5
9067
330
8C56
100
AcDbEntity
  8
Visible (ISO)
100
AcDbLine
 10
1537.8729145258
 20
499.3929167483684
 30
0.0
 11
1538.793419379251
 21
499.3929167483684
 31
0.0
  0
LINE
  5
9068
330
8C56
100
AcDbEntity
  8
Visible (ISO)
100
AcDbLine
 10
1526.356775674388
 20
366.8662246364247
 30
0.0
 11
1526.356775674392
 21
469.9196088603303
 31
0.0
  0
ELLIPSE
  5
9069
330
8C56
100
AcDbEntity
  8
Visible (ISO)
100
AcDbEllipse
 10
1558.005997082019
 20
418.3929167483539
 30
0.0
 11
-0.0000000000063505
 21
95.99999999999983
 31
0.0
210
0.0
220
0.0
230
1.0
 40
0.3907311284892733
 41
2.137360657416243
 42
2.575028322969272
  0
LINE
  5
906A
330
8C56
100
AcDbEntity
  8
Visible (ISO)
100
AcDbLine
 10
1538.793419379247
 20
337.3929167483684
 30
0.0
 11
1537.872914525796
 21
337.3929167483684
 31
0.0
  0
ELLIPSE
  5
906B
330
8C56
100
AcDbEntity
  8
Visible (ISO)
100
AcDbEllipse
 10
1558.005997082019
 20
418.3929167483539
 30
0.0
 11
-0.0000000000102141
 21
95.99999999999983
 31
0.0
210
0.0
220
0.0
230
1.0
 40
0.3907311284892732
 41
0.5665643306207509
 42
1.004231996173489
  0
ELLIPSE
  5
906C
330
8C56
100
AcDbEntity
  8
Visible (ISO)
100
AcDbEllipse
 10
1558.005997082019
 20
418.3929167483539
 30
0.0
 11
0.0000000000101086
 21
-94.99999999999934
 31
0.0
210
0.0
220
0.0
230
1.0
 40
0.3907311284892733
 41
5.282010299457306
 42
5.713563988106335
  0
LINE
  5
906D
330
8C56
100
AcDbEntity
  8
Visible (ISO)
100
AcDbLine
 10
1526.747506802881
 20
469.6276705781738
 30
0.0
 11
1526.747506802877
 21
367.1581629185794
 31
0.0
  0
ELLIPSE
  5
906E
330
8C56
100
AcDbEntity
  8
Visible (ISO)
100
AcDbEllipse
 10
1558.005997082019
 20
418.3929167483539
 30
0.0
 11
0.0000000000139527
 21
-94.99999999999934
 31
0.0
210
0.0
220
0.0
230
1.0
 40
0.3907311284892734
 41
3.711213972661548
 42
4.142767661310855
  0
LINE
  5
906F
330
8C56
100
AcDbEntity
  8
Visible (ISO)
100
AcDbLine
 10
1537.872914525796
 20
337.3929167483684
 30
0.0
 11
1522.224332017105
 21
337.3929167483666
 31
0.0
  0
LINE
  5
9070
330
8C56
100
AcDbEntity
  8
Visible (ISO)
100
AcDbLine
 10
1526.356775674388
 20
366.8662246364247
 30
0.0
 11
1510.708193165697
 21
366.8662246364229
 31
0.0
  0
LINE
  5
9071
330
8C56
100
AcDbEntity
  8
Visible (ISO)
100
AcDbLine
 10
1526.356775674392
 20
469.9196088603303
 30
0.0
 11
1510.708193165699
 21
469.9196088603285
 31
0.0
  0
ELLIPSE
  5
9072
330
8C56
100
AcDbEntity
  8
Visible (ISO)
100
AcDbEllipse
 10
1503.867431780714
 20
472.3870759620377
 30
0.0
 11
0.0000000000001545
 21
8.999999999999987
 31
0.0
210
0.0
220
0.0
230
1.0
 40
0.3907311284892734
 41
0.0000000000036184
 42
3.141592653593411
  0
ELLIPSE
  5
9073
330
8C56
100
AcDbEntity
  8
Visible (ISO)
100
AcDbEllipse
 10
1503.86743178071
 20
364.3987575346991
 30
0.0
 11
-0.0000000000001962
 21
-8.999999999999987
 31
0.0
210
0.0
220
0.0
230
1.0
 40
0.3907311284892734
 41
3.141592653593488
 42
6.283185307183281
  0
LINE
  5
9074
330
8C56
100
AcDbEntity
  8
Visible (ISO)
100
AcDbLine
 10
1510.708193165699
 20
463.3870759620395
 30
0.0
 11
1503.867431780714
 21
463.3870759620395
 31
0.0
  0
LINE
  5
9075
330
8C56
100
AcDbEntity
  8
Visible (ISO)
100
AcDbLine
 10
1514.052359966227
 20
481.3870759620395
 30
0.0
 11
1503.867431780714
 21
481.3870759620395
 31
0.0
  0
LINE
  5
9076
330
8C56
100
AcDbEntity
  8
Visible (ISO)
100
AcDbLine
 10
1503.867431780712
 20
373.398757534701
 30
0.0
 11
1510.708193165699
 21
373.398757534701
 31
0.0
  0
LINE
  5
9077
330
8C56
100
AcDbEntity
  8
Visible (ISO)
100
AcDbLine
 10
1503.86743178071
 20
355.398757534701
 30
0.0
 11
1514.052359966224
 21
355.398757534701
 31
0.0
  0
LINE
  5
9078
330
8C56
100
AcDbEntity
  8
Visible (ISO)
100
AcDbLine
 10
1484.609979046093
 20
499.3929167483593
 30
0.0
 11
1462.186135134777
 21
499.3929167483539
 31
0.0
  0
LINE
  5
9079
330
8C56
100
AcDbEntity
  8
Visible (ISO)
100
AcDbLine
 10
1462.186135134777
 20
455.3929167483521
 30
0.0
 11
1462.186135134777
 21
499.3929167483539
 31
0.0
  0
LINE
  5
907A
330
8C56
100
AcDbEntity
  8
Visible (ISO)
100
AcDbLine
 10
1462.186135134775
 20
337.3929167483538
 30
0.0
 11
1462.186135134775
 21
381.3929167483539
 31
0.0
  0
LINE
  5
907B
330
8C56
100
AcDbEntity
  8
Visible (ISO)
100
AcDbLine
 10
1462.186135134775
 20
337.3929167483538
 30
0.0
 11
1484.609979046091
 21
337.3929167483593
 31
0.0
  0
LINE
  5
907C
330
8C56
100
AcDbEntity
  8
Visible (ISO)
100
AcDbLine
 10
1462.186135134777
 20
455.3929167483521
 30
0.0
 11
1487.909021531658
 21
435.71342482405
 31
0.0
  0
ELLIPSE
  5
907D
330
8C56
100
AcDbEntity
  8
Visible (ISO)
100
AcDbEllipse
 10
1480.362528236664
 20
418.3929167483594
 30
0.0
 11
-0.0000000000003915
 21
-19.99999999999994
 31
0.0
210
0.0
220
0.0
230
1.0
 40
0.754649329499584
 41
0.5235987755983143
 42
2.617993877991494
  0
LINE
  5
907E
330
8C56
100
AcDbEntity
  8
Visible (ISO)
100
AcDbLine
 10
1487.909021531658
 20
401.0724086726705
 30
0.0
 11
1462.186135134775
 21
381.3929167483539
 31
0.0
  0
LINE
  5
907F
330
8C56
100
AcDbEntity
  8
Visible (ISO)
100
AcDbLine
 10
1556.422173827931
 20
545.3929167483484
 30
0.0
 11
1465.422173827931
 21
545.3929167483502
 31
0.0
  0
LINE
  5
9080
330
8C56
100
AcDbEntity
  8
Visible (ISO)
100
AcDbLine
 10
1556.422173827931
 20
542.542916748348
 30
0.0
 11
1465.422173827931
 21
542.5429167483498
 31
0.0
  0
LINE
  5
9081
330
8C56
100
AcDbEntity
  8
Visible (ISO)
100
AcDbLine
 10
1549.072173827929
 20
539.8677355264908
 30
0.0
 11
1472.77217382793
 21
539.8677355264926
 31
0.0
  0
LINE
  5
9082
330
8C56
100
AcDbEntity
  8
Visible (ISO)
100
AcDbLine
 10
1465.422173827931
 20
542.5429167483498
 30
0.0
 11
1465.422173827931
 21
545.3929167483502
 31
0.0
  0
LINE
  5
9083
330
8C56
100
AcDbEntity
  8
Visible (ISO)
100
AcDbLine
 10
1556.422173827931
 20
542.542916748348
 30
0.0
 11
1556.422173827931
 21
545.3929167483484
 31
0.0
  0
LINE
  5
9084
330
8C56
100
AcDbEntity
  8
Visible (ISO)
100
AcDbLine
 10
1472.77217382793
 20
539.8677355264926
 30
0.0
 11
1465.422173827931
 21
542.5429167483498
 31
0.0
  0
LINE
  5
9085
330
8C56
100
AcDbEntity
  8
Visible (ISO)
100
AcDbLine
 10
1549.072173827929
 20
539.8677355264908
 30
0.0
 11
1556.422173827931
 21
542.542916748348
 31
0.0
  0
LINE
  5
9086
330
8C56
100
AcDbEntity
  8
Visible (ISO)
100
AcDbLine
 10
1472.77217382793
 20
499.3929167483503
 30
0.0
 11
1472.77217382793
 21
539.8677355264926
 31
0.0
  0
LINE
  5
9087
330
8C56
100
AcDbEntity
  8
0
  6
CENTER
100
AcDbLine
 10
1510.922173827929
 20
258.0573584555505
 30
0.0
 11
1510.922173827929
 21
578.7284750411481
 31
0.0
  0
LINE
  5
9088
330
8C56
100
AcDbEntity
  8
Visible (ISO)
100
AcDbLine
 10
1549.072173827929
 20
499.3929167483484
 30
0.0
 11
1549.072173827931
 21
539.8677355264908
 31
0.0
  0
LINE
  5
9089
330
8C56
100
AcDbEntity
  8
Visible (ISO)
100
AcDbLine
 10
1556.422173827926
 20
291.3929167483484
 30
0.0
 11
1465.422173827926
 21
291.3929167483502
 31
0.0
  0
LINE
  5
908A
330
8C56
100
AcDbEntity
  8
Visible (ISO)
100
AcDbLine
 10
1556.422173827926
 20
294.2429167483488
 30
0.0
 11
1465.422173827926
 21
294.2429167483506
 31
0.0
  0
LINE
  5
908B
330
8C56
100
AcDbEntity
  8
Visible (ISO)
100
AcDbLine
 10
1549.072173827926
 20
296.9180979702059
 30
0.0
 11
1472.772173827926
 21
296.9180979702059
 31
0.0
  0
LINE
  5
908C
330
8C56
100
AcDbEntity
  8
Visible (ISO)
100
AcDbLine
 10
1465.422173827928
 20
291.3929167483502
 30
0.0
 11
1465.422173827928
 21
294.2429167483506
 31
0.0
  0
LINE
  5
908D
330
8C56
100
AcDbEntity
  8
Visible (ISO)
100
AcDbLine
 10
1556.422173827926
 20
291.3929167483484
 30
0.0
 11
1556.422173827926
 21
294.2429167483488
 31
0.0
  0
LINE
  5
908E
330
8C56
100
AcDbEntity
  8
Visible (ISO)
100
AcDbLine
 10
1549.072173827926
 20
296.9180979702059
 30
0.0
 11
1556.422173827926
 21
294.2429167483488
 31
0.0
  0
LINE
  5
908F
330
8C56
100
AcDbEntity
  8
Visible (ISO)
100
AcDbLine
 10
1472.772173827926
 20
296.9180979702059
 30
0.0
 11
1465.422173827928
 21
294.2429167483506
 31
0.0
  0
LINE
  5
9090
330
8C56
100
AcDbEntity
  8
Visible (ISO)
100
AcDbLine
 10
1472.772173827926
 20
296.9180979702059
 30
0.0
 11
1472.772173827926
 21
337.3929167483503
 31
0.0
  0
LINE
  5
9091
330
8C56
100
AcDbEntity
  8
Visible (ISO)
100
AcDbLine
 10
1549.072173827926
 20
296.9180979702059
 30
0.0
 11
1549.072173827926
 21
337.3929167483484
 31
0.0
  0
ELLIPSE
  5
9092
330
8C56
100
AcDbEntity
  8
Visible (ISO)
100
AcDbEllipse
 10
1570.893065030355
 20
418.3929167483557
 30
0.0
 11
0.0000000000101197
 21
-95.00000000000008
 31
0.0
210
0.0
220
0.0
230
1.0
 40
0.3907311284892734
 41
0.5696213190726072
 42
1.001175007721638
  0
SPLINE
  5
9093
330
8C56
100
AcDbEntity
  8
Visible (ISO)
100
AcDbSpline
210
0.0
220
0.0
230
1.0
 70
     8
 71
     3
 72
     8
 73
     4
 74
     0
 42
0.0000000001
 43
0.0000000001
 40
-0.1444018675898508
 40
-0.1444018675898508
 40
-0.1444018675898508
 40
-0.1444018675898508
 40
0.0
 40
0.0
 40
0.0
 40
0.0
 10
1590.105642733123
 20
337.3929167483411
 30
0.0
 10
1590.374590916826
 20
337.7262855845647
 30
0.0
 10
1590.643408492872
 20
338.0596253177055
 30
0.0
 10
1590.91207821214
 20
338.3929167483411
 30
0.0
  0
LINE
  5
9094
330
8C56
100
AcDbEntity
  8
Visible (ISO)
100
AcDbLine
 10
1602.151555309499
 20
469.6276705781301
 30
0.0
 11
1602.151555309499
 21
461.1232864101921
 31
0.0
  0
LINE
  5
9095
330
8C56
100
AcDbEntity
  8
Visible (ISO)
100
AcDbLine
 10
1602.151555309495
 20
375.6625470864737
 30
0.0
 11
1602.151555309495
 21
367.1581629185357
 31
0.0
  0
LINE
  5
9096
330
8C56
100
AcDbEntity
  8
Visible (ISO)
100
AcDbLine
 10
1590.105642733127
 20
499.3929167483411
 30
0.0
 11
1549.839477620682
 21
499.3929167483702
 31
0.0
  0
SPLINE
  5
9097
330
8C56
100
AcDbEntity
  8
Visible (ISO)
100
AcDbSpline
210
0.0
220
0.0
230
1.0
 70
     8
 71
     3
 72
     8
 73
     4
 74
     0
 42
0.0000000001
 43
0.0000000001
 40
-0.1444018675898569
 40
-0.1444018675898569
 40
-0.1444018675898569
 40
-0.1444018675898569
 40
0.0
 40
0.0
 40
0.0
 40
0.0
 10
1549.839477620682
 20
499.3929167483702
 30
0.0
 10
1550.184264700446
 20
499.0595479121466
 30
0.0
 10
1550.529128808808
 20
498.7262081790059
 30
0.0
 10
1550.874051848569
 20
498.3929167483703
 30
0.0
  0
LINE
  5
9098
330
8C56
100
AcDbEntity
  8
Visible (ISO)
100
AcDbLine
 10
1550.874051848569
 20
498.3929167483703
 30
0.0
 11
1590.912078212144
 21
498.3929167483411
 31
0.0
  0
SPLINE
  5
9099
330
8C56
100
AcDbEntity
  8
Visible (ISO)
100
AcDbSpline
210
0.0
220
0.0
230
1.0
 70
     8
 71
     3
 72
     8
 73
     4
 74
     0
 42
0.0000000001
 43
0.0000000001
 40
-0.144401865411634
 40
-0.144401865411634
 40
-0.144401865411634
 40
-0.144401865411634
 40
0.0
 40
0.0
 40
0.0
 40
0.0
 10
1590.912078212144
 20
498.3929167483411
 30
0.0
 10
1590.643408492878
 20
498.7262081789731
 30
0.0
 10
1590.374590916835
 20
499.0595479121121
 30
0.0
 10
1590.105642733127
 20
499.3929167483411
 30
0.0
  0
ELLIPSE
  5
909A
330
8C56
100
AcDbEntity
  8
Visible (ISO)
100
AcDbEllipse
 10
1570.893065030355
 20
418.3929167483557
 30
0.0
 11
0.0000000000062644
 21
-95.00000000000012
 31
0.0
210
0.0
220
0.0
230
1.0
 40
0.3907311284892733
 41
2.140417645868101
 42
2.571971334517407
  0
ELLIPSE
  5
909B
330
8C56
100
AcDbEntity
  8
Visible (ISO)
100
AcDbEllipse
 10
1569.972560176903
 20
418.3929167483557
 30
0.0
 11
0.0000000000140998
 21
-95.99999999999957
 31
0.0
210
0.0
220
0.0
230
1.0
 40
0.3907311284892733
 41
3.708156984209677
 42
4.145824649762705
  0
SPLINE
  5
909C
330
8C56
100
AcDbEntity
  8
Visible (ISO)
100
AcDbSpline
210
0.0
220
0.0
230
1.0
 70
     8
 71
     3
 72
     8
 73
     4
 74
     0
 42
0.0000000001
 43
0.0000000001
 40
-0.1444018675914813
 40
-0.1444018675914813
 40
-0.1444018675914813
 40
-0.1444018675914813
 40
0.0
 40
0.0
 40
0.0
 40
0.0
 10
1538.323338769272
 20
469.9196088603303
 30
0.0
 10
1538.760463982578
 20
469.8225614400863
 30
0.0
 10
1539.197551034887
 20
469.7252483176171
 30
0.0
 10
1539.634574751214
 20
469.6276705781756
 30
0.0
  0
ELLIPSE
  5
909D
330
8C56
100
AcDbEntity
  8
Visible (ISO)
100
AcDbEllipse
 10
1570.893065030355
 20
418.3929167483557
 30
0.0
 11
-0.0000000000101197
 21
94.99999999999992
 31
0.0
210
0.0
220
0.0
230
1.0
 40
0.3907311284892734
 41
0.5696213190726063
 42
1.001175007721638
  0
LINE
  5
909E
330
8C56
100
AcDbEntity
  8
Visible (ISO)
100
AcDbLine
 10
1538.323338769272
 20
469.9196088603303
 30
0.0
 11
1538.32333876927
 21
366.8662246364247
 31
0.0
  0
SPLINE
  5
909F
330
8C56
100
AcDbEntity
  8
Visible (ISO)
100
AcDbSpline
210
0.0
220
0.0
230
1.0
 70
     8
 71
     3
 72
     8
 73
     4
 74
     0
 42
0.0000000001
 43
0.0000000001
 40
-0.1444018675898508
 40
-0.1444018675898508
 40
-0.1444018675898508
 40
-0.1444018675898508
 40
0.0
 40
0.0
 40
0.0
 40
0.0
 10
1538.32333876927
 20
366.8662246364247
 30
0.0
 10
1538.760463982585
 20
366.9632720566724
 30
0.0
 10
1539.19755103489
 20
367.0605851791397
 30
0.0
 10
1539.634574751211
 20
367.1581629185812
 30
0.0
  0
LINE
  5
90A0
330
8C56
100
AcDbEntity
  8
Visible (ISO)
100
AcDbLine
 10
1539.634574751211
 20
367.1581629185812
 30
0.0
 11
1539.634574751214
 21
469.6276705781756
 31
0.0
  0
ELLIPSE
  5
90A1
330
8C56
100
AcDbEntity
  8
Visible (ISO)
100
AcDbEllipse
 10
1569.972560176903
 20
418.3929167483557
 30
0.0
 11
0.0000000000102113
 21
-95.99999999999955
 31
0.0
210
0.0
220
0.0
230
1.0
 40
0.3907311284892733
 41
5.278953311005444
 42
5.71662097655818
  0
SPLINE
  5
90A2
330
8C56
100
AcDbEntity
  8
Visible (ISO)
100
AcDbSpline
210
0.0
220
0.0
230
1.0
 70
     8
 71
     3
 72
     8
 73
     4
 74
     0
 42
0.0000000001
 43
0.0000000001
 40
-0.1444018675914813
 40
-0.1444018675914813
 40
-0.1444018675914813
 40
-0.1444018675914813
 40
0.0
 40
0.0
 40
0.0
 40
0.0
 10
1549.839477620678
 20
337.3929167483702
 30
0.0
 10
1550.184264700435
 20
337.7262855845866
 30
0.0
 10
1550.5291288088
 20
338.0596253177309
 30
0.0
 10
1550.874051848566
 20
338.3929167483703
 30
0.0
  0
ELLIPSE
  5
90A3
330
8C56
100
AcDbEntity
  8
Visible (ISO)
100
AcDbEllipse
 10
1570.893065030355
 20
418.3929167483557
 30
0.0
 11
-0.0000000000062644
 21
95.00000000000012
 31
0.0
210
0.0
220
0.0
230
1.0
 40
0.3907311284892733
 41
2.140417645868101
 42
2.571971334517407
  0
LINE
  5
90A4
330
8C56
100
AcDbEntity
  8
Visible (ISO)
100
AcDbLine
 10
1549.839477620678
 20
337.3929167483702
 30
0.0
 11
1590.105642733123
 21
337.3929167483411
 31
0.0
  0
LINE
  5
90A5
330
8C56
100
AcDbEntity
  8
Visible (ISO)
100
AcDbLine
 10
1590.91207821214
 20
338.3929167483411
 30
0.0
 11
1550.874051848566
 21
338.3929167483703
 31
0.0
  0
ELLIPSE
  5
90A6
330
8C56
100
AcDbEntity
  8
Visible (ISO)
100
AcDbEllipse
 10
1558.926501935473
 20
418.3929167483539
 30
0.0
 11
-0.0000000000063505
 21
95.99999999999957
 31
0.0
210
0.0
220
0.0
230
1.0
 40
0.3907311284892734
 41
2.137360657416238
 42
2.575028322969272
  0
LINE
  5
90A7
330
8C56
100
AcDbEntity
  8
Visible (ISO)
100
AcDbLine
 10
1527.277280527841
 20
366.8662246364247
 30
0.0
 11
1527.277280527841
 21
469.9196088603303
 31
0.0
  0
ELLIPSE
  5
90A8
330
8C56
100
AcDbEntity
  8
Visible (ISO)
100
AcDbEllipse
 10
1558.926501935473
 20
418.3929167483539
 30
0.0
 11
-0.0000000000102224
 21
95.99999999999958
 31
0.0
210
0.0
220
0.0
230
1.0
 40
0.3907311284892733
 41
0.56656433062075
 42
1.004231996173494
  0
SPLINE
  5
90A9
330
8C56
100
AcDbEntity
  8
Visible (ISO)
100
AcDbSpline
210
0.0
220
0.0
230
1.0
 70
     8
 71
     3
 72
     8
 73
     4
 74
     0
 42
0.0000000001
 43
0.0000000001
 40
-0.1444018654063367
 40
-0.1444018654063367
 40
-0.1444018654063367
 40
-0.1444018654063367
 40
0.0
 40
0.0
 40
0.0
 40
0.0
 10
1537.986983900236
 20
498.3929167483684
 30
0.0
 10
1538.255653619505
 20
498.7262081790077
 30
0.0
 10
1538.524471195554
 20
499.0595479121503
 30
0.0
 10
1538.793419379251
 20
499.3929167483684
 30
0.0
  0
SPLINE
  5
90AA
330
8C56
100
AcDbEntity
  8
Visible (ISO)
100
AcDbSpline
210
0.0
220
0.0
230
1.0
 70
     8
 71
     3
 72
     8
 73
     4
 74
     0
 42
0.0000000001
 43
0.0000000001
 40
-0.144401865407123
 40
-0.144401865407123
 40
-0.144401865407123
 40
-0.144401865407123
 40
0.0
 40
0.0
 40
0.0
 40
0.0
 10
1526.747506802881
 20
469.6276705781738
 30
0.0
 10
1526.924075845586
 20
469.7252483176171
 30
0.0
 10
1527.100670477693
 20
469.8225614400826
 30
0.0
 10
1527.277280527843
 20
469.9196088603303
 30
0.0
  0
SPLINE
  5
90AB
330
8C56
100
AcDbEntity
  8
Visible (ISO)
100
AcDbSpline
210
0.0
220
0.0
230
1.0
 70
     8
 71
     3
 72
     8
 73
     4
 74
     0
 42
0.0000000001
 43
0.0000000001
 40
-0.1444018654063367
 40
-0.1444018654063367
 40
-0.1444018654063367
 40
-0.1444018654063367
 40
0.0
 40
0.0
 40
0.0
 40
0.0
 10
1526.747506802877
 20
367.1581629185794
 30
0.0
 10
1526.924075845586
 20
367.0605851791361
 30
0.0
 10
1527.100670477691
 20
366.9632720566706
 30
0.0
 10
1527.277280527841
 20
366.8662246364247
 30
0.0
  0
SPLINE
  5
90AC
330
8C56
100
AcDbEntity
  8
Visible (ISO)
100
AcDbSpline
210
0.0
220
0.0
230
1.0
 70
     8
 71
     3
 72
     8
 73
     4
 74
     0
 42
0.0000000001
 43
0.0000000001
 40
-0.144401865407123
 40
-0.144401865407123
 40
-0.144401865407123
 40
-0.144401865407123
 40
0.0
 40
0.0
 40
0.0
 40
0.0
 10
1537.986983900232
 20
338.3929167483684
 30
0.0
 10
1538.255653619502
 20
338.0596253177309
 30
0.0
 10
1538.52447119555
 20
337.7262855845884
 30
0.0
 10
1538.793419379247
 20
337.3929167483684
 30
0.0
  0
LINE
  5
90AD
330
8C56
100
AcDbEntity
  8
Visible (ISO)
100
AcDbLine
 10
1538.32333876927
 20
366.8662246364247
 30
0.0
 11
1527.277280527841
 21
366.8662246364247
 31
0.0
  0
LINE
  5
90AE
330
8C56
100
AcDbEntity
  8
Visible (ISO)
100
AcDbLine
 10
1549.839477620678
 20
337.3929167483702
 30
0.0
 11
1538.793419379247
 21
337.3929167483684
 31
0.0
  0
LINE
  5
90AF
330
8C56
100
AcDbEntity
  8
Visible (ISO)
100
AcDbLine
 10
1538.323338769272
 20
469.9196088603303
 30
0.0
 11
1527.277280527843
 21
469.9196088603303
 31
0.0
  0
LINE
  5
90B0
330
8C56
100
AcDbEntity
  8
Visible (ISO)
100
AcDbLine
 10
1549.839477620682
 20
499.3929167483702
 30
0.0
 11
1538.793419379251
 21
499.3929167483684
 31
0.0
  0
ELLIPSE
  5
90B1
330
8C56
100
AcDbEntity
  8
Visible (ISO)
100
AcDbEllipse
 10
1895.713758331184
 20
80.07987742824662
 30
0.0
 11
-10.00000000000021
 21
0.0000000000065264
 31
0.0
210
0.0
220
0.0
230
1.0
 40
0.9205048534524429
 41
5.562631902046739
 42
6.073137493984312
  0
ELLIPSE
  5
90B2
330
8C56
100
AcDbEntity
  8
Visible (ISO)
100
AcDbEllipse
 10
1895.713758331186
 20
84.37791984162869
 30
0.0
 11
-10.00000000000021
 21
0.0000000000065337
 31
0.0
210
0.0
220
0.0
230
1.0
 40
0.9205048534524429
 41
5.562631902046681
 42
6.073137493984237
  0
ELLIPSE
  5
90B3
330
8C56
100
AcDbEntity
  8
Visible (ISO)
100
AcDbEllipse
 10
1887.89121209403
 20
99.78159287396374
 30
0.0
 11
9.999999999999765
 21
-0.0000000000065219
 31
0.0
210
0.0
220
0.0
230
1.0
 40
0.9205048534524429
 41
5.562631902046738
 42
6.113620793796767
  0
ELLIPSE
  5
90B4
330
8C56
100
AcDbEntity
  8
Visible (ISO)
100
AcDbEllipse
 10
1887.891212094032
 20
104.0796352873458
 30
0.0
 11
9.999999999999765
 21
-0.0000000000065285
 31
0.0
210
0.0
220
0.0
230
1.0
 40
0.9205048534524426
 41
5.562631902046692
 42
6.113620793796767
  0
ELLIPSE
  5
90B5
330
8C56
100
AcDbEntity
  8
Visible (ISO)
100
AcDbEllipse
 10
1909.001461058869
 20
108.4843026468697
 30
0.0
 11
-9.999999999999992
 21
0.0000000000065288
 31
0.0
210
0.0
220
0.0
230
1.0
 40
0.9205048534524429
 41
5.161206174088068
 42
6.113620793796767
  0
ELLIPSE
  5
90B6
330
8C56
100
AcDbEntity
  8
Visible (ISO)
100
AcDbEllipse
 10
1907.782378990635
 20
128.3777140604088
 30
0.0
 11
-10.00000000000004
 21
0.0000000000074801
 31
0.0
210
0.0
220
0.0
230
1.0
 40
0.9205048534524431
 41
2.019613520498335
 42
2.570602412248426
  0
ELLIPSE
  5
90B7
330
8C56
100
AcDbEntity
  8
Visible (ISO)
100
AcDbEllipse
 10
1929.084135988257
 20
124.8395106049611
 30
0.0
 11
-9.999999999999957
 21
0.0000000000065306
 31
0.0
210
0.0
220
0.0
230
1.0
 40
0.9205048534524429
 41
4.759780446129362
 42
5.712195065838068
  0
ELLIPSE
  5
90B8
330
8C56
100
AcDbEntity
  8
Visible (ISO)
100
AcDbEllipse
 10
1936.406217181234
 20
143.5899594886286
 30
0.0
 11
-10.00000000000013
 21
0.000000000007478
 31
0.0
210
0.0
220
0.0
230
1.0
 40
0.9205048534524427
 41
1.618187792539584
 42
2.169176684289661
  0
ELLIPSE
  5
90B9
330
8C56
100
AcDbEntity
  8
Visible (ISO)
100
AcDbEllipse
 10
1954.512709623143
 20
132.6714252226211
 30
0.0
 11
-10.0
 21
0.0000000000065333
 31
0.0
210
0.0
220
0.0
230
1.0
 40
0.9205048534524427
 41
4.358354718170661
 42
5.3107693378794
  0
ELLIPSE
  5
90BA
330
8C56
100
AcDbEntity
  8
Visible (ISO)
100
AcDbEllipse
 10
1969.211814242396
 20
147.2977722127389
 30
0.0
 11
-9.999999999999953
 21
0.0000000000065323
 31
0.0
210
0.0
220
0.0
230
1.0
 40
0.9205048534524429
 41
1.216762064580868
 42
1.767750956330885
  0
ELLIPSE
  5
90BB
330
8C56
100
AcDbEntity
  8
Visible (ISO)
100
AcDbEllipse
 10
1983.836224026668
 20
131.210932485611
 30
0.0
 11
-9.999999999999911
 21
0.0000000000065246
 31
0.0
210
0.0
220
0.0
230
1.0
 40
0.9205048534524429
 41
4.39883801798307
 42
4.909343609920679
  0
ELLIPSE
  5
90BC
330
8C56
100
AcDbEntity
  8
Visible (ISO)
100
AcDbEllipse
 10
2008.574597135724
 20
118.0636319480681
 30
0.0
 11
9.999999999999953
 21
-0.000000000006525
 31
0.0
210
0.0
220
0.0
230
1.0
 40
0.9205048534524429
 41
0.3266441460637109
 42
0.8371497380013245
  0
ELLIPSE
  5
90BD
330
8C56
100
AcDbEntity
  8
Visible (ISO)
100
AcDbEllipse
 10
2031.021553157144
 20
114.4487562294798
 30
0.0
 11
-9.999999999999998
 21
0.0000000000065239
 31
0.0
210
0.0
220
0.0
230
1.0
 40
0.9205048534524429
 41
0.3266441460637104
 42
0.8776330378137249
  0
ELLIPSE
  5
90BE
330
8C56
100
AcDbEntity
  8
Visible (ISO)
100
AcDbEllipse
 10
2024.610408811562
 20
95.41774187983902
 30
0.0
 11
9.999999999999939
 21
-0.0000000000065303
 31
0.0
210
0.0
220
0.0
230
1.0
 40
0.9205048534524427
 41
6.208403725284595
 42
7.160818344993312
  0
ELLIPSE
  5
90BF
330
8C56
100
AcDbEntity
  8
Visible (ISO)
100
AcDbEllipse
 10
2043.935983321705
 20
86.44286473230659
 30
0.0
 11
-9.999999999999989
 21
0.0000000000065351
 31
0.0
210
0.0
220
0.0
230
1.0
 40
0.9205048534524429
 41
6.208403725284596
 42
6.759392617034627
  0
ELLIPSE
  5
90C0
330
8C56
100
AcDbEntity
  8
Visible (ISO)
100
AcDbEllipse
 10
2029.956307517067
 20
71.23061930408585
 30
0.0
 11
9.999999999999978
 21
-0.0000000000065344
 31
0.0
210
0.0
220
0.0
230
1.0
 40
0.9205048534524427
 41
5.806977997325951
 42
6.759392617034696
  0
ELLIPSE
  5
90C1
330
8C56
100
AcDbEntity
  8
Visible (ISO)
100
AcDbEllipse
 10
2043.935983321709
 20
56.01837387586601
 30
0.0
 11
-9.999999999999991
 21
0.000000000006528
 31
0.0
210
0.0
220
0.0
230
1.0
 40
0.9205048534524426
 41
5.806977997325951
 42
6.357966889075993
  0
ELLIPSE
  5
90C2
330
8C56
100
AcDbEntity
  8
Visible (ISO)
100
AcDbEllipse
 10
2024.610408811567
 20
47.04349672833449
 30
0.0
 11
9.99999999999996
 21
-0.0000000000065337
 31
0.0
210
0.0
220
0.0
230
1.0
 40
0.9205048534524431
 41
5.405552269367236
 42
6.357966889075994
  0
ELLIPSE
  5
90C3
330
8C56
100
AcDbEntity
  8
Visible (ISO)
100
AcDbEllipse
 10
2031.021553157153
 20
28.01248237869367
 30
0.0
 11
-10.00000000000016
 21
0.0000000000065288
 31
0.0
210
0.0
220
0.0
230
1.0
 40
0.9205048534524429
 41
5.405552269367211
 42
5.956541161117256
  0
ELLIPSE
  5
90C4
330
8C56
100
AcDbEntity
  8
Visible (ISO)
100
AcDbEllipse
 10
2008.574597135735
 20
24.39760666010442
 30
0.0
 11
10.00000000000006
 21
-0.0000000000065274
 31
0.0
210
0.0
220
0.0
230
1.0
 40
0.9205048534524429
 41
5.446035569179665
 42
5.956541161117256
  0
ELLIPSE
  5
90C5
330
8C56
100
AcDbEntity
  8
Visible (ISO)
100
AcDbEllipse
 10
1983.836224026682
 20
11.25030612256159
 30
0.0
 11
9.999999999999957
 21
-0.0000000000065309
 31
0.0
210
0.0
220
0.0
230
1.0
 40
0.9205048534524426
 41
4.515434350850111
 42
5.025939942787665
  0
ELLIPSE
  5
90C6
330
8C56
100
AcDbEntity
  8
Visible (ISO)
100
AcDbEllipse
 10
1969.211814242414
 20
-4.836533604566291
 30
0.0
 11
9.999999999999847
 21
-0.0000000000065292
 31
0.0
210
0.0
220
0.0
230
1.0
 40
0.9205048534524429
 41
1.373841697260317
 42
1.924830589010365
  0
ELLIPSE
  5
90C7
330
8C56
100
AcDbEntity
  8
Visible (ISO)
100
AcDbEllipse
 10
1954.51270962316
 20
9.78981338555058
 30
0.0
 11
10.00000000000001
 21
-0.0000000000055879
 31
0.0
210
0.0
220
0.0
230
1.0
 40
0.9205048534524429
 41
4.114008622891372
 42
5.066423242600081
  0
ELLIPSE
  5
90C8
330
8C56
100
AcDbEntity
  8
Visible (ISO)
100
AcDbEllipse
 10
1936.40621718125
 20
-1.128720880456974
 30
0.0
 11
9.999999999999921
 21
-0.0000000000065296
 31
0.0
210
0.0
220
0.0
230
1.0
 40
0.9205048534524429
 41
0.972415969301597
 42
1.523404861051639
  0
ELLIPSE
  5
90C9
330
8C56
100
AcDbEntity
  8
Visible (ISO)
100
AcDbEllipse
 10
1929.084135988268
 20
17.62172800321149
 30
0.0
 11
9.999999999999976
 21
-0.0000000000055865
 31
0.0
210
0.0
220
0.0
230
1.0
 40
0.9205048534524431
 41
3.712582894932593
 42
4.664997514641346
  0
ELLIPSE
  5
90CA
330
8C56
100
AcDbEntity
  8
Visible (ISO)
100
AcDbEllipse
 10
1907.78237899065
 20
14.08352454776285
 30
0.0
 11
10.00000000000011
 21
-0.0000000000065246
 31
0.0
210
0.0
220
0.0
230
1.0
 40
0.9205048534524427
 41
0.5709902413429431
 42
1.121979133092969
  0
ELLIPSE
  5
90CB
330
8C56
100
AcDbEntity
  8
Visible (ISO)
100
AcDbEllipse
 10
1909.001461058878
 20
33.97693596130283
 30
0.0
 11
-9.999999999999948
 21
0.0000000000065307
 31
0.0
210
0.0
220
0.0
230
1.0
 40
0.9205048534524429
 41
0.1695645133842432
 42
1.12197913309297
  0
ELLIPSE
  5
90CC
330
8C56
100
AcDbEntity
  8
Visible (ISO)
100
AcDbEllipse
 10
1887.891212094039
 20
38.38160332082588
 30
0.0
 11
9.99999999999988
 21
-0.0000000000065233
 31
0.0
210
0.0
220
0.0
230
1.0
 40
0.9205048534524429
 41
0.1695645133842412
 42
0.7205534051342939
  0
ELLIPSE
  5
90CD
330
8C56
100
AcDbEntity
  8
Visible (ISO)
100
AcDbEllipse
 10
1895.713758331188
 20
58.08331876654301
 30
0.0
 11
-9.999999999999943
 21
0.0000000000065312
 31
0.0
210
0.0
220
0.0
230
1.0
 40
0.9205048534524429
 41
0.2100478131966978
 42
0.7205534051342184
  0
ELLIPSE
  5
90CE
330
8C56
100
AcDbEntity
  8
Visible (ISO)
100
AcDbEllipse
 10
1909.001461058865
 20
104.1862602334876
 30
0.0
 11
-9.999999999999992
 21
0.0000000000065262
 31
0.0
210
0.0
220
0.0
230
1.0
 40
0.9205048534524429
 41
5.161206174088004
 42
6.113620793796767
  0
ELLIPSE
  5
90CF
330
8C56
100
AcDbEntity
  8
Visible (ISO)
100
AcDbEllipse
 10
1907.782378990631
 20
124.0796716470267
 30
0.0
 11
10.00000000000004
 21
-0.0000000000065274
 31
0.0
210
0.0
220
0.0
230
1.0
 40
0.9205048534524429
 41
5.161206174088068
 42
5.712195065838068
  0
ELLIPSE
  5
90D0
330
8C56
100
AcDbEntity
  8
Visible (ISO)
100
AcDbEllipse
 10
1929.084135988254
 20
120.541468191579
 30
0.0
 11
9.999999999999959
 21
-0.0000000000074857
 31
0.0
210
0.0
220
0.0
230
1.0
 40
0.9205048534524426
 41
1.618187792539656
 42
2.570602412248387
  0
ELLIPSE
  5
90D1
330
8C56
100
AcDbEntity
  8
Visible (ISO)
100
AcDbEllipse
 10
1936.406217181232
 20
139.2919170752465
 30
0.0
 11
10.00000000000013
 21
-0.0000000000065281
 31
0.0
210
0.0
220
0.0
230
1.0
 40
0.9205048534524431
 41
4.759780446129362
 42
5.310769337879357
  0
ELLIPSE
  5
90D2
330
8C56
100
AcDbEntity
  8
Visible (ISO)
100
AcDbEllipse
 10
2043.935983321703
 20
51.72033146248395
 30
0.0
 11
-9.999999999997802
 21
-0.0000000000002391
 31
0.0
210
0.0
220
0.0
230
1.0
 40
0.9205048534524426
 41
0.0
 42
0.0747815818954036
  0
ELLIPSE
  5
90D3
330
8C56
100
AcDbEntity
  8
Visible (ISO)
100
AcDbEllipse
 10
2029.956307517065
 20
66.93257689070378
 30
0.0
 11
9.999999999999625
 21
-0.0000000000065267
 31
0.0
210
0.0
220
0.0
230
1.0
 40
0.9205048534524433
 41
0.2356356826465458
 42
0.4762073098550728
  0
ELLIPSE
  5
90D4
330
8C56
100
AcDbEntity
  8
Visible (ISO)
100
AcDbEllipse
 10
2043.935983321702
 20
82.14482231892361
 30
0.0
 11
-9.999999999999953
 21
-0.0000000000004476
 31
0.0
210
0.0
220
0.0
230
1.0
 40
0.9205048534524429
 41
0.0
 42
0.4762073098541313
  0
ELLIPSE
  5
90D5
330
8C56
100
AcDbEntity
  8
Visible (ISO)
100
AcDbEllipse
 10
2024.61040881156
 20
91.11969946645695
 30
0.0
 11
10.00000000000003
 21
-0.0000000000065385
 31
0.0
210
0.0
220
0.0
230
1.0
 40
0.9205048534524429
 41
0.1901311737064866
 42
0.8776330378137755
  0
ELLIPSE
  5
90D6
330
8C56
100
AcDbEntity
  8
Visible (ISO)
100
AcDbEllipse
 10
2031.02155315714
 20
110.1507138160968
 30
0.0
 11
-9.999999999999987
 21
0.000000000006526
 31
0.0
210
0.0
220
0.0
230
1.0
 40
0.9205048534524429
 41
0.3266441460637111
 42
0.8776330378137252
  0
ELLIPSE
  5
90D7
330
8C56
100
AcDbEntity
  8
Visible (ISO)
100
AcDbEllipse
 10
2008.57459713572
 20
113.7655895346861
 30
0.0
 11
9.999999999999946
 21
-0.0000000000065378
 31
0.0
210
0.0
220
0.0
230
1.0
 40
0.9205048534524429
 41
0.3266441460637122
 42
0.8371497380013259
  0
ELLIPSE
  5
90D8
330
8C56
100
AcDbEntity
  8
Visible (ISO)
100
AcDbEllipse
 10
1983.836224026664
 20
126.9128900722298
 30
0.0
 11
9.999999999999946
 21
-0.0000000000065302
 31
0.0
210
0.0
220
0.0
230
1.0
 40
0.9205048534524429
 41
1.257245364393345
 42
1.767750956330885
  0
ELLIPSE
  5
90D9
330
8C56
100
AcDbEntity
  8
Visible (ISO)
100
AcDbEllipse
 10
1969.211814242394
 20
142.9997297993577
 30
0.0
 11
9.999999999999957
 21
-0.0000000000065323
 31
0.0
210
0.0
220
0.0
230
1.0
 40
0.9205048534524427
 41
4.358354718170661
 42
4.909343609920679
  0
ELLIPSE
  5
90DA
330
8C56
100
AcDbEntity
  8
Visible (ISO)
100
AcDbEllipse
 10
1954.512709623142
 20
128.373382809239
 30
0.0
 11
10.0
 21
-0.0000000000074836
 31
0.0
210
0.0
220
0.0
230
1.0
 40
0.9205048534524429
 41
1.216762064580933
 42
2.169176684289663
  0
LINE
  5
90DB
330
8C56
100
AcDbEntity
  8
Visible (ISO)
100
AcDbLine
 10
2033.935983321705
 20
86.44286473230568
 30
0.0
 11
2033.935983321701
 21
82.14482231892361
 31
0.0
  0
LINE
  5
90DC
330
8C56
100
AcDbEntity
  8
Visible (ISO)
100
AcDbLine
 10
2033.935983321709
 20
56.01837387586511
 30
0.0
 11
2033.935983321705
 21
51.72033146248395
 31
0.0
  0
LINE
  5
90DD
330
8C56
100
AcDbEntity
  8
Visible (ISO)
100
AcDbLine
 10
1895.405619165772
 20
93.70809610574269
 30
0.0
 11
1888.199351259441
 21
86.15337419646857
 31
0.0
  0
LINE
  5
90DE
330
8C56
100
AcDbEntity
  8
Visible (ISO)
100
AcDbLine
 10
1888.199351259444
 20
90.45141660985065
 30
0.0
 11
1895.405619165775
 21
98.00613851912386
 31
0.0
  0
LINE
  5
90DF
330
8C56
100
AcDbEntity
  8
Visible (ISO)
100
AcDbLine
 10
1897.747795595019
 20
102.5262545899977
 30
0.0
 11
1899.144877557882
 21
110.0376833442187
 31
0.0
  0
LINE
  5
90E0
330
8C56
100
AcDbEntity
  8
Visible (ISO)
100
AcDbLine
 10
1904.662459302955
 20
116.7776919407697
 30
0.0
 11
1912.121380746549
 21
120.0843247665088
 31
0.0
  0
LINE
  5
90E1
330
8C56
100
AcDbEntity
  8
Visible (ISO)
100
AcDbLine
 10
1916.196040955742
 20
123.4027031854293
 30
0.0
 11
1920.67047402315
 21
129.8145214799396
 31
0.0
  0
LINE
  5
90E2
330
8C56
100
AcDbEntity
  8
Visible (ISO)
100
AcDbLine
 10
1928.61039870908
 20
134.0342240299514
 30
0.0
 11
1936.879954460411
 21
134.3952460636392
 31
0.0
  0
LINE
  5
90E3
330
8C56
100
AcDbEntity
  8
Visible (ISO)
100
AcDbLine
 10
1942.039267028627
 20
135.9842968731827
 30
0.0
 11
1948.879659775753
 21
140.277087838067
 31
0.0
  0
LINE
  5
90E4
330
8C56
100
AcDbEntity
  8
Visible (ISO)
100
AcDbLine
 10
1957.979556449575
 20
141.3055925963362
 30
0.0
 11
1965.744967415968
 21
138.6636048390246
 31
0.0
  0
LINE
  5
90E5
330
8C56
100
AcDbEntity
  8
Visible (ISO)
100
AcDbLine
 10
1971.168651725818
 20
138.2706843852392
 30
0.0
 11
1981.879386543248
 21
140.2380203131106
 31
0.0
  0
LINE
  5
90E6
330
8C56
100
AcDbEntity
  8
Visible (ISO)
100
AcDbLine
 10
2018.045841690883
 20
121.0172230073458
 30
0.0
 11
2021.550308601984
 21
111.4951651702021
 31
0.0
  0
LINE
  5
90E7
330
8C56
100
AcDbEntity
  8
Visible (ISO)
100
AcDbLine
 10
2024.631816482589
 20
107.3679695531127
 30
0.0
 11
2031.000145486115
 21
102.4985285562052
 31
0.0
  0
LINE
  5
90E8
330
8C56
100
AcDbEntity
  8
Visible (ISO)
100
AcDbLine
 10
2034.582460414867
 20
94.73001520138314
 30
0.0
 11
2033.9639317184
 21
87.13059141076156
 31
0.0
  0
LINE
  5
90E9
330
8C56
100
AcDbEntity
  8
Visible (ISO)
100
AcDbLine
 10
2035.048584077425
 20
82.2231621822957
 30
0.0
 11
2038.843706761348
 21
75.45032185409763
 31
0.0
  0
LINE
  5
90EA
330
8C56
100
AcDbEntity
  8
Visible (ISO)
100
AcDbLine
 10
2038.843706761348
 20
67.01091675407496
 30
0.0
 11
2035.048584077427
 21
60.2380764258778
 31
0.0
  0
LINE
  5
90EB
330
8C56
100
AcDbEntity
  8
Visible (ISO)
100
AcDbLine
 10
2033.963931718404
 20
55.33064719741014
 30
0.0
 11
2034.582460414872
 21
47.73122340678855
 31
0.0
  0
LINE
  5
90EC
330
8C56
100
AcDbEntity
  8
Visible (ISO)
100
AcDbLine
 10
2031.000145486122
 20
39.96271005196831
 30
0.0
 11
2024.631816482596
 21
35.09326905505986
 31
0.0
  0
LINE
  5
90ED
330
8C56
100
AcDbEntity
  8
Visible (ISO)
100
AcDbLine
 10
2021.550308601992
 20
30.96607343797041
 30
0.0
 11
2018.045841690894
 21
21.44401560082678
 31
0.0
  0
LINE
  5
90EE
330
8C56
100
AcDbEntity
  8
Visible (ISO)
100
AcDbLine
 10
1899.14487755788
 20
105.7396409308366
 30
0.0
 11
1897.747795595015
 21
98.22821217661477
 31
0.0
  0
LINE
  5
90EF
330
8C56
100
AcDbEntity
  8
Visible (ISO)
100
AcDbLine
 10
1920.670474023146
 20
125.5164790665585
 30
0.0
 11
1916.196040955739
 21
119.1046607720472
 31
0.0
  0
LINE
  5
90F0
330
8C56
100
AcDbEntity
  8
Visible (ISO)
100
AcDbLine
 10
1948.879659775749
 20
135.9790454246849
 30
0.0
 11
1942.039267028623
 21
131.6862544598015
 31
0.0
  0
LINE
  5
90F1
330
8C56
100
AcDbEntity
  8
Visible (ISO)
100
AcDbLine
 10
2034.430203345043
 20
45.30385571770421
 30
0.0
 11
2033.9639317184
 21
51.03260478402808
 31
0.0
  0
LINE
  5
90F2
330
8C56
100
AcDbEntity
  8
Visible (ISO)
100
AcDbLine
 10
2038.843706761344
 20
71.15227944071557
 30
0.0
 11
2035.048584077423
 21
77.92511976891365
 31
0.0
  0
LINE
  5
90F3
330
8C56
100
AcDbEntity
  8
Visible (ISO)
100
AcDbLine
 10
2031.000145486113
 20
98.20048614282313
 30
0.0
 11
2024.631816482585
 21
103.0699271397315
 31
0.0
  0
LINE
  5
90F4
330
8C56
100
AcDbEntity
  8
Visible (ISO)
100
AcDbLine
 10
2021.550308601981
 20
107.1971227568192
 30
0.0
 11
2018.04584169088
 21
116.7191805939637
 31
0.0
  0
LINE
  5
90F5
330
8C56
100
AcDbEntity
  8
Visible (ISO)
100
AcDbLine
 10
1981.879386543245
 20
135.9399778997285
 30
0.0
 11
1971.168651725816
 21
133.9726419718581
 31
0.0
  0
LINE
  5
90F6
330
8C56
100
AcDbEntity
  8
Visible (ISO)
100
AcDbLine
 10
1965.744967415964
 20
134.3655624256425
 30
0.0
 11
1957.979556449572
 21
137.0075501829542
 31
0.0
  0
LINE
  5
90F7
330
8C56
100
AcDbEntity
  8
Visible (ISO)
100
AcDbLine
 10
1936.879954460407
 20
130.0972036502562
 30
0.0
 11
1928.610398709078
 21
129.7361816165685
 31
0.0
  0
LINE
  5
90F8
330
8C56
100
AcDbEntity
  8
Visible (ISO)
100
AcDbLine
 10
1912.121380746548
 20
115.7862823531258
 30
0.0
 11
1904.662459302951
 21
112.4796495273885
 31
0.0
  0
ELLIPSE
  5
90F9
330
8C56
100
AcDbEntity
  8
Visible (ISO)
100
AcDbEllipse
 10
1962.708193164529
 20
71.23061930408676
 30
0.0
 11
-78.49999999999946
 21
0.0000000000438094
 31
0.0
210
0.0
220
0.0
230
1.0
 40
0.9205048534524429
 41
3.978742391590995
 42
4.398838017983006
  0
ELLIPSE
  5
90FA
330
8C56
100
AcDbEntity
  8
Visible (ISO)
100
AcDbEllipse
 10
1962.708193164529
 20
71.23061930408676
 30
0.0
 11
78.50000000000043
 21
-0.0000000000512645
 31
0.0
210
0.0
220
0.0
230
1.0
 40
0.9205048534524427
 41
5.025939942787697
 42
5.446035569179694
  0
ELLIPSE
  5
90FB
330
8C56
100
AcDbEntity
  8
Visible (ISO)
100
AcDbEllipse
 10
1962.708193164529
 20
71.23061930408585
 30
0.0
 11
-78.49999999999983
 21
0.0000000000512451
 31
0.0
210
0.0
220
0.0
230
1.0
 40
0.9205048534524429
 41
6.073137493984292
 42
6.493233120376288
  0
ELLIPSE
  5
90FC
330
8C56
100
AcDbEntity
  8
Visible (ISO)
100
AcDbEllipse
 10
1962.708193164529
 20
71.23061930408585
 30
0.0
 11
-99.4999999999997
 21
0.0000000000000034
 31
0.0
210
0.0
220
0.0
230
1.0
 40
0.9205048534524429
 41
0.0
 42
6.283185307179586
  0
ELLIPSE
  5
90FD
330
8C56
100
AcDbEntity
  8
Visible (ISO)
100
AcDbEllipse
 10
1962.708193164518
 20
66.93257689070652
 30
0.0
 11
-78.49999999998871
 21
0.0000000000512729
 31
0.0
210
0.0
220
0.0
230
1.0
 40
0.9205048534524426
 41
6.073137493984281
 42
6.119210064546985
  0
ELLIPSE
  5
90FE
330
8C56
100
AcDbEntity
  8
Visible (ISO)
100
AcDbEllipse
 10
1962.708193164529
 20
66.9325768907056
 30
0.0
 11
-78.49999999999901
 21
0.0000000000437428
 31
0.0
210
0.0
220
0.0
230
1.0
 40
0.9205048534524429
 41
3.978742391590994
 42
4.074378621873876
  0
ELLIPSE
  5
90FF
330
8C56
100
AcDbEntity
  8
Visible (ISO)
100
AcDbEllipse
 10
1962.708193164525
 20
66.93257689069923
 30
0.0
 11
-78.50000000000561
 21
0.0000000000512368
 31
0.0
210
0.0
220
0.0
230
1.0
 40
0.9205048534524429
 41
4.32970733958396
 42
4.398838017983095
  0
ELLIPSE
  5
9100
330
8C56
100
AcDbEntity
  8
Visible (ISO)
100
AcDbEllipse
 10
1962.708193164527
 20
66.93257689070378
 30
0.0
 11
-99.4999999999997
 21
0.0000000000000082
 31
0.0
210
0.0
220
0.0
230
1.0
 40
0.9205048534524429
 41
0.0
 42
3.141592653589533
  0
ELLIPSE
  5
9101
330
8C56
100
AcDbEntity
  8
Visible (ISO)
100
AcDbEllipse
 10
1962.708193164525
 20
64.19745899127883
 30
0.0
 11
-20.99999999999992
 21
0.000000000000002
 31
0.0
210
0.0
220
0.0
230
1.0
 40
0.9205048534524429
 41
0.0
 42
2.09439510239312
  0
ELLIPSE
  5
9102
330
8C56
100
AcDbEntity
  8
Visible (ISO)
100
AcDbEllipse
 10
1962.708193164525
 20
64.19745899127883
 30
0.0
 11
-20.99999999999991
 21
0.0000000000116962
 31
0.0
210
0.0
220
0.0
230
1.0
 40
0.9205048534524431
 41
4.188790204786988
 42
6.283185307180172
  0
ELLIPSE
  5
9103
330
8C56
100
AcDbEntity
  8
Visible (ISO)
100
AcDbEllipse
 10
1962.708193164525
 20
64.19745899127883
 30
0.0
 11
20.99999999999992
 21
-0.0000000000137154
 31
0.0
210
0.0
220
0.0
230
1.0
 40
0.9205048534524429
 41
5.235987755983718
 42
7.330382858376907
  0
ELLIPSE
  5
9104
330
8C56
100
AcDbEntity
  8
Visible (ISO)
100
AcDbEllipse
 10
1962.708193164507
 20
35.6740866115615
 30
0.0
 11
-20.99999999999993
 21
-0.000000000000002
 31
0.0
210
0.0
220
0.0
230
1.0
 40
0.9205048534524427
 41
0.0
 42
2.402671657327779
  0
ELLIPSE
  5
9105
330
8C56
100
AcDbEntity
  8
Visible (ISO)
100
AcDbEllipse
 10
1962.708193164495
 20
15.7663356150333
 30
0.0
 11
43.49999999999986
 21
-0.0000000000283981
 31
0.0
210
0.0
220
0.0
230
1.0
 40
0.9205048534524427
 41
0.0424454255627671
 42
1.066994342420592
  0
ELLIPSE
  5
9106
330
8C56
100
AcDbEntity
  8
Visible (ISO)
100
AcDbEllipse
 10
1962.708193164495
 20
15.7663356150333
 30
0.0
 11
-43.49999999999987
 21
0.0000000000283773
 31
0.0
210
0.0
220
0.0
230
1.0
 40
0.9205048534524427
 41
5.21619096476051
 42
6.309296723167681
  0
ELLIPSE
  5
9107
330
8C56
100
AcDbEntity
  8
Visible (ISO)
100
AcDbEllipse
 10
1962.708193164485
 20
3.849036196110311
 30
0.0
 11
-43.49999999999985
 21
0.0000000000325323
 31
0.0
210
0.0
220
0.0
230
1.0
 40
0.9205048534524429
 41
0.5888464646336491
 42
2.552746188957899
  0
ELLIPSE
  5
9108
330
8C56
100
AcDbEntity
  8
Visible (ISO)
100
AcDbEllipse
 10
1962.708193164496
 20
17.93092308507947
 30
0.0
 11
-14.99999999999995
 21
0.000000000000001
 31
0.0
210
0.0
220
0.0
230
1.0
 40
0.9205048534524427
 41
0.0
 42
3.141592653589537
  0
LINE
  5
9109
330
8C56
100
AcDbEntity
  8
Visible (ISO)
100
AcDbLine
 10
1941.708193164507
 20
35.6740866115615
 30
0.0
 11
1941.708193164518
 21
53.43289784018452
 31
0.0
  0
LINE
  5
910A
330
8C56
100
AcDbEntity
  8
Visible (ISO)
100
AcDbLine
 10
1983.708193164514
 20
48.67140353519062
 30
0.0
 11
1983.708193164526
 21
64.19745899128066
 31
0.0
  0
LINE
  5
910B
330
8C56
100
AcDbEntity
  8
Visible (ISO)
100
AcDbLine
 10
1919.208193164493
 20
14.74215112395359
 30
0.0
 11
1919.208193164495
 21
15.76633561503149
 31
0.0
  0
LINE
  5
910C
330
8C56
100
AcDbEntity
  8
Visible (ISO)
100
AcDbLine
 10
1947.708193164496
 20
17.93092308507948
 30
0.0
 11
1947.708193164498
 21
22.14548343127899
 31
0.0
  0
LINE
  5
910D
330
8C56
100
AcDbEntity
  8
Visible (ISO)
100
AcDbLine
 10
1977.708193164496
 20
17.93092308508039
 30
0.0
 11
1977.708193164496
 21
22.14548343127899
 31
0.0
  0
LINE
  5
910E
330
8C56
100
AcDbEntity
  8
Visible (ISO)
100
AcDbLine
 10
1863.208193164529
 20
66.93257689069923
 30
0.0
 11
1863.208193164531
 21
71.23061930408221
 31
0.0
  0
LINE
  5
910F
330
8C56
100
AcDbEntity
  8
Visible (ISO)
100
AcDbLine
 10
2062.208193164527
 20
66.93257689070924
 30
0.0
 11
2062.208193164529
 21
71.2306193040913
 31
0.0
  0
LINE
  5
9110
330
8C56
100
AcDbEntity
  8
Visible (ISO)
100
AcDbLine
 10
1981.879386543263
 20
2.223218295061997
 30
0.0
 11
1971.168651725834
 21
4.190554222932405
 31
0.0
  0
LINE
  5
9111
330
8C56
100
AcDbEntity
  8
Visible (ISO)
100
AcDbLine
 10
1965.744967415983
 20
3.797633769148887
 30
0.0
 11
1957.979556449592
 21
1.155646011835415
 31
0.0
  0
LINE
  5
9112
330
8C56
100
AcDbEntity
  8
Visible (ISO)
100
AcDbLine
 10
1948.879659775769
 20
2.184150770105588
 30
0.0
 11
1942.039267028641
 21
6.47694173498894
 31
0.0
  0
LINE
  5
9113
330
8C56
100
AcDbEntity
  8
Visible (ISO)
100
AcDbLine
 10
1936.879954460424
 20
8.06599254453431
 30
0.0
 11
1928.610398709095
 21
8.427014578221132
 31
0.0
  0
LINE
  5
9114
330
8C56
100
AcDbEntity
  8
Visible (ISO)
100
AcDbLine
 10
1920.670474023163
 20
12.64671712823292
 30
0.0
 11
1916.196040955753
 21
19.05853542274235
 31
0.0
  0
LINE
  5
9115
330
8C56
100
AcDbEntity
  8
Visible (ISO)
100
AcDbLine
 10
1912.121380746562
 20
22.37691384166464
 30
0.0
 11
1904.662459302965
 21
25.68354666740197
 31
0.0
  0
LINE
  5
9116
330
8C56
100
AcDbEntity
  8
Visible (ISO)
100
AcDbLine
 10
1899.144877557893
 20
32.42355526395476
 30
0.0
 11
1897.747795595026
 21
39.93498401817487
 31
0.0
  0
LINE
  5
9117
330
8C56
100
AcDbEntity
  8
Visible (ISO)
100
AcDbLine
 10
1895.405619165781
 20
44.45510008904784
 30
0.0
 11
1888.199351259448
 21
52.00982199832106
 31
0.0
  0
ELLIPSE
  5
9118
330
8C56
100
AcDbEntity
  8
Visible (ISO)
100
AcDbEllipse
 10
1962.708193164525
 20
62.04485978809588
 30
0.0
 11
-71.38920899170924
 21
37.36951275357759
 31
0.0
210
0.0
220
0.0
230
1.0
 40
0.8736283239052456
 41
0.3076005578490069
 42
0.42103295608214
  0
ELLIPSE
  5
9119
330
8C56
100
AcDbEntity
  8
Visible (ISO)
100
AcDbEllipse
 10
1962.708193164525
 20
62.04485978809588
 30
0.0
 11
19.09775017612692
 21
-9.996939717515832
 31
0.0
210
0.0
220
0.0
230
0.9999999999999998
 40
0.8736283239052454
 41
3.570509683776039
 42
4.039942974184207
  0
LINE
  5
911A
330
8C56
100
AcDbEntity
  8
Visible (ISO)
100
AcDbLine
 10
1943.979872364199
 20
55.21980503419036
 30
0.0
 11
1943.979872364197
 21
53.20003999089386
 31
0.0
  0
LINE
  5
911B
330
8C56
100
AcDbEntity
  8
Visible (ISO)
100
AcDbLine
 10
1943.979872364197
 20
53.20003999089386
 30
0.0
 11
1885.301097395738
 21
59.21489162141279
 31
0.0
  0
LINE
  5
911C
330
8C56
100
AcDbEntity
  8
Visible (ISO)
100
AcDbLine
 10
1943.860227462351
 20
72.721661417424
 30
0.0
 11
1884.785154209417
 21
78.77713549419877
 31
0.0
  0
LINE
  5
911D
330
8C56
100
AcDbEntity
  8
Visible (ISO)
100
AcDbLine
 10
1884.957587338863
 20
61.26986806826699
 30
0.0
 11
1943.979872364199
 21
55.21980503419036
 31
0.0
  0
LINE
  5
911E
330
8C56
100
AcDbEntity
  8
Visible (ISO)
100
AcDbLine
 10
2009.896953978031
 20
127.7786752984729
 30
0.0
 11
2009.896953978029
 21
125.7589102551774
 31
0.0
  0
ELLIPSE
  5
911F
330
8C56
100
AcDbEntity
  8
Visible (ISO)
100
AcDbEllipse
 10
1962.708193164525
 20
62.04485978809588
 30
0.0
 11
-51.08674059635007
 21
-62.77318759052547
 31
0.0
210
0.0
220
0.0
230
1.0
 40
0.9494813500540363
 41
3.205297264889933
 42
3.447930209564716
  0
LINE
  5
9120
330
8C56
100
AcDbEntity
  8
Visible (ISO)
100
AcDbLine
 10
1980.371887265245
 20
74.65213762176427
 30
0.0
 11
2009.896953978031
 21
127.7786752984729
 31
0.0
  0
LINE
  5
9121
330
8C56
100
AcDbEntity
  8
Visible (ISO)
100
AcDbLine
 10
1993.442471306126
 20
136.5234714062717
 30
0.0
 11
1963.970842169492
 21
83.49308773424127
 31
0.0
  0
LINE
  5
9122
330
8C56
100
AcDbEntity
  8
Visible (ISO)
100
AcDbLine
 10
2009.896953978029
 20
125.7589102551774
 30
0.0
 11
1980.979683848679
 21
73.72602389528947
 31
0.0
  0
ELLIPSE
  5
9123
330
8C56
100
AcDbEntity
  8
Visible (ISO)
100
AcDbEllipse
 10
1962.708193164525
 20
62.04485978809588
 30
0.0
 11
-20.81217952005797
 21
-3.397483461451146
 31
0.0
210
0.0
220
0.0
230
1.0
 40
0.8248320445577384
 41
1.960550444001458
 42
2.429983734409524
  0
ELLIPSE
  5
9124
330
8C56
100
AcDbEntity
  8
Visible (ISO)
100
AcDbEllipse
 10
1962.708193164525
 20
62.04485978809588
 30
0.0
 11
-20.81217952005797
 21
-3.397483461451146
 31
0.0
210
0.0
220
0.0
230
1.0
 40
0.8248320445577384
 41
1.491117153593325
 42
1.960550444001458
  0
LINE
  5
9125
330
8C56
100
AcDbEntity
  8
Visible (ISO)
100
AcDbLine
 10
1963.84511222874
 20
44.66234931153121
 30
0.0
 11
1992.767747517016
 21
4.478636028111395
 31
0.0
  0
LINE
  5
9126
330
8C56
100
AcDbEntity
  8
Visible (ISO)
100
AcDbLine
 10
2009.319519314416
 20
13.08826332139688
 30
0.0
 11
1980.299594900643
 21
53.40714541932903
 31
0.0
  0
LINE
  5
9127
330
8C56
100
AcDbEntity
  8
Visible (ISO)
100
AcDbLine
 10
1963.845112228738
 20
42.64258426823471
 30
0.0
 11
1963.84511222874
 21
44.66234931153121
 31
0.0
  0
LINE
  5
9128
330
8C56
100
AcDbEntity
  8
Visible (ISO)
100
AcDbLine
 10
1991.621749084704
 20
4.051065885738353
 30
0.0
 11
1963.845112228738
 21
42.64258426823471
 31
0.0
  0
ELLIPSE
  5
9129
330
8C56
100
AcDbEntity
  8
Visible (ISO)
100
AcDbEllipse
 10
1962.708193164478
 20
-8.263628787056411
 30
0.0
 11
95.99999999999992
 21
-0.0000000000626721
 31
0.0
210
0.0
220
0.0
230
1.0
 40
0.9205048534524429
 41
5.278953311006478
 42
5.716620976559216
  0
LINE
  5
912A
330
8C56
100
AcDbEntity
  8
Visible (ISO)
100
AcDbLine
 10
1911.181501052534
 20
-82.82452191670381
 30
0.0
 11
2014.23488527644
 21
-82.82452191670381
 31
0.0
  0
ELLIPSE
  5
912B
330
8C56
100
AcDbEntity
  8
Visible (ISO)
100
AcDbEllipse
 10
1962.708193164478
 20
-8.263628787056411
 30
0.0
 11
96.00000000000006
 21
-0.0000000000536016
 31
0.0
210
0.0
220
0.0
230
1.0
 40
0.9205048534524429
 41
3.708156984211463
 42
4.145824649764209
  0
LINE
  5
912C
330
8C56
100
AcDbEntity
  8
Visible (ISO)
100
AcDbLine
 10
2043.708193164489
 20
-48.66103864565229
 30
0.0
 11
2043.708193164489
 21
-49.05176977414157
 31
0.0
  0
LINE
  5
912D
330
8C56
100
AcDbEntity
  8
Visible (ISO)
100
AcDbLine
 10
2043.708193164489
 20
-49.05176977414157
 30
0.0
 11
2043.708193164484
 21
-55.69419895845931
 31
0.0
  0
LINE
  5
912E
330
8C56
100
AcDbEntity
  8
Visible (ISO)
100
AcDbLine
 10
1881.708193164489
 20
-49.05176977414157
 30
0.0
 11
1881.708193164489
 21
-48.66103864565229
 31
0.0
  0
ELLIPSE
  5
912F
330
8C56
100
AcDbEntity
  8
Visible (ISO)
100
AcDbEllipse
 10
1962.708193164482
 20
-1.621199602738677
 30
0.0
 11
-95.99999999999983
 21
0.0000000000626499
 31
0.0
210
0.0
220
0.0
230
1.0
 40
0.9205048534524429
 41
0.5665643306217874
 42
1.004231996174533
  0
LINE
  5
9130
330
8C56
100
AcDbEntity
  8
Visible (ISO)
100
AcDbLine
 10
2014.234885276443
 20
-76.18209273238608
 30
0.0
 11
1911.181501052538
 21
-76.18209273238608
 31
0.0
  0
ELLIPSE
  5
9131
330
8C56
100
AcDbEntity
  8
Visible (ISO)
100
AcDbEllipse
 10
1962.708193164482
 20
-1.621199602738677
 30
0.0
 11
-95.99999999999992
 21
0.0000000000718647
 31
0.0
210
0.0
220
0.0
230
1.0
 40
0.9205048534524427
 41
2.137360657416792
 42
2.575028322969544
  0
LINE
  5
9132
330
8C56
100
AcDbEntity
  8
Visible (ISO)
100
AcDbLine
 10
1881.708193164489
 20
-49.05176977414157
 30
0.0
 11
1881.708193164484
 21
-55.69419895845931
 31
0.0
  0
LINE
  5
9133
330
8C56
100
AcDbEntity
  8
Visible (ISO)
100
AcDbLine
 10
1911.181501052538
 20
-76.18209273238608
 30
0.0
 11
1911.181501052534
 21
-82.82452191670381
 31
0.0
  0
LINE
  5
9134
330
8C56
100
AcDbEntity
  8
Visible (ISO)
100
AcDbLine
 10
2014.234885276443
 20
-76.18209273238608
 30
0.0
 11
2014.23488527644
 21
-82.82452191670381
 31
0.0
  0
LINE
  5
9135
330
8C56
100
AcDbEntity
  8
Visible (ISO)
100
AcDbLine
 10
2043.708193164474
 20
-55.69419895845931
 30
0.0
 11
2043.708193164471
 21
-63.26379378083948
 31
0.0
  0
LINE
  5
9136
330
8C56
100
AcDbEntity
  8
Visible (ISO)
100
AcDbLine
 10
2043.708193164471
 20
-63.26379378083948
 30
0.0
 11
2037.847646848936
 21
-63.26379378083948
 31
0.0
  0
LINE
  5
9137
330
8C56
100
AcDbEntity
  8
Visible (ISO)
100
AcDbLine
 10
1887.568739480004
 20
-63.26379378083948
 30
0.0
 11
1881.708193164471
 21
-63.26379378083948
 31
0.0
  0
LINE
  5
9138
330
8C56
100
AcDbEntity
  8
Visible (ISO)
100
AcDbLine
 10
1881.708193164471
 20
-63.26379378083948
 30
0.0
 11
1881.708193164476
 21
-55.69419895845931
 31
0.0
  0
ELLIPSE
  5
9139
330
8C56
100
AcDbEntity
  8
Visible (ISO)
100
AcDbEllipse
 10
2016.702352378149
 20
-73.16163088965914
 30
0.0
 11
8.999999999999976
 21
-0.0000000000058769
 31
0.0
210
0.0
220
0.0
230
1.0
 40
0.9205048534524427
 41
4.692042939987484
 42
6.039866530027753
  0
ELLIPSE
  5
913A
330
8C56
100
AcDbEntity
  8
Visible (ISO)
100
AcDbEllipse
 10
1908.714033950812
 20
-73.16163088965914
 30
0.0
 11
-8.999999999999982
 21
0.0000000000058772
 31
0.0
210
0.0
220
0.0
230
1.0
 40
0.9205048534524429
 41
0.2433187771533416
 42
1.591142367193382
  0
LINE
  5
913B
330
8C56
100
AcDbEntity
  8
Visible (ISO)
100
AcDbLine
 10
2089.708193164471
 20
-67.10709682496508
 30
0.0
 11
2089.708193164471
 21
23.892903175034
 31
0.0
  0
LINE
  5
913C
330
8C56
100
AcDbEntity
  8
Visible (ISO)
100
AcDbLine
 10
2086.858193164469
 20
-67.10709682496508
 30
0.0
 11
2086.858193164469
 21
23.892903175034
 31
0.0
  0
LINE
  5
913D
330
8C56
100
AcDbEntity
  8
Visible (ISO)
100
AcDbLine
 10
2084.183011942611
 20
-59.75709682496563
 30
0.0
 11
2084.183011942611
 21
16.54290317503455
 31
0.0
  0
LINE
  5
913E
330
8C56
100
AcDbEntity
  8
Visible (ISO)
100
AcDbLine
 10
2086.858193164469
 20
23.89290317503491
 30
0.0
 11
2089.708193164471
 21
23.89290317503491
 31
0.0
  0
LINE
  5
913F
330
8C56
100
AcDbEntity
  8
Visible (ISO)
100
AcDbLine
 10
2086.858193164469
 20
-67.10709682496508
 30
0.0
 11
2089.708193164471
 21
-67.10709682496508
 31
0.0
  0
LINE
  5
9140
330
8C56
100
AcDbEntity
  8
Visible (ISO)
100
AcDbLine
 10
2084.183011942611
 20
16.54290317503455
 30
0.0
 11
2086.858193164469
 21
23.89290317503491
 31
0.0
  0
LINE
  5
9141
330
8C56
100
AcDbEntity
  8
Visible (ISO)
100
AcDbLine
 10
2084.183011942611
 20
-59.75709682496563
 30
0.0
 11
2086.858193164469
 21
-67.10709682496508
 31
0.0
  0
LINE
  5
9142
330
8C56
100
AcDbEntity
  8
Visible (ISO)
100
AcDbLine
 10
2045.796309959277
 20
16.54290317503546
 30
0.0
 11
2084.183011942611
 21
16.54290317503546
 31
0.0
  0
LINE
  5
9143
330
8C56
100
AcDbEntity
  8
Visible (ISO)
100
AcDbLine
 10
2043.708193164469
 20
-59.75709682496471
 30
0.0
 11
2084.183011942611
 21
-59.75709682496471
 31
0.0
  0
LINE
  5
9144
330
8C56
100
AcDbEntity
  8
Visible (ISO)
100
AcDbLine
 10
1835.708193164471
 20
-67.10709682496508
 30
0.0
 11
1835.708193164471
 21
23.892903175034
 31
0.0
  0
LINE
  5
9145
330
8C56
100
AcDbEntity
  8
Visible (ISO)
100
AcDbLine
 10
1838.558193164469
 20
-67.10709682496508
 30
0.0
 11
1838.558193164469
 21
23.892903175034
 31
0.0
  0
LINE
  5
9146
330
8C56
100
AcDbEntity
  8
Visible (ISO)
100
AcDbLine
 10
1841.233374386326
 20
-59.75709682496563
 30
0.0
 11
1841.233374386326
 21
16.54290317503455
 31
0.0
  0
LINE
  5
9147
330
8C56
100
AcDbEntity
  8
Visible (ISO)
100
AcDbLine
 10
1835.708193164471
 20
23.89290317503491
 30
0.0
 11
1838.558193164469
 21
23.89290317503491
 31
0.0
  0
LINE
  5
9148
330
8C56
100
AcDbEntity
  8
Visible (ISO)
100
AcDbLine
 10
1835.708193164471
 20
-67.10709682496508
 30
0.0
 11
1838.558193164469
 21
-67.10709682496508
 31
0.0
  0
LINE
  5
9149
330
8C56
100
AcDbEntity
  8
Visible (ISO)
100
AcDbLine
 10
1841.233374386326
 20
-59.75709682496471
 30
0.0
 11
1838.558193164469
 21
-67.10709682496508
 31
0.0
  0
LINE
  5
914A
330
8C56
100
AcDbEntity
  8
Visible (ISO)
100
AcDbLine
 10
1841.233374386326
 20
16.54290317503546
 30
0.0
 11
1838.558193164469
 21
23.89290317503491
 31
0.0
  0
LINE
  5
914B
330
8C56
100
AcDbEntity
  8
Visible (ISO)
100
AcDbLine
 10
1841.233374386326
 20
16.54290317503546
 30
0.0
 11
1879.620076369653
 21
16.54290317503546
 31
0.0
  0
LINE
  5
914C
330
8C56
100
AcDbEntity
  8
Visible (ISO)
100
AcDbLine
 10
1841.233374386326
 20
-59.75709682496471
 30
0.0
 11
1881.708193164471
 21
-59.75709682496471
 31
0.0
  0
ELLIPSE
  5
914D
330
8C56
100
AcDbEntity
  8
Visible (ISO)
100
AcDbEllipse
 10
1962.708193164485
 20
3.458305067621033
 30
0.0
 11
95.99999999999957
 21
-0.0000000000535016
 31
0.0
210
0.0
220
0.0
230
1.0
 40
0.9205048534524427
 41
3.708156984211459
 42
4.145824649764213
  0
SPLINE
  5
914E
330
8C56
100
AcDbEntity
  8
Visible (ISO)
100
AcDbSpline
210
0.0
220
0.0
230
1.0
 70
     8
 71
     3
 72
     8
 73
     4
 74
     0
 42
0.0000000001
 43
0.0000000001
 40
-0.1444018675914813
 40
-0.1444018675914813
 40
-0.1444018675914813
 40
-0.1444018675914813
 40
0.0
 40
0.0
 40
0.0
 40
0.0
 10
1911.181501052541
 20
-71.10258806202546
 30
0.0
 10
1911.278548472788
 20
-70.66546284872129
 30
0.0
 10
1911.375861595255
 20
-70.22837579641145
 30
0.0
 10
1911.473439334696
 20
-69.79135208008483
 30
0.0
  0
ELLIPSE
  5
914F
330
8C56
100
AcDbEntity
  8
Visible (ISO)
100
AcDbEllipse
 10
1962.708193164485
 20
3.849036196111221
 30
0.0
 11
-95.00000000000012
 21
0.0000000000619504
 31
0.0
210
0.0
220
0.0
230
1.0
 40
0.9205048534524427
 41
0.5696213190736428
 42
1.001175007722673
  0
SPLINE
  5
9150
330
8C56
100
AcDbEntity
  8
Visible (ISO)
100
AcDbSpline
210
0.0
220
0.0
230
1.0
 70
     8
 71
     3
 72
     8
 73
     4
 74
     0
 42
0.0000000001
 43
0.0000000001
 40
-0.1444018675898508
 40
-0.1444018675898508
 40
-0.1444018675898508
 40
-0.1444018675898508
 40
0.0
 40
0.0
 40
0.0
 40
0.0
 10
1881.708193164493
 20
-43.97226510378096
 30
0.0
 10
1882.041562000714
 20
-43.75267490084662
 30
0.0
 10
1882.374901733855
 20
-43.53285148921169
 30
0.0
 10
1882.708193164493
 20
-43.31280336965938
 30
0.0
  0
LINE
  5
9151
330
8C56
100
AcDbEntity
  8
Visible (ISO)
100
AcDbLine
 10
1911.181501052541
 20
-71.10258806202546
 30
0.0
 11
2014.234885276447
 21
-71.10258806202546
 31
0.0
  0
SPLINE
  5
9152
330
8C56
100
AcDbEntity
  8
Visible (ISO)
100
AcDbSpline
210
0.0
220
0.0
230
1.0
 70
     8
 71
     3
 72
     8
 73
     4
 74
     0
 42
0.0000000001
 43
0.0000000001
 40
-0.1444018675898508
 40
-0.1444018675898508
 40
-0.1444018675898508
 40
-0.1444018675898508
 40
0.0
 40
0.0
 40
0.0
 40
0.0
 10
2014.234885276447
 20
-71.10258806202546
 30
0.0
 10
2014.137837856199
 20
-70.66546284871129
 30
0.0
 10
2014.040524733734
 20
-70.2283757964069
 30
0.0
 10
2013.942946994292
 20
-69.79135208008483
 30
0.0
  0
LINE
  5
9153
330
8C56
100
AcDbEntity
  8
Visible (ISO)
100
AcDbLine
 10
2013.942946994292
 20
-69.79135208008483
 30
0.0
 11
1911.473439334696
 21
-69.79135208008483
 31
0.0
  0
LINE
  5
9154
330
8C56
100
AcDbEntity
  8
Visible (ISO)
100
AcDbLine
 10
2043.708193164492
 20
-43.97226510378096
 30
0.0
 11
2043.708193164485
 21
13.74005879109609
 31
0.0
  0
LINE
  5
9155
330
8C56
100
AcDbEntity
  8
Visible (ISO)
100
AcDbLine
 10
2042.708193164485
 20
12.47283046640404
 30
0.0
 11
2042.708193164493
 21
-43.31280336965938
 31
0.0
  0
SPLINE
  5
9156
330
8C56
100
AcDbEntity
  8
Visible (ISO)
100
AcDbSpline
210
0.0
220
0.0
230
1.0
 70
     8
 71
     3
 72
     8
 73
     4
 74
     0
 42
0.0000000001
 43
0.0000000001
 40
-0.144401865411634
 40
-0.144401865411634
 40
-0.144401865411634
 40
-0.144401865411634
 40
0.0
 40
0.0
 40
0.0
 40
0.0
 10
2042.708193164493
 20
-43.31280336965938
 30
0.0
 10
2043.041484595125
 20
-43.53285148920987
 30
0.0
 10
2043.374824328262
 20
-43.75267490084298
 30
0.0
 10
2043.708193164492
 20
-43.97226510378096
 30
0.0
  0
ELLIPSE
  5
9157
330
8C56
100
AcDbEntity
  8
Visible (ISO)
100
AcDbEllipse
 10
1962.708193164485
 20
3.458305067621942
 30
0.0
 11
95.99999999999985
 21
-0.0000000000626499
 31
0.0
210
0.0
220
0.0
230
1.0
 40
0.9205048534524429
 41
5.278953311006484
 42
5.716620976559216
  0
ELLIPSE
  5
9158
330
8C56
100
AcDbEntity
  8
Visible (ISO)
100
AcDbEllipse
 10
1962.708193164485
 20
3.849036196111221
 30
0.0
 11
-95.00000000000012
 21
0.0000000000711653
 31
0.0
210
0.0
220
0.0
230
1.0
 40
0.9205048534524429
 41
2.140417645868641
 42
2.571971334517691
  0
ELLIPSE
  5
9159
330
8C56
100
AcDbEntity
  8
Visible (ISO)
100
AcDbEllipse
 10
1962.708193164485
 20
3.458305067621033
 30
0.0
 11
-96.00000000000024
 21
0.0000000000536127
 31
0.0
210
0.0
220
0.0
230
1.0
 40
0.9205048534524429
 41
3.851611329292989
 42
4.14582464976422
  0
SPLINE
  5
915A
330
8C56
100
AcDbEntity
  8
Visible (ISO)
100
AcDbSpline
210
0.0
220
0.0
230
1.0
 70
     8
 71
     3
 72
     8
 73
     4
 74
     0
 42
0.0000000001
 43
0.0000000001
 40
-0.1444018675914813
 40
-0.1444018675914813
 40
-0.1444018675914813
 40
-0.1444018675914813
 40
0.0
 40
0.0
 40
0.0
 40
0.0
 10
2014.234885276429
 20
78.01919819726936
 30
0.0
 10
2014.137837856185
 20
77.84258814711939
 30
0.0
 10
2014.040524733718
 20
77.66599351501463
 30
0.0
 10
2013.942946994276
 20
77.48942447230638
 30
0.0
  0
ELLIPSE
  5
915B
330
8C56
100
AcDbEntity
  8
Visible (ISO)
100
AcDbEllipse
 10
1962.708193164485
 20
3.849036196110311
 30
0.0
 11
94.99999999999955
 21
-0.0000000000619227
 31
0.0
210
0.0
220
0.0
230
1.0
 40
0.9205048534524429
 41
0.7035402581793964
 42
1.001175007722668
  0
LINE
  5
915C
330
8C56
100
AcDbEntity
  8
Visible (ISO)
100
AcDbLine
 10
2014.234885276429
 20
78.01919819726936
 30
0.0
 11
1983.365614933523
 21
78.01919819726936
 31
0.0
  0
LINE
  5
915D
330
8C56
100
AcDbEntity
  8
Visible (ISO)
100
AcDbLine
 10
1948.026978345976
 20
78.01919819726936
 30
0.0
 11
1911.181501052523
 21
78.01919819726936
 31
0.0
  0
SPLINE
  5
915E
330
8C56
100
AcDbEntity
  8
Visible (ISO)
100
AcDbSpline
210
0.0
220
0.0
230
1.0
 70
     8
 71
     3
 72
     8
 73
     4
 74
     0
 42
0.0000000001
 43
0.0000000001
 40
-0.1444018675898508
 40
-0.1444018675898508
 40
-0.1444018675898508
 40
-0.1444018675898508
 40
0.0
 40
0.0
 40
0.0
 40
0.0
 10
1911.181501052523
 20
78.01919819726936
 30
0.0
 10
1911.278548472771
 20
77.84258814711666
 30
0.0
 10
1911.375861595239
 20
77.66599351501191
 30
0.0
 10
1911.47343933468
 20
77.48942447230638
 30
0.0
  0
LINE
  5
915F
330
8C56
100
AcDbEntity
  8
Visible (ISO)
100
AcDbLine
 10
1911.47343933468
 20
77.48942447230638
 30
0.0
 11
1947.460560256982
 21
77.48942447230638
 31
0.0
  0
LINE
  5
9160
330
8C56
100
AcDbEntity
  8
Visible (ISO)
100
AcDbLine
 10
1983.0711932517
 20
77.48942447230638
 30
0.0
 11
2013.942946994276
 21
77.48942447230638
 31
0.0
  0
ELLIPSE
  5
9161
330
8C56
100
AcDbEntity
  8
Visible (ISO)
100
AcDbEllipse
 10
1962.708193164482
 20
3.458305067628309
 30
0.0
 11
-95.99999999999132
 21
0.0000000000628109
 31
0.0
210
0.0
220
0.0
230
1.0
 40
0.9205048534524429
 41
5.278953311006477
 42
5.313180665992068
  0
ELLIPSE
  5
9162
330
8C56
100
AcDbEntity
  8
Visible (ISO)
100
AcDbEllipse
 10
1962.708193164474
 20
3.458305067630128
 30
0.0
 11
-95.999999999984
 21
0.0000000000627054
 31
0.0
210
0.0
220
0.0
230
1.0
 40
0.9205048534524429
 41
5.604410628810019
 42
5.64032110169388
  0
ELLIPSE
  5
9163
330
8C56
100
AcDbEntity
  8
Visible (ISO)
100
AcDbEllipse
 10
1962.708193164509
 20
3.84903619609394
 30
0.0
 11
95.00000000002874
 21
-0.0000000000710487
 31
0.0
210
0.0
220
0.0
230
1.0
 40
0.9205048534524431
 41
2.46136924599288
 42
2.508891314491542
  0
ELLIPSE
  5
9164
330
8C56
100
AcDbEntity
  8
Visible (ISO)
100
AcDbEllipse
 10
1962.708193164591
 20
3.849036195964792
 30
0.0
 11
95.00000000019014
 21
-0.0000000000710876
 31
0.0
210
0.0
220
0.0
230
1.0
 40
0.9205048534524429
 41
2.140417645868669
 42
2.166165422118389
  0
LINE
  5
9165
330
8C56
100
AcDbEntity
  8
Visible (ISO)
100
AcDbLine
 10
1881.708193164485
 20
13.74005879108699
 30
0.0
 11
1881.708193164493
 21
-43.97226510378096
 31
0.0
  0
LINE
  5
9166
330
8C56
100
AcDbEntity
  8
Visible (ISO)
100
AcDbLine
 10
1882.708193164493
 20
-43.31280336965938
 30
0.0
 11
1882.708193164486
 21
12.47283046639495
 31
0.0
  0
LINE
  5
9167
330
8C56
100
AcDbEntity
  8
Visible (ISO)
100
AcDbLine
 10
2014.234885276443
 20
-75.7913616038968
 30
0.0
 11
1911.181501052538
 21
-75.7913616038968
 31
0.0
  0
ELLIPSE
  5
9168
330
8C56
100
AcDbEntity
  8
Visible (ISO)
100
AcDbEllipse
 10
1962.708193164482
 20
-1.230468474250308
 30
0.0
 11
-95.99999999999992
 21
0.0000000000718481
 31
0.0
210
0.0
220
0.0
230
1.0
 40
0.9205048534524429
 41
2.137360657416792
 42
2.575028322969544
  0
ELLIPSE
  5
9169
330
8C56
100
AcDbEntity
  8
Visible (ISO)
100
AcDbEllipse
 10
1962.708193164482
 20
-1.230468474250308
 30
0.0
 11
-95.99999999999958
 21
0.0000000000627165
 31
0.0
210
0.0
220
0.0
230
1.0
 40
0.9205048534524427
 41
0.5665643306217856
 42
1.004231996174526
  0
LINE
  5
916A
330
8C56
100
AcDbEntity
  8
Visible (ISO)
100
AcDbLine
 10
2043.708193164492
 20
-43.97226510378096
 30
0.0
 11
2043.708193164489
 21
-48.66103864565229
 31
0.0
  0
LINE
  5
916B
330
8C56
100
AcDbEntity
  8
Visible (ISO)
100
AcDbLine
 10
1881.708193164493
 20
-43.97226510378096
 30
0.0
 11
1881.708193164489
 21
-48.66103864565229
 31
0.0
  0
LINE
  5
916C
330
8C56
100
AcDbEntity
  8
Visible (ISO)
100
AcDbLine
 10
1911.181501052541
 20
-71.10258806202546
 30
0.0
 11
1911.181501052538
 21
-75.7913616038968
 31
0.0
  0
LINE
  5
916D
330
8C56
100
AcDbEntity
  8
Visible (ISO)
100
AcDbLine
 10
2014.234885276447
 20
-71.10258806202546
 30
0.0
 11
2014.234885276443
 21
-75.7913616038968
 31
0.0
  0
ELLIPSE
  5
916E
330
8C56
100
AcDbEntity
  8
Visible (ISO)
100
AcDbEllipse
 10
1213.019142118957
 20
80.07987742824662
 30
0.0
 11
10.00000000000021
 21
-0.0000000000074541
 31
0.0
210
0.0
220
0.0
230
1.0
 40
0.9205048534524433
 41
0.2100478131967902
 42
0.7205534051343355
  0
ELLIPSE
  5
916F
330
8C56
100
AcDbEntity
  8
Visible (ISO)
100
AcDbEllipse
 10
1220.841688356105
 20
99.78159287396374
 30
0.0
 11
-9.999999999999765
 21
0.0000000000074531
 31
0.0
210
0.0
220
0.0
230
1.0
 40
0.9205048534524429
 41
0.1695645133843433
 42
0.7205534051343588
  0
ELLIPSE
  5
9170
330
8C56
100
AcDbEntity
  8
Visible (ISO)
100
AcDbEllipse
 10
1064.796917128436
 20
86.44286473230568
 30
0.0
 11
10.00000000000601
 21
-0.0000000000001942
 31
0.0
210
0.0
220
0.0
230
1.0
 40
0.9205048534524427
 41
0.0
 42
0.0747815818954569
  0
ELLIPSE
  5
9171
330
8C56
100
AcDbEntity
  8
Visible (ISO)
100
AcDbEllipse
 10
1078.776592933083
 20
71.23061930408585
 30
0.0
 11
-9.999999999999813
 21
0.0000000000074538
 31
0.0
210
0.0
220
0.0
230
1.0
 40
0.9205048534524429
 41
0.2356356826464712
 42
0.4762073098551545
  0
ELLIPSE
  5
9172
330
8C56
100
AcDbEntity
  8
Visible (ISO)
100
AcDbEllipse
 10
1199.731439391268
 20
104.1862602334867
 30
0.0
 11
9.999999999999992
 21
-0.0000000000074491
 31
0.0
210
0.0
220
0.0
230
1.0
 40
0.9205048534524429
 41
0.1695645133843425
 42
1.121979133093072
  0
ELLIPSE
  5
9173
330
8C56
100
AcDbEntity
  8
Visible (ISO)
100
AcDbEllipse
 10
1200.950521459497
 20
124.0796716470258
 30
0.0
 11
-10.00000000000004
 21
0.0000000000074551
 31
0.0
210
0.0
220
0.0
230
1.0
 40
0.9205048534524429
 41
0.5709902413430461
 42
1.121979133093073
  0
ELLIPSE
  5
9174
330
8C56
100
AcDbEntity
  8
Visible (ISO)
100
AcDbEllipse
 10
1179.648764461876
 20
120.541468191579
 30
0.0
 11
-9.999999999999959
 21
0.0000000000064955
 31
0.0
210
0.0
220
0.0
230
1.0
 40
0.9205048534524427
 41
3.712582894932706
 42
4.664997514641504
  0
ELLIPSE
  5
9175
330
8C56
100
AcDbEntity
  8
Visible (ISO)
100
AcDbEllipse
 10
1172.326683268894
 20
139.2919170752465
 30
0.0
 11
-10.00000000000013
 21
0.0000000000074483
 31
0.0
210
0.0
220
0.0
230
1.0
 40
0.9205048534524427
 41
0.9724159693017355
 42
1.523404861051763
  0
ELLIPSE
  5
9176
330
8C56
100
AcDbEntity
  8
Visible (ISO)
100
AcDbEllipse
 10
1078.776592933079
 20
66.93257689070378
 30
0.0
 11
-9.999999999999985
 21
0.0000000000074517
 31
0.0
210
0.0
220
0.0
230
1.0
 40
0.9205048534524433
 41
5.806977997326048
 42
6.759392617034809
  0
ELLIPSE
  5
9177
330
8C56
100
AcDbEntity
  8
Visible (ISO)
100
AcDbEllipse
 10
1064.796917128438
 20
82.14482231892361
 30
0.0
 11
9.999999999999989
 21
-0.0000000000074488
 31
0.0
210
0.0
220
0.0
230
1.0
 40
0.9205048534524429
 41
5.806977997326047
 42
6.357966889076096
  0
ELLIPSE
  5
9178
330
8C56
100
AcDbEntity
  8
Visible (ISO)
100
AcDbEllipse
 10
1084.122491638577
 20
91.11969946645604
 30
0.0
 11
-9.99999999999996
 21
0.00000000000746
 31
0.0
210
0.0
220
0.0
230
1.0
 40
0.9205048534524431
 41
5.405552269367277
 42
6.357966889076097
  0
ELLIPSE
  5
9179
330
8C56
100
AcDbEntity
  8
Visible (ISO)
100
AcDbEllipse
 10
1077.711347292993
 20
110.1507138160959
 30
0.0
 11
9.999999999999987
 21
-0.0000000000074517
 31
0.0
210
0.0
220
0.0
230
1.0
 40
0.9205048534524429
 41
5.40555226936733
 42
5.956541161117404
  0
ELLIPSE
  5
917A
330
8C56
100
AcDbEntity
  8
Visible (ISO)
100
AcDbEllipse
 10
1100.158303314412
 20
113.7655895346852
 30
0.0
 11
-9.999999999999946
 21
0.0000000000074329
 31
0.0
210
0.0
220
0.0
230
1.0
 40
0.9205048534524429
 41
5.446035569179782
 42
5.956541161117317
  0
ELLIPSE
  5
917B
330
8C56
100
AcDbEntity
  8
Visible (ISO)
100
AcDbEllipse
 10
1124.896676423464
 20
126.9128900722289
 30
0.0
 11
-9.999999999999946
 21
0.0000000000074499
 31
0.0
210
0.0
220
0.0
230
1.0
 40
0.9205048534524429
 41
4.515434350850239
 42
5.025939942787819
  0
ELLIPSE
  5
917C
330
8C56
100
AcDbEntity
  8
Visible (ISO)
100
AcDbEllipse
 10
1139.52108620773
 20
142.9997297993568
 30
0.0
 11
-9.999999999999955
 21
0.0000000000074503
 31
0.0
210
0.0
220
0.0
230
1.0
 40
0.9205048534524431
 41
1.373841697260446
 42
1.924830589010472
  0
ELLIPSE
  5
917D
330
8C56
100
AcDbEntity
  8
Visible (ISO)
100
AcDbEllipse
 10
1154.220190826986
 20
128.373382809239
 30
0.0
 11
-10.0
 21
0.0000000000064899
 31
0.0
210
0.0
220
0.0
230
1.0
 40
0.9205048534524429
 41
4.11400862289143
 42
5.066423242600199
  0
LINE
  5
917E
330
8C56
100
AcDbEntity
  8
Visible (ISO)
100
AcDbLine
 10
1074.796917128441
 20
86.44286473230568
 30
0.0
 11
1074.796917128437
 21
82.14482231892361
 31
0.0
  0
LINE
  5
917F
330
8C56
100
AcDbEntity
  8
Visible (ISO)
100
AcDbLine
 10
1213.327281284365
 20
93.70809610574179
 30
0.0
 11
1220.533549190696
 21
86.15337419646857
 31
0.0
  0
LINE
  5
9180
330
8C56
100
AcDbEntity
  8
Visible (ISO)
100
AcDbLine
 10
1074.302697105105
 20
92.85934047708725
 30
0.0
 11
1074.768968731746
 21
87.13059141076156
 31
0.0
  0
LINE
  5
9181
330
8C56
100
AcDbEntity
  8
Visible (ISO)
100
AcDbLine
 10
1069.889193688802
 20
67.01091675407406
 30
0.0
 11
1073.223135854775
 21
61.06110700240788
 31
0.0
  0
LINE
  5
9182
330
8C56
100
AcDbEntity
  8
Visible (ISO)
100
AcDbLine
 10
1209.588022892253
 20
105.7396409308357
 30
0.0
 11
1210.985104855118
 21
98.22821217661477
 31
0.0
  0
LINE
  5
9183
330
8C56
100
AcDbEntity
  8
Visible (ISO)
100
AcDbLine
 10
1188.062426426984
 20
125.5164790665576
 30
0.0
 11
1192.536859494391
 21
119.1046607720472
 31
0.0
  0
LINE
  5
9184
330
8C56
100
AcDbEntity
  8
Visible (ISO)
100
AcDbLine
 10
1159.853240674375
 20
135.9790454246849
 30
0.0
 11
1166.693633421503
 21
131.6862544598006
 31
0.0
  0
LINE
  5
9185
330
8C56
100
AcDbEntity
  8
Visible (ISO)
100
AcDbLine
 10
1071.731835598243
 20
59.42446432760516
 30
0.0
 11
1069.8891936888
 21
62.7128743406929
 31
0.0
  0
LINE
  5
9186
330
8C56
100
AcDbEntity
  8
Visible (ISO)
100
AcDbLine
 10
1069.889193688798
 20
71.15227944071467
 30
0.0
 11
1073.684316372718
 21
77.92511976891365
 31
0.0
  0
LINE
  5
9187
330
8C56
100
AcDbEntity
  8
Visible (ISO)
100
AcDbLine
 10
1074.768968731742
 20
82.83254899737949
 30
0.0
 11
1074.150440035272
 21
90.43197278800017
 31
0.0
  0
LINE
  5
9188
330
8C56
100
AcDbEntity
  8
Visible (ISO)
100
AcDbLine
 10
1077.732754964022
 20
98.20048614282313
 30
0.0
 11
1084.101083967548
 21
103.0699271397306
 31
0.0
  0
LINE
  5
9189
330
8C56
100
AcDbEntity
  8
Visible (ISO)
100
AcDbLine
 10
1087.182591848153
 20
107.1971227568192
 30
0.0
 11
1090.68705875925
 21
116.7191805939637
 31
0.0
  0
LINE
  5
918A
330
8C56
100
AcDbEntity
  8
Visible (ISO)
100
AcDbLine
 10
1126.853513906882
 20
135.9399778997276
 30
0.0
 11
1137.564248724312
 21
133.9726419718572
 31
0.0
  0
LINE
  5
918B
330
8C56
100
AcDbEntity
  8
Visible (ISO)
100
AcDbLine
 10
1142.987933034162
 20
134.3655624256416
 30
0.0
 11
1150.753344000555
 21
137.0075501829542
 31
0.0
  0
LINE
  5
918C
330
8C56
100
AcDbEntity
  8
Visible (ISO)
100
AcDbLine
 10
1171.852945989721
 20
130.0972036502553
 30
0.0
 11
1180.122501741051
 21
129.7361816165685
 31
0.0
  0
LINE
  5
918D
330
8C56
100
AcDbEntity
  8
Visible (ISO)
100
AcDbLine
 10
1196.611519703584
 20
115.7862823531249
 30
0.0
 11
1204.070441147181
 21
112.4796495273876
 31
0.0
  0
ELLIPSE
  5
918E
330
8C56
100
AcDbEntity
  8
Visible (ISO)
100
AcDbEllipse
 10
1146.024707285614
 20
71.23061930408676
 30
0.0
 11
78.5000000000058
 21
-0.0000000000584713
 31
0.0
210
0.0
220
0.0
230
1.0
 40
0.9205048534524429
 41
6.076961299754461
 42
6.11612380556059
  0
ELLIPSE
  5
918F
330
8C56
100
AcDbEntity
  8
Visible (ISO)
100
AcDbEllipse
 10
1146.024707285619
 20
71.23061930408585
 30
0.0
 11
-99.4999999999997
 21
0.0000000000045606
 31
0.0
210
0.0
220
0.0
230
1.0
 40
0.9205048534524427
 41
3.141592653589526
 42
6.28318530717932
  0
ELLIPSE
  5
9190
330
8C56
100
AcDbEntity
  8
Visible (ISO)
100
AcDbEllipse
 10
1146.024707285616
 20
66.93257689070378
 30
0.0
 11
78.4999999999998
 21
-0.0000000000584921
 31
0.0
210
0.0
220
0.0
230
1.0
 40
0.9205048534524429
 41
6.12539501271594
 42
6.493233120376388
  0
ELLIPSE
  5
9191
330
8C56
100
AcDbEntity
  8
Visible (ISO)
100
AcDbEllipse
 10
1146.024707285616
 20
66.93257689070378
 30
0.0
 11
78.49999999999946
 21
-0.0000000000659361
 31
0.0
210
0.0
220
0.0
230
1.0
 40
0.9205048534524429
 41
1.884347289198093
 42
2.304442915590104
  0
ELLIPSE
  5
9192
330
8C56
100
AcDbEntity
  8
Visible (ISO)
100
AcDbEllipse
 10
1146.024707285616
 20
66.93257689070378
 30
0.0
 11
-99.49999999999974
 21
0.0000000000741129
 31
0.0
210
0.0
220
0.0
230
1.0
 40
0.9205048534524429
 41
2.55903171014272
 42
6.865746250628275
  0
ELLIPSE
  5
9193
330
8C56
100
AcDbEntity
  8
Visible (ISO)
100
AcDbEllipse
 10
1146.024707285614
 20
64.19745899127883
 30
0.0
 11
20.99999999999992
 21
-0.0000000000156408
 31
0.0
210
0.0
220
0.0
230
1.0
 40
0.9205048534524431
 41
0.7966506584697637
 42
1.630958756487506
  0
LINE
  5
9194
330
8C56
100
AcDbEntity
  8
Visible (ISO)
100
AcDbLine
 10
1046.524707285616
 20
66.93257689070833
 30
0.0
 11
1046.524707285619
 21
71.2306193040904
 31
0.0
  0
LINE
  5
9195
330
8C56
100
AcDbEntity
  8
Visible (ISO)
100
AcDbLine
 10
1245.524707285616
 20
66.93257689069833
 30
0.0
 11
1245.524707285619
 21
71.2306193040813
 31
0.0
  0
ELLIPSE
  5
9196
330
8C56
100
AcDbEntity
  8
Visible (ISO)
100
AcDbEllipse
 10
1146.024707285612
 20
60.02509474479938
 30
0.0
 11
-71.38920899174921
 21
-37.36951275350639
 31
0.0
210
0.0
220
0.0
230
1.0
 40
0.8736283239053415
 41
2.59135915106717
 42
2.704795008772343
  0
LINE
  5
9197
330
8C56
100
AcDbEntity
  8
Visible (ISO)
100
AcDbLine
 10
1223.798012700708
 20
76.7420220557151
 30
0.0
 11
1202.962356573714
 21
74.6062688758684
 31
0.0
  0
LINE
  5
9198
330
8C56
100
AcDbEntity
  8
Visible (ISO)
100
AcDbLine
 10
1220.745597703747
 20
58.93954288344048
 30
0.0
 11
1223.947746240731
 21
59.26777823530574
 31
0.0
  0
LINE
  5
9199
330
8C56
100
AcDbEntity
  8
Visible (ISO)
100
AcDbLine
 10
1200.293094745234
 20
76.35242197225671
 30
0.0
 11
1223.471720545001
 21
78.7283406116594
 31
0.0
  0
LINE
  5
919A
330
8C56
100
AcDbEntity
  8
Visible (ISO)
100
AcDbLine
 10
1116.712063284159
 20
133.9654246982281
 30
0.0
 11
1144.887788221399
 21
83.26685297244694
 31
0.0
  0
LINE
  5
919B
330
8C56
100
AcDbEntity
  8
Visible (ISO)
100
AcDbLine
 10
1099.270234662284
 20
124.9774648439688
 30
0.0
 11
1125.367285516561
 21
78.01919819726936
 31
0.0
  0
ELLIPSE
  5
919C
330
8C56
100
AcDbEntity
  8
Visible (ISO)
100
AcDbEllipse
 10
1146.024707285612
 20
60.02509474479938
 30
0.0
 11
13.66651659264648
 21
-16.7928272535232
 31
0.0
210
0.0
220
0.0
230
1.0
 40
0.9494813500539219
 41
2.487138279544672
 42
3.042506844999144
  0
LINE
  5
919D
330
8C56
100
AcDbEntity
  8
Visible (ISO)
100
AcDbLine
 10
1144.887788221397
 20
81.24708792915043
 30
0.0
 11
1115.784181146036
 21
133.6152635156113
 31
0.0
  0
LINE
  5
919E
330
8C56
100
AcDbEntity
  8
Visible (ISO)
100
AcDbLine
 10
1144.887788221399
 20
83.26685297244694
 30
0.0
 11
1144.887788221397
 21
81.24708792915043
 31
0.0
  0
ELLIPSE
  5
919F
330
8C56
100
AcDbEntity
  8
Visible (ISO)
100
AcDbEllipse
 10
1200.208099575074
 20
38.12981582694555
 30
0.0
 11
9.999999999999911
 21
-0.0000000000065024
 31
0.0
210
0.0
220
0.0
230
1.0
 40
0.9205048534524427
 41
3.890830743478342
 42
4.71238898038543
  0
ELLIPSE
  5
91A0
330
8C56
100
AcDbEntity
  8
Visible (ISO)
100
AcDbEllipse
 10
1200.208099575067
 20
29.52309544716626
 30
0.0
 11
-0.0000000000056192
 21
-18.4100970690488
 31
0.0
210
0.0
220
0.0
230
1.0
 40
0.543180188702647
 41
5.461627070271767
 42
6.283185307178449
  0
ELLIPSE
  5
91A1
330
8C56
100
AcDbEntity
  8
Visible (ISO)
100
AcDbEllipse
 10
1091.841314996033
 20
38.12981582694555
 30
0.0
 11
9.999999999999909
 21
-0.0000000000000164
 31
0.0
210
0.0
220
0.0
230
1.0
 40
0.9205048534524429
 41
4.712388980384904
 42
5.533947217291861
  0
ELLIPSE
  5
91A2
330
8C56
100
AcDbEntity
  8
Visible (ISO)
100
AcDbEllipse
 10
1091.841314996028
 20
29.52309544716626
 30
0.0
 11
-0.0000000000056214
 21
-18.4100970690488
 31
0.0
210
0.0
220
0.0
230
1.0
 40
0.543180188702647
 41
0.0
 42
0.8215582369063261
  0
ELLIPSE
  5
91A3
330
8C56
100
AcDbEntity
  8
Visible (ISO)
100
AcDbEllipse
 10
1146.024707285561
 20
-8.263628787057321
 30
0.0
 11
-63.99999999999987
 21
0.0000000000416001
 31
0.0
210
0.0
220
0.0
230
1.0
 40
0.9205048534524429
 41
3.890830743478325
 42
4.345907017543911
  0
ELLIPSE
  5
91A4
330
8C56
100
AcDbEntity
  8
Visible (ISO)
100
AcDbEllipse
 10
1146.024707285519
 20
-63.26379378084039
 30
0.0
 11
-0.0000000000359699
 21
-117.8246212419123
 31
0.0
210
0.0
220
0.0
230
1.0
 40
0.5431801887026469
 41
2.320034416681993
 42
2.775110690747271
  0
LINE
  5
91A5
330
8C56
100
AcDbEntity
  8
Visible (ISO)
100
AcDbLine
 10
1227.024707285554
 20
28.92476729242116
 30
0.0
 11
1200.208099575074
 21
28.92476729242116
 31
0.0
  0
LINE
  5
91A6
330
8C56
100
AcDbEntity
  8
Visible (ISO)
100
AcDbLine
 10
1065.024707285556
 20
28.92476729242116
 30
0.0
 11
1091.841314996035
 21
28.92476729242116
 31
0.0
  0
ELLIPSE
  5
91A7
330
8C56
100
AcDbEntity
  8
Visible (ISO)
100
AcDbEllipse
 10
1146.024707285561
 20
-8.263628787057321
 30
0.0
 11
63.99999999999987
 21
-0.0000000000537403
 31
0.0
210
0.0
220
0.0
230
1.0
 40
0.9205048534524429
 41
1.937278289637291
 42
2.39235456370288
  0
ELLIPSE
  5
91A8
330
8C56
100
AcDbEntity
  8
Visible (ISO)
100
AcDbEllipse
 10
1146.024707285519
 20
-63.26379378084039
 30
0.0
 11
-0.0000000000359699
 21
-117.8246212419123
 31
0.0
210
0.0
220
0.0
230
1.0
 40
0.5431801887026469
 41
3.508074616430249
 42
3.963150890496128
  0
LINE
  5
91A9
330
8C56
100
AcDbEntity
  8
Visible (ISO)
100
AcDbLine
 10
1065.024707285543
 20
11.11299837811748
 30
0.0
 11
1065.024707285556
 21
28.92476729242116
 31
0.0
  0
LINE
  5
91AA
330
8C56
100
AcDbEntity
  8
Visible (ISO)
100
AcDbLine
 10
1091.841314996022
 20
11.11299837811748
 30
0.0
 11
1065.024707285543
 21
11.11299837811748
 31
0.0
  0
LINE
  5
91AB
330
8C56
100
AcDbEntity
  8
Visible (ISO)
100
AcDbLine
 10
1227.024707285543
 20
11.11299837811748
 30
0.0
 11
1200.208099575061
 21
11.11299837811748
 31
0.0
  0
LINE
  5
91AC
330
8C56
100
AcDbEntity
  8
Visible (ISO)
100
AcDbLine
 10
1227.024707285554
 20
28.92476729242116
 30
0.0
 11
1227.024707285543
 21
11.11299837811657
 31
0.0
  0
LINE
  5
91AD
330
8C56
100
AcDbEntity
  8
Visible (ISO)
100
AcDbLine
 10
1227.024707285554
 20
39.16694138434559
 30
0.0
 11
1227.024707285554
 21
28.92476729242116
 31
0.0
  0
ELLIPSE
  5
91AE
330
8C56
100
AcDbEntity
  8
Visible (ISO)
100
AcDbEllipse
 10
1146.024707285561
 20
-8.263628787057321
 30
0.0
 11
96.00000000000006
 21
-0.0000000000715317
 31
0.0
210
0.0
220
0.0
230
1.0
 40
0.9205048534524429
 41
0.5665643306218904
 42
1.004231996174627
  0
LINE
  5
91AF
330
8C56
100
AcDbEntity
  8
Visible (ISO)
100
AcDbLine
 10
1094.498015173597
 20
66.29726434259101
 30
0.0
 11
1197.551399397503
 21
66.29726434259101
 31
0.0
  0
ELLIPSE
  5
91B0
330
8C56
100
AcDbEntity
  8
Visible (ISO)
100
AcDbEllipse
 10
1146.024707285561
 20
-8.263628787057321
 30
0.0
 11
96.00000000000006
 21
-0.0000000000806466
 31
0.0
210
0.0
220
0.0
230
1.0
 40
0.9205048534524431
 41
2.137360657416888
 42
2.575028322969641
  0
LINE
  5
91B1
330
8C56
100
AcDbEntity
  8
Visible (ISO)
100
AcDbLine
 10
1065.024707285556
 20
28.92476729242116
 30
0.0
 11
1065.024707285554
 21
39.16694138434559
 31
0.0
  0
ELLIPSE
  5
91B2
330
8C56
100
AcDbEntity
  8
Visible (ISO)
100
AcDbEllipse
 10
1146.024707285564
 20
-8.263628787050045
 30
0.0
 11
-96.00000000000839
 21
0.0000000000715372
 31
0.0
210
0.0
220
0.0
230
1.0
 40
0.9205048534524431
 41
0.9757684398815769
 42
1.004231996174621
  0
ELLIPSE
  5
91B3
330
8C56
100
AcDbEntity
  8
Visible (ISO)
100
AcDbEllipse
 10
1146.024707285561
 20
-8.263628787055502
 30
0.0
 11
-96.00000000000127
 21
0.000000000071565
 31
0.0
210
0.0
220
0.0
230
1.0
 40
0.9205048534524427
 41
0.6717999668555148
 42
0.8586927044653362
  0
LINE
  5
91B4
330
8C56
100
AcDbEntity
  8
Visible (ISO)
100
AcDbLine
 10
1197.551399397523
 20
-82.82452191670472
 30
0.0
 11
1094.498015173617
 21
-82.82452191670472
 31
0.0
  0
ELLIPSE
  5
91B5
330
8C56
100
AcDbEntity
  8
Visible (ISO)
100
AcDbEllipse
 10
1146.024707285561
 20
-8.263628787057321
 30
0.0
 11
-95.99999999999955
 21
0.0000000000806077
 31
0.0
210
0.0
220
0.0
230
1.0
 40
0.9205048534524429
 41
2.282899949126173
 42
2.469792686736015
  0
ELLIPSE
  5
91B6
330
8C56
100
AcDbEntity
  8
Visible (ISO)
100
AcDbEllipse
 10
1146.024707285566
 20
-8.263628787066416
 30
0.0
 11
-95.99999999998766
 21
0.0000000000806188
 31
0.0
210
0.0
220
0.0
230
1.0
 40
0.9205048534524429
 41
2.137360657416886
 42
2.165824213709939
  0
LINE
  5
91B7
330
8C56
100
AcDbEntity
  8
Visible (ISO)
100
AcDbLine
 10
1065.024707285559
 20
45.80937056866332
 30
0.0
 11
1065.024707285554
 21
39.16694138434559
 31
0.0
  0
LINE
  5
91B8
330
8C56
100
AcDbEntity
  8
Visible (ISO)
100
AcDbLine
 10
1197.551399397508
 20
72.93969352690874
 30
0.0
 11
1094.498015173603
 21
72.93969352690874
 31
0.0
  0
ELLIPSE
  5
91B9
330
8C56
100
AcDbEntity
  8
Visible (ISO)
100
AcDbEllipse
 10
1146.024707285564
 20
-1.621199602739586
 30
0.0
 11
-95.99999999999983
 21
0.0000000000623779
 31
0.0
210
0.0
220
0.0
230
1.0
 40
0.9205048534524427
 41
3.708156984211559
 42
4.14582464976431
  0
ELLIPSE
  5
91BA
330
8C56
100
AcDbEntity
  8
Visible (ISO)
100
AcDbEllipse
 10
1146.024707285564
 20
-1.621199602739586
 30
0.0
 11
-95.99999999999983
 21
0.000000000071515
 31
0.0
210
0.0
220
0.0
230
1.0
 40
0.9205048534524427
 41
5.278953311006577
 42
5.716620976559315
  0
LINE
  5
91BB
330
8C56
100
AcDbEntity
  8
Visible (ISO)
100
AcDbLine
 10
1227.024707285557
 20
45.80937056866332
 30
0.0
 11
1227.024707285554
 21
39.16694138434559
 31
0.0
  0
LINE
  5
91BC
330
8C56
100
AcDbEntity
  8
Visible (ISO)
100
AcDbLine
 10
1197.551399397508
 20
72.93969352690874
 30
0.0
 11
1197.551399397503
 21
66.29726434259101
 31
0.0
  0
LINE
  5
91BD
330
8C56
100
AcDbEntity
  8
Visible (ISO)
100
AcDbLine
 10
1094.498015173603
 20
72.93969352690874
 30
0.0
 11
1094.498015173597
 21
66.29726434259101
 31
0.0
  0
LINE
  5
91BE
330
8C56
100
AcDbEntity
  8
Visible (ISO)
100
AcDbLine
 10
1123.091380008421
 20
46.73653620672666
 30
0.0
 11
1168.958034562683
 21
46.73653620672666
 31
0.0
  0
LINE
  5
91BF
330
8C56
100
AcDbEntity
  8
Visible (ISO)
100
AcDbLine
 10
1065.024707285543
 20
11.11299837811748
 30
0.0
 11
1065.024707285535
 21
-12.10757174375794
 31
0.0
  0
LINE
  5
91C0
330
8C56
100
AcDbEntity
  8
Visible (ISO)
100
AcDbLine
 10
1109.024707285535
 20
-12.10757174375794
 30
0.0
 11
1065.024707285535
 21
-12.10757174375794
 31
0.0
  0
LINE
  5
91C1
330
8C56
100
AcDbEntity
  8
Visible (ISO)
100
AcDbLine
 10
1227.024707285536
 20
-12.10757174375794
 30
0.0
 11
1183.024707285535
 21
-12.10757174375794
 31
0.0
  0
LINE
  5
91C2
330
8C56
100
AcDbEntity
  8
Visible (ISO)
100
AcDbLine
 10
1227.024707285536
 20
-12.10757174375794
 30
0.0
 11
1227.024707285543
 21
11.11299837811657
 31
0.0
  0
LINE
  5
91C3
330
8C56
100
AcDbEntity
  8
Visible (ISO)
100
AcDbLine
 10
1065.024707285535
 20
-12.10757174375794
 30
0.0
 11
1065.024707285543
 21
-63.26379378084038
 31
0.0
  0
LINE
  5
91C4
330
8C56
100
AcDbEntity
  8
Visible (ISO)
100
AcDbLine
 10
1183.024707285541
 20
-63.26379378084038
 30
0.0
 11
1227.024707285541
 21
-63.26379378084038
 31
0.0
  0
LINE
  5
91C5
330
8C56
100
AcDbEntity
  8
Visible (ISO)
100
AcDbLine
 10
1065.024707285543
 20
-63.26379378084038
 30
0.0
 11
1109.024707285543
 21
-63.26379378084038
 31
0.0
  0
LINE
  5
91C6
330
8C56
100
AcDbEntity
  8
Visible (ISO)
100
AcDbLine
 10
1227.024707285541
 20
-63.26379378084038
 30
0.0
 11
1227.024707285536
 21
-12.10757174375794
 31
0.0
  0
ELLIPSE
  5
91C7
330
8C56
100
AcDbEntity
  8
Visible (ISO)
100
AcDbEllipse
 10
1200.018866499221
 20
50.96877195245178
 30
0.0
 11
-8.999999999999976
 21
0.0
 31
0.0
210
0.0
220
0.0
230
1.0
 40
0.9205048534524429
 41
3.141592653589519
 42
6.283185307179311
  0
ELLIPSE
  5
91C8
330
8C56
100
AcDbEntity
  8
Visible (ISO)
100
AcDbEllipse
 10
1092.030548071883
 20
50.96877195245178
 30
0.0
 11
-8.999999999999987
 21
0.0000000000005069
 31
0.0
210
0.0
220
0.0
230
1.0
 40
0.9205048534524429
 41
3.141592653589547
 42
6.283185307179341
  0
ELLIPSE
  5
91C9
330
8C56
100
AcDbEntity
  8
Visible (ISO)
100
AcDbEllipse
 10
1092.030548071879
 20
45.30317058935724
 30
0.0
 11
8.999999999999975
 21
0.0
 31
0.0
210
0.0
220
0.0
230
1.0
 40
0.9205048534524427
 41
0.0
 42
6.283185307179586
  0
ELLIPSE
  5
91CA
330
8C56
100
AcDbEntity
  8
Visible (ISO)
100
AcDbEllipse
 10
1200.018866499218
 20
45.30317058935724
 30
0.0
 11
-8.999999999999975
 21
0.0
 31
0.0
210
0.0
220
0.0
230
1.0
 40
0.9205048534524427
 41
0.0
 42
6.283185307179586
  0
LINE
  5
91CB
330
8C56
100
AcDbEntity
  8
Visible (ISO)
100
AcDbLine
 10
1101.030548071883
 20
50.96877195245088
 30
0.0
 11
1101.030548071879
 21
45.30317058935634
 31
0.0
  0
LINE
  5
91CC
330
8C56
100
AcDbEntity
  8
Visible (ISO)
100
AcDbLine
 10
1083.030548071883
 20
50.96877195245179
 30
0.0
 11
1083.030548071879
 21
45.30317058935724
 31
0.0
  0
LINE
  5
91CD
330
8C56
100
AcDbEntity
  8
Visible (ISO)
100
AcDbLine
 10
1191.018866499217
 20
45.30317058935724
 30
0.0
 11
1191.018866499221
 21
50.96877195245179
 31
0.0
  0
LINE
  5
91CE
330
8C56
100
AcDbEntity
  8
Visible (ISO)
100
AcDbLine
 10
1209.018866499218
 20
45.30317058935724
 30
0.0
 11
1209.018866499221
 21
50.96877195245088
 31
0.0
  0
ELLIPSE
  5
91CF
330
8C56
100
AcDbEntity
  8
Visible (ISO)
100
AcDbEllipse
 10
1200.018866499237
 20
-67.49602952656551
 30
0.0
 11
-9.000000000000003
 21
0.0000000000000164
 31
0.0
210
0.0
220
0.0
230
1.0
 40
0.9205048534524429
 41
5.747001299033954
 42
6.283185307179314
  0
ELLIPSE
  5
91D0
330
8C56
100
AcDbEntity
  8
Visible (ISO)
100
AcDbEllipse
 10
1200.018866499237
 20
-67.49602952656551
 30
0.0
 11
8.999999999999943
 21
-0.0000000000066995
 31
0.0
210
0.0
220
0.0
230
1.0
 40
0.9205048534524429
 41
0.0
 42
0.5361840081461758
  0
ELLIPSE
  5
91D1
330
8C56
100
AcDbEntity
  8
Visible (ISO)
100
AcDbEllipse
 10
1200.018866499232
 20
-73.16163088966004
 30
0.0
 11
8.999999999999975
 21
0.0
 31
0.0
210
0.0
220
0.0
230
1.0
 40
0.9205048534524427
 41
0.0
 42
6.283185307179586
  0
LINE
  5
91D2
330
8C56
100
AcDbEntity
  8
Visible (ISO)
100
AcDbLine
 10
1209.018866499238
 20
-67.49602952656551
 30
0.0
 11
1209.018866499232
 21
-73.16163088966004
 31
0.0
  0
LINE
  5
91D3
330
8C56
100
AcDbEntity
  8
Visible (ISO)
100
AcDbLine
 10
1191.018866499238
 20
-67.49602952656459
 30
0.0
 11
1191.018866499232
 21
-73.16163088965914
 31
0.0
  0
ELLIPSE
  5
91D4
330
8C56
100
AcDbEntity
  8
Visible (ISO)
100
AcDbEllipse
 10
1092.030548071899
 20
-67.49602952656551
 30
0.0
 11
-9.000000000000047
 21
0.0000000000003597
 31
0.0
210
0.0
220
0.0
230
1.0
 40
0.9205048534524429
 41
5.747001299034
 42
6.283185307179319
  0
ELLIPSE
  5
91D5
330
8C56
100
AcDbEntity
  8
Visible (ISO)
100
AcDbEllipse
 10
1092.030548071899
 20
-67.49602952656551
 30
0.0
 11
9.00000000000001
 21
-0.0000000000067071
 31
0.0
210
0.0
220
0.0
230
1.0
 40
0.9205048534524429
 41
0.0
 42
0.5361840081461767
  0
ELLIPSE
  5
91D6
330
8C56
100
AcDbEntity
  8
Visible (ISO)
100
AcDbEllipse
 10
1092.030548071893
 20
-73.16163088966004
 30
0.0
 11
-8.999999999999975
 21
0.0
 31
0.0
210
0.0
220
0.0
230
1.0
 40
0.9205048534524427
 41
0.0
 42
6.283185307179586
  0
LINE
  5
91D7
330
8C56
100
AcDbEntity
  8
Visible (ISO)
100
AcDbLine
 10
1083.030548071894
 20
-73.16163088965914
 30
0.0
 11
1083.030548071899
 21
-67.49602952656459
 31
0.0
  0
LINE
  5
91D8
330
8C56
100
AcDbEntity
  8
Visible (ISO)
100
AcDbLine
 10
1101.030548071894
 20
-73.16163088966004
 30
0.0
 11
1101.030548071899
 21
-67.49602952656551
 31
0.0
  0
LINE
  5
91D9
330
8C56
100
AcDbEntity
  8
Visible (ISO)
100
AcDbLine
 10
1109.024707285535
 20
-12.10757174375794
 30
0.0
 11
1128.704199209854
 21
14.52925687840433
 31
0.0
  0
ELLIPSE
  5
91DA
330
8C56
100
AcDbEntity
  8
Visible (ISO)
100
AcDbEllipse
 10
1146.024707285539
 20
6.714634308618762
 30
0.0
 11
19.99999999999994
 21
-0.0000000000000019
 31
0.0
210
0.0
220
0.0
230
1.0
 40
0.7814622569785497
 41
0.5235987755983045
 42
2.6179938779915
  0
LINE
  5
91DB
330
8C56
100
AcDbEntity
  8
Visible (ISO)
100
AcDbLine
 10
1163.345215361232
 20
14.52925687840433
 30
0.0
 11
1183.024707285535
 21
-12.10757174375794
 31
0.0
  0
LINE
  5
91DC
330
8C56
100
AcDbEntity
  8
Visible (ISO)
100
AcDbLine
 10
1183.024707285541
 20
-63.26379378084038
 30
0.0
 11
1163.345215361242
 21
-63.26379378084038
 31
0.0
  0
LINE
  5
91DD
330
8C56
100
AcDbEntity
  8
Visible (ISO)
100
AcDbLine
 10
1163.345215361242
 20
-63.26379378084038
 30
0.0
 11
1128.704199209865
 21
-63.26379378084038
 31
0.0
  0
LINE
  5
91DE
330
8C56
100
AcDbEntity
  8
Visible (ISO)
100
AcDbLine
 10
1128.704199209865
 20
-63.26379378084038
 30
0.0
 11
1109.024707285543
 21
-63.26379378084038
 31
0.0
  0
LINE
  5
91DF
330
8C56
100
AcDbEntity
  8
Visible (ISO)
100
AcDbLine
 10
1183.024707285535
 20
-12.10757174375794
 30
0.0
 11
1183.024707285541
 21
-63.26379378084038
 31
0.0
  0
LINE
  5
91E0
330
8C56
100
AcDbEntity
  8
Visible (ISO)
100
AcDbLine
 10
1109.024707285543
 20
-63.26379378084038
 30
0.0
 11
1109.024707285535
 21
-12.10757174375794
 31
0.0
  0
LINE
  5
91E1
330
8C56
100
AcDbEntity
  8
Visible (ISO)
100
AcDbLine
 10
1019.02470728555
 20
23.892903175034
 30
0.0
 11
1019.02470728555
 21
-67.10709682496599
 31
0.0
  0
LINE
  5
91E2
330
8C56
100
AcDbEntity
  8
Visible (ISO)
100
AcDbLine
 10
1021.87470728555
 20
23.892903175034
 30
0.0
 11
1021.87470728555
 21
-67.10709682496599
 31
0.0
  0
LINE
  5
91E3
330
8C56
100
AcDbEntity
  8
Visible (ISO)
100
AcDbLine
 10
1024.549888507408
 20
16.54290317503364
 30
0.0
 11
1024.549888507408
 21
-59.75709682496563
 31
0.0
  0
LINE
  5
91E4
330
8C56
100
AcDbEntity
  8
Visible (ISO)
100
AcDbLine
 10
1021.87470728555
 20
-67.10709682496599
 30
0.0
 11
1019.02470728555
 21
-67.10709682496599
 31
0.0
  0
LINE
  5
91E5
330
8C56
100
AcDbEntity
  8
Visible (ISO)
100
AcDbLine
 10
1021.87470728555
 20
23.892903175034
 30
0.0
 11
1019.02470728555
 21
23.892903175034
 31
0.0
  0
LINE
  5
91E6
330
8C56
100
AcDbEntity
  8
Visible (ISO)
100
AcDbLine
 10
1024.549888507408
 20
-59.75709682496563
 30
0.0
 11
1021.87470728555
 21
-67.10709682496599
 31
0.0
  0
LINE
  5
91E7
330
8C56
100
AcDbEntity
  8
Visible (ISO)
100
AcDbLine
 10
1024.549888507408
 20
16.54290317503364
 30
0.0
 11
1021.87470728555
 21
23.892903175034
 31
0.0
  0
LINE
  5
91E8
330
8C56
100
AcDbEntity
  8
Visible (ISO)
100
AcDbLine
 10
1065.02470728555
 20
-59.75709682496563
 30
0.0
 11
1024.549888507408
 21
-59.75709682496563
 31
0.0
  0
LINE
  5
91E9
330
8C56
100
AcDbEntity
  8
Visible (ISO)
100
AcDbLine
 10
1065.02470728555
 20
16.54290317503455
 30
0.0
 11
1024.549888507408
 21
16.54290317503455
 31
0.0
  0
LINE
  5
91EA
330
8C56
100
AcDbEntity
  8
0
  6
CENTER
100
AcDbLine
 10
1309.727742806316
 20
-21.60709682496508
 30
0.0
 11
982.3216717647623
 21
-21.60709682496508
 31
0.0
  0
LINE
  5
91EB
330
8C56
100
AcDbEntity
  8
Visible (ISO)
100
AcDbLine
 10
1273.02470728555
 20
23.892903175034
 30
0.0
 11
1273.02470728555
 21
-67.10709682496599
 31
0.0
  0
LINE
  5
91EC
330
8C56
100
AcDbEntity
  8
Visible (ISO)
100
AcDbLine
 10
1270.17470728555
 20
23.892903175034
 30
0.0
 11
1270.17470728555
 21
-67.10709682496599
 31
0.0
  0
LINE
  5
91ED
330
8C56
100
AcDbEntity
  8
Visible (ISO)
100
AcDbLine
 10
1267.499526063692
 20
16.54290317503364
 30
0.0
 11
1267.499526063692
 21
-59.75709682496563
 31
0.0
  0
LINE
  5
91EE
330
8C56
100
AcDbEntity
  8
Visible (ISO)
100
AcDbLine
 10
1273.02470728555
 20
-67.10709682496599
 30
0.0
 11
1270.17470728555
 21
-67.10709682496599
 31
0.0
  0
LINE
  5
91EF
330
8C56
100
AcDbEntity
  8
Visible (ISO)
100
AcDbLine
 10
1273.02470728555
 20
23.892903175034
 30
0.0
 11
1270.17470728555
 21
23.892903175034
 31
0.0
  0
LINE
  5
91F0
330
8C56
100
AcDbEntity
  8
Visible (ISO)
100
AcDbLine
 10
1267.499526063692
 20
16.54290317503455
 30
0.0
 11
1270.17470728555
 21
23.892903175034
 31
0.0
  0
LINE
  5
91F1
330
8C56
100
AcDbEntity
  8
Visible (ISO)
100
AcDbLine
 10
1267.499526063692
 20
-59.75709682496563
 30
0.0
 11
1270.17470728555
 21
-67.10709682496599
 31
0.0
  0
LINE
  5
91F2
330
8C56
100
AcDbEntity
  8
Visible (ISO)
100
AcDbLine
 10
1267.499526063692
 20
-59.75709682496563
 30
0.0
 11
1227.02470728555
 21
-59.75709682496563
 31
0.0
  0
LINE
  5
91F3
330
8C56
100
AcDbEntity
  8
Visible (ISO)
100
AcDbLine
 10
1267.499526063692
 20
16.54290317503455
 30
0.0
 11
1227.02470728555
 21
16.54290317503455
 31
0.0
  0
ELLIPSE
  5
91F4
330
8C56
100
AcDbEntity
  8
Visible (ISO)
100
AcDbEllipse
 10
1146.024707285568
 20
3.458305067621033
 30
0.0
 11
95.99999999999957
 21
-0.0000000000806355
 31
0.0
210
0.0
220
0.0
230
1.0
 40
0.9205048534524429
 41
2.137360657416886
 42
2.575028322969641
  0
LINE
  5
91F5
330
8C56
100
AcDbEntity
  8
Visible (ISO)
100
AcDbLine
 10
1094.498015173606
 20
78.01919819726936
 30
0.0
 11
1197.551399397512
 21
78.01919819726936
 31
0.0
  0
ELLIPSE
  5
91F6
330
8C56
100
AcDbEntity
  8
Visible (ISO)
100
AcDbEllipse
 10
1146.024707285568
 20
3.458305067621033
 30
0.0
 11
95.99999999999957
 21
-0.0000000000715428
 31
0.0
210
0.0
220
0.0
230
1.0
 40
0.9205048534524427
 41
0.5665643306218895
 42
1.004231996174627
  0
ELLIPSE
  5
91F7
330
8C56
100
AcDbEntity
  8
Visible (ISO)
100
AcDbEllipse
 10
1146.024707285564
 20
-1.230468474250308
 30
0.0
 11
-95.99999999999957
 21
0.0000000000623002
 31
0.0
210
0.0
220
0.0
230
1.0
 40
0.9205048534524429
 41
3.708156984211559
 42
4.145824649764316
  0
LINE
  5
91F8
330
8C56
100
AcDbEntity
  8
Visible (ISO)
100
AcDbLine
 10
1197.551399397508
 20
73.33042465539711
 30
0.0
 11
1094.498015173603
 21
73.33042465539711
 31
0.0
  0
ELLIPSE
  5
91F9
330
8C56
100
AcDbEntity
  8
Visible (ISO)
100
AcDbEllipse
 10
1146.024707285564
 20
-1.230468474250308
 30
0.0
 11
-95.99999999999957
 21
0.0000000000713929
 31
0.0
210
0.0
220
0.0
230
1.0
 40
0.9205048534524429
 41
5.278953311006578
 42
5.716620976559316
  0
LINE
  5
91FA
330
8C56
100
AcDbEntity
  8
Visible (ISO)
100
AcDbLine
 10
1065.024707285559
 20
46.2001016971526
 30
0.0
 11
1065.024707285559
 21
45.80937056866332
 31
0.0
  0
SPLINE
  5
91FB
330
8C56
100
AcDbEntity
  8
Visible (ISO)
100
AcDbSpline
210
0.0
220
0.0
230
1.0
 70
     8
 71
     3
 72
     8
 73
     4
 74
     0
 42
0.0000000001
 43
0.0000000001
 40
-0.026863570014363
 40
-0.026863570014363
 40
-0.026863570014363
 40
-0.026863570014363
 40
0.0
 40
0.0
 40
0.0
 40
0.0
 10
1065.210757354663
 20
46.07752420263022
 30
0.0
 10
1065.14874175458
 20
46.11839140197025
 30
0.0
 10
1065.086725023676
 20
46.15925058505399
 30
0.0
 10
1065.024707285559
 20
46.20010169715168
 30
0.0
  0
SPLINE
  5
91FC
330
8C56
100
AcDbEntity
  8
Visible (ISO)
100
AcDbSpline
210
0.0
220
0.0
230
1.0
 70
     8
 71
     3
 72
     8
 73
     4
 74
     0
 42
0.0000000001
 43
0.0000000001
 40
-0.0430264723430567
 40
-0.0430264723430567
 40
-0.0430264723430567
 40
-0.0430264723430567
 40
0.0
 40
0.0
 40
0.0
 40
0.0
 10
1094.58483565481
 20
72.93969352690874
 30
0.0
 10
1094.555871923921
 20
73.06993340440385
 30
0.0
 10
1094.526931753949
 20
73.20017733589157
 30
0.0
 10
1094.498015173603
 20
73.33042465539711
 30
0.0
  0
SPLINE
  5
91FD
330
8C56
100
AcDbEntity
  8
Visible (ISO)
100
AcDbSpline
210
0.0
220
0.0
230
1.0
 70
     8
 71
     3
 72
     8
 73
     4
 74
     0
 42
0.0000000001
 43
0.0000000001
 40
-0.0430264723429594
 40
-0.0430264723429594
 40
-0.0430264723429594
 40
-0.0430264723429594
 40
0.0
 40
0.0
 40
0.0
 40
0.0
 10
1197.4645789163
 20
72.93969352690874
 30
0.0
 10
1197.49354264719
 20
73.06993340440385
 30
0.0
 10
1197.522482817162
 20
73.20017733589248
 30
0.0
 10
1197.551399397508
 20
73.33042465539711
 30
0.0
  0
SPLINE
  5
91FE
330
8C56
100
AcDbEntity
  8
Visible (ISO)
100
AcDbSpline
210
0.0
220
0.0
230
1.0
 70
     8
 71
     3
 72
     8
 73
     4
 74
     0
 42
0.0000000001
 43
0.0000000001
 40
-0.0268635700144089
 40
-0.0268635700144089
 40
-0.0268635700144089
 40
-0.0268635700144089
 40
0.0
 40
0.0
 40
0.0
 40
0.0
 10
1226.838657216456
 20
46.07752420263022
 30
0.0
 10
1226.900672816538
 20
46.11839140196933
 30
0.0
 10
1226.962689547442
 20
46.15925058505399
 30
0.0
 10
1227.024707285559
 20
46.20010169715168
 30
0.0
  0
LINE
  5
91FF
330
8C56
100
AcDbEntity
  8
Visible (ISO)
100
AcDbLine
 10
1227.024707285559
 20
45.80937056866332
 30
0.0
 11
1227.024707285559
 21
46.20010169715169
 31
0.0
  0
LINE
  5
9200
330
8C56
100
AcDbEntity
  8
Visible (ISO)
100
AcDbLine
 10
1197.551399397512
 20
78.01919819726936
 30
0.0
 11
1197.551399397508
 21
73.33042465539802
 31
0.0
  0
LINE
  5
9201
330
8C56
100
AcDbEntity
  8
Visible (ISO)
100
AcDbLine
 10
1227.024707285563
 20
50.88887523902304
 30
0.0
 11
1227.024707285559
 21
46.20010169715169
 31
0.0
  0
LINE
  5
9202
330
8C56
100
AcDbEntity
  8
Visible (ISO)
100
AcDbLine
 10
1094.498015173606
 20
78.01919819726936
 30
0.0
 11
1094.498015173603
 21
73.33042465539802
 31
0.0
  0
LINE
  5
9203
330
8C56
100
AcDbEntity
  8
Visible (ISO)
100
AcDbLine
 10
1065.024707285563
 20
50.88887523902304
 30
0.0
 11
1065.024707285559
 21
46.20010169715169
 31
0.0
  0
LINE
  5
9204
330
8C56
100
AcDbEntity
  8
0
  6
CENTER
 62
     0
370
    25
100
AcDbLine
 10
1510.708193164471
 20
-82.536327443966
 30
0.0
 11
1510.708193164471
 21
39.3221337940522
 31
0.0
  0
LINE
  5
9205
330
8C56
100
AcDbEntity
  8
0
  6
CENTER
 62
     0
370
    25
100
AcDbLine
 10
1449.778962545462
 20
-21.60709682495689
 30
0.0
 11
1571.63742378348
 21
-21.60709682495689
 31
0.0
  0
LINE
  5
9206
330
8C56
100
AcDbEntity
  8
0
  6
CENTER
100
AcDbLine
 10
1146.024707285539
 20
-93.523496164893
 30
0.0
 11
1146.024707285539
 21
105.1742629114796
 31
0.0
  0
LINE
  5
9207
330
8C56
100
AcDbEntity
  8
0
  6
CENTER
100
AcDbLine
 10
2126.411228685237
 20
-21.60709682496508
 30
0.0
 11
1799.005157643683
 21
-21.60709682496508
 31
0.0
  0
LINE
  5
9208
330
8C56
100
AcDbEntity
  8
0
  6
CENTER
100
AcDbLine
 10
1962.70819316446
 20
-93.523496164893
 30
0.0
 11
1962.70819316446
 21
105.1742629114796
 31
0.0
  0
ENDSEC
  0
SECTION
  2
OBJECTS
  0
DICTIONARY
  5
8C44
330
0
100
AcDbDictionary
281
     1
  3
ACAD_GROUP
350
8C45
  3
ACAD_LAYOUT
350
8C51
  3
ACAD_MLINESTYLE
350
8C4E
  3
ACAD_PLOTSETTINGS
350
8C50
  3
ACAD_PLOTSTYLENAME
350
8C46
  3
AcDbVariableDictionary
350
8C9C
  0
DICTIONARY
  5
8D13
330
8C3A
100
AcDbDictionary
280
     1
281
     1
  3
ACAD_LAYERSTATES
360
8D14
  0
DICTIONARY
  5
8C68
330
8C56
100
AcDbDictionary
280
     1
281
     1
  3
ACAD_LAYOUTSELFREF
360
8D0B
  0
DICTIONARY
  5
8C6A
330
8C52
100
AcDbDictionary
280
     1
281
     1
  3
ACAD_LAYOUTSELFREF
360
8D0A
  0
DICTIONARY
  5
8C45
102
{ACAD_REACTORS
330
8C44
102
}
330
8C44
100
AcDbDictionary
281
     1
  0
DICTIONARY
  5
8C51
102
{ACAD_REACTORS
330
8C44
102
}
330
8C44
100
AcDbDictionary
281
     1
  3
Model
350
8C59
  3
ﾚｲｱｳﾄ1
350
8C55
  0
DICTIONARY
  5
8C4E
102
{ACAD_REACTORS
330
8C44
102
}
330
8C44
100
AcDbDictionary
281
     1
  3
Standard
350
8C4F
  0
DICTIONARY
  5
8C50
102
{ACAD_REACTORS
330
8C44
102
}
330
8C44
100
AcDbDictionary
281
     1
  0
ACDBDICTIONARYWDFLT
  5
8C46
102
{ACAD_REACTORS
330
8C44
102
}
330
8C44
100
AcDbDictionary
281
     1
  3
Normal
350
8C47
100
AcDbDictionaryWithDefault
340
8C47
  0
DICTIONARY
  5
8C9C
102
{ACAD_REACTORS
330
8C44
102
}
330
8C44
100
AcDbDictionary
281
     1
  3
DIMASSOC
350
8C9D
  0
DICTIONARY
  5
8D14
102
{ACAD_REACTORS
330
8D13
102
}
330
8D13
100
AcDbDictionary
281
     1
  0
XRECORD
  5
8D0B
102
{ACAD_REACTORS
330
8C68
102
}
330
8C68
100
AcDbXrecord
280
     1
340
8C56
  0
XRECORD
  5
8D0A
102
{ACAD_REACTORS
330
8C6A
102
}
330
8C6A
100
AcDbXrecord
280
     1
340
8C52
  0
LAYOUT
  5
8C59
102
{ACAD_REACTORS
330
8C51
102
}
330
8C51
100
AcDbPlotSettings
  1

  2
SII LP-2150 (D-SCAN C2)
  4

  6

 40
0.0
 41
0.0
 42
0.0
 43
0.0
 44
0.0
 45
0.0
 46
0.0
 47
0.0
 48
0.0
 49
0.0
140
0.0
141
0.0
142
1.0
143
1.0
 70
  1712
 72
     0
 73
     0
 74
     0
  7

 75
     0
147
1.0
148
0.0
149
0.0
100
AcDbLayout
  1
Model
 70
     1
 71
     0
 10
0.0
 20
0.0
 11
12.0
 21
9.0
 12
0.0
 22
0.0
 32
0.0
 14
0.0
 24
0.0
 34
0.0
 15
0.0
 25
0.0
 35
0.0
146
0.0
 13
0.0
 23
0.0
 33
0.0
 16
1.0
 26
0.0
 36
0.0
 17
0.0
 27
1.0
 37
0.0
 76
     0
330
8C56
  0
LAYOUT
  5
8C55
102
{ACAD_REACTORS
330
8C51
102
}
330
8C51
100
AcDbPlotSettings
  1

  2
SII LP-2150 (D-SCAN C2)
  4

  6

 40
0.0
 41
0.0
 42
0.0
 43
0.0
 44
0.0
 45
0.0
 46
0.0
 47
0.0
 48
0.0
 49
0.0
140
0.0
141
0.0
142
1.0
143
1.0
 70
   688
 72
     0
 73
     0
 74
     5
  7

 75
    16
147
1.0
148
0.0
149
0.0
100
AcDbLayout
  1
ﾚｲｱｳﾄ1
 70
     1
 71
     1
 10
-580.5701293945312
 20
0.0
 11
0.0
 21
407.8999938964844
 12
0.0
 22
0.0
 32
0.0
 14
-580.5701293945312
 24
0.0
 34
0.0
 15
0.0
 25
407.8999938964844
 35
0.0
146
0.0
 13
0.0
 23
0.0
 33
0.0
 16
1.0
 26
0.0
 36
0.0
 17
0.0
 27
1.0
 37
0.0
 76
     0
330
8C52
  0
MLINESTYLE
  5
8C4F
102
{ACAD_REACTORS
330
8C4E
102
}
330
8C4E
100
AcDbMlineStyle
  2
STANDARD
 70
     0
  3

 62
   256
 51
90.0
 52
90.0
 71
     2
 49
0.5
 62
   256
  6
BYLAYER
 49
-0.5
 62
   256
  6
BYLAYER
  0
ACDBPLACEHOLDER
  5
8C47
102
{ACAD_REACTORS
330
8C46
102
}
330
8C46
  0
DICTIONARYVAR
  5
8C9D
102
{ACAD_REACTORS
330
8C9C
102
}
330
8C9C
100
DictionaryVariables
280
     0
  1
1
  0
ENDSEC
  0
EOF
