  0
SECTION
  2
HEADER
  9
$ACADVER
  1
AC1015
  9
$ACADMAINTVER
 70
    14
  9
$DWGCODEPAGE
  3
ANSI_932
  9
$INSBASE
 10
0.0
 20
0.0
 30
0.0
  9
$EXTMIN
 10
169.34813048468
 20
82.95202922084536
 30
-0.000000000000013
  9
$EXTMAX
 10
1601.879157791863
 20
581.8361605990842
 30
0.0000000000000023
  9
$LIMMIN
 10
-580.5701293945312
 20
0.0
  9
$LIMMAX
 10
0.0
 20
407.8999938964844
  9
$ORTHOMODE
 70
     0
  9
$REGENMODE
 70
     1
  9
$FILLMODE
 70
     1
  9
$QTEXTMODE
 70
     0
  9
$MIRRTEXT
 70
     1
  9
$LTSCALE
 40
1.0
  9
$ATTMODE
 70
     1
  9
$TEXTSIZE
 40
0.2
  9
$TRACEWID
 40
0.05
  9
$TEXTSTYLE
  7
STANDARD
  9
$CLAYER
  8
0
  9
$CELTYPE
  6
CONTINUOUS
  9
$CECOLOR
 62
   256
  9
$CELTSCALE
 40
1.0
  9
$DISPSILH
 70
     0
  9
$DIMSCALE
 40
1.0
  9
$DIMASZ
 40
1.0
  9
$DIMEXO
 40
2.54
  9
$DIMDLI
 40
0.38
  9
$DIMRND
 40
0.0
  9
$DIMDLE
 40
0.0
  9
$DIMEXE
 40
2.54
  9
$DIMTP
 40
0.0
  9
$DIMTM
 40
0.0
  9
$DIMTXT
 40
3.200000047683714
  9
$DIMCEN
 40
0.09
  9
$DIMTSZ
 40
0.0
  9
$DIMTOL
 70
     0
  9
$DIMLIM
 70
     0
  9
$DIMTIH
 70
     0
  9
$DIMTOH
 70
     0
  9
$DIMSE1
 70
     0
  9
$DIMSE2
 70
     0
  9
$DIMTAD
 70
     1
  9
$DIMZIN
 70
     0
  9
$DIMBLK
  1

  9
$DIMASO
 70
     1
  9
$DIMSHO
 70
     0
  9
$DIMPOST
  1

  9
$DIMAPOST
  1

  9
$DIMALT
 70
     0
  9
$DIMALTD
 70
     2
  9
$DIMALTF
 40
25.4
  9
$DIMLFAC
 40
1.0
  9
$DIMTOFL
 70
     0
  9
$DIMTVP
 40
1.0
  9
$DIMTIX
 70
     0
  9
$DIMSOXD
 70
     0
  9
$DIMSAH
 70
     0
  9
$DIMBLK1
  1

  9
$DIMBLK2
  1

  9
$DIMSTYLE
  2
STANDARD
  9
$DIMCLRD
 70
     0
  9
$DIMCLRE
 70
     0
  9
$DIMCLRT
 70
     0
  9
$DIMTFAC
 40
1.0
  9
$DIMGAP
 40
1.600000023841857
  9
$DIMJUST
 70
     0
  9
$DIMSD1
 70
     0
  9
$DIMSD2
 70
     0
  9
$DIMTOLJ
 70
     1
  9
$DIMTZIN
 70
     0
  9
$DIMALTZ
 70
     0
  9
$DIMALTTZ
 70
     0
  9
$DIMUPT
 70
     0
  9
$DIMDEC
 70
     4
  9
$DIMTDEC
 70
     4
  9
$DIMALTU
 70
     2
  9
$DIMALTTD
 70
     2
  9
$DIMTXSTY
  7
STANDARD
  9
$DIMAUNIT
 70
     0
  9
$DIMADEC
 70
     0
  9
$DIMALTRND
 40
0.0
  9
$DIMAZIN
 70
     0
  9
$DIMDSEP
 70
    46
  9
$DIMATFIT
 70
     3
  9
$DIMFRAC
 70
     0
  9
$DIMLDRBLK
  1

  9
$DIMLUNIT
 70
     2
  9
$DIMLWD
 70
    -2
  9
$DIMLWE
 70
    -2
  9
$DIMTMOVE
 70
     0
  9
$LUNITS
 70
     2
  9
$LUPREC
 70
     4
  9
$SKETCHINC
 40
0.1
  9
$FILLETRAD
 40
0.0
  9
$AUNITS
 70
     0
  9
$AUPREC
 70
     0
  9
$MENU
  1
.
  9
$ELEVATION
 40
0.0
  9
$PELEVATION
 40
0.0
  9
$THICKNESS
 40
0.0
  9
$LIMCHECK
 70
     0
  9
$CHAMFERA
 40
0.0
  9
$CHAMFERB
 40
0.0
  9
$CHAMFERC
 40
0.0
  9
$CHAMFERD
 40
0.0
  9
$SKPOLY
 70
     0
  9
$TDCREATE
 40
2452717.604314595
  9
$TDUCREATE
 40
2452717.229314595
  9
$TDUPDATE
 40
2456899.672962801
  9
$TDUUPDATE
 40
2456899.297962801
  9
$TDINDWG
 40
0.2848226852
  9
$TDUSRTIMER
 40
0.2848225116
  9
$USRTIMER
 70
     1
  9
$ANGBASE
 50
0.0
  9
$ANGDIR
 70
     0
  9
$PDMODE
 70
     0
  9
$PDSIZE
 40
0.0
  9
$PLINEWID
 40
0.0
  9
$SPLFRAME
 70
     0
  9
$SPLINETYPE
 70
     6
  9
$SPLINESEGS
 70
     8
  9
$HANDSEED
  5
91A3
  9
$SURFTAB1
 70
     6
  9
$SURFTAB2
 70
     6
  9
$SURFTYPE
 70
     6
  9
$SURFU
 70
     6
  9
$SURFV
 70
     6
  9
$UCSBASE
  2

  9
$UCSNAME
  2

  9
$UCSORG
 10
0.0
 20
0.0
 30
0.0
  9
$UCSXDIR
 10
1.0
 20
0.0
 30
0.0
  9
$UCSYDIR
 10
0.0
 20
1.0
 30
0.0
  9
$UCSORTHOREF
  2

  9
$UCSORTHOVIEW
 70
     0
  9
$UCSORGTOP
 10
0.0
 20
0.0
 30
0.0
  9
$UCSORGBOTTOM
 10
0.0
 20
0.0
 30
0.0
  9
$UCSORGLEFT
 10
0.0
 20
0.0
 30
0.0
  9
$UCSORGRIGHT
 10
0.0
 20
0.0
 30
0.0
  9
$UCSORGFRONT
 10
0.0
 20
0.0
 30
0.0
  9
$UCSORGBACK
 10
0.0
 20
0.0
 30
0.0
  9
$PUCSBASE
  2

  9
$PUCSNAME
  2

  9
$PUCSORG
 10
0.0
 20
0.0
 30
0.0
  9
$PUCSXDIR
 10
1.0
 20
0.0
 30
0.0
  9
$PUCSYDIR
 10
0.0
 20
1.0
 30
0.0
  9
$PUCSORTHOREF
  2

  9
$PUCSORTHOVIEW
 70
     0
  9
$PUCSORGTOP
 10
0.0
 20
0.0
 30
0.0
  9
$PUCSORGBOTTOM
 10
0.0
 20
0.0
 30
0.0
  9
$PUCSORGLEFT
 10
0.0
 20
0.0
 30
0.0
  9
$PUCSORGRIGHT
 10
0.0
 20
0.0
 30
0.0
  9
$PUCSORGFRONT
 10
0.0
 20
0.0
 30
0.0
  9
$PUCSORGBACK
 10
0.0
 20
0.0
 30
0.0
  9
$USERI1
 70
     0
  9
$USERI2
 70
     0
  9
$USERI3
 70
     0
  9
$USERI4
 70
     0
  9
$USERI5
 70
     0
  9
$USERR1
 40
0.0
  9
$USERR2
 40
0.0
  9
$USERR3
 40
0.0
  9
$USERR4
 40
0.0
  9
$USERR5
 40
0.0
  9
$WORLDVIEW
 70
     1
  9
$SHADEDGE
 70
     3
  9
$SHADEDIF
 70
    70
  9
$TILEMODE
 70
     1
  9
$MAXACTVP
 70
    48
  9
$PINSBASE
 10
0.0
 20
0.0
 30
0.0
  9
$PLIMCHECK
 70
     0
  9
$PEXTMIN
 10
-580.5701293945312
 20
0.0
 30
0.0
  9
$PEXTMAX
 10
0.0
 20
407.8999938964844
 30
0.0
  9
$PLIMMIN
 10
-580.5701293945312
 20
0.0
  9
$PLIMMAX
 10
0.0
 20
407.8999938964844
  9
$UNITMODE
 70
     0
  9
$VISRETAIN
 70
     1
  9
$PLINEGEN
 70
     0
  9
$PSLTSCALE
 70
     1
  9
$TREEDEPTH
 70
  3020
  9
$CMLSTYLE
  2
Standard
  9
$CMLJUST
 70
     0
  9
$CMLSCALE
 40
1.0
  9
$PROXYGRAPHICS
 70
     1
  9
$MEASUREMENT
 70
     0
  9
$CELWEIGHT
370
    -1
  9
$ENDCAPS
280
     0
  9
$JOINSTYLE
280
     0
  9
$LWDISPLAY
290
     0
  9
$INSUNITS
 70
     0
  9
$HYPERLINKBASE
  1

  9
$STYLESHEET
  1

  9
$XEDIT
290
     1
  9
$CEPSNTYPE
380
     0
  9
$PSTYLEMODE
290
     1
  9
$FINGERPRINTGUID
  2
{F8977A58-D7C6-4AD6-8AF9-9594886E564C}
  9
$VERSIONGUID
  2
{4511E97A-DBAE-4494-AEFB-7A6837C25165}
  9
$EXTNAMES
290
     1
  9
$PSVPSCALE
 40
0.0
  9
$OLESTARTUP
290
     0
  0
ENDSEC
  0
SECTION
  2
CLASSES
  0
CLASS
  1
ACDBDICTIONARYWDFLT
  2
AcDbDictionaryWithDefault
  3
AutoCAD 2000
 90
        0
280
     0
281
     0
  0
CLASS
  1
ACDBPLACEHOLDER
  2
AcDbPlaceHolder
  3
AutoCAD 2000
 90
        0
280
     0
281
     0
  0
CLASS
  1
LAYOUT
  2
AcDbLayout
  3
AutoCAD 2000
 90
        0
280
     0
281
     0
  0
CLASS
  1
DICTIONARYVAR
  2
AcDbDictionaryVar
  3
AutoCAD 2000
 90
        0
280
     0
281
     0
  0
CLASS
  1
LONG_TRANSACTION
  2
AcDbLongTransaction
  3
AutoCAD 2000
 90
    32768
280
     0
281
     0
  0
CLASS
  1
LWPOLYLINE
  2
AcDbPolyline
  3
AutoCAD 2000
 90
    32768
280
     0
281
     1
  0
CLASS
  1
HATCH
  2
AcDbHatch
  3
AutoCAD 2000
 90
    32768
280
     0
281
     1
  0
CLASS
  1
XRECORD
  2
AcDbXrecord
  3
AutoCAD 2000
 90
    32768
280
     0
281
     0
  0
CLASS
  1
LONG_TRANSACTION
  2
AcDbLongTransaction
  3
AutoCAD 2000
 90
    32768
280
     0
281
     0
  0
CLASS
  1
LWPOLYLINE
  2
AcDbPolyline
  3
AutoCAD 2000
 90
    32768
280
     0
281
     1
  0
CLASS
  1
HATCH
  2
AcDbHatch
  3
AutoCAD 2000
 90
    32768
280
     0
281
     1
  0
CLASS
  1
XRECORD
  2
AcDbXrecord
  3
AutoCAD 2000
 90
    32768
280
     0
281
     0
  0
CLASS
  1
LONG_TRANSACTION
  2
AcDbLongTransaction
  3
AutoCAD 2000
 90
    32768
280
     0
281
     0
  0
CLASS
  1
LWPOLYLINE
  2
AcDbPolyline
  3
AutoCAD 2000
 90
    32768
280
     0
281
     1
  0
CLASS
  1
HATCH
  2
AcDbHatch
  3
AutoCAD 2000
 90
    32768
280
     0
281
     1
  0
CLASS
  1
XRECORD
  2
AcDbXrecord
  3
AutoCAD 2000
 90
    32768
280
     0
281
     0
  0
ENDSEC
  0
SECTION
  2
TABLES
  0
TABLE
  2
VPORT
  5
8C3D
330
0
100
AcDbSymbolTable
 70
     2
  0
VPORT
  5
91A2
330
8C3D
100
AcDbSymbolTableRecord
100
AcDbViewportTableRecord
  2
*Active
 70
     0
 10
0.0
 20
0.0
 11
1.0
 21
1.0
 12
885.6136441382718
 22
332.3940949099647
 13
0.0
 23
0.0
 14
1.0
 24
1.0
 15
0.0
 25
0.0
 16
0.0
 26
0.0
 36
1.0
 17
0.0
 27
0.0
 37
0.0
 40
903.3280222364076
 41
1.592161016949152
 42
50.0
 43
0.0
 44
0.0
 50
0.0
 51
0.0
 71
     0
 72
   100
 73
     1
 74
     3
 75
     0
 76
     0
 77
     0
 78
     0
281
     0
 65
     1
110
0.0
120
0.0
130
0.0
111
1.0
121
0.0
131
0.0
112
0.0
122
1.0
132
0.0
 79
     0
146
0.0
  0
ENDTAB
  0
TABLE
  2
LTYPE
  5
8C3A
330
0
100
AcDbSymbolTable
 70
     2
  0
LTYPE
  5
8C48
330
8C3A
100
AcDbSymbolTableRecord
100
AcDbLinetypeTableRecord
  2
ByBlock
 70
     0
  3

 72
    65
 73
     0
 40
0.0
  0
LTYPE
  5
8C49
330
8C3A
100
AcDbSymbolTableRecord
100
AcDbLinetypeTableRecord
  2
ByLayer
 70
     0
  3

 72
    65
 73
     0
 40
0.0
  0
LTYPE
  5
8C4A
330
8C3A
100
AcDbSymbolTableRecord
100
AcDbLinetypeTableRecord
  2
CONTINUOUS
 70
     0
  3
Solid line
 72
    65
 73
     0
 40
0.0
  0
LTYPE
  5
8D0F
330
8C3A
100
AcDbSymbolTableRecord
100
AcDbLinetypeTableRecord
  2
CENTER
 70
     0
  3
Center ____ _ ____ _ ____ _ ____ _ ____ _ ____
 72
    65
 73
     4
 40
50.8
 49
31.75
 74
     0
 49
-6.349999999999999
 74
     0
 49
6.349999999999999
 74
     0
 49
-6.349999999999999
 74
     0
  0
ENDTAB
  0
TABLE
  2
LAYER
  5
8C37
102
{ACAD_XDICTIONARY
360
8D10
102
}
330
0
100
AcDbSymbolTable
 70
     2
  0
LAYER
  5
8C45
330
8C37
100
AcDbSymbolTableRecord
100
AcDbLayerTableRecord
  2
0
 70
     0
 62
     7
  6
CONTINUOUS
370
    -3
390
8C44
  0
LAYER
  5
8D2B
330
8C37
100
AcDbSymbolTableRecord
100
AcDbLayerTableRecord
  2
Visible (ISO)
 70
     0
 62
     7
  6
CONTINUOUS
370
    35
390
8C44
  0
ENDTAB
  0
TABLE
  2
STYLE
  5
8C38
330
0
100
AcDbSymbolTable
 70
     1
  0
STYLE
  5
8C46
330
8C38
100
AcDbSymbolTableRecord
100
AcDbTextStyleTableRecord
  2
STANDARD
 70
     0
 40
0.0
 41
1.0
 50
0.0
 71
     0
 42
0.2
  3
txt
  4
BIGFONT
  0
ENDTAB
  0
TABLE
  2
VIEW
  5
8C3B
330
0
100
AcDbSymbolTable
 70
     0
  0
ENDTAB
  0
TABLE
  2
UCS
  5
8C3C
330
0
100
AcDbSymbolTable
 70
     0
  0
ENDTAB
  0
TABLE
  2
APPID
  5
8C3E
330
0
100
AcDbSymbolTable
 70
     4
  0
APPID
  5
8C47
330
8C3E
100
AcDbSymbolTableRecord
100
AcDbRegAppTableRecord
  2
ACAD
 70
     0
  0
APPID
  5
8C59
330
8C3E
100
AcDbSymbolTableRecord
100
AcDbRegAppTableRecord
  2
MCAD_NO_VIS
 70
     0
  0
APPID
  5
8C5A
330
8C3E
100
AcDbSymbolTableRecord
100
AcDbRegAppTableRecord
  2
ACAD_TEMP_GRAPHIC
 70
     0
  0
APPID
  5
8C5B
330
8C3E
100
AcDbSymbolTableRecord
100
AcDbRegAppTableRecord
  2
ACATTRIBSERVICES
 70
     0
  0
ENDTAB
  0
TABLE
  2
DIMSTYLE
  5
8C3F
330
0
100
AcDbSymbolTable
 70
     1
100
AcDbDimStyleTable
 71
     0
  0
DIMSTYLE
105
8C5C
330
8C3F
100
AcDbSymbolTableRecord
100
AcDbDimStyleTableRecord
  2
STANDARD
 70
     0
279
     2
340
8C46
  0
ENDTAB
  0
TABLE
  2
BLOCK_RECORD
  5
8C36
330
0
100
AcDbSymbolTable
 70
     0
  0
BLOCK_RECORD
  5
8C53
102
{ACAD_XDICTIONARY
360
8C65
102
}
330
8C36
100
AcDbSymbolTableRecord
100
AcDbBlockTableRecord
  2
*Model_Space
340
8C56
  0
BLOCK_RECORD
  5
8C4F
102
{ACAD_XDICTIONARY
360
8C67
102
}
330
8C36
100
AcDbSymbolTableRecord
100
AcDbBlockTableRecord
  2
*Paper_Space
340
8C52
  0
ENDTAB
  0
ENDSEC
  0
SECTION
  2
BLOCKS
  0
BLOCK
  5
8C54
330
8C53
100
AcDbEntity
  8
0
100
AcDbBlockBegin
  2
*Model_Space
 70
     0
 10
0.0
 20
0.0
 30
0.0
  3
*Model_Space
  1

  0
ENDBLK
  5
8C55
330
8C53
100
AcDbEntity
  8
0
100
AcDbBlockEnd
  0
BLOCK
  5
8C50
330
8C4F
100
AcDbEntity
 67
     1
  8
0
100
AcDbBlockBegin
  2
*Paper_Space
 70
     0
 10
0.0
 20
0.0
 30
0.0
  3
*Paper_Space
  1

  0
ENDBLK
  5
8C51
330
8C4F
100
AcDbEntity
 67
     1
  8
0
100
AcDbBlockEnd
  0
ENDSEC
  0
SECTION
  2
ENTITIES
  0
TEXT
  5
10F4
330
8C53
100
AcDbEntity
  8
0
100
AcDbText
 10
169.498426331429
 20
533.8361538576799
 30
0.0
 40
48.000002
  1
DHS2S 1.5S
 41
1.32095
100
AcDbText
  0
LINE
  5
3CC8
330
8C53
100
AcDbEntity
  8
0
100
AcDbLine
 10
331.3764667026312
 20
153.6520837518128
 30
0.0
 11
229.3764056674749
 21
153.6520837518122
 31
0.0
  0
LINE
  5
3CD6
330
8C53
100
AcDbEntity
  8
0
100
AcDbLine
 10
331.3764667026312
 20
161.652053234234
 30
0.0
 11
331.3764667026308
 21
138.6521447869694
 31
0.0
  0
LINE
  5
3CD8
330
8C53
100
AcDbEntity
  8
0
100
AcDbLine
 10
229.3764667026311
 20
138.6520837518112
 30
0.0
 11
261.1348697842184
 21
138.6520837518118
 31
0.0
  0
LINE
  5
3CE7
330
8C53
100
AcDbEntity
  8
0
100
AcDbLine
 10
307.9989337436463
 20
161.652053234234
 30
0.0
 11
307.9989337436472
 21
138.6521447869687
 31
0.0
  0
LINE
  5
3CEE
330
8C53
100
AcDbEntity
  8
0
100
AcDbLine
 10
316.0076779148312
 20
138.6520837518127
 30
0.0
 11
305.6216724663576
 21
122.793429295908
 31
0.0
  0
LINE
  5
3D0D
330
8C53
100
AcDbEntity
  8
0
100
AcDbLine
 10
252.753999661615
 20
161.6520532342347
 30
0.0
 11
252.7539996616154
 21
138.6521447869685
 31
0.0
  0
LINE
  5
3D1B
330
8C53
100
AcDbEntity
  8
0
100
AcDbLine
 10
244.7451669682704
 20
138.6520837518118
 30
0.0
 11
255.1312150820031
 21
122.7933671712783
 31
0.0
  0
LINE
  5
3D25
330
8C53
100
AcDbEntity
  8
0
100
AcDbLine
 10
229.3764667026311
 20
161.652053234234
 30
0.0
 11
229.3764667026311
 21
138.6520837518112
 31
0.0
  0
LINE
  5
3D30
330
8C53
100
AcDbEntity
  8
0
100
AcDbLine
 10
229.3764667026311
 20
161.652053234234
 30
0.0
 11
331.3764667026312
 21
161.652053234234
 31
0.0
  0
LINE
  5
3D67
330
8C53
100
AcDbEntity
  8
0
100
AcDbLine
 10
261.3264789096626
 20
435.6431793666224
 30
0.0
 11
261.3264789096626
 21
412.2497718609563
 31
0.0
  0
LINE
  5
3D68
330
8C53
100
AcDbEntity
  8
0
100
AcDbLine
 10
299.4264544956001
 20
412.2497703638712
 30
0.0
 11
299.4264544956001
 21
435.6431735521684
 31
0.0
  0
CIRCLE
  5
3D70
330
8C53
100
AcDbEntity
  8
0
100
AcDbCircle
 10
280.3764667026312
 20
361.2497718609563
 30
0.0
 40
51.0
  0
ARC
  5
3D72
330
8C53
100
AcDbEntity
  8
0
100
AcDbCircle
 10
280.3764667026312
 20
361.2497718609563
 30
0.0
 40
50.0
100
AcDbArc
 50
78.25445403788314
 51
101.7455441408761
  0
ARC
  5
3D73
330
8C53
100
AcDbEntity
  8
0
100
AcDbCircle
 10
280.3764667026312
 20
361.2497718609563
 30
0.0
 40
50.0
100
AcDbArc
 50
258.2544558591238
 51
281.7455459621168
  0
LINE
  5
3D76
330
8C53
100
AcDbEntity
  8
0
100
AcDbLine
 10
252.7540301791939
 20
310.2497718609563
 30
0.0
 11
307.998933743647
 21
310.2497718609563
 31
0.0
  0
LINE
  5
3D77
330
8C53
100
AcDbEntity
  8
0
100
AcDbLine
 10
252.7540301791939
 20
412.2497718609563
 30
0.0
 11
307.998933743647
 21
412.2497718609563
 31
0.0
  0
LINE
  5
3D7A
330
8C53
100
AcDbEntity
  8
0
100
AcDbLine
 10
255.1264667026311
 20
281.7497718609564
 30
0.0
 11
305.6264667026312
 21
281.7497718609564
 31
0.0
  0
ARC
  5
3D7F
330
8C53
100
AcDbEntity
  8
0
100
AcDbCircle
 10
280.3764667026312
 20
361.2497718609563
 30
0.0
 40
58.0
100
AcDbArc
 50
208.440711449688
 51
241.5592878670744
  0
ARC
  5
3D80
330
8C53
100
AcDbEntity
  8
0
100
AcDbCircle
 10
280.3764667026312
 20
361.2497718609563
 30
0.0
 40
50.0
100
AcDbArc
 50
198.2544541894751
 51
221.7455374622728
  0
LINE
  5
3D83
330
8C53
100
AcDbEntity
  8
0
100
AcDbLine
 10
255.1264667026311
 20
284.5997535470133
 30
0.0
 11
261.3264789096626
 21
286.8563735232656
 31
0.0
  0
LINE
  5
3D85
330
8C53
100
AcDbEntity
  8
0
100
AcDbLine
 10
255.1264667026311
 20
281.7497718609564
 30
0.0
 11
255.1264667026311
 21
284.5997535470133
 31
0.0
  0
ARC
  5
3D86
330
8C53
100
AcDbEntity
  8
0
100
AcDbCircle
 10
248.6264667026312
 20
306.2571571148621
 30
0.0
 40
20.5
100
AcDbArc
 50
60.00000166965622
 51
96.02368976748829
  0
ARC
  5
3D88
330
8C53
100
AcDbEntity
  8
0
100
AcDbCircle
 10
246.0554217807564
 20
330.6218726910342
 30
0.0
 40
4.0
100
AcDbArc
 50
221.7455374622728
 51
276.0236915887119
  0
LINE
  5
3D89
330
8C53
100
AcDbEntity
  8
0
100
AcDbLine
 10
261.3264789096626
 20
307.2497718609564
 30
0.0
 11
261.3264789096626
 21
308.2497718609563
 31
0.0
  0
LINE
  5
3D8A
330
8C53
100
AcDbEntity
  8
0
100
AcDbLine
 10
261.3264789096626
 20
286.8563735232656
 30
0.0
 11
261.3264789096626
 21
310.2497718609563
 31
0.0
  0
ARC
  5
3D8C
330
8C53
100
AcDbEntity
  8
0
100
AcDbCircle
 10
248.6264667026312
 20
306.2571571148621
 30
0.0
 40
20.5
100
AcDbArc
 50
23.97631015672517
 51
60.00000166965622
  0
ARC
  5
3D8E
330
8C53
100
AcDbEntity
  8
0
100
AcDbCircle
 10
271.0124530307562
 20
316.2129371441593
 30
0.0
 40
4.0
100
AcDbArc
 50
203.9763085628606
 51
258.2544558591238
  0
ARC
  5
3D90
330
8C53
100
AcDbEntity
  8
0
100
AcDbCircle
 10
236.6914081088814
 20
375.6587074078313
 30
0.0
 40
4.0
100
AcDbArc
 50
161.7455458105289
 51
216.0236931067966
  0
LINE
  5
3D92
330
8C53
100
AcDbEntity
  8
0
100
AcDbLine
 10
229.3764667026314
 20
333.6273048199403
 30
0.0
 11
229.3764667026314
 21
388.8722389019713
 31
0.0
  0
ARC
  5
3D93
330
8C53
100
AcDbEntity
  8
0
100
AcDbCircle
 10
216.8764667026314
 20
361.2497718609563
 30
0.0
 40
20.5
100
AcDbArc
 50
323.9763119021603
 51
0.0
  0
ARC
  5
3D94
330
8C53
100
AcDbEntity
  8
0
100
AcDbCircle
 10
236.6914081088814
 20
346.8408363140813
 30
0.0
 40
4.0
100
AcDbArc
 50
143.9763169111284
 51
198.2544505469981
  0
ARC
  5
3D95
330
8C53
100
AcDbEntity
  8
0
100
AcDbCircle
 10
216.8764667026314
 20
361.2497718609563
 30
0.0
 40
20.5
100
AcDbArc
 50
0.0
 51
36.02368809783949
  0
ARC
  5
3DA5
330
8C53
100
AcDbEntity
  8
0
100
AcDbCircle
 10
280.3764667026312
 20
361.2497718609563
 30
0.0
 40
58.0
100
AcDbArc
 50
118.4407121329253
 51
151.5592748899448
  0
ARC
  5
3DA6
330
8C53
100
AcDbEntity
  8
0
100
AcDbCircle
 10
248.6264667026312
 20
416.2423866070501
 30
0.0
 40
20.5
100
AcDbArc
 50
263.9763102325114
 51
299.9999983303551
  0
ARC
  5
3DA8
330
8C53
100
AcDbEntity
  8
0
100
AcDbCircle
 10
280.3764667026312
 20
361.2497718609563
 30
0.0
 40
50.0
100
AcDbArc
 50
138.2544625377269
 51
161.7455458105289
  0
ARC
  5
3DAC
330
8C53
100
AcDbEntity
  8
0
100
AcDbCircle
 10
246.0554217807564
 20
391.8776710308776
 30
0.0
 40
4.0
100
AcDbArc
 50
83.9763084112879
 51
138.2544625377269
  0
ARC
  5
3DAD
330
8C53
100
AcDbEntity
  8
0
100
AcDbCircle
 10
248.6264667026312
 20
416.2423866070501
 30
0.0
 40
20.5
100
AcDbArc
 50
299.9999983303551
 51
336.0236898432747
  0
ARC
  5
3DB1
330
8C53
100
AcDbEntity
  8
0
100
AcDbCircle
 10
271.0124530307562
 20
406.2865760601741
 30
0.0
 40
4.0
100
AcDbArc
 50
101.7455441408761
 51
156.0236914371393
  0
ARC
  5
3DB5
330
8C53
100
AcDbEntity
  8
0
100
AcDbCircle
 10
280.3764667026312
 20
361.2497718609563
 30
0.0
 40
58.0
100
AcDbArc
 50
298.4407139541549
 51
331.5592886640047
  0
ARC
  5
3DB6
330
8C53
100
AcDbEntity
  8
0
100
AcDbCircle
 10
280.3764667026312
 20
361.2497718609563
 30
0.0
 40
50.0
100
AcDbArc
 50
318.2544575287731
 51
341.7455442166687
  0
LINE
  5
3DB9
330
8C53
100
AcDbEntity
  8
0
100
AcDbLine
 10
305.6264667026312
 20
284.5997755995316
 30
0.0
 11
299.4264544956001
 21
286.8563955757829
 31
0.0
  0
LINE
  5
3DBD
330
8C53
100
AcDbEntity
  8
0
100
AcDbLine
 10
305.6264667026312
 20
281.7497718609564
 30
0.0
 11
305.6264667026312
 21
284.5997755995316
 31
0.0
  0
ARC
  5
3DBE
330
8C53
100
AcDbEntity
  8
0
100
AcDbCircle
 10
312.1264667026312
 20
306.2571571148621
 30
0.0
 40
20.5
100
AcDbArc
 50
83.9763084112879
 51
120.000003339306
  0
LINE
  5
3DBF
330
8C53
100
AcDbEntity
  8
0
100
AcDbLine
 10
299.4264544956001
 20
307.2497718609564
 30
0.0
 11
299.4264544956001
 21
308.2497718609563
 31
0.0
  0
LINE
  5
3DC1
330
8C53
100
AcDbEntity
  8
0
100
AcDbLine
 10
299.4264544956001
 20
286.8563955757829
 30
0.0
 11
299.4264544956001
 21
310.2497718609563
 31
0.0
  0
ARC
  5
3DC3
330
8C53
100
AcDbEntity
  8
0
100
AcDbCircle
 10
312.1264667026312
 20
306.2571571148621
 30
0.0
 40
20.5
100
AcDbArc
 50
120.000003339306
 51
156.0236914371393
  0
ARC
  5
3DC4
330
8C53
100
AcDbEntity
  8
0
100
AcDbCircle
 10
289.7404803745061
 20
316.2129371441593
 30
0.0
 40
4.0
100
AcDbArc
 50
281.7455459621168
 51
336.0236898432747
  0
ARC
  5
3DC7
330
8C53
100
AcDbEntity
  8
0
100
AcDbCircle
 10
314.6974811069283
 20
330.6218726910342
 30
0.0
 40
4.0
100
AcDbArc
 50
263.9763102325114
 51
318.2544575287731
  0
ARC
  5
3DCA
330
8C53
100
AcDbEntity
  8
0
100
AcDbCircle
 10
324.0614947788031
 20
375.6587074078313
 30
0.0
 40
4.0
100
AcDbArc
 50
323.9763119021603
 51
18.25445578333128
  0
LINE
  5
3DCC
330
8C53
100
AcDbEntity
  8
0
100
AcDbLine
 10
331.3764972202095
 20
333.6273048199403
 30
0.0
 11
331.3764972202095
 21
388.8722389019713
 31
0.0
  0
ARC
  5
3DD3
330
8C53
100
AcDbEntity
  8
0
100
AcDbCircle
 10
343.8764667026312
 20
361.2497718609563
 30
0.0
 40
20.5
100
AcDbArc
 50
179.999991348572
 51
216.0236794464189
  0
ARC
  5
3DD4
330
8C53
100
AcDbEntity
  8
0
100
AcDbCircle
 10
324.0614947788031
 20
346.8408363140813
 30
0.0
 40
4.0
100
AcDbArc
 50
341.7455442166687
 51
36.02368809783949
  0
ARC
  5
3DD5
330
8C53
100
AcDbEntity
  8
0
100
AcDbCircle
 10
343.8764667026312
 20
361.2497718609563
 30
0.0
 40
20.5
100
AcDbArc
 50
143.9763169111284
 51
180.0000050089504
  0
ARC
  5
3DD6
330
8C53
100
AcDbEntity
  8
0
100
AcDbCircle
 10
280.3764667026312
 20
361.2497718609563
 30
0.0
 40
58.0
100
AcDbArc
 50
28.44072158127747
 51
61.55927921565267
  0
ARC
  5
3DD7
330
8C53
100
AcDbEntity
  8
0
100
AcDbCircle
 10
312.1264667026312
 20
416.2423866070501
 30
0.0
 40
20.5
100
AcDbArc
 50
239.9999966606938
 51
276.0236915887119
  0
ARC
  5
3DD8
330
8C53
100
AcDbEntity
  8
0
100
AcDbCircle
 10
312.1264667026312
 20
416.2423866070501
 30
0.0
 40
20.5
100
AcDbArc
 50
203.9763085628606
 51
239.9999966606938
  0
ARC
  5
3DDA
330
8C53
100
AcDbEntity
  8
0
100
AcDbCircle
 10
289.7404803745061
 20
406.2865760601741
 30
0.0
 40
4.0
100
AcDbArc
 50
23.97631015672517
 51
78.25445403788314
  0
ARC
  5
3DDE
330
8C53
100
AcDbEntity
  8
0
100
AcDbCircle
 10
280.3764667026312
 20
361.2497718609563
 30
0.0
 40
50.0
100
AcDbArc
 50
18.25445578333128
 51
41.74554247122688
  0
ARC
  5
3DE2
330
8C53
100
AcDbEntity
  8
0
100
AcDbCircle
 10
314.6974811069283
 20
391.8776710308776
 30
0.0
 40
4.0
100
AcDbArc
 50
41.74554247122688
 51
96.02368976748829
  0
LINE
  5
3DE8
330
8C53
100
AcDbEntity
  8
0
100
AcDbLine
 10
255.1264667026311
 20
440.7497718609563
 30
0.0
 11
305.6264667026312
 21
440.7497718609563
 31
0.0
  0
LINE
  5
3DE9
330
8C53
100
AcDbEntity
  8
0
100
AcDbLine
 10
255.1264667026312
 20
437.8997993428743
 30
0.0
 11
261.3264789096626
 21
435.6431793666224
 31
0.0
  0
LINE
  5
3DEB
330
8C53
100
AcDbEntity
  8
0
100
AcDbLine
 10
255.1264667026311
 20
440.7497718609563
 30
0.0
 11
255.1264667026312
 21
437.8997993428743
 31
0.0
  0
LINE
  5
3DF0
330
8C53
100
AcDbEntity
  8
0
100
AcDbLine
 10
305.6264667026312
 20
437.8997935284212
 30
0.0
 11
299.4264544956001
 21
435.6431735521684
 31
0.0
  0
LINE
  5
3DF4
330
8C53
100
AcDbEntity
  8
0
100
AcDbLine
 10
305.6264667026312
 20
440.7497718609563
 30
0.0
 11
305.6264667026312
 21
437.8997935284212
 31
0.0
  0
LINE
  5
3DF5
330
8C53
100
AcDbEntity
  8
0
100
AcDbLine
 10
573.2150572767186
 20
103.2520745965387
 30
0.0
 11
549.8217274230937
 21
103.2520745965392
 31
0.0
  0
LINE
  5
3DF7
330
8C53
100
AcDbEntity
  8
0
100
AcDbLine
 10
573.2150713080885
 20
141.3520349236871
 30
0.0
 11
549.8217274230942
 21
141.3520349236875
 31
0.0
  0
LINE
  5
3E0E
330
8C53
100
AcDbEntity
  8
0
100
AcDbLine
 10
419.3217274230942
 20
147.5520471307187
 30
0.0
 11
419.3217274230942
 21
97.05206238950802
 31
0.0
  0
LINE
  5
3E0F
330
8C53
100
AcDbEntity
  8
0
100
AcDbLine
 10
422.1716753014379
 20
147.5520471307187
 30
0.0
 11
424.4282952776893
 21
141.3520349236875
 31
0.0
  0
LINE
  5
3E11
330
8C53
100
AcDbEntity
  8
0
100
AcDbLine
 10
471.1992603820783
 20
138.6520532342344
 30
0.0
 11
471.1992603820783
 21
161.652053234234
 31
0.0
  0
LINE
  5
3E12
330
8C53
100
AcDbEntity
  8
0
100
AcDbLine
 10
447.8217274230948
 20
161.652053234234
 30
0.0
 11
447.821727423094
 21
101.4520562859925
 31
0.0
  0
LINE
  5
3E13
330
8C53
100
AcDbEntity
  8
0
100
AcDbLine
 10
549.8217274230942
 20
161.6520532342344
 30
0.0
 11
549.8217274230944
 21
101.4520562859925
 31
0.0
  0
ARC
  5
3E16
330
8C53
100
AcDbEntity
  8
0
100
AcDbCircle
 10
498.8217274230944
 20
109.3549646111869
 30
0.0
 40
130.0
100
AcDbArc
 50
95.96068741934091
 51
112.6198649480404
  0
LINE
  5
3E1D
330
8C53
100
AcDbEntity
  8
0
100
AcDbLine
 10
482.3217962587778
 20
181.2068933221252
 30
0.0
 11
458.4218555969222
 21
176.992688824345
 31
0.0
  0
LINE
  5
3E1E
330
8C53
100
AcDbEntity
  8
0
100
AcDbLine
 10
549.8217274230942
 20
153.6520532342344
 30
0.0
 11
447.8217274230948
 21
153.6520532342344
 31
0.0
  0
LINE
  5
3E1F
330
8C53
100
AcDbEntity
  8
0
100
AcDbLine
 10
447.8217274230948
 20
161.652053234234
 30
0.0
 11
549.8217274230942
 21
161.6520532342344
 31
0.0
  0
LINE
  5
3E27
330
8C53
100
AcDbEntity
  8
0
100
AcDbLine
 10
463.9236866516096
 20
230.6416162225152
 30
0.0
 11
463.9236866516096
 21
214.3520959588439
 31
0.0
  0
LINE
  5
3E28
330
8C53
100
AcDbEntity
  8
0
100
AcDbLine
 10
448.8217274230942
 20
229.3549646111872
 30
0.0
 11
448.8217274230942
 21
214.3520959588439
 31
0.0
  0
LINE
  5
3E32
330
8C53
100
AcDbEntity
  8
0
100
AcDbLine
 10
419.3217274230942
 20
147.5520471307187
 30
0.0
 11
422.1716753014379
 21
147.5520471307187
 31
0.0
  0
LINE
  5
3E38
330
8C53
100
AcDbEntity
  8
0
100
AcDbLine
 10
458.4218555969222
 20
176.992688824345
 30
0.0
 11
458.4218555969222
 21
161.652053234234
 31
0.0
  0
LINE
  5
3E44
330
8C53
100
AcDbEntity
  8
0
100
AcDbLine
 10
482.3217274230942
 20
214.3520959588439
 30
0.0
 11
482.3217274230942
 21
185.6520837518124
 31
0.0
  0
LINE
  5
3E45
330
8C53
100
AcDbEntity
  8
0
100
AcDbLine
 10
515.3217274230942
 20
230.6416162225152
 30
0.0
 11
515.3217274230942
 21
185.6520837518121
 31
0.0
  0
ARC
  5
3E49
330
8C53
100
AcDbEntity
  8
0
100
AcDbCircle
 10
498.8217274230944
 20
109.3549646111869
 30
0.0
 40
130.0
100
AcDbArc
 50
67.38013505195957
 51
84.03931258065908
  0
LINE
  5
3E4C
330
8C53
100
AcDbEntity
  8
0
100
AcDbLine
 10
512.3217274230942
 20
238.6520837518123
 30
0.0
 11
485.321727423094
 21
238.6520837518123
 31
0.0
  0
LINE
  5
3E4D
330
8C53
100
AcDbEntity
  8
0
100
AcDbLine
 10
485.2611500305159
 20
230.6416162225152
 30
0.0
 11
485.2611500305159
 21
214.3520959588439
 31
0.0
  0
LINE
  5
3E4E
330
8C53
100
AcDbEntity
  8
0
100
AcDbLine
 10
545.614335182358
 20
230.6416162225152
 30
0.0
 11
452.0291196638303
 21
230.6416162225152
 31
0.0
  0
LINE
  5
3E79
330
8C53
100
AcDbEntity
  8
0
100
AcDbLine
 10
548.8217274230942
 20
214.3520959588436
 30
0.0
 11
448.8217274230942
 21
214.3520959588439
 31
0.0
  0
LINE
  5
3E7B
330
8C53
100
AcDbEntity
  8
0
100
AcDbLine
 10
548.8217274230942
 20
229.3549646111872
 30
0.0
 11
548.8217274230942
 21
214.3520959588436
 31
0.0
  0
LINE
  5
3E84
330
8C53
100
AcDbEntity
  8
0
100
AcDbLine
 10
482.3217962587778
 20
181.2068933221252
 30
0.0
 11
515.3215790410183
 21
181.2068933221252
 31
0.0
  0
LINE
  5
3E85
330
8C53
100
AcDbEntity
  8
0
100
AcDbLine
 10
515.3217274230942
 20
185.6520837518121
 30
0.0
 11
482.3217274230942
 21
185.6520837518124
 31
0.0
  0
LINE
  5
3E87
330
8C53
100
AcDbEntity
  8
0
100
AcDbLine
 10
487.8217274230943
 20
181.2068933221252
 30
0.0
 11
487.8217274230943
 21
185.6520837518124
 31
0.0
  0
LINE
  5
3EAA
330
8C53
100
AcDbEntity
  8
0
100
AcDbLine
 10
509.8217274230941
 20
181.2068933221252
 30
0.0
 11
509.8217274230941
 21
185.6520837518121
 31
0.0
  0
LINE
  5
3ED6
330
8C53
100
AcDbEntity
  8
0
100
AcDbLine
 10
515.3215790410183
 20
181.2068933221252
 30
0.0
 11
539.2216297668442
 21
176.9926694170959
 31
0.0
  0
LINE
  5
3EF0
330
8C53
100
AcDbEntity
  8
0
100
AcDbLine
 10
539.2216297668442
 20
176.9926694170959
 30
0.0
 11
539.2216297668442
 21
161.6520532342344
 31
0.0
  0
LINE
  5
3EFF
330
8C53
100
AcDbEntity
  8
0
100
AcDbLine
 10
549.8217274230944
 20
138.6520532342344
 30
0.0
 11
447.821727423094
 21
138.6520532342344
 31
0.0
  0
LINE
  5
3F04
330
8C53
100
AcDbEntity
  8
0
100
AcDbLine
 10
447.8117176574689
 20
101.4520562859925
 30
0.0
 11
475.0763355773909
 21
101.4520562859925
 31
0.0
  0
LINE
  5
3F09
330
8C53
100
AcDbEntity
  8
0
100
AcDbLine
 10
422.1717380469999
 20
97.05206238950802
 30
0.0
 11
424.4283580232527
 21
103.2520745965392
 31
0.0
  0
LINE
  5
3F16
330
8C53
100
AcDbEntity
  8
0
100
AcDbLine
 10
419.3217274230942
 20
97.05206238950802
 30
0.0
 11
422.1717380469999
 21
97.05206238950802
 31
0.0
  0
LINE
  5
3F19
330
8C53
100
AcDbEntity
  8
0
100
AcDbLine
 10
424.4282952776893
 20
141.3520349236875
 30
0.0
 11
447.8217274230948
 21
141.3520349236875
 31
0.0
  0
LINE
  5
3F29
330
8C53
100
AcDbEntity
  8
0
100
AcDbLine
 10
424.4283580232527
 20
103.2520745965392
 30
0.0
 11
447.8117176574689
 21
103.2520745965392
 31
0.0
  0
LINE
  5
3F35
330
8C53
100
AcDbEntity
  8
0
100
AcDbLine
 10
509.3457832532613
 20
116.3520452928965
 30
0.0
 11
515.638904675865
 21
105.4520394463827
 31
0.0
  0
LINE
  5
3F36
330
8C53
100
AcDbEntity
  8
0
100
AcDbLine
 10
488.2976951494152
 20
116.3520808110446
 30
0.0
 11
482.0045737268113
 21
105.4520749645307
 31
0.0
  0
ARC
  5
3F37
330
8C53
100
AcDbEntity
  8
0
100
AcDbCircle
 10
498.6899830383287
 20
110.3520501824762
 30
0.0
 40
12.0
100
AcDbArc
 50
90.00000865142787
 51
149.9999966606939
  0
ARC
  5
3F61
330
8C53
100
AcDbEntity
  8
0
100
AcDbCircle
 10
498.953502325438
 20
110.3520501824762
 30
0.0
 40
12.0
100
AcDbArc
 50
30.000003339306
 51
90.00000500895039
  0
LINE
  5
3F62
330
8C53
100
AcDbEntity
  8
0
100
AcDbLine
 10
498.6899830383284
 20
122.3520349236876
 30
0.0
 11
498.9535023254378
 21
122.3520349236876
 31
0.0
  0
ARC
  5
3F63
330
8C53
100
AcDbEntity
  8
0
100
AcDbCircle
 10
475.0763355773911
 20
109.4520562859917
 30
0.0
 40
8.0
100
AcDbArc
 50
269.9999974955181
 51
330.0000016696559
  0
LINE
  5
3F85
330
8C53
100
AcDbEntity
  8
0
100
AcDbLine
 10
549.8217274230944
 20
101.4520562859925
 30
0.0
 11
522.5671192687971
 21
101.4520562859925
 31
0.0
  0
ARC
  5
3F87
330
8C53
100
AcDbEntity
  8
0
100
AcDbCircle
 10
522.5671192687975
 20
109.4520562859917
 30
0.0
 40
8.0
100
AcDbArc
 50
210.000005160536
 51
269.9999974955181
  0
LINE
  5
3F8B
330
8C53
100
AcDbEntity
  8
0
100
AcDbLine
 10
578.3217274230942
 20
147.5520471307187
 30
0.0
 11
578.3217274230942
 21
97.05206238950802
 31
0.0
  0
LINE
  5
3F8C
330
8C53
100
AcDbEntity
  8
0
100
AcDbLine
 10
575.4716912843417
 20
147.5520471307183
 30
0.0
 11
573.2150713080885
 21
141.3520349236871
 31
0.0
  0
LINE
  5
3F8E
330
8C53
100
AcDbEntity
  8
0
100
AcDbLine
 10
578.3217274230942
 20
147.5520471307187
 30
0.0
 11
575.4716912843417
 21
147.5520471307183
 31
0.0
  0
LINE
  5
3F98
330
8C53
100
AcDbEntity
  8
0
100
AcDbLine
 10
575.4716772529709
 20
97.05206238950802
 30
0.0
 11
573.2150572767186
 21
103.2520745965387
 31
0.0
  0
LINE
  5
3FA2
330
8C53
100
AcDbEntity
  8
0
100
AcDbLine
 10
578.3217274230942
 20
97.05206238950802
 30
0.0
 11
575.4716772529709
 21
97.05206238950802
 31
0.0
  0
LINE
  5
3FA8
330
8C53
100
AcDbEntity
  8
0
100
AcDbLine
 10
526.4441944641096
 20
161.6520532342344
 30
0.0
 11
526.4441944641096
 21
138.6520532342344
 31
0.0
  0
LINE
  5
3FAB
330
8C53
100
AcDbEntity
  8
0
100
AcDbLine
 10
533.7197681945784
 20
230.6416162225152
 30
0.0
 11
533.7197681945784
 21
214.3520959588439
 31
0.0
  0
CIRCLE
  5
3FAC
330
8C53
100
AcDbEntity
  8
0
100
AcDbCircle
 10
280.3764667026297
 20
122.3020547601135
 30
0.0
 40
17.85003662109351
  0
CIRCLE
  5
3FAD
330
8C53
100
AcDbEntity
  8
0
100
AcDbCircle
 10
280.3764667026297
 20
122.3020547601135
 30
0.0
 40
25.25
  0
LINE
  5
3FAE
330
8C53
100
AcDbEntity
  8
0
100
AcDbLine
 10
299.6180636210406
 20
138.6520837518118
 30
0.0
 11
331.3764056674748
 21
138.6520837518127
 31
0.0
  0
LINE
  5
3FAF
330
8C53
100
AcDbEntity
  8
0
100
AcDbLine
 10
315.2745074741153
 20
230.6416162225143
 30
0.0
 11
315.2745074741153
 21
214.3520959588436
 31
0.0
  0
LINE
  5
3FB0
330
8C53
100
AcDbEntity
  8
0
100
AcDbLine
 10
296.8764667026308
 20
230.6416162225143
 30
0.0
 11
296.8764667026308
 21
185.6520837518118
 31
0.0
  0
LINE
  5
3FB1
330
8C53
100
AcDbEntity
  8
0
100
AcDbLine
 10
330.3764667026308
 20
229.3549646111872
 30
0.0
 11
330.3764667026308
 21
214.3520959588429
 31
0.0
  0
LINE
  5
3FB2
330
8C53
100
AcDbEntity
  8
0
100
AcDbLine
 10
245.4784259311464
 20
230.6416162225143
 30
0.0
 11
245.4784259311464
 21
214.3520959588436
 31
0.0
  0
LINE
  5
3FB3
330
8C53
100
AcDbEntity
  8
0
100
AcDbLine
 10
230.3764667026308
 20
229.3549646111872
 30
0.0
 11
230.3764667026308
 21
214.3520959588436
 31
0.0
  0
LINE
  5
3FB4
330
8C53
100
AcDbEntity
  8
0
100
AcDbLine
 10
266.8158893100528
 20
230.6416162225143
 30
0.0
 11
266.8158893100528
 21
214.3520959588436
 31
0.0
  0
LINE
  5
3FB5
330
8C53
100
AcDbEntity
  8
0
100
AcDbLine
 10
263.8765355383144
 20
181.2068933221245
 30
0.0
 11
296.8763183205552
 21
181.2068933221245
 31
0.0
  0
LINE
  5
3FB6
330
8C53
100
AcDbEntity
  8
0
100
AcDbLine
 10
296.8764667026308
 20
185.6520837518118
 30
0.0
 11
263.8764667026308
 21
185.6520837518121
 31
0.0
  0
LINE
  5
3FB7
330
8C53
100
AcDbEntity
  8
0
100
AcDbLine
 10
330.3764667026308
 20
214.3520959588429
 30
0.0
 11
230.3764667026308
 21
214.3520959588436
 31
0.0
  0
LINE
  5
3FB8
330
8C53
100
AcDbEntity
  8
0
100
AcDbLine
 10
263.8765355383144
 20
181.2068933221245
 30
0.0
 11
239.9765948764589
 21
176.9926888243446
 31
0.0
  0
LINE
  5
3FB9
330
8C53
100
AcDbEntity
  8
0
100
AcDbLine
 10
263.8764667026308
 20
214.3520959588436
 30
0.0
 11
263.8764667026308
 21
185.6520837518121
 31
0.0
  0
LINE
  5
3FBA
330
8C53
100
AcDbEntity
  8
0
100
AcDbLine
 10
269.376466702631
 20
181.2068933221245
 30
0.0
 11
269.376466702631
 21
185.6520837518121
 31
0.0
  0
LINE
  5
3FBB
330
8C53
100
AcDbEntity
  8
0
100
AcDbLine
 10
291.3764667026308
 20
181.2068933221245
 30
0.0
 11
291.3764667026308
 21
185.6520837518118
 31
0.0
  0
LINE
  5
3FBC
330
8C53
100
AcDbEntity
  8
0
100
AcDbLine
 10
239.9765948764589
 20
176.9926888243446
 30
0.0
 11
239.9765948764589
 21
161.6520532342335
 31
0.0
  0
LINE
  5
3FBD
330
8C53
100
AcDbEntity
  8
0
100
AcDbLine
 10
296.8763183205552
 20
181.2068933221245
 30
0.0
 11
320.7763690463808
 21
176.9926694170955
 31
0.0
  0
LINE
  5
3FBE
330
8C53
100
AcDbEntity
  8
0
100
AcDbLine
 10
320.7763690463808
 20
176.9926694170955
 30
0.0
 11
320.7763690463808
 21
161.652053234234
 31
0.0
  0
LINE
  5
3FBF
330
8C53
100
AcDbEntity
  8
0
100
AcDbLine
 10
327.1690744618946
 20
230.6416162225143
 30
0.0
 11
233.5838589433671
 21
230.6416162225143
 31
0.0
  0
LINE
  5
3FC0
330
8C53
100
AcDbEntity
  8
0
100
AcDbLine
 10
293.8764667026308
 20
238.6520837518113
 30
0.0
 11
266.8764667026308
 21
238.6520837518113
 31
0.0
  0
ARC
  5
3FC1
330
8C53
100
AcDbEntity
  8
0
100
AcDbCircle
 10
280.3764667026312
 20
109.3549646111867
 30
0.0
 40
130.0
100
AcDbArc
 50
95.96068741934091
 51
112.6198649480404
  0
ARC
  5
3FC2
330
8C53
100
AcDbEntity
  8
0
100
AcDbCircle
 10
280.3764667026312
 20
109.3549646111867
 30
0.0
 40
130.0
100
AcDbArc
 50
67.38013505195957
 51
84.03931258065908
  0
LINE
  5
8D1C
330
8C53
100
AcDbEntity
  8
0
  6
CENTER
100
AcDbLine
 10
341.6170590333519
 20
361.2497718609563
 30
0.0
 11
219.1358743719104
 21
361.2497718609562
 31
0.0
  0
LINE
  5
8D1D
330
8C53
100
AcDbEntity
  8
0
  6
CENTER
100
AcDbLine
 10
280.3764667026312
 20
261.1151525324704
 30
0.0
 11
280.3764667026312
 21
461.3843911894421
 31
0.0
  0
LINE
  5
8D1E
330
8C53
100
AcDbEntity
  8
0
  6
CENTER
100
AcDbLine
 10
311.2075981642155
 20
122.3020547601136
 30
0.0
 11
249.5453352410439
 21
122.3020547601133
 31
0.0
  0
LINE
  5
8D1F
330
8C53
100
AcDbEntity
  8
0
  6
CENTER
100
AcDbLine
 10
280.3764667026297
 20
93.43527454286016
 30
0.0
 11
280.3764667026297
 21
248.9300164557111
 31
0.0
  0
LINE
  5
8D20
330
8C53
100
AcDbEntity
  8
0
  6
CENTER
100
AcDbLine
 10
601.9287628847973
 20
122.3020547601133
 30
0.0
 11
395.714691961391
 21
122.3020547601133
 31
0.0
  0
LINE
  5
8D21
330
8C53
100
AcDbEntity
  8
0
  6
CENTER
100
AcDbLine
 10
498.8217274230942
 20
100.551118083225
 30
0.0
 11
498.8217274230942
 21
253.3608952048688
 31
0.0
  0
LINE
  5
8D22
330
8C53
100
AcDbEntity
  8
0
  6
Continuous
100
AcDbLine
 10
261.3264789096626
 20
435.6431793666224
 30
0.0
 11
299.4264544956001
 21
435.6431735521684
 31
0.0
  0
LINE
  5
8D23
330
8C53
100
AcDbEntity
  8
0
  6
Continuous
100
AcDbLine
 10
261.3264789096626
 20
286.8563735232656
 30
0.0
 11
299.4264544956001
 21
286.8563955757829
 31
0.0
  0
LINE
  5
8D24
330
8C53
100
AcDbEntity
  8
0
  6
Continuous
100
AcDbLine
 10
573.2150713080885
 20
141.3520349236871
 30
0.0
 11
573.2150572767186
 21
103.2520745965387
 31
0.0
  0
LINE
  5
8D25
330
8C53
100
AcDbEntity
  8
0
  6
Continuous
100
AcDbLine
 10
424.4282952776893
 20
141.3520349236875
 30
0.0
 11
424.4283580232527
 21
103.2520745965392
 31
0.0
  0
LINE
  5
8F63
330
8C53
100
AcDbEntity
  8
Visible (ISO)
100
AcDbLine
 10
1317.257221764986
 20
211.4799706268211
 30
0.0
 11
1330.004618458214
 21
219.7582268329031
 31
0.0
  0
LINE
  5
8F64
330
8C53
100
AcDbEntity
  8
Visible (ISO)
100
AcDbLine
 10
1330.049503715387
 20
191.781583844159
 30
0.0
 11
1317.257221764986
 21
211.4799706268192
 31
0.0
  0
LINE
  5
8F65
330
8C53
100
AcDbEntity
  8
Visible (ISO)
100
AcDbLine
 10
1342.796900408615
 20
200.0598400502428
 30
0.0
 11
1330.049503715387
 21
191.781583844159
 31
0.0
  0
SPLINE
  5
8F66
330
8C53
100
AcDbEntity
  8
Visible (ISO)
100
AcDbSpline
210
0.0
220
0.0
230
1.0
 70
     8
 71
     3
 72
    18
 73
    14
 74
     0
 42
0.0000000001
 43
0.0000000001
 40
8.693796455454396
 40
8.693796455454396
 40
8.693796455454396
 40
8.693796455454396
 40
8.915511351981942
 40
8.915511351981942
 40
9.518705262616244
 40
9.518705262616244
 40
10.12189917325054
 40
10.12189917325054
 40
10.72509308388485
 40
10.72509308388485
 40
11.32828699451915
 40
11.32828699451915
 40
11.55000189104669
 40
11.55000189104669
 40
11.55000189104669
 40
11.55000189104669
 10
1330.004618458214
 20
219.7582268329031
 30
0.0
 10
1330.541129638314
 20
219.2228728154048
 30
0.0
 10
1331.068380101152
 20
218.6846645963585
 30
0.0
 10
1332.962593123879
 20
216.7065118023827
 30
0.0
 10
1334.430074104371
 20
215.077879852766
 30
0.0
 10
1337.106158919359
 20
211.8108378614286
 30
0.0
 10
1338.312029329508
 20
210.170436318517
 30
0.0
 10
1340.208757462304
 20
207.2497311209434
 30
0.0
 10
1341.045235419821
 20
205.7451919685816
 30
0.0
 10
1342.231055312283
 20
203.0654222073251
 30
0.0
 10
1342.583693046832
 20
201.8913171176671
 30
0.0
 10
1342.772411710897
 20
200.6620363851323
 30
0.0
 10
1342.798468486046
 20
200.3482261741781
 30
0.0
 10
1342.796900408615
 20
200.0598400502429
 30
0.0
  0
LINE
  5
8F67
330
8C53
100
AcDbEntity
  8
Visible (ISO)
100
AcDbLine
 10
1323.295114622345
 20
230.0899567143394
 30
0.0
 11
1310.547717929117
 21
221.8117005082556
 31
0.0
  0
SPLINE
  5
8F68
330
8C53
100
AcDbEntity
  8
Visible (ISO)
100
AcDbSpline
210
0.0
220
0.0
230
1.0
 70
     8
 71
     3
 72
    12
 73
     8
 74
     0
 42
0.0000000001
 43
0.0000000001
 40
10.12189917325041
 40
10.12189917325041
 40
10.12189917325054
 40
10.12189917325054
 40
10.72509308388485
 40
10.72509308388485
 40
11.32828699451915
 40
11.32828699451915
 40
11.5500018910467
 40
11.5500018910467
 40
11.5500018910467
 40
11.5500018910467
 10
1327.550654143084
 20
226.7415009305557
 30
0.0
 10
1327.550654143084
 20
226.7415009305557
 30
0.0
 10
1327.280142047712
 20
226.9415769759296
 30
0.0
 10
1326.17985472424
 20
227.7821036200128
 30
0.0
 10
1325.353276452563
 20
228.423831943114
 30
0.0
 10
1324.076545278601
 20
229.4511460723831
 30
0.0
 10
1323.7003640271
 20
229.7567281057807
 30
0.0
 10
1323.295114622345
 20
230.0899567143394
 30
0.0
  0
LINE
  5
8F69
330
8C53
100
AcDbEntity
  8
Visible (ISO)
100
AcDbLine
 10
1362.970297173398
 20
141.0880074171934
 30
0.0
 11
1375.717693866626
 21
149.3662636232772
 31
0.0
  0
SPLINE
  5
8F6A
330
8C53
100
AcDbEntity
  8
Visible (ISO)
100
AcDbSpline
210
0.0
220
0.0
230
1.0
 70
     8
 71
     3
 72
    12
 73
     8
 74
     0
 42
0.0000000001
 43
0.0000000001
 40
8.693796455454393
 40
8.693796455454393
 40
8.693796455454393
 40
8.693796455454393
 40
8.91551135198194
 40
8.91551135198194
 40
9.518705262616244
 40
9.518705262616244
 40
10.12189917325054
 40
10.12189917325054
 40
10.1218991732507
 40
10.1218991732507
 10
1375.717693866626
 20
149.3662636232773
 30
0.0
 10
1375.578104167419
 20
149.8720136618256
 30
0.0
 10
1375.451947788296
 20
150.3399637458322
 30
0.0
 10
1375.032742983737
 20
151.9241620107593
 30
0.0
 10
1374.78269466059
 20
152.9402932601413
 30
0.0
 10
1374.462362535227
 20
154.2873287322297
 30
0.0
 10
1374.389611154376
 20
154.6158320872498
 30
0.0
 10
1374.389611154376
 20
154.6158320872498
 30
0.0
  0
LINE
  5
8F6B
330
8C53
100
AcDbEntity
  8
Visible (ISO)
100
AcDbLine
 10
1364.491329325034
 20
183.3625298463264
 30
0.0
 11
1349.786075379629
 21
206.0066351808534
 31
0.0
  0
LINE
  5
8F6C
330
8C53
100
AcDbEntity
  8
Visible (ISO)
100
AcDbLine
 10
1356.215908080354
 20
179.396380287372
 30
0.0
 11
1342.796900408615
 21
200.0598400502428
 31
0.0
  0
LINE
  5
8F6D
330
8C53
100
AcDbEntity
  8
Visible (ISO)
100
AcDbLine
 10
1375.717693866626
 20
149.3662636232772
 30
0.0
 11
1369.008190030756
 21
159.6979935047118
 31
0.0
  0
LINE
  5
8F6E
330
8C53
100
AcDbEntity
  8
Visible (ISO)
100
AcDbLine
 10
1330.004618458214
 20
219.7582268329031
 30
0.0
 11
1323.295114622345
 21
230.0899567143394
 31
0.0
  0
LINE
  5
8F6F
330
8C53
100
AcDbEntity
  8
Visible (ISO)
100
AcDbLine
 10
1343.468511387127
 20
171.11812408129
 30
0.0
 11
1330.049503715386
 21
191.7815838441608
 31
0.0
  0
LINE
  5
8F70
330
8C53
100
AcDbEntity
  8
Visible (ISO)
100
AcDbLine
 10
1362.970297173398
 20
141.0880074171934
 30
0.0
 11
1356.260793337527
 21
151.4197372986298
 31
0.0
  0
LINE
  5
8F71
330
8C53
100
AcDbEntity
  8
Visible (ISO)
100
AcDbLine
 10
1309.147369334022
 20
117.0164780232278
 30
0.0
 11
1266.66552460285
 21
182.4327823229712
 31
0.0
  0
LINE
  5
8F72
330
8C53
100
AcDbEntity
  8
Visible (ISO)
100
AcDbLine
 10
1302.911669465357
 20
146.3531393790224
 30
0.0
 11
1290.929610695027
 21
164.8038918738218
 31
0.0
  0
LINE
  5
8F73
330
8C53
100
AcDbEntity
  8
Visible (ISO)
100
AcDbLine
 10
1320.837035761026
 20
151.4360102516791
 30
0.0
 11
1302.86394760553
 21
179.1121389938778
 31
0.0
  0
LINE
  5
8F74
330
8C53
100
AcDbEntity
  8
Visible (ISO)
100
AcDbLine
 10
1317.257221764986
 20
211.4799706268211
 30
0.0
 11
1310.547717929116
 21
221.8117005082556
 31
0.0
  0
LINE
  5
8F75
330
8C53
100
AcDbEntity
  8
Visible (ISO)
100
AcDbLine
 10
1364.491329325034
 20
183.3625298463264
 30
0.0
 11
1374.389611154376
 21
154.6158320872498
 31
0.0
  0
LINE
  5
8F76
330
8C53
100
AcDbEntity
  8
Visible (ISO)
100
AcDbLine
 10
1349.786075379628
 20
206.0066351808534
 30
0.0
 11
1327.550654143084
 21
226.7415009305557
 31
0.0
  0
LINE
  5
8F77
330
8C53
100
AcDbEntity
  8
Visible (ISO)
100
AcDbLine
 10
1257.440148355451
 20
176.4417529378049
 30
0.0
 11
1266.665524602851
 21
182.4327823229712
 31
0.0
  0
LINE
  5
8F78
330
8C53
100
AcDbEntity
  8
Visible (ISO)
100
AcDbLine
 10
1299.921993086623
 20
111.0254486380624
 30
0.0
 11
1309.147369334022
 21
117.0164780232278
 31
0.0
  0
LINE
  5
8F79
330
8C53
100
AcDbEntity
  8
Visible (ISO)
100
AcDbLine
 10
1302.911669465357
 20
146.3531393790224
 30
0.0
 11
1309.147369334022
 21
117.0164780232278
 31
0.0
  0
LINE
  5
8F7A
330
8C53
100
AcDbEntity
  8
Visible (ISO)
100
AcDbLine
 10
1290.929610695026
 20
164.8038918738218
 30
0.0
 11
1266.665524602851
 21
182.4327823229712
 31
0.0
  0
LINE
  5
8F7B
330
8C53
100
AcDbEntity
  8
Visible (ISO)
100
AcDbLine
 10
1290.929610695026
 20
164.8038918738209
 30
0.0
 11
1305.859462298113
 21
174.4994508701772
 31
0.0
  0
LINE
  5
8F7C
330
8C53
100
AcDbEntity
  8
Visible (ISO)
100
AcDbLine
 10
1302.911669465357
 20
146.3531393790224
 30
0.0
 11
1317.841521068443
 21
156.0486983753787
 31
0.0
  0
LINE
  5
8F7D
330
8C53
100
AcDbEntity
  8
Visible (ISO)
100
AcDbLine
 10
1302.86394760553
 20
179.1121389938778
 30
0.0
 11
1327.77246347351
 21
195.2879183338243
 31
0.0
  0
LINE
  5
8F7E
330
8C53
100
AcDbEntity
  8
0
  6
CENTER
100
AcDbLine
 10
1215.863365484822
 20
102.9393060202935
 30
0.0
 11
1375.02620650245
 21
206.3008635320282
 31
0.0
  0
LINE
  5
8F7F
330
8C53
100
AcDbEntity
  8
Visible (ISO)
100
AcDbLine
 10
1320.837035761026
 20
151.4360102516791
 30
0.0
 11
1345.745551629005
 21
167.6117895916256
 31
0.0
  0
SPLINE
  5
8F80
330
8C53
100
AcDbEntity
  8
Visible (ISO)
100
AcDbSpline
210
0.0
220
0.0
230
1.0
 70
     8
 71
     3
 72
    18
 73
    14
 74
     0
 42
0.0000000001
 43
0.0000000001
 40
8.693796455454391
 40
8.693796455454391
 40
8.693796455454391
 40
8.693796455454391
 40
8.915511351981937
 40
8.915511351981937
 40
9.51870526261624
 40
9.51870526261624
 40
10.12189917325054
 40
10.12189917325054
 40
10.72509308388484
 40
10.72509308388484
 40
11.32828699451914
 40
11.32828699451914
 40
11.55000189104669
 40
11.55000189104669
 40
11.55000189104669
 40
11.55000189104669
 10
1356.215908080354
 20
179.396380287372
 30
0.0
 10
1356.479999708473
 20
179.2805155934281
 30
0.0
 10
1356.756081355998
 20
179.1290734330839
 30
0.0
 10
1357.802326389466
 20
178.4566768362053
 30
0.0
 10
1358.731494072545
 20
177.6569746728298
 30
0.0
 10
1360.697269163117
 20
175.4837137395786
 30
0.0
 10
1361.731507835154
 20
174.107601896864
 30
0.0
 10
1363.62823596795
 20
171.1868966992895
 30
0.0
 10
1364.636345663579
 20
169.4180678467317
 30
0.0
 10
1366.532475280458
 20
165.6445170273889
 30
0.0
 10
1367.42342631242
 20
163.6414821514907
 30
0.0
 10
1368.460112965745
 20
161.1064452218568
 30
0.0
 10
1368.737338556206
 20
160.4058689522014
 30
0.0
 10
1369.008190030756
 20
159.6979935047127
 30
0.0
  0
LINE
  5
8F81
330
8C53
100
AcDbEntity
  8
Visible (ISO)
100
AcDbLine
 10
1343.468511387126
 20
171.1181240812891
 30
0.0
 11
1356.215908080354
 21
179.396380287372
 31
0.0
  0
LINE
  5
8F82
330
8C53
100
AcDbEntity
  8
Visible (ISO)
100
AcDbLine
 10
1369.008190030756
 20
159.6979935047127
 30
0.0
 11
1356.260793337527
 21
151.4197372986289
 31
0.0
  0
LINE
  5
8F83
330
8C53
100
AcDbEntity
  8
Visible (ISO)
100
AcDbLine
 10
1356.260793337527
 20
151.4197372986298
 30
0.0
 11
1343.468511387126
 21
171.11812408129
 31
0.0
  0
LINE
  5
8F84
330
8C53
100
AcDbEntity
  8
Visible (ISO)
100
AcDbLine
 10
1237.673826358176
 20
155.9363905266106
 30
0.0
 11
1232.206911523911
 21
143.6574987690489
 31
0.0
  0
LINE
  5
8F85
330
8C53
100
AcDbEntity
  8
Visible (ISO)
100
AcDbLine
 10
1259.708804565756
 20
101.3082972353338
 30
0.0
 11
1273.149724943433
 21
101.3082972353338
 31
0.0
  0
LINE
  5
8F86
330
8C53
100
AcDbEntity
  8
Visible (ISO)
100
AcDbLine
 10
1248.335475247486
 20
148.2319155118809
 30
0.0
 11
1247.21647211472
 21
147.5052263806508
 31
0.0
  0
LINE
  5
8F87
330
8C53
100
AcDbEntity
  8
Visible (ISO)
100
AcDbLine
 10
1269.328816936329
 20
113.4552013220652
 30
0.0
 11
1270.447820069096
 21
114.1818904532963
 31
0.0
  0
LINE
  5
8F88
330
8C53
100
AcDbEntity
  8
Visible (ISO)
100
AcDbLine
 10
1244.347380621756
 20
154.3730426984191
 30
0.0
 11
1248.335475247486
 21
148.2319155118809
 31
0.0
  0
LINE
  5
8F89
330
8C53
100
AcDbEntity
  8
Visible (ISO)
100
AcDbLine
 10
1244.347380621756
 20
154.37304269842
 30
0.0
 11
1231.615056872525
 21
173.9791019478041
 31
0.0
  0
LINE
  5
8F8A
330
8C53
100
AcDbEntity
  8
Visible (ISO)
100
AcDbLine
 10
1287.168238444058
 20
88.43470401737135
 30
0.0
 11
1274.435914694826
 21
108.0407632667572
 31
0.0
  0
LINE
  5
8F8B
330
8C53
100
AcDbEntity
  8
Visible (ISO)
100
AcDbLine
 10
1270.447820069096
 20
114.1818904532963
 30
0.0
 11
1274.435914694826
 21
108.0407632667572
 31
0.0
  0
LINE
  5
8F8C
330
8C53
100
AcDbEntity
  8
Visible (ISO)
100
AcDbLine
 10
1244.195115391707
 20
182.1486874730296
 30
0.0
 11
1256.927439140938
 21
162.5426282236446
 31
0.0
  0
LINE
  5
8F8D
330
8C53
100
AcDbEntity
  8
Visible (ISO)
100
AcDbLine
 10
1287.015973214008
 20
116.2103487919819
 30
0.0
 11
1256.927439140937
 21
162.5426282236446
 31
0.0
  0
LINE
  5
8F8E
330
8C53
100
AcDbEntity
  8
Visible (ISO)
100
AcDbLine
 10
1287.015973214008
 20
116.2103487919819
 30
0.0
 11
1299.748296963239
 21
96.60428954259693
 31
0.0
  0
LINE
  5
8F8F
330
8C53
100
AcDbEntity
  8
Visible (ISO)
100
AcDbLine
 10
1256.927439140937
 20
162.5426282236446
 30
0.0
 11
1244.347380621756
 21
154.3730426984191
 31
0.0
  0
LINE
  5
8F90
330
8C53
100
AcDbEntity
  8
Visible (ISO)
100
AcDbLine
 10
1244.195115391707
 20
182.1486874730296
 30
0.0
 11
1231.615056872525
 21
173.9791019478059
 31
0.0
  0
LINE
  5
8F91
330
8C53
100
AcDbEntity
  8
Visible (ISO)
100
AcDbLine
 10
1287.015973214008
 20
116.2103487919819
 30
0.0
 11
1274.435914694826
 21
108.0407632667572
 31
0.0
  0
LINE
  5
8F92
330
8C53
100
AcDbEntity
  8
Visible (ISO)
100
AcDbLine
 10
1299.748296963239
 20
96.60428954259693
 30
0.0
 11
1287.168238444058
 21
88.43470401737135
 31
0.0
  0
LINE
  5
8F93
330
8C53
100
AcDbEntity
  8
Visible (ISO)
100
AcDbLine
 10
1226.186685231014
 20
163.9772766613666
 30
0.0
 11
1233.266992686209
 21
153.0745592780756
 31
0.0
  0
LINE
  5
8F94
330
8C53
100
AcDbEntity
  8
Visible (ISO)
100
AcDbLine
 10
1226.186685231014
 20
163.9772766613666
 30
0.0
 11
1234.573390910468
 21
169.4236670115176
 31
0.0
  0
LINE
  5
8F95
330
8C53
100
AcDbEntity
  8
Visible (ISO)
100
AcDbLine
 10
1233.266992686209
 20
153.0745592780756
 30
0.0
 11
1241.653698365663
 21
158.5209496282266
 31
0.0
  0
LINE
  5
8F96
330
8C53
100
AcDbEntity
  8
Visible (ISO)
100
AcDbLine
 10
1275.823198726661
 20
87.54374860350868
 30
0.0
 11
1268.742891271466
 21
98.4464659867997
 31
0.0
  0
LINE
  5
8F97
330
8C53
100
AcDbEntity
  8
Visible (ISO)
100
AcDbLine
 10
1284.209904406115
 20
92.99013895365964
 30
0.0
 11
1275.823198726661
 21
87.54374860350958
 31
0.0
  0
LINE
  5
8F98
330
8C53
100
AcDbEntity
  8
Visible (ISO)
100
AcDbLine
 10
1277.12959695092
 20
103.8928563369506
 30
0.0
 11
1268.742891271466
 21
98.4464659867997
 31
0.0
  0
CIRCLE
  5
8F99
330
8C53
100
AcDbEntity
  8
Visible (ISO)
100
AcDbCircle
 10
1245.679383872383
 20
122.3020547600924
 30
0.0
 40
25.24999999999997
  0
CIRCLE
  5
8F9A
330
8C53
100
AcDbEntity
  8
Visible (ISO)
100
AcDbCircle
 10
1245.679383872383
 20
122.3020547600924
 30
0.0
 40
17.84999999999997
  0
LINE
  5
8F9B
330
8C53
100
AcDbEntity
  8
Visible (ISO)
100
AcDbLine
 10
1305.618990938857
 20
100.416762787702
 30
0.0
 11
1292.886667189626
 21
120.022822037087
 31
0.0
  0
SPLINE
  5
8F9C
330
8C53
100
AcDbEntity
  8
Visible (ISO)
100
AcDbSpline
210
0.0
220
0.0
230
1.0
 70
    24
 71
     3
 72
     8
 73
     4
 74
     0
 42
0.0000000001
 43
0.0000000001
 40
-0.1436911213497098
 40
-0.1436911213497098
 40
-0.1436911213497098
 40
-0.1436911213497098
 40
0.0
 40
0.0
 40
0.0
 40
0.0
 10
1305.618990938858
 20
100.416762787702
 30
0.0
 10
1305.717013161991
 20
100.8779210900545
 30
0.0
 10
1305.815028730381
 20
101.3390480843024
 30
0.0
 10
1305.913022471787
 20
101.8000723906632
 30
0.0
  0
LINE
  5
8F9D
330
8C53
100
AcDbEntity
  8
Visible (ISO)
100
AcDbLine
 10
1293.586677960196
 20
120.7809784359694
 30
0.0
 11
1305.913022471788
 21
101.8000723906632
 31
0.0
  0
SPLINE
  5
8F9E
330
8C53
100
AcDbEntity
  8
Visible (ISO)
100
AcDbSpline
210
0.0
220
0.0
230
1.0
 70
     8
 71
     3
 72
     8
 73
     4
 74
     0
 42
0.0000000001
 43
0.0000000001
 40
-0.1436911213494072
 40
-0.1436911213494072
 40
-0.1436911213494072
 40
-0.1436911213494072
 40
0.0
 40
0.0
 40
0.0
 40
0.0
 10
1292.886667189626
 20
120.022822037087
 30
0.0
 10
1293.120245021754
 20
120.2752430065027
 30
0.0
 10
1293.35359590483
 20
120.5279718912977
 30
0.0
 10
1293.586677960196
 20
120.7809784359695
 30
0.0
  0
SPLINE
  5
8F9F
330
8C53
100
AcDbEntity
  8
Visible (ISO)
100
AcDbSpline
210
0.0
220
0.0
230
1.0
 70
    24
 71
     3
 72
     8
 73
     4
 74
     0
 42
0.0000000001
 43
0.0000000001
 40
-0.1436911213494072
 40
-0.1436911213494072
 40
-0.1436911213494072
 40
-0.1436911213494072
 40
0.0
 40
0.0
 40
0.0
 40
0.0
 10
1250.065809367325
 20
185.9611607181357
 30
0.0
 10
1250.52696766968
 20
185.863138495001
 30
0.0
 10
1250.988094663925
 20
185.7651229266109
 30
0.0
 10
1251.449118970285
 20
185.6671291852051
 30
0.0
  0
LINE
  5
8FA0
330
8C53
100
AcDbEntity
  8
Visible (ISO)
100
AcDbLine
 10
1262.798133116555
 20
166.3551014687498
 30
0.0
 11
1250.065809367324
 21
185.9611607181357
 31
0.0
  0
SPLINE
  5
8FA1
330
8C53
100
AcDbEntity
  8
Visible (ISO)
100
AcDbSpline
210
0.0
220
0.0
230
1.0
 70
     8
 71
     3
 72
     8
 73
     4
 74
     0
 42
0.0000000001
 43
0.0000000001
 40
-0.1436911213497098
 40
-0.1436911213497098
 40
-0.1436911213497098
 40
-0.1436911213497098
 40
0.0
 40
0.0
 40
0.0
 40
0.0
 10
1262.798133116556
 20
166.3551014687498
 30
0.0
 10
1263.123735809914
 20
166.4658165785556
 30
0.0
 10
1263.449527489475
 20
166.5761991196166
 30
0.0
 10
1263.775463481876
 20
166.6862231398979
 30
0.0
  0
LINE
  5
8FA2
330
8C53
100
AcDbEntity
  8
Visible (ISO)
100
AcDbLine
 10
1251.449118970285
 20
185.6671291852051
 30
0.0
 11
1263.775463481876
 21
166.6862231398979
 31
0.0
  0
LINE
  5
8FA3
330
8C53
100
AcDbEntity
  8
Visible (ISO)
100
AcDbLine
 10
1262.798133116556
 20
166.3551014687498
 30
0.0
 11
1292.886667189626
 21
120.022822037087
 31
0.0
  0
LINE
  5
8FA4
330
8C53
100
AcDbEntity
  8
Visible (ISO)
100
AcDbLine
 10
1293.586677960196
 20
120.7809784359694
 30
0.0
 11
1263.775463481876
 21
166.6862231398979
 31
0.0
  0
LINE
  5
8FA5
330
8C53
100
AcDbEntity
  8
Visible (ISO)
100
AcDbLine
 10
1245.033785959652
 20
182.6933265080449
 30
0.0
 11
1257.766109708883
 21
163.0872672586599
 31
0.0
  0
SPLINE
  5
8FA6
330
8C53
100
AcDbEntity
  8
Visible (ISO)
100
AcDbSpline
210
0.0
220
0.0
230
1.0
 70
    24
 71
     3
 72
     8
 73
     4
 74
     0
 42
0.0000000001
 43
0.0000000001
 40
-0.1436911116740462
 40
-0.1436911116740462
 40
-0.1436911116740462
 40
-0.1436911116740462
 40
0.0
 40
0.0
 40
0.0
 40
0.0
 10
1299.203657928224
 20
97.44296011054283
 30
0.0
 10
1299.664682234585
 20
97.34496636913608
 30
0.0
 10
1300.125809228831
 20
97.24695080074596
 30
0.0
 10
1300.586967531185
 20
97.14892857761222
 30
0.0
  0
SPLINE
  5
8FA7
330
8C53
100
AcDbEntity
  8
Visible (ISO)
100
AcDbSpline
210
0.0
220
0.0
230
1.0
 70
    24
 71
     3
 72
     8
 73
     4
 74
     0
 42
0.0000000001
 43
0.0000000001
 40
-0.143691111674144
 40
-0.143691111674144
 40
-0.143691111674144
 40
-0.143691111674144
 40
0.0
 40
0.0
 40
0.0
 40
0.0
 10
1244.739754426722
 20
181.3100169050847
 30
0.0
 10
1244.837748168128
 20
181.7710412114454
 30
0.0
 10
1244.935763736518
 20
182.2321682056925
 30
0.0
 10
1245.033785959652
 20
182.6933265080449
 30
0.0
  0
SPLINE
  5
8FA8
330
8C53
100
AcDbEntity
  8
Visible (ISO)
100
AcDbSpline
210
0.0
220
0.0
230
1.0
 70
     8
 71
     3
 72
     8
 73
     4
 74
     0
 42
0.0000000001
 43
0.0000000001
 40
-0.1436911116740462
 40
-0.1436911116740462
 40
-0.1436911116740462
 40
-0.1436911116740462
 40
0.0
 40
0.0
 40
0.0
 40
0.0
 10
1257.066098938312
 20
162.3291108597775
 30
0.0
 10
1257.299180993679
 20
162.5821174044511
 30
0.0
 10
1257.532531876754
 20
162.8348462892461
 30
0.0
 10
1257.766109708883
 20
163.0872672586599
 30
0.0
  0
SPLINE
  5
8FA9
330
8C53
100
AcDbEntity
  8
Visible (ISO)
100
AcDbSpline
210
0.0
220
0.0
230
1.0
 70
     8
 71
     3
 72
     8
 73
     4
 74
     0
 42
0.0000000001
 43
0.0000000001
 40
-0.143691111674144
 40
-0.143691111674144
 40
-0.143691111674144
 40
-0.143691111674144
 40
0.0
 40
0.0
 40
0.0
 40
0.0
 10
1286.877313416633
 20
116.423866155849
 30
0.0
 10
1287.203249409033
 20
116.5338901761304
 30
0.0
 10
1287.529041088594
 20
116.6442727171923
 30
0.0
 10
1287.854643781954
 20
116.7549878269972
 30
0.0
  0
LINE
  5
8FAA
330
8C53
100
AcDbEntity
  8
Visible (ISO)
100
AcDbLine
 10
1287.854643781953
 20
116.7549878269972
 30
0.0
 11
1257.766109708883
 21
163.0872672586599
 31
0.0
  0
LINE
  5
8FAB
330
8C53
100
AcDbEntity
  8
Visible (ISO)
100
AcDbLine
 10
1287.854643781954
 20
116.7549878269972
 30
0.0
 11
1300.586967531185
 21
97.14892857761221
 31
0.0
  0
LINE
  5
8FAC
330
8C53
100
AcDbEntity
  8
Visible (ISO)
100
AcDbLine
 10
1250.065809367325
 20
185.9611607181357
 30
0.0
 11
1245.033785959652
 21
182.6933265080449
 31
0.0
  0
LINE
  5
8FAD
330
8C53
100
AcDbEntity
  8
Visible (ISO)
100
AcDbLine
 10
1262.798133116556
 20
166.3551014687498
 30
0.0
 11
1257.766109708883
 21
163.0872672586599
 31
0.0
  0
LINE
  5
8FAE
330
8C53
100
AcDbEntity
  8
Visible (ISO)
100
AcDbLine
 10
1292.886667189626
 20
120.022822037087
 30
0.0
 11
1287.854643781954
 21
116.7549878269972
 31
0.0
  0
LINE
  5
8FAF
330
8C53
100
AcDbEntity
  8
Visible (ISO)
100
AcDbLine
 10
1305.618990938858
 20
100.416762787702
 30
0.0
 11
1300.586967531185
 21
97.14892857761221
 31
0.0
  0
LINE
  5
8FB0
330
8C53
100
AcDbEntity
  8
Visible (ISO)
100
AcDbLine
 10
1317.257221766055
 20
341.9040255279794
 30
0.0
 11
1330.004618459283
 21
341.9040255279812
 31
0.0
  0
ELLIPSE
  5
8FB1
330
8C53
100
AcDbEntity
  8
Visible (ISO)
100
AcDbEllipse
 10
1319.466718190599
 20
321.8094416198052
 30
0.0
 11
-0.0000000000035791
 21
20.49999999999994
 31
0.0
210
0.0
220
0.0
230
1.0
 40
0.544639035015027
 41
5.036779698993155
 42
6.083977250189762
  0
LINE
  5
8FB2
330
8C53
100
AcDbEntity
  8
Visible (ISO)
100
AcDbLine
 10
1342.796900409683
 20
328.3434341035824
 30
0.0
 11
1330.049503716456
 21
328.3434341035806
 31
0.0
  0
SPLINE
  5
8FB3
330
8C53
100
AcDbEntity
  8
Visible (ISO)
100
AcDbSpline
210
0.0
220
0.0
230
1.0
 70
     8
 71
     3
 72
    18
 73
    14
 74
     0
 42
0.0000000001
 43
0.0000000001
 40
8.693796455454396
 40
8.693796455454396
 40
8.693796455454396
 40
8.693796455454396
 40
8.915511351981942
 40
8.915511351981942
 40
9.518705262616244
 40
9.518705262616244
 40
10.12189917325054
 40
10.12189917325054
 40
10.72509308388485
 40
10.72509308388485
 40
11.32828699451915
 40
11.32828699451915
 40
11.55000189104669
 40
11.55000189104669
 40
11.55000189104669
 40
11.55000189104669
 10
1330.004618459283
 20
341.9040255279812
 30
0.0
 10
1330.541129639383
 20
342.0536612960765
 30
0.0
 10
1331.06838010222
 20
342.1597729215479
 30
0.0
 10
1332.962593124948
 20
342.4041021500886
 30
0.0
 10
1334.430074105439
 20
342.2953511783796
 30
0.0
 10
1337.106158920428
 20
341.3778818763437
 30
0.0
 10
1338.312029330577
 20
340.5682855817756
 30
0.0
 10
1340.208757463373
 20
338.5576392129948
 30
0.0
 10
1341.04523542089
 20
337.202222895459
 30
0.0
 10
1342.231055313352
 20
334.0258399777919
 30
0.0
 10
1342.583693047902
 20
332.2051551901693
 30
0.0
 10
1342.772411711966
 20
329.7527925803258
 30
0.0
 10
1342.798468487115
 20
329.060141867021
 30
0.0
 10
1342.796900409683
 20
328.3434341035824
 30
0.0
  0
LINE
  5
8FB4
330
8C53
100
AcDbEntity
  8
Visible (ISO)
100
AcDbLine
 10
1310.547717930186
 20
390.3626461845121
 30
0.0
 11
1323.295114623414
 21
390.3626461845139
 31
0.0
  0
ELLIPSE
  5
8FB5
330
8C53
100
AcDbEntity
  8
Visible (ISO)
100
AcDbEllipse
 10
1302.174428828872
 20
376.8020547601242
 30
0.0
 11
-0.0000000000047372
 21
20.49999999999993
 31
0.0
210
0.0
220
0.0
230
1.0
 40
0.5446390350150271
 41
3.9895821477963
 42
5.435195812971835
  0
LINE
  5
8FB6
330
8C53
100
AcDbEntity
  8
Visible (ISO)
100
AcDbLine
 10
1323.295114623413
 20
363.2414633357309
 30
0.0
 11
1310.547717930186
 21
363.2414633357291
 31
0.0
  0
SPLINE
  5
8FB7
330
8C53
100
AcDbEntity
  8
Visible (ISO)
100
AcDbSpline
210
0.0
220
0.0
230
1.0
 70
     8
 71
     3
 72
    18
 73
    14
 74
     0
 42
0.0000000001
 43
0.0000000001
 40
8.693796455454394
 40
8.693796455454394
 40
8.693796455454394
 40
8.693796455454394
 40
8.915511351981942
 40
8.915511351981942
 40
9.518705262616244
 40
9.518705262616244
 40
10.12189917325054
 40
10.12189917325054
 40
10.72509308388485
 40
10.72509308388485
 40
11.32828699451915
 40
11.32828699451915
 40
11.5500018910467
 40
11.5500018910467
 40
11.5500018910467
 40
11.5500018910467
 10
1323.295114623413
 20
390.3626461845139
 30
0.0
 10
1323.70036402817
 20
389.7955741891726
 30
0.0
 10
1324.076545279671
 20
389.2090351013391
 30
0.0
 10
1325.353276453632
 20
387.0010017200381
 30
0.0
 10
1326.17985472531
 20
385.0715659607046
 30
0.0
 10
1327.280142048781
 20
380.9777137410053
 30
0.0
 10
1327.550654144153
 20
378.8127011289032
 30
0.0
 10
1327.550654144153
 20
374.7914083913399
 30
0.0
 10
1327.280142048781
 20
372.6263957792377
 30
0.0
 10
1326.179854725309
 20
368.5325435595384
 30
0.0
 10
1325.353276453632
 20
366.6031078002067
 30
0.0
 10
1324.076545279669
 20
364.3950744189057
 30
0.0
 10
1323.700364028169
 20
363.8085353310723
 30
0.0
 10
1323.295114623413
 20
363.2414633357309
 30
0.0
  0
LINE
  5
8FB8
330
8C53
100
AcDbEntity
  8
Visible (ISO)
100
AcDbLine
 10
1330.049503716457
 20
425.2606754166424
 30
0.0
 11
1342.796900409686
 21
425.2606754166443
 31
0.0
  0
ELLIPSE
  5
8FB9
330
8C53
100
AcDbEntity
  8
Visible (ISO)
100
AcDbEllipse
 10
1319.4667181906
 20
431.7946679004287
 30
0.0
 11
0.0000000000035815
 21
-20.49999999999996
 31
0.0
210
0.0
220
0.0
230
1.0
 40
0.544639035015027
 41
0.1992080569891244
 42
1.246405608185766
  0
LINE
  5
8FBA
330
8C53
100
AcDbEntity
  8
Visible (ISO)
100
AcDbLine
 10
1330.004618459284
 20
411.7000839922582
 30
0.0
 11
1317.257221766056
 21
411.7000839922564
 31
0.0
  0
SPLINE
  5
8FBB
330
8C53
100
AcDbEntity
  8
Visible (ISO)
100
AcDbSpline
210
0.0
220
0.0
230
1.0
 70
     8
 71
     3
 72
    18
 73
    14
 74
     0
 42
0.0000000001
 43
0.0000000001
 40
8.693796455454393
 40
8.693796455454393
 40
8.693796455454393
 40
8.693796455454393
 40
8.915511351981939
 40
8.915511351981939
 40
9.51870526261624
 40
9.51870526261624
 40
10.12189917325054
 40
10.12189917325054
 40
10.72509308388484
 40
10.72509308388484
 40
11.32828699451914
 40
11.32828699451914
 40
11.55000189104669
 40
11.55000189104669
 40
11.55000189104669
 40
11.55000189104669
 10
1342.796900409686
 20
425.2606754166443
 30
0.0
 10
1342.798468487116
 20
424.5439676532057
 30
0.0
 10
1342.772411711968
 20
423.8513169399009
 30
0.0
 10
1342.583693047902
 20
421.3989543300592
 30
0.0
 10
1342.231055313354
 20
419.5782695424366
 30
0.0
 10
1341.045235420892
 20
416.4018866247714
 30
0.0
 10
1340.208757463375
 20
415.0464703072373
 30
0.0
 10
1338.312029330578
 20
413.0358239384565
 30
0.0
 10
1337.106158920429
 20
412.2262276438885
 30
0.0
 10
1334.430074105441
 20
411.3087583418562
 30
0.0
 10
1332.962593124949
 20
411.200007370149
 30
0.0
 10
1331.068380102221
 20
411.4443365986897
 30
0.0
 10
1330.541129639384
 20
411.5504482241629
 30
0.0
 10
1330.004618459285
 20
411.7000839922582
 30
0.0
  0
LINE
  5
8FBC
330
8C53
100
AcDbEntity
  8
Visible (ISO)
100
AcDbLine
 10
1365.728620018854
 20
411.70008399224
 30
0.0
 11
1369.008190031825
 21
411.70008399224
 31
0.0
  0
SPLINE
  5
8FBD
330
8C53
100
AcDbEntity
  8
Visible (ISO)
100
AcDbSpline
210
0.0
220
0.0
230
1.0
 70
     8
 71
     3
 72
    18
 73
    14
 74
     0
 42
0.0000000001
 43
0.0000000001
 40
8.693796455454389
 40
8.693796455454389
 40
8.693796455454389
 40
8.693796455454389
 40
8.915511351981935
 40
8.915511351981935
 40
9.518705262616238
 40
9.518705262616238
 40
10.12189917325054
 40
10.12189917325054
 40
10.72509308388484
 40
10.72509308388484
 40
11.32828699451914
 40
11.32828699451914
 40
11.55000189104669
 40
11.55000189104669
 40
11.55000189104669
 40
11.55000189104669
 10
1369.008190031825
 20
411.70008399224
 30
0.0
 10
1368.737338557275
 20
411.5504482241447
 30
0.0
 10
1368.460112966814
 20
411.4443365986715
 30
0.0
 10
1367.42342631349
 20
411.2000073701326
 30
0.0
 10
1366.532475281529
 20
411.3087583418416
 30
0.0
 10
1364.636345664648
 20
412.2262276438757
 30
0.0
 10
1363.62823596902
 20
413.0358239384438
 30
0.0
 10
1361.731507836224
 20
415.0464703072263
 30
0.0
 10
1360.697269164187
 20
416.4018866247622
 30
0.0
 10
1358.731494073616
 20
419.5782695424274
 30
0.0
 10
1357.802326390536
 20
421.3989543300519
 30
0.0
 10
1356.756081357069
 20
423.8513169398954
 30
0.0
 10
1356.479999709543
 20
424.5439676532003
 30
0.0
 10
1356.215908081425
 20
425.260675416637
 30
0.0
  0
SPLINE
  5
8FBE
330
8C53
100
AcDbEntity
  8
Visible (ISO)
100
AcDbSpline
210
0.0
220
0.0
230
1.0
 70
     8
 71
     3
 72
    18
 73
    14
 74
     0
 42
0.0000000001
 43
0.0000000001
 40
8.693796455454393
 40
8.693796455454393
 40
8.693796455454393
 40
8.693796455454393
 40
8.91551135198194
 40
8.91551135198194
 40
9.518705262616244
 40
9.518705262616244
 40
10.12189917325054
 40
10.12189917325054
 40
10.72509308388484
 40
10.72509308388484
 40
11.32828699451914
 40
11.32828699451914
 40
11.55000189104669
 40
11.55000189104669
 40
11.55000189104669
 40
11.55000189104669
 10
1375.717693867695
 20
363.2414633357054
 30
0.0
 10
1375.578104168488
 20
363.8085353310486
 30
0.0
 10
1375.451947789364
 20
364.3950744188821
 30
0.0
 10
1375.032742984806
 20
366.6031078001849
 30
0.0
 10
1374.782694661659
 20
368.5325435595166
 30
0.0
 10
1374.462362536296
 20
372.6263957792159
 30
0.0
 10
1374.389611155445
 20
374.7914083913181
 30
0.0
 10
1374.389611155445
 20
378.8127011288795
 30
0.0
 10
1374.462362536296
 20
380.9777137409835
 30
0.0
 10
1374.782694661659
 20
385.0715659606828
 30
0.0
 10
1375.032742984807
 20
387.0010017200127
 30
0.0
 10
1375.451947789364
 20
389.2090351013155
 30
0.0
 10
1375.578104168489
 20
389.7955741891489
 30
0.0
 10
1375.717693867696
 20
390.3626461844885
 30
0.0
  0
ELLIPSE
  5
8FBF
330
8C53
100
AcDbEntity
  8
Visible (ISO)
100
AcDbEllipse
 10
1357.138702353401
 20
376.8020547601115
 30
0.0
 11
-0.0000000000002432
 21
-13.49999999999996
 31
0.0
210
0.0
220
0.0
230
1.0
 40
0.5446390350150273
 41
0.0
 42
6.283185307179585
  0
ELLIPSE
  5
8FC0
330
8C53
100
AcDbEntity
  8
Visible (ISO)
100
AcDbEllipse
 10
1349.506404245554
 20
376.8020547601115
 30
0.0
 11
0.0000000000087305
 21
-50.0
 31
0.0
210
0.0
220
0.0
230
1.0
 40
0.544639035015027
 41
6.034238356973005
 42
6.532132257385449
  0
ELLIPSE
  5
8FC1
330
8C53
100
AcDbEntity
  8
Visible (ISO)
100
AcDbEllipse
 10
1349.506404245554
 20
376.8020547601097
 30
0.0
 11
-0.0000000000115546
 21
49.99999999999992
 31
0.0
210
0.0
220
0.0
230
1.0
 40
0.5446390350150271
 41
3.939843254579539
 42
4.437737154992117
  0
ELLIPSE
  5
8FC2
330
8C53
100
AcDbEntity
  8
Visible (ISO)
100
AcDbEllipse
 10
1349.506404245554
 20
376.8020547601115
 30
0.0
 11
-0.0000000000087361
 21
49.99999999999962
 31
0.0
210
0.0
220
0.0
230
1.0
 40
0.5446390350150271
 41
4.987040805776409
 42
5.484934706188877
  0
ELLIPSE
  5
8FC3
330
8C53
100
AcDbEntity
  8
Visible (ISO)
100
AcDbEllipse
 10
1349.506404245554
 20
376.8020547601115
 30
0.0
 11
-0.0000000000087319
 21
49.99999999999982
 31
0.0
210
0.0
220
0.0
230
1.0
 40
0.544639035015027
 41
6.034238356973001
 42
6.532132257385449
  0
ELLIPSE
  5
8FC4
330
8C53
100
AcDbEntity
  8
Visible (ISO)
100
AcDbEllipse
 10
1349.506404245554
 20
376.8020547601097
 30
0.0
 11
0.0000000000115491
 21
-49.99999999999993
 31
0.0
210
0.0
220
0.0
230
1.0
 40
0.5446390350150273
 41
3.939843254579557
 42
4.437737154992117
  0
ELLIPSE
  5
8FC5
330
8C53
100
AcDbEntity
  8
Visible (ISO)
100
AcDbEllipse
 10
1349.506404245554
 20
376.8020547601097
 30
0.0
 11
0.0000000000087305
 21
-49.99999999999985
 31
0.0
210
0.0
220
0.0
230
1.0
 40
0.5446390350150273
 41
4.987040805776395
 42
5.484934706188866
  0
ELLIPSE
  5
8FC6
330
8C53
100
AcDbEntity
  8
Visible (ISO)
100
AcDbEllipse
 10
1336.759007552326
 20
376.8020547601079
 30
0.0
 11
0.0000000000087333
 21
-50.00000000000045
 31
0.0
210
0.0
220
0.0
230
1.0
 40
0.544639035015027
 41
6.034238356973005
 42
6.283185307179213
  0
ELLIPSE
  5
8FC7
330
8C53
100
AcDbEntity
  8
Visible (ISO)
100
AcDbEllipse
 10
1336.759007552326
 20
376.8020547601079
 30
0.0
 11
0.0000000000008243
 21
50.00000000000055
 31
0.0
210
0.0
220
0.0
230
1.0
 40
0.544639035015027
 41
0.0000000000016716
 42
0.2489469502078143
  0
ELLIPSE
  5
8FC8
330
8C53
100
AcDbEntity
  8
Visible (ISO)
100
AcDbEllipse
 10
1336.759007552326
 20
376.8020547601079
 30
0.0
 11
0.000000000011538
 21
-49.99999999999966
 31
0.0
210
0.0
220
0.0
230
1.0
 40
0.5446390350150271
 41
3.939843254579539
 42
4.437737154992117
  0
ELLIPSE
  5
8FC9
330
8C53
100
AcDbEntity
  8
Visible (ISO)
100
AcDbEllipse
 10
1287.906446969506
 20
376.8020547600988
 30
0.0
 11
-0.0000000000068057
 21
38.99999999999988
 31
0.0
210
0.0
220
0.0
230
1.0
 40
0.5446390350150274
 41
5.0947401215283
 42
10.61322314641997
  0
ELLIPSE
  5
8FCA
330
8C53
100
AcDbEntity
  8
Visible (ISO)
100
AcDbEllipse
 10
1278.681070722106
 20
376.8020547600988
 30
0.0
 11
-0.0000000000007015
 21
-38.99999999999988
 31
0.0
210
0.0
220
0.0
230
1.0
 40
0.5446390350150271
 41
3.141592653591467
 42
6.283185307181261
  0
ELLIPSE
  5
8FCB
330
8C53
100
AcDbEntity
  8
Visible (ISO)
100
AcDbEllipse
 10
1296.920640081261
 20
376.8020547601006
 30
0.0
 11
0.0000000000002361
 21
10.99999999999997
 31
0.0
210
0.0
220
0.0
230
1.0
 40
0.544639035015027
 41
0.0000000000018423
 42
3.141592653591635
  0
ELLIPSE
  5
8FCC
330
8C53
100
AcDbEntity
  8
Visible (ISO)
100
AcDbEllipse
 10
1311.850491684347
 20
376.8020547601043
 30
0.0
 11
-0.0000000000028835
 21
16.49999999999996
 31
0.0
210
0.0
220
0.0
230
1.0
 40
0.544639035015027
 41
0.0903363462172791
 42
3.051256307371793
  0
ELLIPSE
  5
8FCD
330
8C53
100
AcDbEntity
  8
Visible (ISO)
100
AcDbEllipse
 10
1336.759007552326
 20
376.8020547601079
 30
0.0
 11
0.0000000000087375
 21
-49.99999999999981
 31
0.0
210
0.0
220
0.0
230
1.0
 40
0.5446390350150269
 41
4.987040805776395
 42
5.484934706188866
  0
ELLIPSE
  5
8FCE
330
8C53
100
AcDbEntity
  8
Visible (ISO)
100
AcDbEllipse
 10
1357.138702353401
 20
376.8020547601115
 30
0.0
 11
-0.0000000000001216
 21
-6.749999999999984
 31
0.0
210
0.0
220
0.0
230
1.0
 40
0.5446390350150271
 41
0.0
 42
6.283185307179585
  0
ELLIPSE
  5
8FCF
330
8C53
100
AcDbEntity
  8
Visible (ISO)
100
AcDbEllipse
 10
1355.964563558276
 20
376.8020547601115
 30
0.0
 11
0.0000000000011794
 21
-6.749999999999984
 31
0.0
210
0.0
220
0.0
230
1.0
 40
0.544639035015027
 41
0.1603763111414057
 42
2.98121634244774
  0
LINE
  5
8FD0
330
8C53
100
AcDbEntity
  8
Visible (ISO)
100
AcDbLine
 10
1336.759007552325
 20
326.8020547601079
 30
0.0
 11
1349.506404245554
 21
326.8020547601115
 31
0.0
  0
LINE
  5
8FD1
330
8C53
100
AcDbEntity
  8
Visible (ISO)
100
AcDbLine
 10
1336.759007552327
 20
426.8020547601079
 30
0.0
 11
1349.506404245555
 21
426.8020547601097
 31
0.0
  0
LINE
  5
8FD2
330
8C53
100
AcDbEntity
  8
Visible (ISO)
100
AcDbLine
 10
1278.681070722107
 20
415.8020547600988
 30
0.0
 11
1287.906446969506
 21
415.8020547600988
 31
0.0
  0
LINE
  5
8FD3
330
8C53
100
AcDbEntity
  8
Visible (ISO)
100
AcDbLine
 10
1278.681070722105
 20
337.8020547600988
 30
0.0
 11
1287.906446969504
 21
337.8020547600988
 31
0.0
  0
LINE
  5
8FD4
330
8C53
100
AcDbEntity
  8
Visible (ISO)
100
AcDbLine
 10
1296.920640081261
 20
387.8020547601006
 30
0.0
 11
1305.152317204133
 21
387.8020547601024
 31
0.0
  0
LINE
  5
8FD5
330
8C53
100
AcDbEntity
  8
Visible (ISO)
100
AcDbLine
 10
1296.92064008126
 20
365.8020547601024
 30
0.0
 11
1305.152317204133
 21
365.8020547601024
 31
0.0
  0
SPLINE
  5
8FD6
330
8C53
100
AcDbEntity
  8
Visible (ISO)
100
AcDbSpline
210
0.0
220
0.0
230
1.0
 70
     8
 71
     3
 72
    18
 73
    14
 74
     0
 42
0.0000000001
 43
0.0000000001
 40
8.693796455454391
 40
8.693796455454391
 40
8.693796455454391
 40
8.693796455454391
 40
8.915511351981937
 40
8.915511351981937
 40
9.51870526261624
 40
9.51870526261624
 40
10.12189917325054
 40
10.12189917325054
 40
10.72509308388484
 40
10.72509308388484
 40
11.32828699451914
 40
11.32828699451914
 40
11.55000189104669
 40
11.55000189104669
 40
11.55000189104669
 40
11.55000189104669
 10
1356.215908081424
 20
328.343434103577
 30
0.0
 10
1356.479999709542
 20
329.0601418670155
 30
0.0
 10
1356.756081357067
 20
329.7527925803203
 30
0.0
 10
1357.802326390535
 20
332.205155190162
 30
0.0
 10
1358.731494073614
 20
334.0258399777847
 30
0.0
 10
1360.697269164186
 20
337.2022228954499
 30
0.0
 10
1361.731507836222
 20
338.557639212984
 30
0.0
 10
1363.628235969019
 20
340.5682855817647
 30
0.0
 10
1364.636345664647
 20
341.377881876331
 30
0.0
 10
1366.532475281527
 20
342.295351178365
 30
0.0
 10
1367.423426313489
 20
342.4041021500722
 30
0.0
 10
1368.460112966813
 20
342.1597729215316
 30
0.0
 10
1368.737338557274
 20
342.0536612960584
 30
0.0
 10
1369.008190031824
 20
341.9040255279631
 30
0.0
  0
LINE
  5
8FD7
330
8C53
100
AcDbEntity
  8
Visible (ISO)
100
AcDbLine
 10
1369.008190031824
 20
341.9040255279631
 30
0.0
 11
1365.728620018852
 21
341.9040255279612
 31
0.0
  0
ELLIPSE
  5
8FD8
330
8C53
100
AcDbEntity
  8
Visible (ISO)
100
AcDbEllipse
 10
1259.391647659361
 20
376.8020547600952
 30
0.0
 11
0.0000000000101336
 21
-57.99999999999973
 31
0.0
210
0.0
220
0.0
230
1.0
 40
0.544639035015027
 41
5.20877314551345
 42
5.786801142050116
  0
LINE
  5
8FD9
330
8C53
100
AcDbEntity
  8
Visible (ISO)
100
AcDbLine
 10
1231.615056873596
 20
404.4245093939732
 30
0.0
 11
1231.615056873594
 21
349.1796001262425
 31
0.0
  0
ELLIPSE
  5
8FDA
330
8C53
100
AcDbEntity
  8
Visible (ISO)
100
AcDbEllipse
 10
1259.391647659361
 20
376.8020547600952
 30
0.0
 11
0.0000000000133893
 21
-57.99999999999971
 31
0.0
210
0.0
220
0.0
230
1.0
 40
0.5446390350150271
 41
3.637976818718136
 42
4.21600481525494
  0
LINE
  5
8FDB
330
8C53
100
AcDbEntity
  8
Visible (ISO)
100
AcDbLine
 10
1256.927439142008
 20
427.8020547601043
 30
0.0
 11
1244.347380622826
 21
427.8020547601024
 31
0.0
  0
LINE
  5
8FDC
330
8C53
100
AcDbEntity
  8
Visible (ISO)
100
AcDbLine
 10
1256.927439142008
 20
427.8020547601043
 30
0.0
 11
1257.766109709953
 21
427.8020547601043
 31
0.0
  0
LINE
  5
8FDD
330
8C53
100
AcDbEntity
  8
Visible (ISO)
100
AcDbLine
 10
1244.195115392775
 20
349.1796001262443
 30
0.0
 11
1244.195115392777
 21
404.4245093939768
 31
0.0
  0
ELLIPSE
  5
8FDE
330
8C53
100
AcDbEntity
  8
Visible (ISO)
100
AcDbEllipse
 10
1271.971706178542
 20
376.802054760097
 30
0.0
 11
-0.0000000000068723
 21
57.99999999999971
 31
0.0
210
0.0
220
0.0
230
1.0
 40
0.5446390350150271
 41
2.067180491923954
 42
2.645208488460779
  0
LINE
  5
8FDF
330
8C53
100
AcDbEntity
  8
Visible (ISO)
100
AcDbLine
 10
1257.766109709952
 20
325.8020547601042
 30
0.0
 11
1256.927439142006
 21
325.8020547601042
 31
0.0
  0
ELLIPSE
  5
8FE0
330
8C53
100
AcDbEntity
  8
Visible (ISO)
100
AcDbEllipse
 10
1271.971706178542
 20
376.802054760097
 30
0.0
 11
-0.0000000000101363
 21
57.99999999999971
 31
0.0
210
0.0
220
0.0
230
1.0
 40
0.5446390350150271
 41
0.4963841651287737
 42
1.074412161665411
  0
ELLIPSE
  5
8FE1
330
8C53
100
AcDbEntity
  8
Visible (ISO)
100
AcDbEllipse
 10
1271.971706178542
 20
376.802054760097
 30
0.0
 11
0.0000000000099643
 21
-56.99999999999965
 31
0.0
210
0.0
220
0.0
230
1.0
 40
0.544639035015027
 41
5.213200973355703
 42
5.576380160931944
  0
LINE
  5
8FE2
330
8C53
100
AcDbEntity
  8
Visible (ISO)
100
AcDbLine
 10
1244.739754427791
 20
404.1699191269178
 30
0.0
 11
1244.73975442779
 21
349.4341903933015
 31
0.0
  0
ELLIPSE
  5
8FE3
330
8C53
100
AcDbEntity
  8
Visible (ISO)
100
AcDbEllipse
 10
1271.971706178542
 20
376.802054760097
 30
0.0
 11
0.0000000000131728
 21
-56.99999999999984
 31
0.0
210
0.0
220
0.0
230
1.0
 40
0.5446390350150271
 41
3.848397799836389
 42
4.211576987412751
  0
LINE
  5
8FE4
330
8C53
100
AcDbEntity
  8
Visible (ISO)
100
AcDbLine
 10
1256.927439142006
 20
325.8020547601042
 30
0.0
 11
1244.347380622825
 21
325.8020547601024
 31
0.0
  0
LINE
  5
8FE5
330
8C53
100
AcDbEntity
  8
Visible (ISO)
100
AcDbLine
 10
1244.195115392775
 20
349.1796001262443
 30
0.0
 11
1231.615056873594
 21
349.1796001262425
 31
0.0
  0
LINE
  5
8FE6
330
8C53
100
AcDbEntity
  8
Visible (ISO)
100
AcDbLine
 10
1244.195115392777
 20
404.4245093939768
 30
0.0
 11
1231.615056873596
 21
404.4245093939732
 31
0.0
  0
ELLIPSE
  5
8FE7
330
8C53
100
AcDbEntity
  8
Visible (ISO)
100
AcDbEllipse
 10
1229.726838959681
 20
409.5842228541166
 30
0.0
 11
0.0000000000000925
 21
6.499999999999979
 31
0.0
210
0.0
220
0.0
230
1.0
 40
0.5446390350150271
 41
0.0000000000016516
 42
3.141592653591444
  0
ELLIPSE
  5
8FE8
330
8C53
100
AcDbEntity
  8
Visible (ISO)
100
AcDbEllipse
 10
1229.72683895968
 20
344.01988666609
 30
0.0
 11
-0.0000000000001215
 21
-6.499999999999979
 31
0.0
210
0.0
220
0.0
230
1.0
 40
0.5446390350150271
 41
3.141592653591472
 42
6.283185307181265
  0
LINE
  5
8FE9
330
8C53
100
AcDbEntity
  8
Visible (ISO)
100
AcDbLine
 10
1231.615056873596
 20
403.0842228541166
 30
0.0
 11
1229.726838959681
 21
403.0842228541166
 31
0.0
  0
LINE
  5
8FEA
330
8C53
100
AcDbEntity
  8
Visible (ISO)
100
AcDbLine
 10
1236.15073618194
 20
416.0842228541184
 30
0.0
 11
1229.726838959681
 21
416.0842228541167
 31
0.0
  0
LINE
  5
8FEB
330
8C53
100
AcDbEntity
  8
Visible (ISO)
100
AcDbLine
 10
1229.72683895968
 20
350.51988666609
 30
0.0
 11
1231.615056873594
 21
350.51988666609
 31
0.0
  0
LINE
  5
8FEC
330
8C53
100
AcDbEntity
  8
Visible (ISO)
100
AcDbLine
 10
1229.72683895968
 20
337.51988666609
 30
0.0
 11
1236.15073618194
 21
337.51988666609
 31
0.0
  0
LINE
  5
8FED
330
8C53
100
AcDbEntity
  8
Visible (ISO)
100
AcDbLine
 10
1228.511880093816
 20
427.802054760097
 30
0.0
 11
1244.347380622826
 21
427.8020547600988
 31
0.0
  0
LINE
  5
8FEE
330
8C53
100
AcDbEntity
  8
Visible (ISO)
100
AcDbLine
 10
1228.511880093816
 20
415.6894428097018
 30
0.0
 11
1228.511880093816
 21
427.802054760097
 31
0.0
  0
LINE
  5
8FEF
330
8C53
100
AcDbEntity
  8
Visible (ISO)
100
AcDbLine
 10
1228.511880093814
 20
325.802054760097
 30
0.0
 11
1228.511880093814
 21
337.9146667104903
 31
0.0
  0
LINE
  5
8FF0
330
8C53
100
AcDbEntity
  8
Visible (ISO)
100
AcDbLine
 10
1244.347380622825
 20
325.8020547600988
 30
0.0
 11
1228.511880093814
 21
325.802054760097
 31
0.0
  0
LINE
  5
8FF1
330
8C53
100
AcDbEntity
  8
Visible (ISO)
100
AcDbLine
 10
1228.511880093816
 20
427.802054760097
 30
0.0
 11
1221.934090299434
 21
427.8020547600915
 31
0.0
  0
LINE
  5
8FF2
330
8C53
100
AcDbEntity
  8
Visible (ISO)
100
AcDbLine
 10
1221.934090299433
 20
395.9020547600919
 30
0.0
 11
1221.934090299434
 21
427.8020547600915
 31
0.0
  0
LINE
  5
8FF3
330
8C53
100
AcDbEntity
  8
Visible (ISO)
100
AcDbLine
 10
1221.934090299432
 20
325.8020547600933
 30
0.0
 11
1221.934090299432
 21
357.7020547600911
 31
0.0
  0
LINE
  5
8FF4
330
8C53
100
AcDbEntity
  8
Visible (ISO)
100
AcDbLine
 10
1221.934090299432
 20
325.8020547600933
 30
0.0
 11
1228.511880093814
 21
325.802054760097
 31
0.0
  0
LINE
  5
8FF5
330
8C53
100
AcDbEntity
  8
Visible (ISO)
100
AcDbLine
 10
1221.934090299433
 20
395.9020547600919
 30
0.0
 11
1229.248608780526
 21
387.1943596055095
 31
0.0
  0
ELLIPSE
  5
8FF6
330
8C53
100
AcDbEntity
  8
Visible (ISO)
100
AcDbEllipse
 10
1226.338741722196
 20
376.8020547600952
 30
0.0
 11
-0.0000000000002158
 21
-11.99999999999996
 31
0.0
210
0.0
220
0.0
230
1.0
 40
0.4849778430549001
 41
2.006377971040633
 42
2.617993877990848
  0
ELLIPSE
  5
8FF7
330
8C53
100
AcDbEntity
  8
Visible (ISO)
100
AcDbEllipse
 10
1226.338741722196
 20
376.8020547600952
 30
0.0
 11
-0.0000000000002158
 21
-11.99999999999996
 31
0.0
210
0.0
220
0.0
230
1.0
 40
0.4849778430549001
 41
0.5235987755976926
 42
1.135214682549872
  0
LINE
  5
8FF8
330
8C53
100
AcDbEntity
  8
Visible (ISO)
100
AcDbLine
 10
1229.248608780525
 20
366.4097499146844
 30
0.0
 11
1221.934090299432
 21
357.7020547600911
 31
0.0
  0
LINE
  5
8FF9
330
8C53
100
AcDbEntity
  8
Visible (ISO)
100
AcDbLine
 10
1270.929383873455
 20
456.3020547600915
 30
0.0
 11
1220.429383873455
 21
456.3020547600934
 31
0.0
  0
LINE
  5
8FFA
330
8C53
100
AcDbEntity
  8
Visible (ISO)
100
AcDbLine
 10
1270.929383873455
 20
453.4520547600911
 30
0.0
 11
1220.429383873455
 21
453.452054760093
 31
0.0
  0
LINE
  5
8FFB
330
8C53
100
AcDbEntity
  8
Visible (ISO)
100
AcDbLine
 10
1264.729383873455
 20
451.1954393076428
 30
0.0
 11
1226.629383873454
 21
451.1954393076428
 31
0.0
  0
LINE
  5
8FFC
330
8C53
100
AcDbEntity
  8
Visible (ISO)
100
AcDbLine
 10
1220.429383873455
 20
453.452054760093
 30
0.0
 11
1220.429383873455
 21
456.3020547600934
 31
0.0
  0
LINE
  5
8FFD
330
8C53
100
AcDbEntity
  8
Visible (ISO)
100
AcDbLine
 10
1270.929383873455
 20
453.4520547600911
 30
0.0
 11
1270.929383873455
 21
456.3020547600915
 31
0.0
  0
LINE
  5
8FFE
330
8C53
100
AcDbEntity
  8
Visible (ISO)
100
AcDbLine
 10
1226.629383873454
 20
451.1954393076428
 30
0.0
 11
1220.429383873455
 21
453.452054760093
 31
0.0
  0
LINE
  5
8FFF
330
8C53
100
AcDbEntity
  8
Visible (ISO)
100
AcDbLine
 10
1264.729383873455
 20
451.1954393076409
 30
0.0
 11
1270.929383873455
 21
453.4520547600911
 31
0.0
  0
LINE
  5
9000
330
8C53
100
AcDbEntity
  8
Visible (ISO)
100
AcDbLine
 10
1226.629383873454
 20
427.8020547600934
 30
0.0
 11
1226.629383873454
 21
451.1954393076428
 31
0.0
  0
LINE
  5
9001
330
8C53
100
AcDbEntity
  8
Visible (ISO)
100
AcDbLine
 10
1264.729383873454
 20
427.8020547600915
 30
0.0
 11
1264.729383873455
 21
451.1954393076409
 31
0.0
  0
LINE
  5
9002
330
8C53
100
AcDbEntity
  8
Visible (ISO)
100
AcDbLine
 10
1270.929383873451
 20
297.3020547600915
 30
0.0
 11
1220.429383873452
 21
297.3020547600933
 31
0.0
  0
LINE
  5
9003
330
8C53
100
AcDbEntity
  8
Visible (ISO)
100
AcDbLine
 10
1270.929383873451
 20
300.1520547600919
 30
0.0
 11
1220.429383873452
 21
300.1520547600937
 31
0.0
  0
LINE
  5
9004
330
8C53
100
AcDbEntity
  8
Visible (ISO)
100
AcDbLine
 10
1264.729383873452
 20
302.4086702125421
 30
0.0
 11
1226.629383873452
 21
302.4086702125421
 31
0.0
  0
LINE
  5
9005
330
8C53
100
AcDbEntity
  8
Visible (ISO)
100
AcDbLine
 10
1220.429383873452
 20
297.3020547600933
 30
0.0
 11
1220.429383873452
 21
300.1520547600937
 31
0.0
  0
LINE
  5
9006
330
8C53
100
AcDbEntity
  8
Visible (ISO)
100
AcDbLine
 10
1270.929383873452
 20
297.3020547600915
 30
0.0
 11
1270.929383873452
 21
300.1520547600919
 31
0.0
  0
LINE
  5
9007
330
8C53
100
AcDbEntity
  8
Visible (ISO)
100
AcDbLine
 10
1264.729383873452
 20
302.4086702125421
 30
0.0
 11
1270.929383873451
 21
300.1520547600919
 31
0.0
  0
LINE
  5
9008
330
8C53
100
AcDbEntity
  8
Visible (ISO)
100
AcDbLine
 10
1226.629383873452
 20
302.4086702125439
 30
0.0
 11
1220.429383873452
 21
300.1520547600937
 31
0.0
  0
LINE
  5
9009
330
8C53
100
AcDbEntity
  8
Visible (ISO)
100
AcDbLine
 10
1226.629383873452
 20
302.4086702125439
 30
0.0
 11
1226.629383873452
 21
325.8020547600933
 31
0.0
  0
LINE
  5
900A
330
8C53
100
AcDbEntity
  8
Visible (ISO)
100
AcDbLine
 10
1264.729383873452
 20
302.4086702125421
 30
0.0
 11
1264.729383873453
 21
325.8020547600933
 31
0.0
  0
ELLIPSE
  5
900B
330
8C53
100
AcDbEntity
  8
Visible (ISO)
100
AcDbEllipse
 10
1277.842400154161
 20
376.8020547600988
 30
0.0
 11
-0.0000000000134032
 21
57.99999999999961
 31
0.0
210
0.0
220
0.0
230
1.0
 40
0.5446390350150271
 41
3.637976818718136
 42
3.84839779983633
  0
ELLIPSE
  5
900C
330
8C53
100
AcDbEntity
  8
Visible (ISO)
100
AcDbEllipse
 10
1278.681070722106
 20
376.8020547600988
 30
0.0
 11
0.0000000000099615
 21
-56.99999999999997
 31
0.0
210
0.0
220
0.0
230
1.0
 40
0.5446390350150271
 41
0.5008119929710091
 42
1.069984333823194
  0
SPLINE
  5
900D
330
8C53
100
AcDbEntity
  8
Visible (ISO)
100
AcDbSpline
210
0.0
220
0.0
230
1.0
 70
     8
 71
     3
 72
     8
 73
     4
 74
     0
 42
0.0000000001
 43
0.0000000001
 40
-0.1436911213494072
 40
-0.1436911213494072
 40
-0.1436911213494072
 40
-0.1436911213494072
 40
0.0
 40
0.0
 40
0.0
 40
0.0
 10
1292.886667190694
 20
325.8020547600915
 30
0.0
 10
1293.120245022823
 20
326.1354279264212
 30
0.0
 10
1293.353595905899
 20
326.4687784599971
 30
0.0
 10
1293.586677961265
 20
326.8020547600915
 30
0.0
  0
LINE
  5
900E
330
8C53
100
AcDbEntity
  8
Visible (ISO)
100
AcDbLine
 10
1305.913022472858
 20
404.1699191268923
 30
0.0
 11
1305.913022472858
 21
397.4887215596261
 31
0.0
  0
LINE
  5
900F
330
8C53
100
AcDbEntity
  8
Visible (ISO)
100
AcDbLine
 10
1305.913022472857
 20
356.1153879605442
 30
0.0
 11
1305.913022472856
 21
349.4341903932779
 31
0.0
  0
LINE
  5
9010
330
8C53
100
AcDbEntity
  8
Visible (ISO)
100
AcDbLine
 10
1292.886667190697
 20
427.8020547600915
 30
0.0
 11
1262.798133117625
 21
427.8020547601043
 31
0.0
  0
SPLINE
  5
9011
330
8C53
100
AcDbEntity
  8
Visible (ISO)
100
AcDbSpline
210
0.0
220
0.0
230
1.0
 70
     8
 71
     3
 72
     8
 73
     4
 74
     0
 42
0.0000000001
 43
0.0000000001
 40
-0.1436911213494072
 40
-0.1436911213494072
 40
-0.1436911213494072
 40
-0.1436911213494072
 40
0.0
 40
0.0
 40
0.0
 40
0.0
 10
1262.798133117625
 20
427.8020547601043
 30
0.0
 10
1263.123735810985
 20
427.4686815937745
 30
0.0
 10
1263.449527490545
 20
427.1353310601987
 30
0.0
 10
1263.775463482946
 20
426.8020547601042
 30
0.0
  0
LINE
  5
9012
330
8C53
100
AcDbEntity
  8
Visible (ISO)
100
AcDbLine
 10
1263.775463482946
 20
426.8020547601042
 30
0.0
 11
1293.586677961267
 21
426.8020547600915
 31
0.0
  0
SPLINE
  5
9013
330
8C53
100
AcDbEntity
  8
Visible (ISO)
100
AcDbSpline
210
0.0
220
0.0
230
1.0
 70
     8
 71
     3
 72
     8
 73
     4
 74
     0
 42
0.0000000001
 43
0.0000000001
 40
-0.1436911116741557
 40
-0.1436911116741557
 40
-0.1436911116741557
 40
-0.1436911116741557
 40
0.0
 40
0.0
 40
0.0
 40
0.0
 10
1293.586677961268
 20
426.8020547600915
 30
0.0
 10
1293.353595905901
 20
427.135331060186
 30
0.0
 10
1293.120245022825
 20
427.4686815937618
 30
0.0
 10
1292.886667190696
 20
427.8020547600915
 30
0.0
  0
ELLIPSE
  5
9014
330
8C53
100
AcDbEntity
  8
Visible (ISO)
100
AcDbEllipse
 10
1277.842400154161
 20
376.8020547601006
 30
0.0
 11
-0.0000000000101308
 21
57.99999999999736
 31
0.0
210
0.0
220
0.0
230
1.0
 40
0.5446390350150271
 41
5.576380160931935
 42
5.786801142050119
  0
ELLIPSE
  5
9015
330
8C53
100
AcDbEntity
  8
Visible (ISO)
100
AcDbEllipse
 10
1278.681070722106
 20
376.8020547600988
 30
0.0
 11
0.0000000000067446
 21
-56.99999999999995
 31
0.0
210
0.0
220
0.0
230
1.0
 40
0.544639035015027
 41
2.071608319766179
 42
2.64078066061851
  0
ELLIPSE
  5
9016
330
8C53
100
AcDbEntity
  8
Visible (ISO)
100
AcDbEllipse
 10
1277.842400154161
 20
376.8020547600988
 30
0.0
 11
0.0000000000133893
 21
-57.99999999999971
 31
0.0
210
0.0
220
0.0
230
1.0
 40
0.544639035015027
 41
3.637976818718136
 42
4.21600481525494
  0
SPLINE
  5
9017
330
8C53
100
AcDbEntity
  8
Visible (ISO)
100
AcDbSpline
210
0.0
220
0.0
230
1.0
 70
     8
 71
     3
 72
     8
 73
     4
 74
     0
 42
0.0000000001
 43
0.0000000001
 40
-0.1436911213497098
 40
-0.1436911213497098
 40
-0.1436911213497098
 40
-0.1436911213497098
 40
0.0
 40
0.0
 40
0.0
 40
0.0
 10
1250.065809368394
 20
404.4245093939768
 30
0.0
 10
1250.526967670746
 20
404.3400269612882
 30
0.0
 10
1250.988094664994
 20
404.2551626837191
 30
0.0
 10
1251.449118971355
 20
404.1699191269197
 30
0.0
  0
ELLIPSE
  5
9018
330
8C53
100
AcDbEntity
  8
Visible (ISO)
100
AcDbEllipse
 10
1278.681070722106
 20
376.8020547600988
 30
0.0
 11
-0.0000000000099615
 21
56.99999999999997
 31
0.0
210
0.0
220
0.0
230
1.0
 40
0.5446390350150271
 41
0.5008119929710091
 42
1.069984333823194
  0
LINE
  5
9019
330
8C53
100
AcDbEntity
  8
Visible (ISO)
100
AcDbLine
 10
1250.065809368394
 20
404.4245093939768
 30
0.0
 11
1250.065809368394
 21
349.1796001262443
 31
0.0
  0
SPLINE
  5
901A
330
8C53
100
AcDbEntity
  8
Visible (ISO)
100
AcDbSpline
210
0.0
220
0.0
230
1.0
 70
     8
 71
     3
 72
     8
 73
     4
 74
     0
 42
0.0000000001
 43
0.0000000001
 40
-0.1436911213494072
 40
-0.1436911213494072
 40
-0.1436911213494072
 40
-0.1436911213494072
 40
0.0
 40
0.0
 40
0.0
 40
0.0
 10
1250.065809368394
 20
349.1796001262443
 30
0.0
 10
1250.526967670748
 20
349.264082558933
 30
0.0
 10
1250.988094664994
 20
349.3489468365021
 30
0.0
 10
1251.449118971353
 20
349.4341903933034
 30
0.0
  0
LINE
  5
901B
330
8C53
100
AcDbEntity
  8
Visible (ISO)
100
AcDbLine
 10
1251.449118971354
 20
349.4341903933034
 30
0.0
 11
1251.449118971355
 21
404.1699191269197
 31
0.0
  0
ELLIPSE
  5
901C
330
8C53
100
AcDbEntity
  8
Visible (ISO)
100
AcDbEllipse
 10
1277.842400154161
 20
376.8020547600988
 30
0.0
 11
0.0000000000101225
 21
-57.99999999999971
 31
0.0
210
0.0
220
0.0
230
1.0
 40
0.5446390350150271
 41
5.208773145513473
 42
5.786801142050117
  0
SPLINE
  5
901D
330
8C53
100
AcDbEntity
  8
Visible (ISO)
100
AcDbSpline
210
0.0
220
0.0
230
1.0
 70
     8
 71
     3
 72
     8
 73
     4
 74
     0
 42
0.0000000001
 43
0.0000000001
 40
-0.1436911213497098
 40
-0.1436911213497098
 40
-0.1436911213497098
 40
-0.1436911213497098
 40
0.0
 40
0.0
 40
0.0
 40
0.0
 10
1262.798133117624
 20
325.8020547601061
 30
0.0
 10
1263.123735810983
 20
326.1354279264339
 30
0.0
 10
1263.449527490544
 20
326.4687784600098
 30
0.0
 10
1263.775463482944
 20
326.8020547601043
 30
0.0
  0
ELLIPSE
  5
901E
330
8C53
100
AcDbEntity
  8
Visible (ISO)
100
AcDbEllipse
 10
1278.681070722106
 20
376.8020547600988
 30
0.0
 11
-0.0000000000067446
 21
56.99999999999995
 31
0.0
210
0.0
220
0.0
230
1.0
 40
0.544639035015027
 41
2.071608319766179
 42
2.64078066061851
  0
LINE
  5
901F
330
8C53
100
AcDbEntity
  8
Visible (ISO)
100
AcDbLine
 10
1262.798133117624
 20
325.8020547601061
 30
0.0
 11
1292.886667190694
 21
325.8020547600915
 31
0.0
  0
LINE
  5
9020
330
8C53
100
AcDbEntity
  8
Visible (ISO)
100
AcDbLine
 10
1293.586677961265
 20
326.8020547600915
 30
0.0
 11
1263.775463482944
 21
326.8020547601043
 31
0.0
  0
ELLIPSE
  5
9021
330
8C53
100
AcDbEntity
  8
Visible (ISO)
100
AcDbEllipse
 10
1272.810376746488
 20
376.802054760097
 30
0.0
 11
-0.0000000000068584
 21
57.99999999999973
 31
0.0
210
0.0
220
0.0
230
1.0
 40
0.5446390350150271
 41
2.067180491923954
 42
2.64520848846076
  0
LINE
  5
9022
330
8C53
100
AcDbEntity
  8
Visible (ISO)
100
AcDbLine
 10
1245.033785960721
 20
349.1796001262443
 30
0.0
 11
1245.033785960721
 21
404.4245093939768
 31
0.0
  0
ELLIPSE
  5
9023
330
8C53
100
AcDbEntity
  8
Visible (ISO)
100
AcDbEllipse
 10
1272.810376746488
 20
376.802054760097
 30
0.0
 11
-0.0000000000101391
 21
57.99999999999971
 31
0.0
210
0.0
220
0.0
230
1.0
 40
0.5446390350150271
 41
0.4963841651287737
 42
1.074412161665411
  0
SPLINE
  5
9024
330
8C53
100
AcDbEntity
  8
Visible (ISO)
100
AcDbSpline
210
0.0
220
0.0
230
1.0
 70
     8
 71
     3
 72
     8
 73
     4
 74
     0
 42
0.0000000001
 43
0.0000000001
 40
-0.1436911116740462
 40
-0.1436911116740462
 40
-0.1436911116740462
 40
-0.1436911116740462
 40
0.0
 40
0.0
 40
0.0
 40
0.0
 10
1244.739754427792
 20
404.1699191269178
 30
0.0
 10
1244.837748169198
 20
404.2551626837191
 30
0.0
 10
1244.935763737589
 20
404.3400269612864
 30
0.0
 10
1245.033785960721
 20
404.4245093939768
 30
0.0
  0
SPLINE
  5
9025
330
8C53
100
AcDbEntity
  8
Visible (ISO)
100
AcDbSpline
210
0.0
220
0.0
230
1.0
 70
     8
 71
     3
 72
     8
 73
     4
 74
     0
 42
0.0000000001
 43
0.0000000001
 40
-0.143691111674144
 40
-0.143691111674144
 40
-0.143691111674144
 40
-0.143691111674144
 40
0.0
 40
0.0
 40
0.0
 40
0.0
 10
1244.73975442779
 20
349.4341903933015
 30
0.0
 10
1244.837748169197
 20
349.3489468365021
 30
0.0
 10
1244.935763737587
 20
349.264082558933
 30
0.0
 10
1245.033785960721
 20
349.1796001262443
 30
0.0
  0
LINE
  5
9026
330
8C53
100
AcDbEntity
  8
Visible (ISO)
100
AcDbLine
 10
1298.841556040865
 20
333.4569453659621
 30
0.0
 11
1298.35657819781
 21
332.6965048502768
 31
0.0
  0
LINE
  5
9027
330
8C53
100
AcDbEntity
  8
Visible (ISO)
100
AcDbLine
 10
1298.841556040866
 20
420.1471641542136
 30
0.0
 11
1298.356578197811
 21
420.9076046699008
 31
0.0
  0
LINE
  5
9028
330
8C53
100
AcDbEntity
  8
Visible (ISO)
100
AcDbLine
 10
1251.811220859783
 20
420.1471641542318
 30
0.0
 11
1252.296198702838
 21
420.9076046699189
 31
0.0
  0
LINE
  5
9029
330
8C53
100
AcDbEntity
  8
Visible (ISO)
100
AcDbLine
 10
1251.811220859782
 20
333.4569453659821
 30
0.0
 11
1252.296198702836
 21
332.696504850295
 31
0.0
  0
LINE
  5
902A
330
8C53
100
AcDbEntity
  8
Visible (ISO)
100
AcDbLine
 10
1250.065809368394
 20
349.1796001262443
 30
0.0
 11
1245.033785960721
 21
349.1796001262443
 31
0.0
  0
LINE
  5
902B
330
8C53
100
AcDbEntity
  8
Visible (ISO)
100
AcDbLine
 10
1262.798133117624
 20
325.8020547601061
 30
0.0
 11
1257.766109709952
 21
325.8020547601042
 31
0.0
  0
LINE
  5
902C
330
8C53
100
AcDbEntity
  8
Visible (ISO)
100
AcDbLine
 10
1250.065809368394
 20
404.4245093939768
 30
0.0
 11
1245.033785960722
 21
404.4245093939768
 31
0.0
  0
LINE
  5
902D
330
8C53
100
AcDbEntity
  8
Visible (ISO)
100
AcDbLine
 10
1262.798133117625
 20
427.8020547601043
 30
0.0
 11
1257.766109709953
 21
427.8020547601043
 31
0.0
  0
LINE
  5
902E
330
8C53
100
AcDbEntity
  8
Visible (ISO)
100
AcDbLine
 10
1465.281354640265
 20
213.6935244108851
 30
0.0
 11
1465.281354640268
 21
219.758226832904
 31
0.0
  0
SPLINE
  5
902F
330
8C53
100
AcDbEntity
  8
Visible (ISO)
100
AcDbSpline
210
0.0
220
0.0
230
1.0
 70
     8
 71
     3
 72
    18
 73
    14
 74
     0
 42
0.0000000001
 43
0.0000000001
 40
8.693796455454396
 40
8.693796455454396
 40
8.693796455454396
 40
8.693796455454396
 40
8.915511351981942
 40
8.915511351981942
 40
9.518705262616244
 40
9.518705262616244
 40
10.12189917325054
 40
10.12189917325054
 40
10.72509308388485
 40
10.72509308388485
 40
11.32828699451915
 40
11.32828699451915
 40
11.55000189104669
 40
11.55000189104669
 40
11.55000189104669
 40
11.55000189104669
 10
1465.281354640268
 20
219.758226832904
 30
0.0
 10
1465.430990408364
 20
219.2228728154057
 30
0.0
 10
1465.537102033836
 20
218.6846645963594
 30
0.0
 10
1465.781431262378
 20
216.7065118023836
 30
0.0
 10
1465.672680290669
 20
215.077879852767
 30
0.0
 10
1464.755210988635
 20
211.8108378614295
 30
0.0
 10
1463.945614694068
 20
210.170436318517
 30
0.0
 10
1461.934968325288
 20
207.2497311209434
 30
0.0
 10
1460.579552007754
 20
205.7451919685816
 30
0.0
 10
1457.403169090087
 20
203.0654222073251
 30
0.0
 10
1455.582484302465
 20
201.891317117668
 30
0.0
 10
1453.130121692623
 20
200.6620363851332
 30
0.0
 10
1452.437470979317
 20
200.348226174179
 30
0.0
 10
1451.72076321588
 20
200.0598400502438
 30
0.0
  0
SPLINE
  5
9030
330
8C53
100
AcDbEntity
  8
Visible (ISO)
100
AcDbSpline
210
0.0
220
0.0
230
1.0
 70
     8
 71
     3
 72
    18
 73
    14
 74
     0
 42
0.0000000001
 43
0.0000000001
 40
8.693796455454394
 40
8.693796455454394
 40
8.693796455454394
 40
8.693796455454394
 40
8.915511351981942
 40
8.915511351981942
 40
9.518705262616244
 40
9.518705262616244
 40
10.12189917325054
 40
10.12189917325054
 40
10.72509308388485
 40
10.72509308388485
 40
11.32828699451915
 40
11.32828699451915
 40
11.5500018910467
 40
11.5500018910467
 40
11.5500018910467
 40
11.5500018910467
 10
1513.739975296796
 20
230.0899567143394
 30
0.0
 10
1513.172903301454
 20
229.7567281057807
 30
0.0
 10
1512.586364213622
 20
229.4511460723831
 30
0.0
 10
1510.37833083232
 20
228.4238319431149
 30
0.0
 10
1508.448895072989
 20
227.7821036200136
 30
0.0
 10
1504.355042853289
 20
226.9415769759296
 30
0.0
 10
1502.190030241187
 20
226.7415009305566
 30
0.0
 10
1498.168737503625
 20
226.7415009305566
 30
0.0
 10
1496.003724891522
 20
226.9415769759296
 30
0.0
 10
1491.909872671823
 20
227.7821036200136
 30
0.0
 10
1489.98043691249
 20
228.4238319431149
 30
0.0
 10
1487.772403531188
 20
229.4511460723831
 30
0.0
 10
1487.185864443356
 20
229.7567281057807
 30
0.0
 10
1486.618792448012
 20
230.0899567143394
 30
0.0
  0
LINE
  5
9031
330
8C53
100
AcDbEntity
  8
Visible (ISO)
100
AcDbLine
 10
1535.077413104545
 20
219.758226832904
 30
0.0
 11
1535.077413104542
 21
213.6935244108833
 31
0.0
  0
SPLINE
  5
9032
330
8C53
100
AcDbEntity
  8
Visible (ISO)
100
AcDbSpline
210
0.0
220
0.0
230
1.0
 70
     8
 71
     3
 72
    18
 73
    14
 74
     0
 42
0.0000000001
 43
0.0000000001
 40
8.693796455454393
 40
8.693796455454393
 40
8.693796455454393
 40
8.693796455454393
 40
8.915511351981939
 40
8.915511351981939
 40
9.51870526261624
 40
9.51870526261624
 40
10.12189917325054
 40
10.12189917325054
 40
10.72509308388484
 40
10.72509308388484
 40
11.32828699451914
 40
11.32828699451914
 40
11.55000189104669
 40
11.55000189104669
 40
11.55000189104669
 40
11.55000189104669
 10
1548.638004528941
 20
200.0598400502438
 30
0.0
 10
1547.921296765503
 20
200.348226174179
 30
0.0
 10
1547.228646052198
 20
200.6620363851332
 30
0.0
 10
1544.776283442355
 20
201.891317117668
 30
0.0
 10
1542.955598654732
 20
203.0654222073251
 30
0.0
 10
1539.779215737066
 20
205.7451919685816
 30
0.0
 10
1538.423799419531
 20
207.2497311209434
 30
0.0
 10
1536.413153050749
 20
210.170436318517
 30
0.0
 10
1535.603556756181
 20
211.8108378614295
 30
0.0
 10
1534.686087454146
 20
215.077879852767
 30
0.0
 10
1534.577336482438
 20
216.7065118023836
 30
0.0
 10
1534.821665710977
 20
218.6846645963594
 30
0.0
 10
1534.927777336448
 20
219.2228728154057
 30
0.0
 10
1535.077413104545
 20
219.758226832904
 30
0.0
  0
LINE
  5
9033
330
8C53
100
AcDbEntity
  8
Visible (ISO)
100
AcDbLine
 10
1535.077413104552
 20
151.4197372986298
 30
0.0
 11
1535.077413104556
 21
159.6979935047136
 31
0.0
  0
ELLIPSE
  5
9034
330
8C53
100
AcDbEntity
  8
Visible (ISO)
100
AcDbEllipse
 10
1555.171997012725
 20
154.8220634304587
 30
0.0
 11
-20.49999999999996
 21
0.0000000000087978
 31
0.0
210
0.0
220
0.0
230
1.0
 40
0.838670567945426
 41
5.03677969899401
 42
6.083977250190714
  0
LINE
  5
9035
330
8C53
100
AcDbEntity
  8
Visible (ISO)
100
AcDbLine
 10
1548.638004528944
 20
179.3963802873729
 30
0.0
 11
1548.638004528941
 21
171.11812408129
 31
0.0
  0
SPLINE
  5
9036
330
8C53
100
AcDbEntity
  8
Visible (ISO)
100
AcDbSpline
210
0.0
220
0.0
230
1.0
 70
     8
 71
     3
 72
    18
 73
    14
 74
     0
 42
0.0000000001
 43
0.0000000001
 40
8.693796455454389
 40
8.693796455454389
 40
8.693796455454389
 40
8.693796455454389
 40
8.915511351981935
 40
8.915511351981935
 40
9.518705262616238
 40
9.518705262616238
 40
10.12189917325054
 40
10.12189917325054
 40
10.72509308388484
 40
10.72509308388484
 40
11.32828699451914
 40
11.32828699451914
 40
11.55000189104669
 40
11.55000189104669
 40
11.55000189104669
 40
11.55000189104669
 10
1535.077413104556
 20
159.6979935047136
 30
0.0
 10
1534.92777733646
 20
160.4058689522014
 30
0.0
 10
1534.821665710989
 20
161.1064452218577
 30
0.0
 10
1534.577336482446
 20
163.6414821514907
 30
0.0
 10
1534.686087454156
 20
165.6445170273898
 30
0.0
 10
1535.603556756188
 20
169.4180678467317
 30
0.0
 10
1536.413153050756
 20
171.1868966992904
 30
0.0
 10
1538.423799419537
 20
174.107601896864
 30
0.0
 10
1539.779215737071
 20
175.4837137395796
 30
0.0
 10
1542.955598654736
 20
177.6569746728298
 30
0.0
 10
1544.776283442359
 20
178.4566768362062
 30
0.0
 10
1547.228646052201
 20
179.1290734330839
 30
0.0
 10
1547.921296765506
 20
179.2805155934281
 30
0.0
 10
1548.638004528944
 20
179.3963802873729
 30
0.0
  0
LINE
  5
9037
330
8C53
100
AcDbEntity
  8
Visible (ISO)
100
AcDbLine
 10
1486.618792448024
 20
141.0880074171934
 30
0.0
 11
1486.618792448028
 21
149.3662636232772
 31
0.0
  0
ELLIPSE
  5
9038
330
8C53
100
AcDbEntity
  8
Visible (ISO)
100
AcDbEllipse
 10
1500.179383872418
 20
128.194272898191
 30
0.0
 11
-20.49999999999993
 21
0.0000000000070055
 31
0.0
210
0.0
220
0.0
230
1.0
 40
0.838670567945426
 41
3.989582147797285
 42
5.435195812972823
  0
LINE
  5
9039
330
8C53
100
AcDbEntity
  8
Visible (ISO)
100
AcDbLine
 10
1513.73997529681
 20
149.3662636232772
 30
0.0
 11
1513.739975296807
 21
141.0880074171934
 31
0.0
  0
SPLINE
  5
903A
330
8C53
100
AcDbEntity
  8
Visible (ISO)
100
AcDbSpline
210
0.0
220
0.0
230
1.0
 70
     8
 71
     3
 72
    18
 73
    14
 74
     0
 42
0.0000000001
 43
0.0000000001
 40
8.693796455454393
 40
8.693796455454393
 40
8.693796455454393
 40
8.693796455454393
 40
8.91551135198194
 40
8.91551135198194
 40
9.518705262616244
 40
9.518705262616244
 40
10.12189917325054
 40
10.12189917325054
 40
10.72509308388484
 40
10.72509308388484
 40
11.32828699451914
 40
11.32828699451914
 40
11.55000189104669
 40
11.55000189104669
 40
11.55000189104669
 40
11.55000189104669
 10
1486.618792448028
 20
149.3662636232773
 30
0.0
 10
1487.185864443369
 20
149.8720136618265
 30
0.0
 10
1487.772403531202
 20
150.3399637458331
 30
0.0
 10
1489.980436912505
 20
151.9241620107593
 30
0.0
 10
1491.909872671836
 20
152.9402932601413
 30
0.0
 10
1496.003724891535
 20
154.2873287322306
 30
0.0
 10
1498.168737503638
 20
154.6158320872498
 30
0.0
 10
1502.1900302412
 20
154.6158320872498
 30
0.0
 10
1504.355042853302
 20
154.2873287322306
 30
0.0
 10
1508.448895073003
 20
152.9402932601413
 30
0.0
 10
1510.378330832334
 20
151.9241620107593
 30
0.0
 10
1512.586364213636
 20
150.3399637458331
 30
0.0
 10
1513.172903301469
 20
149.8720136618265
 30
0.0
 10
1513.73997529681
 20
149.3662636232773
 30
0.0
  0
ELLIPSE
  5
903B
330
8C53
100
AcDbEntity
  8
Visible (ISO)
100
AcDbEllipse
 10
1500.179383872413
 20
194.6845825135904
 30
0.0
 11
-13.49999999999996
 21
-0.0000000000000005
 31
0.0
210
0.0
220
0.0
230
1.0
 40
0.838670567945426
 41
0.0
 42
6.283185307179586
  0
ELLIPSE
  5
903C
330
8C53
100
AcDbEntity
  8
Visible (ISO)
100
AcDbEllipse
 10
1500.179383872412
 20
189.7281101688083
 30
0.0
 11
-50.0
 21
0.0000000000214578
 31
0.0
210
0.0
220
0.0
230
1.0
 40
0.838670567945426
 41
6.034238356973879
 42
6.532132257386336
  0
ELLIPSE
  5
903D
330
8C53
100
AcDbEntity
  8
Visible (ISO)
100
AcDbEllipse
 10
1500.179383872412
 20
189.7281101688083
 30
0.0
 11
49.99999999999992
 21
-0.000000000017103
 31
0.0
210
0.0
220
0.0
230
1.0
 40
0.838670567945426
 41
3.939843254580577
 42
4.437737154993046
  0
ELLIPSE
  5
903E
330
8C53
100
AcDbEntity
  8
Visible (ISO)
100
AcDbEllipse
 10
1500.179383872412
 20
189.7281101688083
 30
0.0
 11
49.99999999999962
 21
-0.0000000000214551
 31
0.0
210
0.0
220
0.0
230
1.0
 40
0.8386705679454262
 41
4.987040805777269
 42
5.484934706189722
  0
ELLIPSE
  5
903F
330
8C53
100
AcDbEntity
  8
Visible (ISO)
100
AcDbEllipse
 10
1500.179383872412
 20
189.7281101688083
 30
0.0
 11
49.99999999999981
 21
-0.0000000000214689
 31
0.0
210
0.0
220
0.0
230
1.0
 40
0.838670567945426
 41
6.034238356973879
 42
6.532132257386336
  0
ELLIPSE
  5
9040
330
8C53
100
AcDbEntity
  8
Visible (ISO)
100
AcDbEllipse
 10
1500.179383872412
 20
189.7281101688083
 30
0.0
 11
-49.99999999999993
 21
0.0000000000171113
 31
0.0
210
0.0
220
0.0
230
1.0
 40
0.838670567945426
 41
3.939843254580578
 42
4.437737154993048
  0
ELLIPSE
  5
9041
330
8C53
100
AcDbEntity
  8
Visible (ISO)
100
AcDbEllipse
 10
1500.179383872412
 20
189.7281101688083
 30
0.0
 11
-49.99999999999985
 21
0.0000000000214689
 31
0.0
210
0.0
220
0.0
230
1.0
 40
0.8386705679454262
 41
4.987040805777267
 42
5.484934706189722
  0
ELLIPSE
  5
9042
330
8C53
100
AcDbEntity
  8
Visible (ISO)
100
AcDbEllipse
 10
1500.179383872408
 20
181.4498539627254
 30
0.0
 11
-49.99999999999997
 21
-0.0000000000013212
 31
0.0
210
0.0
220
0.0
230
1.0
 40
0.8386705679454262
 41
0.0
 42
0.2489469502057569
  0
ELLIPSE
  5
9043
330
8C53
100
AcDbEntity
  8
Visible (ISO)
100
AcDbEllipse
 10
1500.179383872408
 20
181.4498539627254
 30
0.0
 11
49.99999999999984
 21
-0.0000000000171085
 31
0.0
210
0.0
220
0.0
230
1.0
 40
0.838670567945426
 41
3.939843254580571
 42
4.437737154993047
  0
ELLIPSE
  5
9044
330
8C53
100
AcDbEntity
  8
Visible (ISO)
100
AcDbEllipse
 10
1500.179383872408
 20
181.4498539627245
 30
0.0
 11
49.99999999999983
 21
-0.0000000000214662
 31
0.0
210
0.0
220
0.0
230
1.0
 40
0.8386705679454262
 41
4.987040805777267
 42
5.484934706189717
  0
ELLIPSE
  5
9045
330
8C53
100
AcDbEntity
  8
Visible (ISO)
100
AcDbEllipse
 10
1500.179383872408
 20
181.4498539627254
 30
0.0
 11
50.00000000000055
 21
-0.0000000000214689
 31
0.0
210
0.0
220
0.0
230
1.0
 40
0.838670567945426
 41
6.034238356973879
 42
6.283185307180132
  0
ELLIPSE
  5
9046
330
8C53
100
AcDbEntity
  8
Visible (ISO)
100
AcDbEllipse
 10
1500.179383872395
 20
149.7246301730999
 30
0.0
 11
-38.9999999999999
 21
0.0000000000167255
 31
0.0
210
0.0
220
0.0
230
1.0
 40
0.838670567945426
 41
5.905450496329015
 42
9.802512771621032
  0
ELLIPSE
  5
9047
330
8C53
100
AcDbEntity
  8
Visible (ISO)
100
AcDbEllipse
 10
1500.179383872392
 20
143.7336007879346
 30
0.0
 11
38.99999999999988
 21
0.0000000000010789
 31
0.0
210
0.0
220
0.0
230
1.0
 40
0.838670567945426
 41
3.141592653589334
 42
6.283185307179127
  0
ELLIPSE
  5
9048
330
8C53
100
AcDbEntity
  8
Visible (ISO)
100
AcDbEllipse
 10
1500.179383872413
 20
194.6845825135904
 30
0.0
 11
-6.749999999999984
 21
-0.0000000000000003
 31
0.0
210
0.0
220
0.0
230
1.0
 40
0.838670567945426
 41
0.0
 42
6.283185307179586
  0
ELLIPSE
  5
9049
330
8C53
100
AcDbEntity
  8
Visible (ISO)
100
AcDbEllipse
 10
1500.179383872413
 20
193.922087864569
 30
0.0
 11
6.749999999999984
 21
-0.0000000000028969
 31
0.0
210
0.0
220
0.0
230
1.0
 40
0.8386705679454262
 41
0.0673969845296843
 42
3.074195669061145
  0
LINE
  5
904A
330
8C53
100
AcDbEntity
  8
Visible (ISO)
100
AcDbLine
 10
1450.179383872409
 20
181.4498539627245
 30
0.0
 11
1450.179383872412
 21
189.7281101688065
 31
0.0
  0
LINE
  5
904B
330
8C53
100
AcDbEntity
  8
Visible (ISO)
100
AcDbLine
 10
1550.179383872408
 20
181.4498539627263
 30
0.0
 11
1550.179383872412
 21
189.7281101688101
 31
0.0
  0
LINE
  5
904C
330
8C53
100
AcDbEntity
  8
Visible (ISO)
100
AcDbLine
 10
1461.179383872392
 20
143.7336007879337
 30
0.0
 11
1461.179383872395
 21
149.724630173099
 31
0.0
  0
LINE
  5
904D
330
8C53
100
AcDbEntity
  8
Visible (ISO)
100
AcDbLine
 10
1539.179383872392
 20
143.7336007879355
 30
0.0
 11
1539.179383872395
 21
149.7246301731008
 31
0.0
  0
SPLINE
  5
904E
330
8C53
100
AcDbEntity
  8
Visible (ISO)
100
AcDbSpline
210
0.0
220
0.0
230
1.0
 70
     8
 71
     3
 72
    18
 73
    14
 74
     0
 42
0.0000000001
 43
0.0000000001
 40
8.693796455454391
 40
8.693796455454391
 40
8.693796455454391
 40
8.693796455454391
 40
8.915511351981937
 40
8.915511351981937
 40
9.51870526261624
 40
9.51870526261624
 40
10.12189917325054
 40
10.12189917325054
 40
10.72509308388484
 40
10.72509308388484
 40
11.32828699451914
 40
11.32828699451914
 40
11.55000189104669
 40
11.55000189104669
 40
11.55000189104669
 40
11.55000189104669
 10
1451.720763215884
 20
179.3963802873729
 30
0.0
 10
1452.437470979322
 20
179.2805155934281
 30
0.0
 10
1453.130121692626
 20
179.1290734330839
 30
0.0
 10
1455.582484302469
 20
178.4566768362062
 30
0.0
 10
1457.403169090094
 20
177.6569746728298
 30
0.0
 10
1460.579552007759
 20
175.4837137395796
 30
0.0
 10
1461.934968325295
 20
174.107601896864
 30
0.0
 10
1463.945614694075
 20
171.1868966992904
 30
0.0
 10
1464.755210988645
 20
169.4180678467317
 30
0.0
 10
1465.672680290678
 20
165.6445170273898
 30
0.0
 10
1465.781431262387
 20
163.6414821514907
 30
0.0
 10
1465.537102033846
 20
161.1064452218577
 30
0.0
 10
1465.430990408374
 20
160.4058689522014
 30
0.0
 10
1465.281354640279
 20
159.6979935047136
 30
0.0
  0
LINE
  5
904F
330
8C53
100
AcDbEntity
  8
Visible (ISO)
100
AcDbLine
 10
1451.72076321588
 20
171.11812408129
 30
0.0
 11
1451.720763215884
 21
179.3963802873729
 31
0.0
  0
LINE
  5
9050
330
8C53
100
AcDbEntity
  8
Visible (ISO)
100
AcDbLine
 10
1465.281354640279
 20
159.6979935047136
 30
0.0
 11
1465.281354640275
 21
151.4197372986298
 31
0.0
  0
ELLIPSE
  5
9051
330
8C53
100
AcDbEntity
  8
Visible (ISO)
100
AcDbEllipse
 10
1445.186770732101
 20
154.8220634304587
 30
0.0
 11
20.49999999999993
 21
-0.0000000000087957
 31
0.0
210
0.0
220
0.0
230
1.0
 40
0.8386705679454259
 41
0.1992080569900591
 42
1.246405608186589
  0
ELLIPSE
  5
9052
330
8C53
100
AcDbEntity
  8
Visible (ISO)
100
AcDbEllipse
 10
1500.179383872387
 20
131.2069029825886
 30
0.0
 11
57.99999999999973
 21
-0.0000000000248856
 31
0.0
210
0.0
220
0.0
230
1.0
 40
0.8386705679454259
 41
5.208773145514329
 42
5.786801142050967
  0
LINE
  5
9053
330
8C53
100
AcDbEntity
  8
Visible (ISO)
100
AcDbLine
 10
1472.556929238528
 20
88.43470401737226
 30
0.0
 11
1527.801838506261
 21
88.43470401737226
 31
0.0
  0
ELLIPSE
  5
9054
330
8C53
100
AcDbEntity
  8
Visible (ISO)
100
AcDbEllipse
 10
1500.179383872387
 20
131.2069029825886
 30
0.0
 11
57.99999999999971
 21
-0.0000000000198563
 31
0.0
210
0.0
220
0.0
230
1.0
 40
0.838670567945426
 41
3.637976818719268
 42
4.216004815255956
  0
LINE
  5
9055
330
8C53
100
AcDbEntity
  8
Visible (ISO)
100
AcDbLine
 10
1551.179383872394
 20
116.7549878269981
 30
0.0
 11
1551.179383872394
 21
116.2103487919828
 31
0.0
  0
LINE
  5
9056
330
8C53
100
AcDbEntity
  8
Visible (ISO)
100
AcDbLine
 10
1551.179383872394
 20
116.2103487919828
 30
0.0
 11
1551.179383872391
 21
108.0407632667581
 31
0.0
  0
LINE
  5
9057
330
8C53
100
AcDbEntity
  8
Visible (ISO)
100
AcDbLine
 10
1449.179383872394
 20
116.2103487919828
 30
0.0
 11
1449.179383872394
 21
116.7549878269981
 31
0.0
  0
ELLIPSE
  5
9058
330
8C53
100
AcDbEntity
  8
Visible (ISO)
100
AcDbEllipse
 10
1500.17938387239
 20
139.3764885078142
 30
0.0
 11
-57.99999999999973
 21
0.0000000000248968
 31
0.0
210
0.0
220
0.0
230
1.0
 40
0.8386705679454259
 41
0.4963841651296433
 42
1.074412161666286
  0
LINE
  5
9059
330
8C53
100
AcDbEntity
  8
Visible (ISO)
100
AcDbLine
 10
1527.801838506265
 20
96.60428954259693
 30
0.0
 11
1472.556929238533
 21
96.60428954259693
 31
0.0
  0
ELLIPSE
  5
905A
330
8C53
100
AcDbEntity
  8
Visible (ISO)
100
AcDbEllipse
 10
1500.17938387239
 20
139.3764885078142
 30
0.0
 11
-57.99999999999971
 21
0.0000000000298955
 31
0.0
210
0.0
220
0.0
230
1.0
 40
0.838670567945426
 41
2.067180491924629
 42
2.645208488461328
  0
LINE
  5
905B
330
8C53
100
AcDbEntity
  8
Visible (ISO)
100
AcDbLine
 10
1449.179383872394
 20
116.2103487919828
 30
0.0
 11
1449.179383872391
 21
108.0407632667581
 31
0.0
  0
LINE
  5
905C
330
8C53
100
AcDbEntity
  8
Visible (ISO)
100
AcDbLine
 10
1472.556929238533
 20
96.60428954259693
 30
0.0
 11
1472.556929238528
 21
88.43470401737226
 31
0.0
  0
LINE
  5
905D
330
8C53
100
AcDbEntity
  8
Visible (ISO)
100
AcDbLine
 10
1527.801838506265
 20
96.60428954259693
 30
0.0
 11
1527.801838506261
 21
88.43470401737226
 31
0.0
  0
LINE
  5
905E
330
8C53
100
AcDbEntity
  8
Visible (ISO)
100
AcDbLine
 10
1551.179383872387
 20
108.0407632667581
 30
0.0
 11
1551.179383872384
 21
101.3082972353338
 31
0.0
  0
LINE
  5
905F
330
8C53
100
AcDbEntity
  8
Visible (ISO)
100
AcDbLine
 10
1551.179383872384
 20
101.3082972353338
 30
0.0
 11
1545.929547806517
 21
101.3082972353338
 31
0.0
  0
LINE
  5
9060
330
8C53
100
AcDbEntity
  8
Visible (ISO)
100
AcDbLine
 10
1454.429219938252
 20
101.3082972353338
 30
0.0
 11
1449.179383872384
 21
101.3082972353338
 31
0.0
  0
LINE
  5
9061
330
8C53
100
AcDbEntity
  8
Visible (ISO)
100
AcDbLine
 10
1449.179383872384
 20
101.3082972353338
 30
0.0
 11
1449.179383872388
 21
108.0407632667572
 31
0.0
  0
ELLIPSE
  5
9062
330
8C53
100
AcDbEntity
  8
Visible (ISO)
100
AcDbEllipse
 10
1532.961551966404
 20
92.99510729515512
 30
0.0
 11
6.499999999999986
 21
0.0000000000002607
 31
0.0
210
0.0
220
0.0
230
1.0
 40
0.838670567945426
 41
4.002047163863675
 42
6.283185307179172
  0
LINE
  5
9063
330
8C53
100
AcDbEntity
  8
Visible (ISO)
100
AcDbLine
 10
1539.461551966404
 20
92.99510729515509
 30
0.0
 11
1539.461551966406
 21
95.41903767139297
 31
0.0
  0
ELLIPSE
  5
9064
330
8C53
100
AcDbEntity
  8
Visible (ISO)
100
AcDbEllipse
 10
1467.397215778377
 20
92.99510729515512
 30
0.0
 11
-6.499999999999979
 21
-0.000000000000149
 31
0.0
210
0.0
220
0.0
230
1.0
 40
0.838670567945426
 41
0.0
 42
2.281138143315395
  0
LINE
  5
9065
330
8C53
100
AcDbEntity
  8
Visible (ISO)
100
AcDbLine
 10
1460.897215778378
 20
95.41903767139206
 30
0.0
 11
1460.897215778376
 21
92.99510729515509
 31
0.0
  0
LINE
  5
9066
330
8C53
100
AcDbEntity
  8
Visible (ISO)
100
AcDbLine
 10
1579.679383872382
 20
97.05205476009247
 30
0.0
 11
1579.679383872382
 21
147.5520547600933
 31
0.0
  0
LINE
  5
9067
330
8C53
100
AcDbEntity
  8
Visible (ISO)
100
AcDbLine
 10
1576.829383872383
 20
97.05205476009247
 30
0.0
 11
1576.829383872383
 21
147.5520547600933
 31
0.0
  0
LINE
  5
9068
330
8C53
100
AcDbEntity
  8
Visible (ISO)
100
AcDbLine
 10
1574.572768419932
 20
103.2520547600931
 30
0.0
 11
1574.572768419932
 21
141.3520547600935
 31
0.0
  0
LINE
  5
9069
330
8C53
100
AcDbEntity
  8
Visible (ISO)
100
AcDbLine
 10
1576.829383872383
 20
147.5520547600933
 30
0.0
 11
1579.679383872382
 21
147.5520547600933
 31
0.0
  0
LINE
  5
906A
330
8C53
100
AcDbEntity
  8
Visible (ISO)
100
AcDbLine
 10
1576.829383872383
 20
97.05205476009247
 30
0.0
 11
1579.679383872382
 21
97.05205476009247
 31
0.0
  0
LINE
  5
906B
330
8C53
100
AcDbEntity
  8
Visible (ISO)
100
AcDbLine
 10
1574.572768419932
 20
141.3520547600935
 30
0.0
 11
1576.829383872383
 21
147.5520547600933
 31
0.0
  0
LINE
  5
906C
330
8C53
100
AcDbEntity
  8
Visible (ISO)
100
AcDbLine
 10
1574.572768419932
 20
103.2520547600931
 30
0.0
 11
1576.829383872383
 21
97.05205476009247
 31
0.0
  0
LINE
  5
906D
330
8C53
100
AcDbEntity
  8
Visible (ISO)
100
AcDbLine
 10
1551.179383872382
 20
141.3520547600935
 30
0.0
 11
1574.572768419932
 21
141.3520547600935
 31
0.0
  0
LINE
  5
906E
330
8C53
100
AcDbEntity
  8
Visible (ISO)
100
AcDbLine
 10
1551.179383872382
 20
103.2520547600931
 30
0.0
 11
1574.572768419932
 21
103.2520547600931
 31
0.0
  0
LINE
  5
906F
330
8C53
100
AcDbEntity
  8
Visible (ISO)
100
AcDbLine
 10
1420.679383872383
 20
97.05205476009247
 30
0.0
 11
1420.679383872383
 21
147.5520547600933
 31
0.0
  0
LINE
  5
9070
330
8C53
100
AcDbEntity
  8
Visible (ISO)
100
AcDbLine
 10
1423.529383872383
 20
97.05205476009247
 30
0.0
 11
1423.529383872383
 21
147.5520547600933
 31
0.0
  0
LINE
  5
9071
330
8C53
100
AcDbEntity
  8
Visible (ISO)
100
AcDbLine
 10
1425.785999324834
 20
103.2520547600931
 30
0.0
 11
1425.785999324834
 21
141.3520547600935
 31
0.0
  0
LINE
  5
9072
330
8C53
100
AcDbEntity
  8
Visible (ISO)
100
AcDbLine
 10
1420.679383872383
 20
147.5520547600933
 30
0.0
 11
1423.529383872383
 21
147.5520547600933
 31
0.0
  0
LINE
  5
9073
330
8C53
100
AcDbEntity
  8
Visible (ISO)
100
AcDbLine
 10
1420.679383872383
 20
97.05205476009247
 30
0.0
 11
1423.529383872383
 21
97.05205476009247
 31
0.0
  0
LINE
  5
9074
330
8C53
100
AcDbEntity
  8
Visible (ISO)
100
AcDbLine
 10
1425.785999324834
 20
103.2520547600931
 30
0.0
 11
1423.529383872383
 21
97.05205476009247
 31
0.0
  0
LINE
  5
9075
330
8C53
100
AcDbEntity
  8
Visible (ISO)
100
AcDbLine
 10
1425.785999324834
 20
141.3520547600935
 30
0.0
 11
1423.529383872383
 21
147.5520547600933
 31
0.0
  0
LINE
  5
9076
330
8C53
100
AcDbEntity
  8
Visible (ISO)
100
AcDbLine
 10
1425.785999324834
 20
141.3520547600935
 30
0.0
 11
1449.179383872383
 21
141.3520547600935
 31
0.0
  0
LINE
  5
9077
330
8C53
100
AcDbEntity
  8
Visible (ISO)
100
AcDbLine
 10
1425.785999324834
 20
103.2520547600931
 30
0.0
 11
1449.179383872383
 21
103.2520547600931
 31
0.0
  0
ELLIPSE
  5
9078
330
8C53
100
AcDbEntity
  8
Visible (ISO)
100
AcDbEllipse
 10
1500.179383872392
 20
143.1889617529193
 30
0.0
 11
57.99999999999971
 21
-0.0000000000198758
 31
0.0
210
0.0
220
0.0
230
1.0
 40
0.8386705679454262
 41
3.637976818719268
 42
4.216004815255956
  0
SPLINE
  5
9079
330
8C53
100
AcDbEntity
  8
Visible (ISO)
100
AcDbSpline
210
0.0
220
0.0
230
1.0
 70
     8
 71
     3
 72
     8
 73
     4
 74
     0
 42
0.0000000001
 43
0.0000000001
 40
-0.1436911213497098
 40
-0.1436911213497098
 40
-0.1436911213497098
 40
-0.1436911213497098
 40
0.0
 40
0.0
 40
0.0
 40
0.0
 10
1472.556929238534
 20
100.416762787702
 30
0.0
 10
1472.641411671223
 20
100.8779210900554
 30
0.0
 10
1472.726275948791
 20
101.3390480843034
 30
0.0
 10
1472.811519505591
 20
101.8000723906632
 30
0.0
  0
ELLIPSE
  5
907A
330
8C53
100
AcDbEntity
  8
Visible (ISO)
100
AcDbEllipse
 10
1500.179383872392
 20
143.7336007879346
 30
0.0
 11
-56.99999999999995
 21
0.0000000000244582
 31
0.0
210
0.0
220
0.0
230
1.0
 40
0.838670567945426
 41
0.5008119929718707
 42
1.069984333824045
  0
SPLINE
  5
907B
330
8C53
100
AcDbEntity
  8
Visible (ISO)
100
AcDbSpline
210
0.0
220
0.0
230
1.0
 70
     8
 71
     3
 72
     8
 73
     4
 74
     0
 42
0.0000000001
 43
0.0000000001
 40
-0.1436911213494072
 40
-0.1436911213494072
 40
-0.1436911213494072
 40
-0.1436911213494072
 40
0.0
 40
0.0
 40
0.0
 40
0.0
 10
1449.179383872396
 20
120.0228220370879
 30
0.0
 10
1449.512757038728
 20
120.2752430065036
 30
0.0
 10
1449.846107572303
 20
120.5279718912977
 30
0.0
 10
1450.179383872397
 20
120.7809784359704
 30
0.0
  0
LINE
  5
907C
330
8C53
100
AcDbEntity
  8
Visible (ISO)
100
AcDbLine
 10
1472.556929238534
 20
100.416762787702
 30
0.0
 11
1527.801838506266
 21
100.416762787702
 31
0.0
  0
SPLINE
  5
907D
330
8C53
100
AcDbEntity
  8
Visible (ISO)
100
AcDbSpline
210
0.0
220
0.0
230
1.0
 70
     8
 71
     3
 72
     8
 73
     4
 74
     0
 42
0.0000000001
 43
0.0000000001
 40
-0.1436911213494072
 40
-0.1436911213494072
 40
-0.1436911213494072
 40
-0.1436911213494072
 40
0.0
 40
0.0
 40
0.0
 40
0.0
 10
1527.801838506266
 20
100.416762787702
 30
0.0
 10
1527.717356073577
 20
100.8779210900573
 30
0.0
 10
1527.632491796008
 20
101.3390480843034
 30
0.0
 10
1527.547248239207
 20
101.8000723906632
 30
0.0
  0
LINE
  5
907E
330
8C53
100
AcDbEntity
  8
Visible (ISO)
100
AcDbLine
 10
1527.547248239208
 20
101.8000723906632
 30
0.0
 11
1472.811519505591
 21
101.8000723906632
 31
0.0
  0
LINE
  5
907F
330
8C53
100
AcDbEntity
  8
Visible (ISO)
100
AcDbLine
 10
1551.179383872396
 20
120.0228220370879
 30
0.0
 11
1551.179383872387
 21
166.3551014687507
 31
0.0
  0
SPLINE
  5
9080
330
8C53
100
AcDbEntity
  8
Visible (ISO)
100
AcDbSpline
210
0.0
220
0.0
230
1.0
 70
     8
 71
     3
 72
     8
 73
     4
 74
     0
 42
0.0000000001
 43
0.0000000001
 40
-0.1436911213494072
 40
-0.1436911213494072
 40
-0.1436911213494072
 40
-0.1436911213494072
 40
0.0
 40
0.0
 40
0.0
 40
0.0
 10
1551.179383872387
 20
166.3551014687507
 30
0.0
 10
1550.846010706056
 20
166.4658165785565
 30
0.0
 10
1550.512660172482
 20
166.5761991196175
 30
0.0
 10
1550.179383872388
 20
166.6862231398988
 30
0.0
  0
LINE
  5
9081
330
8C53
100
AcDbEntity
  8
Visible (ISO)
100
AcDbLine
 10
1550.179383872388
 20
166.6862231398988
 30
0.0
 11
1550.179383872397
 21
120.7809784359703
 31
0.0
  0
SPLINE
  5
9082
330
8C53
100
AcDbEntity
  8
Visible (ISO)
100
AcDbSpline
210
0.0
220
0.0
230
1.0
 70
     8
 71
     3
 72
     8
 73
     4
 74
     0
 42
0.0000000001
 43
0.0000000001
 40
-0.1436911116741557
 40
-0.1436911116741557
 40
-0.1436911116741557
 40
-0.1436911116741557
 40
0.0
 40
0.0
 40
0.0
 40
0.0
 10
1550.179383872397
 20
120.7809784359704
 30
0.0
 10
1550.512660172491
 20
120.5279718912977
 30
0.0
 10
1550.846010706066
 20
120.2752430065027
 30
0.0
 10
1551.179383872396
 20
120.0228220370879
 30
0.0
  0
ELLIPSE
  5
9083
330
8C53
100
AcDbEntity
  8
Visible (ISO)
100
AcDbEllipse
 10
1500.179383872392
 20
143.1889617529193
 30
0.0
 11
57.99999999999971
 21
-0.0000000000248718
 31
0.0
210
0.0
220
0.0
230
1.0
 40
0.838670567945426
 41
5.208773145514329
 42
5.786801142050967
  0
ELLIPSE
  5
9084
330
8C53
100
AcDbEntity
  8
Visible (ISO)
100
AcDbEllipse
 10
1500.179383872392
 20
143.7336007879346
 30
0.0
 11
-56.99999999999995
 21
0.0000000000294098
 31
0.0
210
0.0
220
0.0
230
1.0
 40
0.838670567945426
 41
2.071608319766896
 42
2.640780660619096
  0
ELLIPSE
  5
9085
330
8C53
100
AcDbEntity
  8
Visible (ISO)
100
AcDbEllipse
 10
1500.179383872395
 20
143.1889617529202
 30
0.0
 11
-57.99999999999707
 21
0.0000000000198341
 31
0.0
210
0.0
220
0.0
230
1.0
 40
0.838670567945426
 41
3.637976818719272
 42
3.747316816245523
  0
ELLIPSE
  5
9086
330
8C53
100
AcDbEntity
  8
Visible (ISO)
100
AcDbEllipse
 10
1500.179383872388
 20
143.7336007879319
 30
0.0
 11
57.00000000000461
 21
-0.0000000000244138
 31
0.0
210
0.0
220
0.0
230
1.0
 40
0.838670567945426
 41
0.5008119929718671
 42
0.5988967362185882
  0
ELLIPSE
  5
9087
330
8C53
100
AcDbEntity
  8
Visible (ISO)
100
AcDbEllipse
 10
1500.179383872385
 20
143.1889617529221
 30
0.0
 11
-57.9999999999925
 21
0.0000000000249245
 31
0.0
210
0.0
220
0.0
230
1.0
 40
0.838670567945426
 41
5.677461144524744
 42
5.786801142050985
  0
SPLINE
  5
9088
330
8C53
100
AcDbEntity
  8
Visible (ISO)
100
AcDbSpline
210
0.0
220
0.0
230
1.0
 70
     8
 71
     3
 72
     8
 73
     4
 74
     0
 42
0.0000000001
 43
0.0000000001
 40
-0.1436911213497098
 40
-0.1436911213497098
 40
-0.1436911213497098
 40
-0.1436911213497098
 40
0.0
 40
0.0
 40
0.0
 40
0.0
 10
1449.179383872388
 20
166.3551014687507
 30
0.0
 10
1449.512757038718
 20
166.4658165785556
 30
0.0
 10
1449.846107572294
 20
166.5761991196175
 30
0.0
 10
1450.179383872388
 20
166.6862231398988
 30
0.0
  0
ELLIPSE
  5
9089
330
8C53
100
AcDbEntity
  8
Visible (ISO)
100
AcDbEllipse
 10
1500.179383872388
 20
143.7336007879364
 30
0.0
 11
56.99999999999526
 21
-0.0000000000294015
 31
0.0
210
0.0
220
0.0
230
1.0
 40
0.838670567945426
 41
2.54269591737238
 42
2.640780660619086
  0
LINE
  5
908A
330
8C53
100
AcDbEntity
  8
Visible (ISO)
100
AcDbLine
 10
1449.179383872388
 20
166.3551014687507
 30
0.0
 11
1449.179383872396
 21
120.0228220370879
 31
0.0
  0
LINE
  5
908B
330
8C53
100
AcDbEntity
  8
Visible (ISO)
100
AcDbLine
 10
1450.179383872397
 20
120.7809784359703
 30
0.0
 11
1450.179383872388
 21
166.6862231398979
 31
0.0
  0
LINE
  5
908C
330
8C53
100
AcDbEntity
  8
Visible (ISO)
100
AcDbLine
 10
1527.801838506265
 20
97.14892857761221
 30
0.0
 11
1472.556929238533
 21
97.14892857761221
 31
0.0
  0
ELLIPSE
  5
908D
330
8C53
100
AcDbEntity
  8
Visible (ISO)
100
AcDbEllipse
 10
1500.17938387239
 20
139.9211275428285
 30
0.0
 11
-57.99999999999971
 21
0.0000000000299122
 31
0.0
210
0.0
220
0.0
230
1.0
 40
0.8386705679454262
 41
2.067180491924629
 42
2.645208488461335
  0
ELLIPSE
  5
908E
330
8C53
100
AcDbEntity
  8
Visible (ISO)
100
AcDbEllipse
 10
1500.17938387239
 20
139.9211275428285
 30
0.0
 11
-57.99999999999971
 21
0.0000000000248856
 31
0.0
210
0.0
220
0.0
230
1.0
 40
0.8386705679454262
 41
0.4963841651296299
 42
1.074412161666285
  0
LINE
  5
908F
330
8C53
100
AcDbEntity
  8
Visible (ISO)
100
AcDbLine
 10
1551.179383872396
 20
120.0228220370879
 30
0.0
 11
1551.179383872394
 21
116.7549878269981
 31
0.0
  0
LINE
  5
9090
330
8C53
100
AcDbEntity
  8
Visible (ISO)
100
AcDbLine
 10
1449.179383872396
 20
120.0228220370879
 30
0.0
 11
1449.179383872394
 21
116.7549878269981
 31
0.0
  0
LINE
  5
9091
330
8C53
100
AcDbEntity
  8
Visible (ISO)
100
AcDbLine
 10
1472.556929238534
 20
100.416762787702
 30
0.0
 11
1472.556929238533
 21
97.14892857761221
 31
0.0
  0
LINE
  5
9092
330
8C53
100
AcDbEntity
  8
Visible (ISO)
100
AcDbLine
 10
1527.801838506266
 20
100.416762787702
 30
0.0
 11
1527.801838506265
 21
97.14892857761221
 31
0.0
  0
LINE
  5
9093
330
8C53
100
AcDbEntity
  8
Visible (ISO)
100
AcDbLine
 10
1026.077413104545
 20
211.4799706268211
 30
0.0
 11
1026.077413104548
 21
219.758226832904
 31
0.0
  0
ELLIPSE
  5
9094
330
8C53
100
AcDbEntity
  8
Visible (ISO)
100
AcDbEllipse
 10
1046.171997012719
 20
208.0776444949922
 30
0.0
 11
-20.49999999999994
 21
0.0000000000099351
 31
0.0
210
0.0
220
0.0
230
1.0
 40
0.838670567945426
 41
6.083977250190694
 42
7.529590915366248
  0
LINE
  5
9095
330
8C53
100
AcDbEntity
  8
Visible (ISO)
100
AcDbLine
 10
1039.638004528944
 20
200.0598400502437
 30
0.0
 11
1039.63800452894
 21
191.7815838441599
 31
0.0
  0
SPLINE
  5
9096
330
8C53
100
AcDbEntity
  8
Visible (ISO)
100
AcDbSpline
210
0.0
220
0.0
230
1.0
 70
     8
 71
     3
 72
    16
 73
    12
 74
     0
 42
0.0000000001
 43
0.0000000001
 40
9.488028758566096
 40
9.488028758566096
 40
9.488028758566096
 40
9.488028758566096
 40
9.518705262616244
 40
9.518705262616244
 40
10.12189917325054
 40
10.12189917325054
 40
10.72509308388485
 40
10.72509308388485
 40
11.32828699451915
 40
11.32828699451915
 40
11.55000189104669
 40
11.55000189104669
 40
11.55000189104669
 40
11.55000189104669
 10
1026.077540170378
 20
213.6935244910862
 30
0.0
 10
1026.099067766824
 20
213.6104974696907
 30
0.0
 10
1026.12149233487
 20
213.5274344859397
 30
0.0
 10
1026.603556756185
 20
211.8108378614295
 30
0.0
 10
1027.413153050753
 20
210.170436318517
 30
0.0
 10
1029.423799419534
 20
207.2497311209434
 30
0.0
 10
1030.779215737069
 20
205.7451919685816
 30
0.0
 10
1033.955598654735
 20
203.0654222073251
 30
0.0
 10
1035.776283442359
 20
201.891317117668
 30
0.0
 10
1038.228646052201
 20
200.6620363851332
 30
0.0
 10
1038.921296765507
 20
200.348226174179
 30
0.0
 10
1039.638004528944
 20
200.0598400502438
 30
0.0
  0
LINE
  5
9097
330
8C53
100
AcDbEntity
  8
Visible (ISO)
100
AcDbLine
 10
977.6187924480129
 20
221.8117005082556
 30
0.0
 11
977.6187924480167
 21
230.0899567143394
 31
0.0
  0
ELLIPSE
  5
9098
330
8C53
100
AcDbEntity
  8
Visible (ISO)
100
AcDbEllipse
 10
991.1793838724017
 20
234.7054350272599
 30
0.0
 11
-20.49999999999993
 21
0.0000000000117156
 31
0.0
210
0.0
220
0.0
230
1.0
 40
0.8386705679454264
 41
0.8479894942078249
 42
2.293603159383376
  0
LINE
  5
9099
330
8C53
100
AcDbEntity
  8
Visible (ISO)
100
AcDbLine
 10
1004.739975296799
 20
230.0899567143394
 30
0.0
 11
1004.739975296795
 21
221.8117005082556
 31
0.0
  0
SPLINE
  5
909A
330
8C53
100
AcDbEntity
  8
Visible (ISO)
100
AcDbSpline
210
0.0
220
0.0
230
1.0
 70
     8
 71
     3
 72
    18
 73
    14
 74
     0
 42
0.0000000001
 43
0.0000000001
 40
8.693796455454394
 40
8.693796455454394
 40
8.693796455454394
 40
8.693796455454394
 40
8.915511351981942
 40
8.915511351981942
 40
9.518705262616244
 40
9.518705262616244
 40
10.12189917325054
 40
10.12189917325054
 40
10.72509308388485
 40
10.72509308388485
 40
11.32828699451915
 40
11.32828699451915
 40
11.5500018910467
 40
11.5500018910467
 40
11.5500018910467
 40
11.5500018910467
 10
977.6187924480167
 20
230.0899567143394
 30
0.0
 10
978.1858644433585
 20
229.7567281057807
 30
0.0
 10
978.7724035311919
 20
229.4511460723831
 30
0.0
 10
980.9804369124938
 20
228.4238319431149
 30
0.0
 10
982.9098726718259
 20
227.7821036200136
 30
0.0
 10
987.0037248915258
 20
226.9415769759296
 30
0.0
 10
989.1687375036283
 20
226.7415009305566
 30
0.0
 10
993.1900302411907
 20
226.7415009305566
 30
0.0
 10
995.3550428532933
 20
226.9415769759296
 30
0.0
 10
999.4488950729927
 20
227.7821036200136
 30
0.0
 10
1001.378330832323
 20
228.4238319431149
 30
0.0
 10
1003.586364213625
 20
229.4511460723831
 30
0.0
 10
1004.172903301458
 20
229.7567281057807
 30
0.0
 10
1004.739975296799
 20
230.0899567143394
 30
0.0
  0
LINE
  5
909B
330
8C53
100
AcDbEntity
  8
Visible (ISO)
100
AcDbLine
 10
942.7207632158799
 20
191.7815838441599
 30
0.0
 11
942.720763215884
 21
200.0598400502437
 31
0.0
  0
ELLIPSE
  5
909C
330
8C53
100
AcDbEntity
  8
Visible (ISO)
100
AcDbEllipse
 10
936.1867707320955
 20
208.0776444949922
 30
0.0
 11
20.49999999999994
 21
-0.0000000000099309
 31
0.0
210
0.0
220
0.0
230
1.0
 40
0.838670567945426
 41
5.036779698994086
 42
6.482393364169632
  0
LINE
  5
909D
330
8C53
100
AcDbEntity
  8
Visible (ISO)
100
AcDbLine
 10
956.2813546402715
 20
219.758226832904
 30
0.0
 11
956.2813546402674
 21
211.4799706268202
 31
0.0
  0
SPLINE
  5
909E
330
8C53
100
AcDbEntity
  8
Visible (ISO)
100
AcDbSpline
210
0.0
220
0.0
230
1.0
 70
     8
 71
     3
 72
    16
 73
    12
 74
     0
 42
0.0000000001
 43
0.0000000001
 40
8.693796455454393
 40
8.693796455454393
 40
8.693796455454393
 40
8.693796455454393
 40
8.915511351981939
 40
8.915511351981939
 40
9.51870526261624
 40
9.51870526261624
 40
10.12189917325054
 40
10.12189917325054
 40
10.72509308388484
 40
10.72509308388484
 40
10.75576958793475
 40
10.75576958793475
 40
10.75576958793475
 40
10.75576958793475
 10
942.720763215884
 20
200.0598400502438
 30
0.0
 10
943.4374709793216
 20
200.348226174179
 30
0.0
 10
944.130121692627
 20
200.6620363851332
 30
0.0
 10
946.5824843024694
 20
201.891317117668
 30
0.0
 10
948.4031690900922
 20
203.0654222073251
 30
0.0
 10
951.5795520077574
 20
205.7451919685816
 30
0.0
 10
952.9349683252924
 20
207.2497311209434
 30
0.0
 10
954.9456146940727
 20
210.170436318517
 30
0.0
 10
955.7552109886403
 20
211.8108378614295
 30
0.0
 10
956.237275409954
 20
213.5274344859397
 30
0.0
 10
956.2596999779996
 20
213.6104974696888
 30
0.0
 10
956.2812275744461
 20
213.6935244910844
 30
0.0
  0
ELLIPSE
  5
909F
330
8C53
100
AcDbEntity
  8
Visible (ISO)
100
AcDbEllipse
 10
936.1867707321055
 20
154.8220634304569
 30
0.0
 11
20.50000000000197
 21
-0.0000000000099351
 31
0.0
210
0.0
220
0.0
230
1.0
 40
0.838670567945426
 41
1.206113168013873
 42
1.24640560818664
  0
ELLIPSE
  5
90A0
330
8C53
100
AcDbEntity
  8
Visible (ISO)
100
AcDbEllipse
 10
991.1793838724163
 20
189.7281101688083
 30
0.0
 11
49.99999999999997
 21
-0.0000000000242306
 31
0.0
210
0.0
220
0.0
230
1.0
 40
0.8386705679454262
 41
0.0
 42
0.2489469502067987
  0
ELLIPSE
  5
90A1
330
8C53
100
AcDbEntity
  8
Visible (ISO)
100
AcDbEllipse
 10
991.1793838724159
 20
189.7281101688083
 30
0.0
 11
-49.99999999999943
 21
0.0000000000013804
 31
0.0
210
0.0
220
0.0
230
1.0
 40
0.838670567945426
 41
6.034238356972963
 42
6.283185307179118
  0
ELLIPSE
  5
90A2
330
8C53
100
AcDbEntity
  8
Visible (ISO)
100
AcDbEllipse
 10
991.1793838724163
 20
189.7281101688083
 30
0.0
 11
49.99999999999993
 21
-0.0000000000285522
 31
0.0
210
0.0
220
0.0
230
1.0
 40
0.838670567945426
 41
1.845448152187636
 42
2.343342052600107
  0
ELLIPSE
  5
90A3
330
8C53
100
AcDbEntity
  8
Visible (ISO)
100
AcDbEllipse
 10
991.1793838724163
 20
189.7281101688083
 30
0.0
 11
49.99999999999985
 21
-0.0000000000242126
 31
0.0
210
0.0
220
0.0
230
1.0
 40
0.8386705679454262
 41
0.7982506009909543
 42
1.296144501403396
  0
ELLIPSE
  5
90A4
330
8C53
100
AcDbEntity
  8
Visible (ISO)
100
AcDbEllipse
 10
991.1793838724127
 20
181.4498539627254
 30
0.0
 11
49.99999999999985
 21
-0.0000000000242167
 31
0.0
210
0.0
220
0.0
230
1.0
 40
0.838670567945426
 41
6.034238356973943
 42
6.532132257386384
  0
ELLIPSE
  5
90A5
330
8C53
100
AcDbEntity
  8
Visible (ISO)
100
AcDbEllipse
 10
991.1793838724127
 20
181.4498539627254
 30
0.0
 11
-49.99999999999992
 21
0.0000000000242195
 31
0.0
210
0.0
220
0.0
230
1.0
 40
0.838670567945426
 41
6.034238356973943
 42
6.532132257386384
  0
ELLIPSE
  5
90A6
330
8C53
100
AcDbEntity
  8
Visible (ISO)
100
AcDbEllipse
 10
991.1793838724122
 20
181.4498539627254
 30
0.0
 11
49.99999999999968
 21
-0.0000000000285494
 31
0.0
210
0.0
220
0.0
230
1.0
 40
0.838670567945426
 41
1.84544815218763
 42
2.343342052600103
  0
ELLIPSE
  5
90A7
330
8C53
100
AcDbEntity
  8
Visible (ISO)
100
AcDbEllipse
 10
991.1793838724127
 20
181.4498539627254
 30
0.0
 11
-16.49999999999998
 21
0.0000000000079964
 31
0.0
210
0.0
220
0.0
230
1.0
 40
0.8386705679454259
 41
3.473669449802024
 42
5.951108510968459
  0
ELLIPSE
  5
90A8
330
8C53
100
AcDbEntity
  8
Visible (ISO)
100
AcDbEllipse
 10
991.1793838724127
 20
181.4498539627254
 30
0.0
 11
49.99999999999981
 21
-0.0000000000242292
 31
0.0
210
0.0
220
0.0
230
1.0
 40
0.838670567945426
 41
0.7982506009909552
 42
1.296144501403397
  0
LINE
  5
90A9
330
8C53
100
AcDbEntity
  8
Visible (ISO)
100
AcDbLine
 10
1041.179383872412
 20
181.4498539627245
 30
0.0
 11
1041.179383872416
 21
189.7281101688065
 31
0.0
  0
LINE
  5
90AA
330
8C53
100
AcDbEntity
  8
Visible (ISO)
100
AcDbLine
 10
941.1793838724127
 20
181.4498539627263
 30
0.0
 11
941.1793838724163
 21
189.7281101688101
 31
0.0
  0
ELLIPSE
  5
90AB
330
8C53
100
AcDbEntity
  8
Visible (ISO)
100
AcDbEllipse
 10
1046.171997012731
 20
154.822063430455
 30
0.0
 11
20.50000000000431
 21
-0.0000000000099303
 31
0.0
210
0.0
220
0.0
230
1.0
 40
0.8386705679454262
 41
1.89518704540429
 42
1.935479485577189
  0
ELLIPSE
  5
90AC
330
8C53
100
AcDbEntity
  8
Visible (ISO)
100
AcDbEllipse
 10
1029.687954347018
 20
156.6186211913352
 30
0.0
 11
9.999999999999964
 21
-0.0000000000039753
 31
0.0
210
0.0
220
0.0
230
1.0
 40
0.838670567945426
 41
3.808256194963927
 42
4.712388980385182
  0
ELLIPSE
  5
90AD
330
8C53
100
AcDbEntity
  8
Visible (ISO)
100
AcDbEllipse
 10
1029.687954347016
 20
152.131733652827
 30
0.0
 11
-0.0000000000023493
 21
-16.77341135890848
 31
0.0
210
0.0
220
0.0
230
1.0
 40
0.5961816464179721
 41
5.379052521758113
 42
6.283185307179124
  0
ELLIPSE
  5
90AE
330
8C53
100
AcDbEntity
  8
Visible (ISO)
100
AcDbEllipse
 10
952.670813397747
 20
156.6186211913352
 30
0.0
 11
9.99999999999998
 21
-0.0000000000000037
 31
0.0
210
0.0
220
0.0
230
1.0
 40
0.838670567945426
 41
4.712388980385027
 42
5.616521765805986
  0
ELLIPSE
  5
90AF
330
8C53
100
AcDbEntity
  8
Visible (ISO)
100
AcDbEllipse
 10
952.6708133977447
 20
152.131733652827
 30
0.0
 11
-0.0000000000023493
 21
-16.77341135890848
 31
0.0
210
0.0
220
0.0
230
1.0
 40
0.5961816464179721
 41
0.0
 42
0.9041327854209386
  0
ELLIPSE
  5
90B0
330
8C53
100
AcDbEntity
  8
Visible (ISO)
100
AcDbEllipse
 10
991.179383872388
 20
131.2069029825886
 30
0.0
 11
-38.99999999999992
 21
0.0000000000155376
 31
0.0
210
0.0
220
0.0
230
1.0
 40
0.8386705679454262
 41
3.80825619496392
 42
4.294881771938771
  0
ELLIPSE
  5
90B1
330
8C53
100
AcDbEntity
  8
Visible (ISO)
100
AcDbEllipse
 10
991.1793838723736
 20
101.3082972353338
 30
0.0
 11
-0.0000000000091646
 21
-65.41630429974306
 31
0.0
210
0.0
220
0.0
230
1.0
 40
0.5961816464179721
 41
2.237459868168309
 42
2.724085445142987
  0
LINE
  5
90B2
330
8C53
100
AcDbEntity
  8
Visible (ISO)
100
AcDbLine
 10
1042.179383872384
 20
148.2319155118809
 30
0.0
 11
1029.68795434702
 21
148.2319155118809
 31
0.0
  0
LINE
  5
90B3
330
8C53
100
AcDbEntity
  8
Visible (ISO)
100
AcDbLine
 10
940.1793838723849
 20
148.2319155118809
 30
0.0
 11
952.6708133977487
 21
148.2319155118809
 31
0.0
  0
ELLIPSE
  5
90B4
330
8C53
100
AcDbEntity
  8
Visible (ISO)
100
AcDbEllipse
 10
991.179383872388
 20
131.2069029825886
 30
0.0
 11
38.99999999999993
 21
-0.0000000000222738
 31
0.0
210
0.0
220
0.0
230
1.0
 40
0.8386705679454259
 41
1.98830353524197
 42
2.474929112216823
  0
ELLIPSE
  5
90B5
330
8C53
100
AcDbEntity
  8
Visible (ISO)
100
AcDbEllipse
 10
991.1793838723736
 20
101.3082972353338
 30
0.0
 11
-0.0000000000091601
 21
-65.41630429974306
 31
0.0
210
0.0
220
0.0
230
1.0
 40
0.5961816464179721
 41
3.559099862035765
 42
4.045725439010734
  0
LINE
  5
90B6
330
8C53
100
AcDbEntity
  8
Visible (ISO)
100
AcDbLine
 10
940.1793838723786
 20
135.3583222939184
 30
0.0
 11
940.1793838723849
 21
148.2319155118809
 31
0.0
  0
LINE
  5
90B7
330
8C53
100
AcDbEntity
  8
Visible (ISO)
100
AcDbLine
 10
952.6708133977423
 20
135.3583222939184
 30
0.0
 11
940.1793838723786
 21
135.3583222939184
 31
0.0
  0
LINE
  5
90B8
330
8C53
100
AcDbEntity
  8
Visible (ISO)
100
AcDbLine
 10
1042.179383872378
 20
135.3583222939184
 30
0.0
 11
1029.687954347014
 21
135.3583222939184
 31
0.0
  0
LINE
  5
90B9
330
8C53
100
AcDbEntity
  8
Visible (ISO)
100
AcDbLine
 10
1042.179383872384
 20
148.2319155118809
 30
0.0
 11
1042.179383872378
 21
135.3583222939184
 31
0.0
  0
LINE
  5
90BA
330
8C53
100
AcDbEntity
  8
Visible (ISO)
100
AcDbLine
 10
1042.179383872383
 20
154.37304269842
 30
0.0
 11
1042.179383872384
 21
148.2319155118809
 31
0.0
  0
ELLIPSE
  5
90BB
330
8C53
100
AcDbEntity
  8
Visible (ISO)
100
AcDbEllipse
 10
991.179383872388
 20
131.2069029825886
 30
0.0
 11
57.99999999999971
 21
-0.0000000000280914
 31
0.0
210
0.0
220
0.0
230
1.0
 40
0.8386705679454262
 41
0.4963841651296957
 42
1.074412161666344
  0
LINE
  5
90BC
330
8C53
100
AcDbEntity
  8
Visible (ISO)
100
AcDbLine
 10
963.5569292385133
 20
173.979101947805
 30
0.0
 11
1018.801838506245
 21
173.979101947805
 31
0.0
  0
ELLIPSE
  5
90BD
330
8C53
100
AcDbEntity
  8
Visible (ISO)
100
AcDbEllipse
 10
991.179383872388
 20
131.2069029825886
 30
0.0
 11
57.99999999999971
 21
-0.0000000000331346
 31
0.0
210
0.0
220
0.0
230
1.0
 40
0.838670567945426
 41
2.06718049192472
 42
2.645208488461401
  0
LINE
  5
90BE
330
8C53
100
AcDbEntity
  8
Visible (ISO)
100
AcDbLine
 10
940.1793838723849
 20
148.2319155118809
 30
0.0
 11
940.1793838723836
 21
154.37304269842
 31
0.0
  0
ELLIPSE
  5
90BF
330
8C53
100
AcDbEntity
  8
Visible (ISO)
100
AcDbEllipse
 10
991.1793838722072
 20
131.2069029823149
 30
0.0
 11
-57.99999999962675
 21
0.000000000028072
 31
0.0
210
0.0
220
0.0
230
1.0
 40
0.838670567945426
 41
1.056260979517688
 42
1.074412161666409
  0
ELLIPSE
  5
90C0
330
8C53
100
AcDbEntity
  8
Visible (ISO)
100
AcDbEllipse
 10
991.1793838723891
 20
131.2069029825895
 30
0.0
 11
-58.00000000000109
 21
0.0000000000281081
 31
0.0
210
0.0
220
0.0
230
1.0
 40
0.838670567945426
 41
0.6619487351015243
 42
0.8267387300820923
  0
LINE
  5
90C1
330
8C53
100
AcDbEntity
  8
Visible (ISO)
100
AcDbLine
 10
1018.801838506263
 20
88.43470401737226
 30
0.0
 11
963.556929238531
 21
88.43470401737226
 31
0.0
  0
ELLIPSE
  5
90C2
330
8C53
100
AcDbEntity
  8
Visible (ISO)
100
AcDbEllipse
 10
991.1793838723877
 20
131.2069029825895
 30
0.0
 11
-58.00000000000046
 21
0.0000000000331152
 31
0.0
210
0.0
220
0.0
230
1.0
 40
0.838670567945426
 41
2.314853923508964
 42
2.479643918489554
  0
ELLIPSE
  5
90C3
330
8C53
100
AcDbEntity
  8
Visible (ISO)
100
AcDbEllipse
 10
991.179383872379
 20
131.2069029826023
 30
0.0
 11
-58.00000000001799
 21
0.0000000000331568
 31
0.0
210
0.0
220
0.0
230
1.0
 40
0.838670567945426
 41
2.067180491924689
 42
2.085331674073282
  0
LINE
  5
90C4
330
8C53
100
AcDbEntity
  8
Visible (ISO)
100
AcDbLine
 10
940.1793838723872
 20
162.5426282236455
 30
0.0
 11
940.1793838723836
 21
154.37304269842
 31
0.0
  0
LINE
  5
90C5
330
8C53
100
AcDbEntity
  8
Visible (ISO)
100
AcDbLine
 10
1018.801838506249
 20
182.1486874730305
 30
0.0
 11
963.5569292385174
 21
182.1486874730305
 31
0.0
  0
ELLIPSE
  5
90C6
330
8C53
100
AcDbEntity
  8
Visible (ISO)
100
AcDbEllipse
 10
991.1793838723921
 20
139.3764885078142
 30
0.0
 11
-57.99999999999971
 21
0.0000000000230704
 31
0.0
210
0.0
220
0.0
230
1.0
 40
0.8386705679454262
 41
3.637976818719339
 42
4.216004815256021
  0
ELLIPSE
  5
90C7
330
8C53
100
AcDbEntity
  8
Visible (ISO)
100
AcDbEllipse
 10
991.1793838723918
 20
139.3764885078142
 30
0.0
 11
-57.99999999999971
 21
0.0000000000281025
 31
0.0
210
0.0
220
0.0
230
1.0
 40
0.838670567945426
 41
5.208773145514396
 42
5.786801142051039
  0
LINE
  5
90C8
330
8C53
100
AcDbEntity
  8
Visible (ISO)
100
AcDbLine
 10
1042.179383872387
 20
162.5426282236455
 30
0.0
 11
1042.179383872383
 21
154.37304269842
 31
0.0
  0
LINE
  5
90C9
330
8C53
100
AcDbEntity
  8
Visible (ISO)
100
AcDbLine
 10
1018.801838506249
 20
182.1486874730305
 30
0.0
 11
1018.801838506245
 21
173.9791019478059
 31
0.0
  0
LINE
  5
90CA
330
8C53
100
AcDbEntity
  8
Visible (ISO)
100
AcDbLine
 10
963.5569292385174
 20
182.1486874730305
 30
0.0
 11
963.5569292385133
 21
173.9791019478059
 31
0.0
  0
LINE
  5
90CB
330
8C53
100
AcDbEntity
  8
Visible (ISO)
100
AcDbLine
 10
975.3655449962582
 20
161.1055087298434
 30
0.0
 11
1006.993222748505
 21
161.1055087298434
 31
0.0
  0
LINE
  5
90CC
330
8C53
100
AcDbEntity
  8
Visible (ISO)
100
AcDbLine
 10
940.1793838723786
 20
135.3583222939184
 30
0.0
 11
940.1793838723763
 21
120.5843645247248
 31
0.0
  0
LINE
  5
90CD
330
8C53
100
AcDbEntity
  8
0
  6
CENTER
100
AcDbLine
 10
991.1793838723944
 20
238.2323320682569
 30
0.0
 11
991.1793838723705
 21
82.9637175153282
 31
0.0
  0
LINE
  5
90CE
330
8C53
100
AcDbEntity
  8
Visible (ISO)
100
AcDbLine
 10
972.0793838723764
 20
120.5843645247248
 30
0.0
 11
940.1793838723763
 21
120.5843645247248
 31
0.0
  0
LINE
  5
90CF
330
8C53
100
AcDbEntity
  8
Visible (ISO)
100
AcDbLine
 10
1042.179383872376
 20
120.5843645247248
 30
0.0
 11
1010.279383872376
 21
120.5843645247248
 31
0.0
  0
LINE
  5
90D0
330
8C53
100
AcDbEntity
  8
Visible (ISO)
100
AcDbLine
 10
1042.179383872376
 20
120.5843645247248
 30
0.0
 11
1042.179383872378
 21
135.3583222939184
 31
0.0
  0
LINE
  5
90D1
330
8C53
100
AcDbEntity
  8
Visible (ISO)
100
AcDbLine
 10
940.1793838723763
 20
120.5843645247248
 30
0.0
 11
940.1793838723804
 21
101.3082972353338
 31
0.0
  0
LINE
  5
90D2
330
8C53
100
AcDbEntity
  8
Visible (ISO)
100
AcDbLine
 10
1010.27938387238
 20
101.3082972353338
 30
0.0
 11
1042.179383872379
 21
101.3082972353338
 31
0.0
  0
LINE
  5
90D3
330
8C53
100
AcDbEntity
  8
Visible (ISO)
100
AcDbLine
 10
940.1793838723804
 20
101.3082972353338
 30
0.0
 11
972.07938387238
 21
101.3082972353338
 31
0.0
  0
LINE
  5
90D4
330
8C53
100
AcDbEntity
  8
Visible (ISO)
100
AcDbLine
 10
1042.179383872379
 20
101.3082972353338
 30
0.0
 11
1042.179383872376
 21
120.5843645247248
 31
0.0
  0
ELLIPSE
  5
90D5
330
8C53
100
AcDbEntity
  8
Visible (ISO)
100
AcDbEllipse
 10
1023.961551966395
 20
163.9723083198721
 30
0.0
 11
-6.499999999999979
 21
0.0000000000000037
 31
0.0
210
0.0
220
0.0
230
1.0
 40
0.838670567945426
 41
3.14159265358929
 42
6.283185307179082
  0
ELLIPSE
  5
90D6
330
8C53
100
AcDbEntity
  8
Visible (ISO)
100
AcDbEllipse
 10
958.397215778368
 20
163.9723083198721
 30
0.0
 11
-6.499999999999979
 21
0.000000000000216
 31
0.0
210
0.0
220
0.0
230
1.0
 40
0.838670567945426
 41
3.141592653589279
 42
6.283185307179072
  0
ELLIPSE
  5
90D7
330
8C53
100
AcDbEntity
  8
Visible (ISO)
100
AcDbEllipse
 10
958.3972157783653
 20
158.525917969722
 30
0.0
 11
6.499999999999982
 21
0.0
 31
0.0
210
0.0
220
0.0
230
1.0
 40
0.838670567945426
 41
0.0
 42
6.283185307179586
  0
ELLIPSE
  5
90D8
330
8C53
100
AcDbEntity
  8
Visible (ISO)
100
AcDbEllipse
 10
1023.961551966392
 20
158.525917969722
 30
0.0
 11
-6.499999999999982
 21
0.0
 31
0.0
210
0.0
220
0.0
230
1.0
 40
0.838670567945426
 41
0.0
 42
6.283185307179586
  0
LINE
  5
90D9
330
8C53
100
AcDbEntity
  8
Visible (ISO)
100
AcDbLine
 10
964.897215778368
 20
163.9723083198721
 30
0.0
 11
964.8972157783653
 21
158.5259179697211
 31
0.0
  0
LINE
  5
90DA
330
8C53
100
AcDbEntity
  8
Visible (ISO)
100
AcDbLine
 10
951.897215778368
 20
163.9723083198721
 30
0.0
 11
951.8972157783652
 21
158.5259179697229
 31
0.0
  0
LINE
  5
90DB
330
8C53
100
AcDbEntity
  8
Visible (ISO)
100
AcDbLine
 10
1017.461551966392
 20
158.525917969722
 30
0.0
 11
1017.461551966394
 21
163.9723083198721
 31
0.0
  0
LINE
  5
90DC
330
8C53
100
AcDbEntity
  8
Visible (ISO)
100
AcDbLine
 10
1030.461551966392
 20
158.5259179697211
 30
0.0
 11
1030.461551966395
 21
163.9723083198721
 31
0.0
  0
ELLIPSE
  5
90DD
330
8C53
100
AcDbEntity
  8
Visible (ISO)
100
AcDbEllipse
 10
1023.961551966408
 20
98.4414976453052
 30
0.0
 11
-6.499999999999953
 21
-0.0000000000000037
 31
0.0
210
0.0
220
0.0
230
1.0
 40
0.838670567945426
 41
5.729427481910747
 42
6.28318530717908
  0
ELLIPSE
  5
90DE
330
8C53
100
AcDbEntity
  8
Visible (ISO)
100
AcDbEllipse
 10
1023.961551966408
 20
98.4414976453052
 30
0.0
 11
6.499999999999964
 21
-0.0000000000031492
 31
0.0
210
0.0
220
0.0
230
1.0
 40
0.8386705679454259
 41
0.0
 42
0.5537578252689919
  0
ELLIPSE
  5
90DF
330
8C53
100
AcDbEntity
  8
Visible (ISO)
100
AcDbEllipse
 10
1023.961551966405
 20
92.99510729515512
 30
0.0
 11
6.499999999999982
 21
0.0
 31
0.0
210
0.0
220
0.0
230
1.0
 40
0.838670567945426
 41
0.0
 42
6.283185307179586
  0
LINE
  5
90E0
330
8C53
100
AcDbEntity
  8
Visible (ISO)
100
AcDbLine
 10
1030.461551966408
 20
98.44149764530516
 30
0.0
 11
1030.461551966405
 21
92.99510729515509
 31
0.0
  0
LINE
  5
90E1
330
8C53
100
AcDbEntity
  8
Visible (ISO)
100
AcDbLine
 10
1017.461551966408
 20
98.44149764530516
 30
0.0
 11
1017.461551966405
 21
92.99510729515509
 31
0.0
  0
ELLIPSE
  5
90E2
330
8C53
100
AcDbEntity
  8
Visible (ISO)
100
AcDbEllipse
 10
958.3972157783811
 20
98.4414976453052
 30
0.0
 11
-6.500000000000008
 21
0.000000000000149
 31
0.0
210
0.0
220
0.0
230
1.0
 40
0.838670567945426
 41
5.729427481910855
 42
6.283185307179185
  0
ELLIPSE
  5
90E3
330
8C53
100
AcDbEntity
  8
Visible (ISO)
100
AcDbEllipse
 10
958.3972157783811
 20
98.4414976453052
 30
0.0
 11
6.500000000000001
 21
-0.0000000000031496
 31
0.0
210
0.0
220
0.0
230
1.0
 40
0.838670567945426
 41
0.0
 42
0.5537578252689919
  0
ELLIPSE
  5
90E4
330
8C53
100
AcDbEntity
  8
Visible (ISO)
100
AcDbEllipse
 10
958.3972157783785
 20
92.99510729515512
 30
0.0
 11
-6.499999999999982
 21
0.0
 31
0.0
210
0.0
220
0.0
230
1.0
 40
0.838670567945426
 41
0.0
 42
6.283185307179586
  0
LINE
  5
90E5
330
8C53
100
AcDbEntity
  8
Visible (ISO)
100
AcDbLine
 10
951.8972157783785
 20
92.99510729515509
 30
0.0
 11
951.8972157783812
 21
98.44149764530516
 31
0.0
  0
LINE
  5
90E6
330
8C53
100
AcDbEntity
  8
Visible (ISO)
100
AcDbLine
 10
964.8972157783784
 20
92.99510729515509
 30
0.0
 11
964.8972157783813
 21
98.44149764530516
 31
0.0
  0
LINE
  5
90E7
330
8C53
100
AcDbEntity
  8
Visible (ISO)
100
AcDbLine
 10
972.0793838723764
 20
120.5843645247248
 30
0.0
 11
980.7870790269655
 21
137.0130420166604
 31
0.0
  0
ELLIPSE
  5
90E8
330
8C53
100
AcDbEntity
  8
Visible (ISO)
100
AcDbEllipse
 10
991.1793838723777
 20
130.4773735964797
 30
0.0
 11
0.0000000000018317
 21
13.07133684036065
 31
0.0
210
0.0
220
0.0
230
1.0
 40
0.9180392293883288
 41
5.235987755982883
 42
7.330382858376093
  0
LINE
  5
90E9
330
8C53
100
AcDbEntity
  8
Visible (ISO)
100
AcDbLine
 10
1001.571688717791
 20
137.0130420166604
 30
0.0
 11
1010.279383872376
 21
120.5843645247248
 31
0.0
  0
LINE
  5
90EA
330
8C53
100
AcDbEntity
  8
Visible (ISO)
100
AcDbLine
 10
1010.27938387238
 20
101.3082972353338
 30
0.0
 11
1001.571688717799
 21
101.3082972353338
 31
0.0
  0
LINE
  5
90EB
330
8C53
100
AcDbEntity
  8
Visible (ISO)
100
AcDbLine
 10
1001.571688717799
 20
101.3082972353338
 30
0.0
 11
980.7870790269728
 21
101.3082972353338
 31
0.0
  0
LINE
  5
90EC
330
8C53
100
AcDbEntity
  8
Visible (ISO)
100
AcDbLine
 10
980.7870790269728
 20
101.3082972353338
 30
0.0
 11
972.0793838723805
 21
101.3082972353338
 31
0.0
  0
LINE
  5
90ED
330
8C53
100
AcDbEntity
  8
Visible (ISO)
100
AcDbLine
 10
1010.279383872376
 20
120.5843645247248
 30
0.0
 11
1010.27938387238
 21
101.3082972353338
 31
0.0
  0
LINE
  5
90EE
330
8C53
100
AcDbEntity
  8
Visible (ISO)
100
AcDbLine
 10
972.07938387238
 20
101.3082972353338
 30
0.0
 11
972.0793838723764
 21
120.5843645247248
 31
0.0
  0
LINE
  5
90EF
330
8C53
100
AcDbEntity
  8
Visible (ISO)
100
AcDbLine
 10
911.679383872384
 20
147.5520547600933
 30
0.0
 11
911.679383872384
 21
97.05205476009247
 31
0.0
  0
LINE
  5
90F0
330
8C53
100
AcDbEntity
  8
Visible (ISO)
100
AcDbLine
 10
914.5293838723839
 20
147.5520547600933
 30
0.0
 11
914.5293838723839
 21
97.05205476009247
 31
0.0
  0
LINE
  5
90F1
330
8C53
100
AcDbEntity
  8
Visible (ISO)
100
AcDbLine
 10
916.7859993248345
 20
141.3520547600935
 30
0.0
 11
916.7859993248345
 21
103.2520547600931
 31
0.0
  0
LINE
  5
90F2
330
8C53
100
AcDbEntity
  8
Visible (ISO)
100
AcDbLine
 10
914.5293838723839
 20
97.05205476009247
 30
0.0
 11
911.679383872384
 21
97.05205476009247
 31
0.0
  0
LINE
  5
90F3
330
8C53
100
AcDbEntity
  8
Visible (ISO)
100
AcDbLine
 10
914.5293838723839
 20
147.5520547600933
 30
0.0
 11
911.679383872384
 21
147.5520547600933
 31
0.0
  0
LINE
  5
90F4
330
8C53
100
AcDbEntity
  8
Visible (ISO)
100
AcDbLine
 10
916.7859993248345
 20
103.2520547600931
 30
0.0
 11
914.5293838723839
 21
97.05205476009247
 31
0.0
  0
LINE
  5
90F5
330
8C53
100
AcDbEntity
  8
Visible (ISO)
100
AcDbLine
 10
916.7859993248342
 20
141.3520547600935
 30
0.0
 11
914.5293838723839
 21
147.5520547600933
 31
0.0
  0
LINE
  5
90F6
330
8C53
100
AcDbEntity
  8
Visible (ISO)
100
AcDbLine
 10
940.179383872384
 20
103.2520547600931
 30
0.0
 11
916.7859993248345
 21
103.2520547600931
 31
0.0
  0
LINE
  5
90F7
330
8C53
100
AcDbEntity
  8
Visible (ISO)
100
AcDbLine
 10
940.179383872384
 20
141.3520547600935
 30
0.0
 11
916.7859993248342
 21
141.3520547600935
 31
0.0
  0
LINE
  5
90F8
330
8C53
100
AcDbEntity
  8
0
  6
CENTER
100
AcDbLine
 10
1092.858995373103
 20
122.3020547600933
 30
0.0
 11
889.4997723716489
 21
122.3020547600933
 31
0.0
  0
LINE
  5
90F9
330
8C53
100
AcDbEntity
  8
Visible (ISO)
100
AcDbLine
 10
1070.679383872383
 20
147.5520547600933
 30
0.0
 11
1070.679383872383
 21
97.05205476009247
 31
0.0
  0
LINE
  5
90FA
330
8C53
100
AcDbEntity
  8
Visible (ISO)
100
AcDbLine
 10
1067.829383872383
 20
147.5520547600933
 30
0.0
 11
1067.829383872383
 21
97.05205476009247
 31
0.0
  0
LINE
  5
90FB
330
8C53
100
AcDbEntity
  8
Visible (ISO)
100
AcDbLine
 10
1065.572768419933
 20
141.3520547600935
 30
0.0
 11
1065.572768419933
 21
103.2520547600931
 31
0.0
  0
LINE
  5
90FC
330
8C53
100
AcDbEntity
  8
Visible (ISO)
100
AcDbLine
 10
1070.679383872383
 20
97.05205476009247
 30
0.0
 11
1067.829383872383
 21
97.05205476009247
 31
0.0
  0
LINE
  5
90FD
330
8C53
100
AcDbEntity
  8
Visible (ISO)
100
AcDbLine
 10
1070.679383872383
 20
147.5520547600933
 30
0.0
 11
1067.829383872383
 21
147.5520547600933
 31
0.0
  0
LINE
  5
90FE
330
8C53
100
AcDbEntity
  8
Visible (ISO)
100
AcDbLine
 10
1065.572768419933
 20
141.3520547600935
 30
0.0
 11
1067.829383872383
 21
147.5520547600933
 31
0.0
  0
LINE
  5
90FF
330
8C53
100
AcDbEntity
  8
Visible (ISO)
100
AcDbLine
 10
1065.572768419933
 20
103.2520547600931
 30
0.0
 11
1067.829383872383
 21
97.05205476009247
 31
0.0
  0
LINE
  5
9100
330
8C53
100
AcDbEntity
  8
Visible (ISO)
100
AcDbLine
 10
1065.572768419933
 20
103.2520547600931
 30
0.0
 11
1042.179383872383
 21
103.2520547600931
 31
0.0
  0
LINE
  5
9101
330
8C53
100
AcDbEntity
  8
Visible (ISO)
100
AcDbLine
 10
1065.572768419933
 20
141.3520547600935
 30
0.0
 11
1042.179383872383
 21
141.3520547600935
 31
0.0
  0
ELLIPSE
  5
9102
330
8C53
100
AcDbEntity
  8
Visible (ISO)
100
AcDbEllipse
 10
991.1793838723935
 20
143.1889617529202
 30
0.0
 11
57.99999999999971
 21
-0.0000000000331346
 31
0.0
210
0.0
220
0.0
230
1.0
 40
0.8386705679454262
 41
2.06718049192472
 42
2.645208488461408
  0
LINE
  5
9103
330
8C53
100
AcDbEntity
  8
Visible (ISO)
100
AcDbLine
 10
963.5569292385191
 20
185.9611607181366
 30
0.0
 11
1018.801838506251
 21
185.9611607181366
 31
0.0
  0
ELLIPSE
  5
9104
330
8C53
100
AcDbEntity
  8
Visible (ISO)
100
AcDbEllipse
 10
991.1793838723941
 20
143.1889617529202
 30
0.0
 11
57.99999999999971
 21
-0.0000000000281081
 31
0.0
210
0.0
220
0.0
230
1.0
 40
0.838670567945426
 41
0.4963841651297028
 42
1.074412161666344
  0
ELLIPSE
  5
9105
330
8C53
100
AcDbEntity
  8
Visible (ISO)
100
AcDbEllipse
 10
991.1793838723921
 20
139.9211275428285
 30
0.0
 11
-57.99999999999973
 21
0.0000000000230982
 31
0.0
210
0.0
220
0.0
230
1.0
 40
0.838670567945426
 41
3.637976818719341
 42
4.216004815256026
  0
LINE
  5
9106
330
8C53
100
AcDbEntity
  8
Visible (ISO)
100
AcDbLine
 10
1018.801838506249
 20
182.6933265080458
 30
0.0
 11
963.5569292385174
 21
182.6933265080458
 31
0.0
  0
ELLIPSE
  5
9107
330
8C53
100
AcDbEntity
  8
Visible (ISO)
100
AcDbEllipse
 10
991.1793838723921
 20
139.9211275428285
 30
0.0
 11
-57.99999999999971
 21
0.0000000000281053
 31
0.0
210
0.0
220
0.0
230
1.0
 40
0.838670567945426
 41
5.20877314551439
 42
5.786801142051031
  0
LINE
  5
9108
330
8C53
100
AcDbEntity
  8
Visible (ISO)
100
AcDbLine
 10
940.1793838723877
 20
163.0872672586599
 30
0.0
 11
940.1793838723877
 21
162.5426282236455
 31
0.0
  0
SPLINE
  5
9109
330
8C53
100
AcDbEntity
  8
Visible (ISO)
100
AcDbSpline
210
0.0
220
0.0
230
1.0
 70
     8
 71
     3
 72
     8
 73
     4
 74
     0
 42
0.0000000001
 43
0.0000000001
 40
-0.0341682691596568
 40
-0.0341682691596568
 40
-0.0341682691596568
 40
-0.0341682691596568
 40
0.0
 40
0.0
 40
0.0
 40
0.0
 10
940.4171974746212
 20
162.9071460985622
 30
0.0
 10
940.3379280161558
 20
162.9672036248128
 30
0.0
 10
940.2586565841446
 20
163.0272441471122
 30
0.0
 10
940.1793838723877
 20
163.0872672586599
 30
0.0
  0
SPLINE
  5
910A
330
8C53
100
AcDbEntity
  8
Visible (ISO)
100
AcDbSpline
210
0.0
220
0.0
230
1.0
 70
     8
 71
     3
 72
     8
 73
     4
 74
     0
 42
0.0000000001
 43
0.0000000001
 40
-0.056569516084583
 40
-0.056569516084583
 40
-0.056569516084583
 40
-0.056569516084583
 40
0.0
 40
0.0
 40
0.0
 40
0.0
 10
963.6568858765338
 20
182.1486874730306
 30
0.0
 10
963.6235079192282
 20
182.3302260619437
 30
0.0
 10
963.5901889877057
 20
182.5117738587658
 30
0.0
 10
963.5569292385174
 20
182.6933265080458
 30
0.0
  0
SPLINE
  5
910B
330
8C53
100
AcDbEntity
  8
Visible (ISO)
100
AcDbSpline
210
0.0
220
0.0
230
1.0
 70
     8
 71
     3
 72
     8
 73
     4
 74
     0
 42
0.0000000001
 43
0.0000000001
 40
-0.0565695160846012
 40
-0.0565695160846012
 40
-0.0565695160846012
 40
-0.0565695160846012
 40
0.0
 40
0.0
 40
0.0
 40
0.0
 10
1018.701881868233
 20
182.1486874730306
 30
0.0
 10
1018.735259825539
 20
182.3302260619437
 30
0.0
 10
1018.768578757061
 20
182.5117738587658
 30
0.0
 10
1018.801838506249
 20
182.6933265080458
 30
0.0
  0
SPLINE
  5
910C
330
8C53
100
AcDbEntity
  8
Visible (ISO)
100
AcDbSpline
210
0.0
220
0.0
230
1.0
 70
     8
 71
     3
 72
     8
 73
     4
 74
     0
 42
0.0000000001
 43
0.0000000001
 40
-0.0341682691596671
 40
-0.0341682691596671
 40
-0.0341682691596671
 40
-0.0341682691596671
 40
0.0
 40
0.0
 40
0.0
 40
0.0
 10
1041.941570270154
 20
162.9071460985622
 30
0.0
 10
1042.020839728619
 20
162.9672036248128
 30
0.0
 10
1042.10011116063
 20
163.0272441471122
 30
0.0
 10
1042.179383872387
 20
163.0872672586599
 30
0.0
  0
LINE
  5
910D
330
8C53
100
AcDbEntity
  8
Visible (ISO)
100
AcDbLine
 10
1042.179383872387
 20
162.5426282236455
 30
0.0
 11
1042.179383872387
 21
163.0872672586599
 31
0.0
  0
LINE
  5
910E
330
8C53
100
AcDbEntity
  8
Visible (ISO)
100
AcDbLine
 10
1018.801838506251
 20
185.9611607181366
 30
0.0
 11
1018.801838506249
 21
182.6933265080458
 31
0.0
  0
LINE
  5
910F
330
8C53
100
AcDbEntity
  8
Visible (ISO)
100
AcDbLine
 10
1042.179383872389
 20
166.3551014687507
 30
0.0
 11
1042.179383872387
 21
163.0872672586599
 31
0.0
  0
LINE
  5
9110
330
8C53
100
AcDbEntity
  8
Visible (ISO)
100
AcDbLine
 10
963.5569292385191
 20
185.9611607181366
 30
0.0
 11
963.5569292385174
 21
182.6933265080458
 31
0.0
  0
LINE
  5
9111
330
8C53
100
AcDbEntity
  8
Visible (ISO)
100
AcDbLine
 10
940.1793838723895
 20
166.3551014687507
 30
0.0
 11
940.1793838723877
 21
163.0872672586599
 31
0.0
  0
LINE
  5
9112
330
8C53
100
AcDbEntity
  8
Visible (ISO)
100
AcDbLine
 10
1317.257221766055
 20
341.9040255279794
 30
0.0
 11
1330.004618459283
 21
341.9040255279812
 31
0.0
  0
ELLIPSE
  5
9113
330
8C53
100
AcDbEntity
  8
Visible (ISO)
100
AcDbEllipse
 10
1319.466718190598
 20
321.8094416198052
 30
0.0
 11
-0.0000000000035791
 21
20.49999999999994
 31
0.0
210
0.0
220
0.0
230
1.0
 40
0.544639035015027
 41
5.036779698993155
 42
6.083977250189762
  0
LINE
  5
9114
330
8C53
100
AcDbEntity
  8
Visible (ISO)
100
AcDbLine
 10
1342.796900409683
 20
328.3434341035824
 30
0.0
 11
1330.049503716456
 21
328.3434341035806
 31
0.0
  0
SPLINE
  5
9115
330
8C53
100
AcDbEntity
  8
Visible (ISO)
100
AcDbSpline
210
0.0
220
0.0
230
1.0
 70
     8
 71
     3
 72
    18
 73
    14
 74
     0
 42
0.0000000001
 43
0.0000000001
 40
8.693796455454396
 40
8.693796455454396
 40
8.693796455454396
 40
8.693796455454396
 40
8.915511351981942
 40
8.915511351981942
 40
9.518705262616244
 40
9.518705262616244
 40
10.12189917325054
 40
10.12189917325054
 40
10.72509308388485
 40
10.72509308388485
 40
11.32828699451915
 40
11.32828699451915
 40
11.55000189104669
 40
11.55000189104669
 40
11.55000189104669
 40
11.55000189104669
 10
1330.004618459283
 20
341.9040255279812
 30
0.0
 10
1330.541129639382
 20
342.0536612960765
 30
0.0
 10
1331.06838010222
 20
342.1597729215479
 30
0.0
 10
1332.962593124948
 20
342.4041021500886
 30
0.0
 10
1334.43007410544
 20
342.2953511783796
 30
0.0
 10
1337.106158920428
 20
341.3778818763437
 30
0.0
 10
1338.312029330577
 20
340.5682855817756
 30
0.0
 10
1340.208757463373
 20
338.5576392129948
 30
0.0
 10
1341.04523542089
 20
337.202222895459
 30
0.0
 10
1342.231055313352
 20
334.0258399777919
 30
0.0
 10
1342.583693047901
 20
332.2051551901693
 30
0.0
 10
1342.772411711966
 20
329.7527925803258
 30
0.0
 10
1342.798468487115
 20
329.060141867021
 30
0.0
 10
1342.796900409683
 20
328.3434341035824
 30
0.0
  0
LINE
  5
9116
330
8C53
100
AcDbEntity
  8
Visible (ISO)
100
AcDbLine
 10
1310.547717930186
 20
390.3626461845121
 30
0.0
 11
1323.295114623414
 21
390.3626461845139
 31
0.0
  0
ELLIPSE
  5
9117
330
8C53
100
AcDbEntity
  8
Visible (ISO)
100
AcDbEllipse
 10
1302.174428828872
 20
376.8020547601242
 30
0.0
 11
-0.0000000000047372
 21
20.49999999999993
 31
0.0
210
0.0
220
0.0
230
1.0
 40
0.5446390350150271
 41
3.9895821477963
 42
5.435195812971835
  0
LINE
  5
9118
330
8C53
100
AcDbEntity
  8
Visible (ISO)
100
AcDbLine
 10
1323.295114623413
 20
363.2414633357309
 30
0.0
 11
1310.547717930186
 21
363.2414633357291
 31
0.0
  0
SPLINE
  5
9119
330
8C53
100
AcDbEntity
  8
Visible (ISO)
100
AcDbSpline
210
0.0
220
0.0
230
1.0
 70
     8
 71
     3
 72
    18
 73
    14
 74
     0
 42
0.0000000001
 43
0.0000000001
 40
8.693796455454394
 40
8.693796455454394
 40
8.693796455454394
 40
8.693796455454394
 40
8.915511351981942
 40
8.915511351981942
 40
9.518705262616244
 40
9.518705262616244
 40
10.12189917325054
 40
10.12189917325054
 40
10.72509308388485
 40
10.72509308388485
 40
11.32828699451915
 40
11.32828699451915
 40
11.5500018910467
 40
11.5500018910467
 40
11.5500018910467
 40
11.5500018910467
 10
1323.295114623414
 20
390.3626461845139
 30
0.0
 10
1323.70036402817
 20
389.7955741891726
 30
0.0
 10
1324.076545279671
 20
389.2090351013391
 30
0.0
 10
1325.353276453631
 20
387.0010017200381
 30
0.0
 10
1326.17985472531
 20
385.0715659607046
 30
0.0
 10
1327.280142048781
 20
380.9777137410053
 30
0.0
 10
1327.550654144153
 20
378.8127011289032
 30
0.0
 10
1327.550654144153
 20
374.7914083913399
 30
0.0
 10
1327.280142048781
 20
372.6263957792377
 30
0.0
 10
1326.179854725309
 20
368.5325435595384
 30
0.0
 10
1325.353276453631
 20
366.6031078002067
 30
0.0
 10
1324.07654527967
 20
364.3950744189057
 30
0.0
 10
1323.700364028169
 20
363.8085353310723
 30
0.0
 10
1323.295114623413
 20
363.2414633357309
 30
0.0
  0
LINE
  5
911A
330
8C53
100
AcDbEntity
  8
Visible (ISO)
100
AcDbLine
 10
1330.049503716457
 20
425.2606754166424
 30
0.0
 11
1342.796900409686
 21
425.2606754166443
 31
0.0
  0
ELLIPSE
  5
911B
330
8C53
100
AcDbEntity
  8
Visible (ISO)
100
AcDbEllipse
 10
1319.4667181906
 20
431.7946679004287
 30
0.0
 11
0.0000000000035815
 21
-20.49999999999996
 31
0.0
210
0.0
220
0.0
230
1.0
 40
0.544639035015027
 41
0.1992080569891244
 42
1.246405608185766
  0
LINE
  5
911C
330
8C53
100
AcDbEntity
  8
Visible (ISO)
100
AcDbLine
 10
1330.004618459284
 20
411.7000839922582
 30
0.0
 11
1317.257221766056
 21
411.7000839922564
 31
0.0
  0
SPLINE
  5
911D
330
8C53
100
AcDbEntity
  8
Visible (ISO)
100
AcDbSpline
210
0.0
220
0.0
230
1.0
 70
     8
 71
     3
 72
    18
 73
    14
 74
     0
 42
0.0000000001
 43
0.0000000001
 40
8.693796455454393
 40
8.693796455454393
 40
8.693796455454393
 40
8.693796455454393
 40
8.915511351981939
 40
8.915511351981939
 40
9.51870526261624
 40
9.51870526261624
 40
10.12189917325054
 40
10.12189917325054
 40
10.72509308388484
 40
10.72509308388484
 40
11.32828699451914
 40
11.32828699451914
 40
11.55000189104669
 40
11.55000189104669
 40
11.55000189104669
 40
11.55000189104669
 10
1342.796900409686
 20
425.2606754166443
 30
0.0
 10
1342.798468487116
 20
424.5439676532057
 30
0.0
 10
1342.772411711968
 20
423.8513169399009
 30
0.0
 10
1342.583693047902
 20
421.3989543300592
 30
0.0
 10
1342.231055313354
 20
419.5782695424366
 30
0.0
 10
1341.045235420891
 20
416.4018866247714
 30
0.0
 10
1340.208757463375
 20
415.0464703072373
 30
0.0
 10
1338.312029330579
 20
413.0358239384565
 30
0.0
 10
1337.106158920429
 20
412.2262276438885
 30
0.0
 10
1334.430074105441
 20
411.3087583418562
 30
0.0
 10
1332.962593124949
 20
411.200007370149
 30
0.0
 10
1331.068380102221
 20
411.4443365986897
 30
0.0
 10
1330.541129639384
 20
411.5504482241629
 30
0.0
 10
1330.004618459284
 20
411.7000839922582
 30
0.0
  0
LINE
  5
911E
330
8C53
100
AcDbEntity
  8
Visible (ISO)
100
AcDbLine
 10
1365.728620018854
 20
411.70008399224
 30
0.0
 11
1369.008190031825
 21
411.70008399224
 31
0.0
  0
SPLINE
  5
911F
330
8C53
100
AcDbEntity
  8
Visible (ISO)
100
AcDbSpline
210
0.0
220
0.0
230
1.0
 70
     8
 71
     3
 72
    18
 73
    14
 74
     0
 42
0.0000000001
 43
0.0000000001
 40
8.693796455454389
 40
8.693796455454389
 40
8.693796455454389
 40
8.693796455454389
 40
8.915511351981935
 40
8.915511351981935
 40
9.518705262616238
 40
9.518705262616238
 40
10.12189917325054
 40
10.12189917325054
 40
10.72509308388484
 40
10.72509308388484
 40
11.32828699451914
 40
11.32828699451914
 40
11.55000189104669
 40
11.55000189104669
 40
11.55000189104669
 40
11.55000189104669
 10
1369.008190031826
 20
411.70008399224
 30
0.0
 10
1368.737338557275
 20
411.5504482241447
 30
0.0
 10
1368.460112966814
 20
411.4443365986715
 30
0.0
 10
1367.42342631349
 20
411.2000073701326
 30
0.0
 10
1366.532475281528
 20
411.3087583418416
 30
0.0
 10
1364.636345664649
 20
412.2262276438757
 30
0.0
 10
1363.62823596902
 20
413.0358239384438
 30
0.0
 10
1361.731507836224
 20
415.0464703072263
 30
0.0
 10
1360.697269164187
 20
416.4018866247622
 30
0.0
 10
1358.731494073615
 20
419.5782695424274
 30
0.0
 10
1357.802326390536
 20
421.3989543300519
 30
0.0
 10
1356.756081357069
 20
423.8513169398954
 30
0.0
 10
1356.479999709543
 20
424.5439676532003
 30
0.0
 10
1356.215908081425
 20
425.260675416637
 30
0.0
  0
SPLINE
  5
9120
330
8C53
100
AcDbEntity
  8
Visible (ISO)
100
AcDbSpline
210
0.0
220
0.0
230
1.0
 70
     8
 71
     3
 72
    18
 73
    14
 74
     0
 42
0.0000000001
 43
0.0000000001
 40
8.693796455454393
 40
8.693796455454393
 40
8.693796455454393
 40
8.693796455454393
 40
8.91551135198194
 40
8.91551135198194
 40
9.518705262616244
 40
9.518705262616244
 40
10.12189917325054
 40
10.12189917325054
 40
10.72509308388484
 40
10.72509308388484
 40
11.32828699451914
 40
11.32828699451914
 40
11.55000189104669
 40
11.55000189104669
 40
11.55000189104669
 40
11.55000189104669
 10
1375.717693867695
 20
363.2414633357054
 30
0.0
 10
1375.578104168488
 20
363.8085353310486
 30
0.0
 10
1375.451947789364
 20
364.3950744188821
 30
0.0
 10
1375.032742984806
 20
366.6031078001849
 30
0.0
 10
1374.782694661658
 20
368.5325435595166
 30
0.0
 10
1374.462362536296
 20
372.6263957792159
 30
0.0
 10
1374.389611155445
 20
374.7914083913181
 30
0.0
 10
1374.389611155445
 20
378.8127011288795
 30
0.0
 10
1374.462362536296
 20
380.9777137409835
 30
0.0
 10
1374.782694661658
 20
385.0715659606828
 30
0.0
 10
1375.032742984807
 20
387.0010017200127
 30
0.0
 10
1375.451947789365
 20
389.2090351013155
 30
0.0
 10
1375.578104168489
 20
389.7955741891489
 30
0.0
 10
1375.717693867696
 20
390.3626461844885
 30
0.0
  0
ELLIPSE
  5
9121
330
8C53
100
AcDbEntity
  8
Visible (ISO)
100
AcDbEllipse
 10
1357.1387023534
 20
376.8020547601115
 30
0.0
 11
-0.0000000000002432
 21
-13.49999999999996
 31
0.0
210
0.0
220
0.0
230
1.0
 40
0.5446390350150273
 41
0.0
 42
6.283185307179585
  0
ELLIPSE
  5
9122
330
8C53
100
AcDbEntity
  8
Visible (ISO)
100
AcDbEllipse
 10
1349.506404245555
 20
376.8020547601115
 30
0.0
 11
0.0000000000087305
 21
-50.0
 31
0.0
210
0.0
220
0.0
230
1.0
 40
0.544639035015027
 41
6.034238356973005
 42
6.532132257385449
  0
ELLIPSE
  5
9123
330
8C53
100
AcDbEntity
  8
Visible (ISO)
100
AcDbEllipse
 10
1349.506404245555
 20
376.8020547601097
 30
0.0
 11
-0.0000000000115546
 21
49.99999999999992
 31
0.0
210
0.0
220
0.0
230
1.0
 40
0.5446390350150271
 41
3.939843254579539
 42
4.437737154992117
  0
ELLIPSE
  5
9124
330
8C53
100
AcDbEntity
  8
Visible (ISO)
100
AcDbEllipse
 10
1349.506404245555
 20
376.8020547601115
 30
0.0
 11
-0.0000000000087361
 21
49.99999999999962
 31
0.0
210
0.0
220
0.0
230
1.0
 40
0.5446390350150271
 41
4.987040805776409
 42
5.484934706188877
  0
ELLIPSE
  5
9125
330
8C53
100
AcDbEntity
  8
Visible (ISO)
100
AcDbEllipse
 10
1349.506404245555
 20
376.8020547601115
 30
0.0
 11
-0.0000000000087319
 21
49.99999999999982
 31
0.0
210
0.0
220
0.0
230
1.0
 40
0.544639035015027
 41
6.034238356973001
 42
6.532132257385449
  0
ELLIPSE
  5
9126
330
8C53
100
AcDbEntity
  8
Visible (ISO)
100
AcDbEllipse
 10
1349.506404245555
 20
376.8020547601097
 30
0.0
 11
0.0000000000115491
 21
-49.99999999999993
 31
0.0
210
0.0
220
0.0
230
1.0
 40
0.5446390350150273
 41
3.939843254579557
 42
4.437737154992117
  0
ELLIPSE
  5
9127
330
8C53
100
AcDbEntity
  8
Visible (ISO)
100
AcDbEllipse
 10
1349.506404245555
 20
376.8020547601097
 30
0.0
 11
0.0000000000087305
 21
-49.99999999999985
 31
0.0
210
0.0
220
0.0
230
1.0
 40
0.5446390350150273
 41
4.987040805776395
 42
5.484934706188866
  0
ELLIPSE
  5
9128
330
8C53
100
AcDbEntity
  8
Visible (ISO)
100
AcDbEllipse
 10
1336.759007552326
 20
376.8020547601079
 30
0.0
 11
0.0000000000087333
 21
-50.00000000000045
 31
0.0
210
0.0
220
0.0
230
1.0
 40
0.544639035015027
 41
6.034238356973005
 42
6.283185307179213
  0
ELLIPSE
  5
9129
330
8C53
100
AcDbEntity
  8
Visible (ISO)
100
AcDbEllipse
 10
1336.759007552326
 20
376.8020547601079
 30
0.0
 11
0.0000000000008243
 21
50.00000000000055
 31
0.0
210
0.0
220
0.0
230
1.0
 40
0.544639035015027
 41
0.0000000000016716
 42
0.2489469502078143
  0
ELLIPSE
  5
912A
330
8C53
100
AcDbEntity
  8
Visible (ISO)
100
AcDbEllipse
 10
1336.759007552326
 20
376.8020547601079
 30
0.0
 11
0.000000000011538
 21
-49.99999999999966
 31
0.0
210
0.0
220
0.0
230
1.0
 40
0.5446390350150271
 41
3.939843254579539
 42
4.437737154992117
  0
ELLIPSE
  5
912B
330
8C53
100
AcDbEntity
  8
Visible (ISO)
100
AcDbEllipse
 10
1287.906446969505
 20
376.8020547600988
 30
0.0
 11
-0.0000000000068057
 21
38.99999999999988
 31
0.0
210
0.0
220
0.0
230
1.0
 40
0.5446390350150274
 41
5.0947401215283
 42
10.61322314641997
  0
ELLIPSE
  5
912C
330
8C53
100
AcDbEntity
  8
Visible (ISO)
100
AcDbEllipse
 10
1278.681070722106
 20
376.8020547600988
 30
0.0
 11
-0.0000000000007015
 21
-38.99999999999988
 31
0.0
210
0.0
220
0.0
230
1.0
 40
0.5446390350150271
 41
3.141592653591467
 42
6.283185307181261
  0
ELLIPSE
  5
912D
330
8C53
100
AcDbEntity
  8
Visible (ISO)
100
AcDbEllipse
 10
1296.920640081261
 20
376.8020547601006
 30
0.0
 11
0.0000000000002361
 21
10.99999999999997
 31
0.0
210
0.0
220
0.0
230
1.0
 40
0.544639035015027
 41
0.0000000000018423
 42
3.141592653591635
  0
ELLIPSE
  5
912E
330
8C53
100
AcDbEntity
  8
Visible (ISO)
100
AcDbEllipse
 10
1311.850491684347
 20
376.8020547601043
 30
0.0
 11
-0.0000000000028835
 21
16.49999999999996
 31
0.0
210
0.0
220
0.0
230
1.0
 40
0.544639035015027
 41
0.0903363462172791
 42
3.051256307371793
  0
ELLIPSE
  5
912F
330
8C53
100
AcDbEntity
  8
Visible (ISO)
100
AcDbEllipse
 10
1336.759007552326
 20
376.8020547601079
 30
0.0
 11
0.0000000000087375
 21
-49.99999999999981
 31
0.0
210
0.0
220
0.0
230
1.0
 40
0.5446390350150269
 41
4.987040805776395
 42
5.484934706188866
  0
ELLIPSE
  5
9130
330
8C53
100
AcDbEntity
  8
Visible (ISO)
100
AcDbEllipse
 10
1357.1387023534
 20
376.8020547601115
 30
0.0
 11
-0.0000000000001216
 21
-6.749999999999984
 31
0.0
210
0.0
220
0.0
230
1.0
 40
0.5446390350150271
 41
0.0
 42
6.283185307179585
  0
ELLIPSE
  5
9131
330
8C53
100
AcDbEntity
  8
Visible (ISO)
100
AcDbEllipse
 10
1355.964563558276
 20
376.8020547601115
 30
0.0
 11
0.0000000000011794
 21
-6.749999999999984
 31
0.0
210
0.0
220
0.0
230
1.0
 40
0.544639035015027
 41
0.1603763111414057
 42
2.98121634244774
  0
LINE
  5
9132
330
8C53
100
AcDbEntity
  8
Visible (ISO)
100
AcDbLine
 10
1336.759007552325
 20
326.8020547601079
 30
0.0
 11
1349.506404245554
 21
326.8020547601115
 31
0.0
  0
LINE
  5
9133
330
8C53
100
AcDbEntity
  8
Visible (ISO)
100
AcDbLine
 10
1336.759007552327
 20
426.8020547601079
 30
0.0
 11
1349.506404245555
 21
426.8020547601097
 31
0.0
  0
LINE
  5
9134
330
8C53
100
AcDbEntity
  8
Visible (ISO)
100
AcDbLine
 10
1278.681070722107
 20
415.8020547600988
 30
0.0
 11
1287.906446969506
 21
415.8020547600988
 31
0.0
  0
LINE
  5
9135
330
8C53
100
AcDbEntity
  8
Visible (ISO)
100
AcDbLine
 10
1278.681070722105
 20
337.8020547600988
 30
0.0
 11
1287.906446969504
 21
337.8020547600988
 31
0.0
  0
LINE
  5
9136
330
8C53
100
AcDbEntity
  8
Visible (ISO)
100
AcDbLine
 10
1296.920640081261
 20
387.8020547601006
 30
0.0
 11
1305.152317204133
 21
387.8020547601024
 31
0.0
  0
LINE
  5
9137
330
8C53
100
AcDbEntity
  8
0
  6
CENTER
100
AcDbLine
 10
1226.338741722196
 20
376.8020547600851
 30
0.0
 11
1366.123151234027
 21
376.8020547601161
 31
0.0
  0
LINE
  5
9138
330
8C53
100
AcDbEntity
  8
Visible (ISO)
100
AcDbLine
 10
1296.92064008126
 20
365.8020547601024
 30
0.0
 11
1305.152317204133
 21
365.8020547601024
 31
0.0
  0
SPLINE
  5
9139
330
8C53
100
AcDbEntity
  8
Visible (ISO)
100
AcDbSpline
210
0.0
220
0.0
230
1.0
 70
     8
 71
     3
 72
    18
 73
    14
 74
     0
 42
0.0000000001
 43
0.0000000001
 40
8.693796455454391
 40
8.693796455454391
 40
8.693796455454391
 40
8.693796455454391
 40
8.915511351981937
 40
8.915511351981937
 40
9.51870526261624
 40
9.51870526261624
 40
10.12189917325054
 40
10.12189917325054
 40
10.72509308388484
 40
10.72509308388484
 40
11.32828699451914
 40
11.32828699451914
 40
11.55000189104669
 40
11.55000189104669
 40
11.55000189104669
 40
11.55000189104669
 10
1356.215908081423
 20
328.343434103577
 30
0.0
 10
1356.479999709542
 20
329.0601418670155
 30
0.0
 10
1356.756081357067
 20
329.7527925803203
 30
0.0
 10
1357.802326390535
 20
332.205155190162
 30
0.0
 10
1358.731494073614
 20
334.0258399777847
 30
0.0
 10
1360.697269164186
 20
337.2022228954499
 30
0.0
 10
1361.731507836223
 20
338.557639212984
 30
0.0
 10
1363.628235969019
 20
340.5682855817647
 30
0.0
 10
1364.636345664647
 20
341.377881876331
 30
0.0
 10
1366.532475281527
 20
342.295351178365
 30
0.0
 10
1367.423426313489
 20
342.4041021500722
 30
0.0
 10
1368.460112966814
 20
342.1597729215316
 30
0.0
 10
1368.737338557274
 20
342.0536612960584
 30
0.0
 10
1369.008190031824
 20
341.9040255279631
 30
0.0
  0
LINE
  5
913A
330
8C53
100
AcDbEntity
  8
Visible (ISO)
100
AcDbLine
 10
1369.008190031824
 20
341.9040255279631
 30
0.0
 11
1365.728620018852
 21
341.9040255279612
 31
0.0
  0
ELLIPSE
  5
913B
330
8C53
100
AcDbEntity
  8
Visible (ISO)
100
AcDbEllipse
 10
1259.391647659361
 20
376.8020547600952
 30
0.0
 11
0.0000000000101336
 21
-57.99999999999973
 31
0.0
210
0.0
220
0.0
230
1.0
 40
0.544639035015027
 41
5.20877314551345
 42
5.786801142050116
  0
LINE
  5
913C
330
8C53
100
AcDbEntity
  8
Visible (ISO)
100
AcDbLine
 10
1231.615056873596
 20
404.4245093939732
 30
0.0
 11
1231.615056873594
 21
349.1796001262425
 31
0.0
  0
ELLIPSE
  5
913D
330
8C53
100
AcDbEntity
  8
Visible (ISO)
100
AcDbEllipse
 10
1259.391647659361
 20
376.8020547600952
 30
0.0
 11
0.0000000000133893
 21
-57.99999999999971
 31
0.0
210
0.0
220
0.0
230
1.0
 40
0.5446390350150271
 41
3.637976818718136
 42
4.21600481525494
  0
LINE
  5
913E
330
8C53
100
AcDbEntity
  8
Visible (ISO)
100
AcDbLine
 10
1256.927439142008
 20
427.8020547601043
 30
0.0
 11
1244.347380622826
 21
427.8020547601024
 31
0.0
  0
LINE
  5
913F
330
8C53
100
AcDbEntity
  8
Visible (ISO)
100
AcDbLine
 10
1256.927439142008
 20
427.8020547601043
 30
0.0
 11
1257.766109709953
 21
427.8020547601043
 31
0.0
  0
LINE
  5
9140
330
8C53
100
AcDbEntity
  8
Visible (ISO)
100
AcDbLine
 10
1244.195115392775
 20
349.1796001262443
 30
0.0
 11
1244.195115392777
 21
404.4245093939768
 31
0.0
  0
ELLIPSE
  5
9141
330
8C53
100
AcDbEntity
  8
Visible (ISO)
100
AcDbEllipse
 10
1271.971706178542
 20
376.802054760097
 30
0.0
 11
-0.0000000000068723
 21
57.99999999999971
 31
0.0
210
0.0
220
0.0
230
1.0
 40
0.5446390350150271
 41
2.067180491923954
 42
2.645208488460779
  0
LINE
  5
9142
330
8C53
100
AcDbEntity
  8
Visible (ISO)
100
AcDbLine
 10
1257.766109709952
 20
325.8020547601042
 30
0.0
 11
1256.927439142006
 21
325.8020547601042
 31
0.0
  0
ELLIPSE
  5
9143
330
8C53
100
AcDbEntity
  8
Visible (ISO)
100
AcDbEllipse
 10
1271.971706178542
 20
376.802054760097
 30
0.0
 11
-0.0000000000101363
 21
57.99999999999971
 31
0.0
210
0.0
220
0.0
230
1.0
 40
0.5446390350150271
 41
0.4963841651287737
 42
1.074412161665411
  0
ELLIPSE
  5
9144
330
8C53
100
AcDbEntity
  8
Visible (ISO)
100
AcDbEllipse
 10
1271.971706178542
 20
376.802054760097
 30
0.0
 11
0.0000000000099643
 21
-56.99999999999965
 31
0.0
210
0.0
220
0.0
230
1.0
 40
0.544639035015027
 41
5.213200973355703
 42
5.576380160931944
  0
LINE
  5
9145
330
8C53
100
AcDbEntity
  8
Visible (ISO)
100
AcDbLine
 10
1244.739754427791
 20
404.1699191269178
 30
0.0
 11
1244.73975442779
 21
349.4341903933015
 31
0.0
  0
ELLIPSE
  5
9146
330
8C53
100
AcDbEntity
  8
Visible (ISO)
100
AcDbEllipse
 10
1271.971706178542
 20
376.802054760097
 30
0.0
 11
0.0000000000131728
 21
-56.99999999999984
 31
0.0
210
0.0
220
0.0
230
1.0
 40
0.5446390350150271
 41
3.848397799836389
 42
4.211576987412751
  0
LINE
  5
9147
330
8C53
100
AcDbEntity
  8
Visible (ISO)
100
AcDbLine
 10
1256.927439142006
 20
325.8020547601042
 30
0.0
 11
1244.347380622825
 21
325.8020547601024
 31
0.0
  0
LINE
  5
9148
330
8C53
100
AcDbEntity
  8
Visible (ISO)
100
AcDbLine
 10
1244.195115392775
 20
349.1796001262443
 30
0.0
 11
1231.615056873594
 21
349.1796001262425
 31
0.0
  0
LINE
  5
9149
330
8C53
100
AcDbEntity
  8
Visible (ISO)
100
AcDbLine
 10
1244.195115392777
 20
404.4245093939768
 30
0.0
 11
1231.615056873596
 21
404.4245093939732
 31
0.0
  0
ELLIPSE
  5
914A
330
8C53
100
AcDbEntity
  8
Visible (ISO)
100
AcDbEllipse
 10
1229.726838959681
 20
409.5842228541166
 30
0.0
 11
0.0000000000000925
 21
6.499999999999979
 31
0.0
210
0.0
220
0.0
230
1.0
 40
0.5446390350150271
 41
0.0000000000016516
 42
3.141592653591444
  0
ELLIPSE
  5
914B
330
8C53
100
AcDbEntity
  8
Visible (ISO)
100
AcDbEllipse
 10
1229.72683895968
 20
344.01988666609
 30
0.0
 11
-0.0000000000001215
 21
-6.499999999999979
 31
0.0
210
0.0
220
0.0
230
1.0
 40
0.5446390350150271
 41
3.141592653591472
 42
6.283185307181265
  0
LINE
  5
914C
330
8C53
100
AcDbEntity
  8
Visible (ISO)
100
AcDbLine
 10
1231.615056873596
 20
403.0842228541166
 30
0.0
 11
1229.726838959681
 21
403.0842228541166
 31
0.0
  0
LINE
  5
914D
330
8C53
100
AcDbEntity
  8
Visible (ISO)
100
AcDbLine
 10
1236.15073618194
 20
416.0842228541184
 30
0.0
 11
1229.726838959681
 21
416.0842228541167
 31
0.0
  0
LINE
  5
914E
330
8C53
100
AcDbEntity
  8
Visible (ISO)
100
AcDbLine
 10
1229.72683895968
 20
350.51988666609
 30
0.0
 11
1231.615056873594
 21
350.51988666609
 31
0.0
  0
LINE
  5
914F
330
8C53
100
AcDbEntity
  8
Visible (ISO)
100
AcDbLine
 10
1229.72683895968
 20
337.51988666609
 30
0.0
 11
1236.15073618194
 21
337.51988666609
 31
0.0
  0
LINE
  5
9150
330
8C53
100
AcDbEntity
  8
Visible (ISO)
100
AcDbLine
 10
1228.511880093816
 20
427.802054760097
 30
0.0
 11
1244.347380622826
 21
427.8020547600988
 31
0.0
  0
LINE
  5
9151
330
8C53
100
AcDbEntity
  8
Visible (ISO)
100
AcDbLine
 10
1228.511880093816
 20
415.6894428097018
 30
0.0
 11
1228.511880093816
 21
427.802054760097
 31
0.0
  0
LINE
  5
9152
330
8C53
100
AcDbEntity
  8
Visible (ISO)
100
AcDbLine
 10
1228.511880093814
 20
325.802054760097
 30
0.0
 11
1228.511880093814
 21
337.9146667104903
 31
0.0
  0
LINE
  5
9153
330
8C53
100
AcDbEntity
  8
Visible (ISO)
100
AcDbLine
 10
1244.347380622825
 20
325.8020547600988
 30
0.0
 11
1228.511880093814
 21
325.802054760097
 31
0.0
  0
LINE
  5
9154
330
8C53
100
AcDbEntity
  8
Visible (ISO)
100
AcDbLine
 10
1228.511880093816
 20
427.802054760097
 30
0.0
 11
1221.934090299434
 21
427.8020547600915
 31
0.0
  0
LINE
  5
9155
330
8C53
100
AcDbEntity
  8
Visible (ISO)
100
AcDbLine
 10
1221.934090299433
 20
395.9020547600919
 30
0.0
 11
1221.934090299434
 21
427.8020547600915
 31
0.0
  0
LINE
  5
9156
330
8C53
100
AcDbEntity
  8
Visible (ISO)
100
AcDbLine
 10
1221.934090299432
 20
325.8020547600933
 30
0.0
 11
1221.934090299432
 21
357.7020547600911
 31
0.0
  0
LINE
  5
9157
330
8C53
100
AcDbEntity
  8
Visible (ISO)
100
AcDbLine
 10
1221.934090299432
 20
325.8020547600933
 30
0.0
 11
1228.511880093814
 21
325.802054760097
 31
0.0
  0
LINE
  5
9158
330
8C53
100
AcDbEntity
  8
Visible (ISO)
100
AcDbLine
 10
1221.934090299433
 20
395.9020547600919
 30
0.0
 11
1229.248608780526
 21
387.1943596055095
 31
0.0
  0
ELLIPSE
  5
9159
330
8C53
100
AcDbEntity
  8
Visible (ISO)
100
AcDbEllipse
 10
1226.338741722196
 20
376.8020547600952
 30
0.0
 11
-0.0000000000002158
 21
-11.99999999999996
 31
0.0
210
0.0
220
0.0
230
1.0
 40
0.4849778430549001
 41
2.006377971040633
 42
2.617993877990848
  0
ELLIPSE
  5
915A
330
8C53
100
AcDbEntity
  8
Visible (ISO)
100
AcDbEllipse
 10
1226.338741722196
 20
376.8020547600952
 30
0.0
 11
-0.0000000000002158
 21
-11.99999999999996
 31
0.0
210
0.0
220
0.0
230
1.0
 40
0.4849778430549001
 41
0.5235987755976926
 42
1.135214682549872
  0
LINE
  5
915B
330
8C53
100
AcDbEntity
  8
Visible (ISO)
100
AcDbLine
 10
1229.248608780525
 20
366.4097499146844
 30
0.0
 11
1221.934090299432
 21
357.7020547600911
 31
0.0
  0
LINE
  5
915C
330
8C53
100
AcDbEntity
  8
Visible (ISO)
100
AcDbLine
 10
1270.929383873455
 20
456.3020547600915
 30
0.0
 11
1220.429383873455
 21
456.3020547600934
 31
0.0
  0
LINE
  5
915D
330
8C53
100
AcDbEntity
  8
Visible (ISO)
100
AcDbLine
 10
1270.929383873455
 20
453.4520547600911
 30
0.0
 11
1220.429383873455
 21
453.452054760093
 31
0.0
  0
LINE
  5
915E
330
8C53
100
AcDbEntity
  8
Visible (ISO)
100
AcDbLine
 10
1264.729383873455
 20
451.1954393076428
 30
0.0
 11
1226.629383873454
 21
451.1954393076428
 31
0.0
  0
LINE
  5
915F
330
8C53
100
AcDbEntity
  8
Visible (ISO)
100
AcDbLine
 10
1220.429383873455
 20
453.452054760093
 30
0.0
 11
1220.429383873455
 21
456.3020547600934
 31
0.0
  0
LINE
  5
9160
330
8C53
100
AcDbEntity
  8
Visible (ISO)
100
AcDbLine
 10
1270.929383873455
 20
453.4520547600911
 30
0.0
 11
1270.929383873455
 21
456.3020547600915
 31
0.0
  0
LINE
  5
9161
330
8C53
100
AcDbEntity
  8
Visible (ISO)
100
AcDbLine
 10
1226.629383873454
 20
451.1954393076428
 30
0.0
 11
1220.429383873455
 21
453.452054760093
 31
0.0
  0
LINE
  5
9162
330
8C53
100
AcDbEntity
  8
Visible (ISO)
100
AcDbLine
 10
1264.729383873455
 20
451.1954393076409
 30
0.0
 11
1270.929383873455
 21
453.4520547600911
 31
0.0
  0
LINE
  5
9163
330
8C53
100
AcDbEntity
  8
Visible (ISO)
100
AcDbLine
 10
1226.629383873454
 20
427.8020547600934
 30
0.0
 11
1226.629383873454
 21
451.1954393076428
 31
0.0
  0
LINE
  5
9164
330
8C53
100
AcDbEntity
  8
Visible (ISO)
100
AcDbLine
 10
1264.729383873454
 20
427.8020547600915
 30
0.0
 11
1264.729383873455
 21
451.1954393076409
 31
0.0
  0
LINE
  5
9165
330
8C53
100
AcDbEntity
  8
Visible (ISO)
100
AcDbLine
 10
1270.929383873451
 20
297.3020547600915
 30
0.0
 11
1220.429383873452
 21
297.3020547600933
 31
0.0
  0
LINE
  5
9166
330
8C53
100
AcDbEntity
  8
Visible (ISO)
100
AcDbLine
 10
1270.929383873451
 20
300.1520547600919
 30
0.0
 11
1220.429383873452
 21
300.1520547600937
 31
0.0
  0
LINE
  5
9167
330
8C53
100
AcDbEntity
  8
Visible (ISO)
100
AcDbLine
 10
1264.729383873452
 20
302.4086702125421
 30
0.0
 11
1226.629383873452
 21
302.4086702125421
 31
0.0
  0
LINE
  5
9168
330
8C53
100
AcDbEntity
  8
Visible (ISO)
100
AcDbLine
 10
1220.429383873452
 20
297.3020547600933
 30
0.0
 11
1220.429383873452
 21
300.1520547600937
 31
0.0
  0
LINE
  5
9169
330
8C53
100
AcDbEntity
  8
Visible (ISO)
100
AcDbLine
 10
1270.929383873452
 20
297.3020547600915
 30
0.0
 11
1270.929383873452
 21
300.1520547600919
 31
0.0
  0
LINE
  5
916A
330
8C53
100
AcDbEntity
  8
Visible (ISO)
100
AcDbLine
 10
1264.729383873452
 20
302.4086702125421
 30
0.0
 11
1270.929383873451
 21
300.1520547600919
 31
0.0
  0
LINE
  5
916B
330
8C53
100
AcDbEntity
  8
Visible (ISO)
100
AcDbLine
 10
1226.629383873452
 20
302.4086702125439
 30
0.0
 11
1220.429383873452
 21
300.1520547600937
 31
0.0
  0
LINE
  5
916C
330
8C53
100
AcDbEntity
  8
Visible (ISO)
100
AcDbLine
 10
1226.629383873452
 20
302.4086702125439
 30
0.0
 11
1226.629383873452
 21
325.8020547600933
 31
0.0
  0
LINE
  5
916D
330
8C53
100
AcDbEntity
  8
0
  6
CENTER
100
AcDbLine
 10
1245.679383873451
 20
286.230962716804
 30
0.0
 11
1245.679383873458
 21
467.3731468033763
 31
0.0
  0
LINE
  5
916E
330
8C53
100
AcDbEntity
  8
Visible (ISO)
100
AcDbLine
 10
1264.729383873452
 20
302.4086702125421
 30
0.0
 11
1264.729383873453
 21
325.8020547600933
 31
0.0
  0
ELLIPSE
  5
916F
330
8C53
100
AcDbEntity
  8
Visible (ISO)
100
AcDbEllipse
 10
1277.84240015416
 20
376.8020547600988
 30
0.0
 11
-0.0000000000134032
 21
57.99999999999961
 31
0.0
210
0.0
220
0.0
230
1.0
 40
0.5446390350150271
 41
3.637976818718136
 42
3.84839779983633
  0
ELLIPSE
  5
9170
330
8C53
100
AcDbEntity
  8
Visible (ISO)
100
AcDbEllipse
 10
1278.681070722106
 20
376.8020547600988
 30
0.0
 11
0.0000000000099615
 21
-56.99999999999997
 31
0.0
210
0.0
220
0.0
230
1.0
 40
0.5446390350150271
 41
0.5008119929710091
 42
1.069984333823194
  0
SPLINE
  5
9171
330
8C53
100
AcDbEntity
  8
Visible (ISO)
100
AcDbSpline
210
0.0
220
0.0
230
1.0
 70
     8
 71
     3
 72
     8
 73
     4
 74
     0
 42
0.0000000001
 43
0.0000000001
 40
-0.1436911213494072
 40
-0.1436911213494072
 40
-0.1436911213494072
 40
-0.1436911213494072
 40
0.0
 40
0.0
 40
0.0
 40
0.0
 10
1292.886667190694
 20
325.8020547600915
 30
0.0
 10
1293.120245022823
 20
326.1354279264212
 30
0.0
 10
1293.353595905899
 20
326.4687784599971
 30
0.0
 10
1293.586677961265
 20
326.8020547600915
 30
0.0
  0
LINE
  5
9172
330
8C53
100
AcDbEntity
  8
Visible (ISO)
100
AcDbLine
 10
1305.913022472858
 20
404.1699191268923
 30
0.0
 11
1305.913022472858
 21
397.4887215596261
 31
0.0
  0
LINE
  5
9173
330
8C53
100
AcDbEntity
  8
Visible (ISO)
100
AcDbLine
 10
1305.913022472857
 20
356.1153879605442
 30
0.0
 11
1305.913022472856
 21
349.4341903932779
 31
0.0
  0
LINE
  5
9174
330
8C53
100
AcDbEntity
  8
Visible (ISO)
100
AcDbLine
 10
1292.886667190697
 20
427.8020547600915
 30
0.0
 11
1262.798133117625
 21
427.8020547601043
 31
0.0
  0
SPLINE
  5
9175
330
8C53
100
AcDbEntity
  8
Visible (ISO)
100
AcDbSpline
210
0.0
220
0.0
230
1.0
 70
     8
 71
     3
 72
     8
 73
     4
 74
     0
 42
0.0000000001
 43
0.0000000001
 40
-0.1436911213494072
 40
-0.1436911213494072
 40
-0.1436911213494072
 40
-0.1436911213494072
 40
0.0
 40
0.0
 40
0.0
 40
0.0
 10
1262.798133117625
 20
427.8020547601043
 30
0.0
 10
1263.123735810985
 20
427.4686815937745
 30
0.0
 10
1263.449527490546
 20
427.1353310601987
 30
0.0
 10
1263.775463482946
 20
426.8020547601042
 30
0.0
  0
LINE
  5
9176
330
8C53
100
AcDbEntity
  8
Visible (ISO)
100
AcDbLine
 10
1263.775463482946
 20
426.8020547601042
 30
0.0
 11
1293.586677961267
 21
426.8020547600915
 31
0.0
  0
SPLINE
  5
9177
330
8C53
100
AcDbEntity
  8
Visible (ISO)
100
AcDbSpline
210
0.0
220
0.0
230
1.0
 70
     8
 71
     3
 72
     8
 73
     4
 74
     0
 42
0.0000000001
 43
0.0000000001
 40
-0.1436911116741557
 40
-0.1436911116741557
 40
-0.1436911116741557
 40
-0.1436911116741557
 40
0.0
 40
0.0
 40
0.0
 40
0.0
 10
1293.586677961267
 20
426.8020547600915
 30
0.0
 10
1293.353595905901
 20
427.135331060186
 30
0.0
 10
1293.120245022825
 20
427.4686815937618
 30
0.0
 10
1292.886667190697
 20
427.8020547600915
 30
0.0
  0
ELLIPSE
  5
9178
330
8C53
100
AcDbEntity
  8
Visible (ISO)
100
AcDbEllipse
 10
1277.842400154161
 20
376.8020547601006
 30
0.0
 11
-0.0000000000101308
 21
57.99999999999736
 31
0.0
210
0.0
220
0.0
230
1.0
 40
0.5446390350150271
 41
5.576380160931935
 42
5.786801142050119
  0
ELLIPSE
  5
9179
330
8C53
100
AcDbEntity
  8
Visible (ISO)
100
AcDbEllipse
 10
1278.681070722106
 20
376.8020547600988
 30
0.0
 11
0.0000000000067446
 21
-56.99999999999995
 31
0.0
210
0.0
220
0.0
230
1.0
 40
0.544639035015027
 41
2.071608319766179
 42
2.64078066061851
  0
ELLIPSE
  5
917A
330
8C53
100
AcDbEntity
  8
Visible (ISO)
100
AcDbEllipse
 10
1277.84240015416
 20
376.8020547600988
 30
0.0
 11
0.0000000000133893
 21
-57.99999999999971
 31
0.0
210
0.0
220
0.0
230
1.0
 40
0.544639035015027
 41
3.637976818718136
 42
4.21600481525494
  0
SPLINE
  5
917B
330
8C53
100
AcDbEntity
  8
Visible (ISO)
100
AcDbSpline
210
0.0
220
0.0
230
1.0
 70
     8
 71
     3
 72
     8
 73
     4
 74
     0
 42
0.0000000001
 43
0.0000000001
 40
-0.1436911213497098
 40
-0.1436911213497098
 40
-0.1436911213497098
 40
-0.1436911213497098
 40
0.0
 40
0.0
 40
0.0
 40
0.0
 10
1250.065809368394
 20
404.4245093939768
 30
0.0
 10
1250.526967670747
 20
404.3400269612882
 30
0.0
 10
1250.988094664994
 20
404.2551626837191
 30
0.0
 10
1251.449118971355
 20
404.1699191269197
 30
0.0
  0
ELLIPSE
  5
917C
330
8C53
100
AcDbEntity
  8
Visible (ISO)
100
AcDbEllipse
 10
1278.681070722106
 20
376.8020547600988
 30
0.0
 11
-0.0000000000099615
 21
56.99999999999997
 31
0.0
210
0.0
220
0.0
230
1.0
 40
0.5446390350150271
 41
0.5008119929710091
 42
1.069984333823194
  0
LINE
  5
917D
330
8C53
100
AcDbEntity
  8
Visible (ISO)
100
AcDbLine
 10
1250.065809368394
 20
404.4245093939768
 30
0.0
 11
1250.065809368394
 21
349.1796001262443
 31
0.0
  0
SPLINE
  5
917E
330
8C53
100
AcDbEntity
  8
Visible (ISO)
100
AcDbSpline
210
0.0
220
0.0
230
1.0
 70
     8
 71
     3
 72
     8
 73
     4
 74
     0
 42
0.0000000001
 43
0.0000000001
 40
-0.1436911213494072
 40
-0.1436911213494072
 40
-0.1436911213494072
 40
-0.1436911213494072
 40
0.0
 40
0.0
 40
0.0
 40
0.0
 10
1250.065809368394
 20
349.1796001262443
 30
0.0
 10
1250.526967670748
 20
349.264082558933
 30
0.0
 10
1250.988094664994
 20
349.3489468365021
 30
0.0
 10
1251.449118971354
 20
349.4341903933034
 30
0.0
  0
LINE
  5
917F
330
8C53
100
AcDbEntity
  8
Visible (ISO)
100
AcDbLine
 10
1251.449118971354
 20
349.4341903933034
 30
0.0
 11
1251.449118971355
 21
404.1699191269197
 31
0.0
  0
ELLIPSE
  5
9180
330
8C53
100
AcDbEntity
  8
Visible (ISO)
100
AcDbEllipse
 10
1277.84240015416
 20
376.8020547600988
 30
0.0
 11
0.0000000000101225
 21
-57.99999999999971
 31
0.0
210
0.0
220
0.0
230
1.0
 40
0.5446390350150271
 41
5.208773145513473
 42
5.786801142050117
  0
SPLINE
  5
9181
330
8C53
100
AcDbEntity
  8
Visible (ISO)
100
AcDbSpline
210
0.0
220
0.0
230
1.0
 70
     8
 71
     3
 72
     8
 73
     4
 74
     0
 42
0.0000000001
 43
0.0000000001
 40
-0.1436911213497098
 40
-0.1436911213497098
 40
-0.1436911213497098
 40
-0.1436911213497098
 40
0.0
 40
0.0
 40
0.0
 40
0.0
 10
1262.798133117624
 20
325.8020547601061
 30
0.0
 10
1263.123735810983
 20
326.1354279264339
 30
0.0
 10
1263.449527490544
 20
326.4687784600098
 30
0.0
 10
1263.775463482944
 20
326.8020547601043
 30
0.0
  0
ELLIPSE
  5
9182
330
8C53
100
AcDbEntity
  8
Visible (ISO)
100
AcDbEllipse
 10
1278.681070722106
 20
376.8020547600988
 30
0.0
 11
-0.0000000000067446
 21
56.99999999999995
 31
0.0
210
0.0
220
0.0
230
1.0
 40
0.544639035015027
 41
2.071608319766179
 42
2.64078066061851
  0
LINE
  5
9183
330
8C53
100
AcDbEntity
  8
Visible (ISO)
100
AcDbLine
 10
1262.798133117624
 20
325.8020547601061
 30
0.0
 11
1292.886667190694
 21
325.8020547600915
 31
0.0
  0
LINE
  5
9184
330
8C53
100
AcDbEntity
  8
Visible (ISO)
100
AcDbLine
 10
1293.586677961265
 20
326.8020547600915
 30
0.0
 11
1263.775463482944
 21
326.8020547601043
 31
0.0
  0
ELLIPSE
  5
9185
330
8C53
100
AcDbEntity
  8
Visible (ISO)
100
AcDbEllipse
 10
1272.810376746488
 20
376.802054760097
 30
0.0
 11
-0.0000000000068584
 21
57.99999999999973
 31
0.0
210
0.0
220
0.0
230
1.0
 40
0.5446390350150271
 41
2.067180491923954
 42
2.64520848846076
  0
LINE
  5
9186
330
8C53
100
AcDbEntity
  8
Visible (ISO)
100
AcDbLine
 10
1245.033785960721
 20
349.1796001262443
 30
0.0
 11
1245.033785960721
 21
404.4245093939768
 31
0.0
  0
ELLIPSE
  5
9187
330
8C53
100
AcDbEntity
  8
Visible (ISO)
100
AcDbEllipse
 10
1272.810376746488
 20
376.802054760097
 30
0.0
 11
-0.0000000000101391
 21
57.99999999999971
 31
0.0
210
0.0
220
0.0
230
1.0
 40
0.5446390350150271
 41
0.4963841651287737
 42
1.074412161665411
  0
SPLINE
  5
9188
330
8C53
100
AcDbEntity
  8
Visible (ISO)
100
AcDbSpline
210
0.0
220
0.0
230
1.0
 70
     8
 71
     3
 72
     8
 73
     4
 74
     0
 42
0.0000000001
 43
0.0000000001
 40
-0.1436911116740462
 40
-0.1436911116740462
 40
-0.1436911116740462
 40
-0.1436911116740462
 40
0.0
 40
0.0
 40
0.0
 40
0.0
 10
1244.739754427792
 20
404.1699191269178
 30
0.0
 10
1244.837748169198
 20
404.2551626837191
 30
0.0
 10
1244.935763737588
 20
404.3400269612864
 30
0.0
 10
1245.033785960721
 20
404.4245093939768
 30
0.0
  0
SPLINE
  5
9189
330
8C53
100
AcDbEntity
  8
Visible (ISO)
100
AcDbSpline
210
0.0
220
0.0
230
1.0
 70
     8
 71
     3
 72
     8
 73
     4
 74
     0
 42
0.0000000001
 43
0.0000000001
 40
-0.143691111674144
 40
-0.143691111674144
 40
-0.143691111674144
 40
-0.143691111674144
 40
0.0
 40
0.0
 40
0.0
 40
0.0
 10
1244.73975442779
 20
349.4341903933015
 30
0.0
 10
1244.837748169197
 20
349.3489468365021
 30
0.0
 10
1244.935763737587
 20
349.264082558933
 30
0.0
 10
1245.033785960721
 20
349.1796001262443
 30
0.0
  0
LINE
  5
918A
330
8C53
100
AcDbEntity
  8
Visible (ISO)
100
AcDbLine
 10
1298.841556040865
 20
333.4569453659621
 30
0.0
 11
1298.35657819781
 21
332.6965048502768
 31
0.0
  0
LINE
  5
918B
330
8C53
100
AcDbEntity
  8
Visible (ISO)
100
AcDbLine
 10
1298.841556040866
 20
420.1471641542136
 30
0.0
 11
1298.356578197811
 21
420.9076046699008
 31
0.0
  0
LINE
  5
918C
330
8C53
100
AcDbEntity
  8
Visible (ISO)
100
AcDbLine
 10
1251.811220859783
 20
420.1471641542318
 30
0.0
 11
1252.296198702838
 21
420.9076046699189
 31
0.0
  0
LINE
  5
918D
330
8C53
100
AcDbEntity
  8
Visible (ISO)
100
AcDbLine
 10
1251.811220859782
 20
333.4569453659821
 30
0.0
 11
1252.296198702836
 21
332.696504850295
 31
0.0
  0
LINE
  5
918E
330
8C53
100
AcDbEntity
  8
Visible (ISO)
100
AcDbLine
 10
1250.065809368394
 20
349.1796001262443
 30
0.0
 11
1245.033785960721
 21
349.1796001262443
 31
0.0
  0
LINE
  5
918F
330
8C53
100
AcDbEntity
  8
Visible (ISO)
100
AcDbLine
 10
1262.798133117624
 20
325.8020547601061
 30
0.0
 11
1257.766109709952
 21
325.8020547601042
 31
0.0
  0
LINE
  5
9190
330
8C53
100
AcDbEntity
  8
Visible (ISO)
100
AcDbLine
 10
1250.065809368394
 20
404.4245093939768
 30
0.0
 11
1245.033785960722
 21
404.4245093939768
 31
0.0
  0
LINE
  5
9191
330
8C53
100
AcDbEntity
  8
Visible (ISO)
100
AcDbLine
 10
1262.798133117625
 20
427.8020547601043
 30
0.0
 11
1257.766109709953
 21
427.8020547601043
 31
0.0
  0
LINE
  5
9192
330
8C53
100
AcDbEntity
  8
0
  6
CENTER
100
AcDbLine
 10
1500.179383872393
 20
238.2323320682569
 30
0.0
 11
1500.17938387237
 21
82.9637175153282
 31
0.0
  0
LINE
  5
9193
330
8C53
100
AcDbEntity
  8
0
  6
CENTER
100
AcDbLine
 10
1601.858995373102
 20
122.3020547600933
 30
0.0
 11
1398.499772371648
 21
122.3020547600933
 31
0.0
  0
LINE
  5
9194
330
8C53
100
AcDbEntity
  8
0
  6
CENTER
 62
     0
370
    25
100
AcDbLine
 10
1245.679383872416
 20
86.35465509375785
 30
0.0
 11
1245.679383872416
 21
158.2494544264452
 31
0.0
  0
LINE
  5
9195
330
8C53
100
AcDbEntity
  8
0
  6
CENTER
 62
     0
370
    25
100
AcDbLine
 10
1209.731984206072
 20
122.3020547601015
 30
0.0
 11
1281.62678353876
 21
122.3020547601015
 31
0.0
  0
ENDSEC
  0
SECTION
  2
OBJECTS
  0
DICTIONARY
  5
8C41
330
0
100
AcDbDictionary
281
     1
  3
ACAD_GROUP
350
8C42
  3
ACAD_LAYOUT
350
8C4E
  3
ACAD_MLINESTYLE
350
8C4B
  3
ACAD_PLOTSETTINGS
350
8C4D
  3
ACAD_PLOTSTYLENAME
350
8C43
  3
AcDbVariableDictionary
350
8C99
  0
DICTIONARY
  5
8D10
330
8C37
100
AcDbDictionary
280
     1
281
     1
  3
ACAD_LAYERSTATES
360
8D11
  0
DICTIONARY
  5
8C65
330
8C53
100
AcDbDictionary
280
     1
281
     1
  3
ACAD_LAYOUTSELFREF
360
8D08
  0
DICTIONARY
  5
8C67
330
8C4F
100
AcDbDictionary
280
     1
281
     1
  3
ACAD_LAYOUTSELFREF
360
8D07
  0
DICTIONARY
  5
8C42
102
{ACAD_REACTORS
330
8C41
102
}
330
8C41
100
AcDbDictionary
281
     1
  0
DICTIONARY
  5
8C4E
102
{ACAD_REACTORS
330
8C41
102
}
330
8C41
100
AcDbDictionary
281
     1
  3
Model
350
8C56
  3
ﾚｲｱｳﾄ1
350
8C52
  0
DICTIONARY
  5
8C4B
102
{ACAD_REACTORS
330
8C41
102
}
330
8C41
100
AcDbDictionary
281
     1
  3
Standard
350
8C4C
  0
DICTIONARY
  5
8C4D
102
{ACAD_REACTORS
330
8C41
102
}
330
8C41
100
AcDbDictionary
281
     1
  0
ACDBDICTIONARYWDFLT
  5
8C43
102
{ACAD_REACTORS
330
8C41
102
}
330
8C41
100
AcDbDictionary
281
     1
  3
Normal
350
8C44
100
AcDbDictionaryWithDefault
340
8C44
  0
DICTIONARY
  5
8C99
102
{ACAD_REACTORS
330
8C41
102
}
330
8C41
100
AcDbDictionary
281
     1
  3
DIMASSOC
350
8C9A
  0
DICTIONARY
  5
8D11
102
{ACAD_REACTORS
330
8D10
102
}
330
8D10
100
AcDbDictionary
281
     1
  0
XRECORD
  5
8D08
102
{ACAD_REACTORS
330
8C65
102
}
330
8C65
100
AcDbXrecord
280
     1
340
8C53
  0
XRECORD
  5
8D07
102
{ACAD_REACTORS
330
8C67
102
}
330
8C67
100
AcDbXrecord
280
     1
340
8C4F
  0
LAYOUT
  5
8C56
102
{ACAD_REACTORS
330
8C4E
102
}
330
8C4E
100
AcDbPlotSettings
  1

  2
SII LP-2150 (D-SCAN C2)
  4

  6

 40
0.0
 41
0.0
 42
0.0
 43
0.0
 44
0.0
 45
0.0
 46
0.0
 47
0.0
 48
0.0
 49
0.0
140
0.0
141
0.0
142
1.0
143
1.0
 70
  1712
 72
     0
 73
     0
 74
     0
  7

 75
     0
147
1.0
148
0.0
149
0.0
100
AcDbLayout
  1
Model
 70
     1
 71
     0
 10
0.0
 20
0.0
 11
12.0
 21
9.0
 12
0.0
 22
0.0
 32
0.0
 14
0.0
 24
0.0
 34
0.0
 15
0.0
 25
0.0
 35
0.0
146
0.0
 13
0.0
 23
0.0
 33
0.0
 16
1.0
 26
0.0
 36
0.0
 17
0.0
 27
1.0
 37
0.0
 76
     0
330
8C53
  0
LAYOUT
  5
8C52
102
{ACAD_REACTORS
330
8C4E
102
}
330
8C4E
100
AcDbPlotSettings
  1

  2
SII LP-2150 (D-SCAN C2)
  4

  6

 40
0.0
 41
0.0
 42
0.0
 43
0.0
 44
0.0
 45
0.0
 46
0.0
 47
0.0
 48
0.0
 49
0.0
140
0.0
141
0.0
142
1.0
143
1.0
 70
   688
 72
     0
 73
     0
 74
     5
  7

 75
    16
147
1.0
148
0.0
149
0.0
100
AcDbLayout
  1
ﾚｲｱｳﾄ1
 70
     1
 71
     1
 10
-580.5701293945312
 20
0.0
 11
0.0
 21
407.8999938964844
 12
0.0
 22
0.0
 32
0.0
 14
-580.5701293945312
 24
0.0
 34
0.0
 15
0.0
 25
407.8999938964844
 35
0.0
146
0.0
 13
0.0
 23
0.0
 33
0.0
 16
1.0
 26
0.0
 36
0.0
 17
0.0
 27
1.0
 37
0.0
 76
     0
330
8C4F
  0
MLINESTYLE
  5
8C4C
102
{ACAD_REACTORS
330
8C4B
102
}
330
8C4B
100
AcDbMlineStyle
  2
STANDARD
 70
     0
  3

 62
   256
 51
90.0
 52
90.0
 71
     2
 49
0.5
 62
   256
  6
BYLAYER
 49
-0.5
 62
   256
  6
BYLAYER
  0
ACDBPLACEHOLDER
  5
8C44
102
{ACAD_REACTORS
330
8C43
102
}
330
8C43
  0
DICTIONARYVAR
  5
8C9A
102
{ACAD_REACTORS
330
8C99
102
}
330
8C99
100
DictionaryVariables
280
     0
  1
1
  0
ENDSEC
  0
EOF
