  0
SECTION
  2
HEADER
  9
$ACADVER
  1
AC1015
  9
$ACADMAINTVER
 70
    14
  9
$DWGCODEPAGE
  3
ANSI_932
  9
$INSBASE
 10
0.0
 20
0.0
 30
0.0
  9
$EXTMIN
 10
135.606769284117
 20
102.7070680545286
 30
-0.0000000000000058
  9
$EXTMAX
 10
1118.1074800242
 20
590.5611286086289
 30
0.0000000000000104
  9
$LIMMIN
 10
0.0
 20
0.0
  9
$LIMMAX
 10
420.0
 20
297.0
  9
$ORTHOMODE
 70
     0
  9
$REGENMODE
 70
     1
  9
$FILLMODE
 70
     1
  9
$QTEXTMODE
 70
     0
  9
$MIRRTEXT
 70
     1
  9
$LTSCALE
 40
1.0
  9
$ATTMODE
 70
     1
  9
$TEXTSIZE
 40
2.5
  9
$TRACEWID
 40
1.0
  9
$TEXTSTYLE
  7
Standard
  9
$CLAYER
  8
0
  9
$CELTYPE
  6
ByLayer
  9
$CECOLOR
 62
   256
  9
$CELTSCALE
 40
1.0
  9
$DISPSILH
 70
     0
  9
$DIMSCALE
 40
1.0
  9
$DIMASZ
 40
2.5
  9
$DIMEXO
 40
0.625
  9
$DIMDLI
 40
3.75
  9
$DIMRND
 40
0.0
  9
$DIMDLE
 40
0.0
  9
$DIMEXE
 40
1.25
  9
$DIMTP
 40
0.0
  9
$DIMTM
 40
0.0
  9
$DIMTXT
 40
2.5
  9
$DIMCEN
 40
2.5
  9
$DIMTSZ
 40
0.0
  9
$DIMTOL
 70
     0
  9
$DIMLIM
 70
     0
  9
$DIMTIH
 70
     0
  9
$DIMTOH
 70
     0
  9
$DIMSE1
 70
     0
  9
$DIMSE2
 70
     0
  9
$DIMTAD
 70
     1
  9
$DIMZIN
 70
     8
  9
$DIMBLK
  1

  9
$DIMASO
 70
     1
  9
$DIMSHO
 70
     1
  9
$DIMPOST
  1

  9
$DIMAPOST
  1

  9
$DIMALT
 70
     0
  9
$DIMALTD
 70
     3
  9
$DIMALTF
 40
0.03937007874016
  9
$DIMLFAC
 40
1.0
  9
$DIMTOFL
 70
     1
  9
$DIMTVP
 40
0.0
  9
$DIMTIX
 70
     0
  9
$DIMSOXD
 70
     0
  9
$DIMSAH
 70
     0
  9
$DIMBLK1
  1

  9
$DIMBLK2
  1

  9
$DIMSTYLE
  2
ISO-25
  9
$DIMCLRD
 70
     0
  9
$DIMCLRE
 70
     0
  9
$DIMCLRT
 70
     0
  9
$DIMTFAC
 40
1.0
  9
$DIMGAP
 40
0.625
  9
$DIMJUST
 70
     0
  9
$DIMSD1
 70
     0
  9
$DIMSD2
 70
     0
  9
$DIMTOLJ
 70
     0
  9
$DIMTZIN
 70
     8
  9
$DIMALTZ
 70
     0
  9
$DIMALTTZ
 70
     0
  9
$DIMUPT
 70
     0
  9
$DIMDEC
 70
     2
  9
$DIMTDEC
 70
     2
  9
$DIMALTU
 70
     2
  9
$DIMALTTD
 70
     3
  9
$DIMTXSTY
  7
Standard
  9
$DIMAUNIT
 70
     0
  9
$DIMADEC
 70
     0
  9
$DIMALTRND
 40
0.0
  9
$DIMAZIN
 70
     0
  9
$DIMDSEP
 70
    44
  9
$DIMATFIT
 70
     3
  9
$DIMFRAC
 70
     0
  9
$DIMLDRBLK
  1

  9
$DIMLUNIT
 70
     2
  9
$DIMLWD
 70
    -2
  9
$DIMLWE
 70
    -2
  9
$DIMTMOVE
 70
     0
  9
$LUNITS
 70
     2
  9
$LUPREC
 70
     4
  9
$SKETCHINC
 40
1.0
  9
$FILLETRAD
 40
10.0
  9
$AUNITS
 70
     0
  9
$AUPREC
 70
     0
  9
$MENU
  1
.
  9
$ELEVATION
 40
0.0
  9
$PELEVATION
 40
0.0
  9
$THICKNESS
 40
0.0
  9
$LIMCHECK
 70
     0
  9
$CHAMFERA
 40
10.0
  9
$CHAMFERB
 40
10.0
  9
$CHAMFERC
 40
20.0
  9
$CHAMFERD
 40
0.0
  9
$SKPOLY
 70
     0
  9
$TDCREATE
 40
2454284.644429248
  9
$TDUCREATE
 40
2454284.269429248
  9
$TDUPDATE
 40
2456899.672978518
  9
$TDUUPDATE
 40
2456899.297978518
  9
$TDINDWG
 40
0.0030757176
  9
$TDUSRTIMER
 40
0.0030757176
  9
$USRTIMER
 70
     1
  9
$ANGBASE
 50
0.0
  9
$ANGDIR
 70
     0
  9
$PDMODE
 70
     0
  9
$PDSIZE
 40
0.0
  9
$PLINEWID
 40
0.0
  9
$SPLFRAME
 70
     0
  9
$SPLINETYPE
 70
     6
  9
$SPLINESEGS
 70
     8
  9
$HANDSEED
  5
60C
  9
$SURFTAB1
 70
     6
  9
$SURFTAB2
 70
     6
  9
$SURFTYPE
 70
     6
  9
$SURFU
 70
     6
  9
$SURFV
 70
     6
  9
$UCSBASE
  2

  9
$UCSNAME
  2

  9
$UCSORG
 10
0.0
 20
0.0
 30
0.0
  9
$UCSXDIR
 10
1.0
 20
0.0
 30
0.0
  9
$UCSYDIR
 10
0.0
 20
1.0
 30
0.0
  9
$UCSORTHOREF
  2

  9
$UCSORTHOVIEW
 70
     0
  9
$UCSORGTOP
 10
0.0
 20
0.0
 30
0.0
  9
$UCSORGBOTTOM
 10
0.0
 20
0.0
 30
0.0
  9
$UCSORGLEFT
 10
0.0
 20
0.0
 30
0.0
  9
$UCSORGRIGHT
 10
0.0
 20
0.0
 30
0.0
  9
$UCSORGFRONT
 10
0.0
 20
0.0
 30
0.0
  9
$UCSORGBACK
 10
0.0
 20
0.0
 30
0.0
  9
$PUCSBASE
  2

  9
$PUCSNAME
  2

  9
$PUCSORG
 10
0.0
 20
0.0
 30
0.0
  9
$PUCSXDIR
 10
1.0
 20
0.0
 30
0.0
  9
$PUCSYDIR
 10
0.0
 20
1.0
 30
0.0
  9
$PUCSORTHOREF
  2

  9
$PUCSORTHOVIEW
 70
     0
  9
$PUCSORGTOP
 10
0.0
 20
0.0
 30
0.0
  9
$PUCSORGBOTTOM
 10
0.0
 20
0.0
 30
0.0
  9
$PUCSORGLEFT
 10
0.0
 20
0.0
 30
0.0
  9
$PUCSORGRIGHT
 10
0.0
 20
0.0
 30
0.0
  9
$PUCSORGFRONT
 10
0.0
 20
0.0
 30
0.0
  9
$PUCSORGBACK
 10
0.0
 20
0.0
 30
0.0
  9
$USERI1
 70
     0
  9
$USERI2
 70
     0
  9
$USERI3
 70
     0
  9
$USERI4
 70
     0
  9
$USERI5
 70
     0
  9
$USERR1
 40
0.0
  9
$USERR2
 40
0.0
  9
$USERR3
 40
0.0
  9
$USERR4
 40
0.0
  9
$USERR5
 40
0.0
  9
$WORLDVIEW
 70
     1
  9
$SHADEDGE
 70
     3
  9
$SHADEDIF
 70
    70
  9
$TILEMODE
 70
     1
  9
$MAXACTVP
 70
    48
  9
$PINSBASE
 10
0.0
 20
0.0
 30
0.0
  9
$PLIMCHECK
 70
     0
  9
$PEXTMIN
 10
26.66076962115562
 20
20.31135699206657
 30
-0.0015258207003583
  9
$PEXTMAX
 10
240.039213369355
 20
182.8886381005154
 30
0.0000000349246037
  9
$PLIMMIN
 10
-6.350006103515625
 20
-6.349999904632568
  9
$PLIMMAX
 10
273.0499877929687
 20
209.5499939918517
  9
$UNITMODE
 70
     0
  9
$VISRETAIN
 70
     1
  9
$PLINEGEN
 70
     0
  9
$PSLTSCALE
 70
     1
  9
$TREEDEPTH
 70
  3020
  9
$CMLSTYLE
  2
Standard
  9
$CMLJUST
 70
     0
  9
$CMLSCALE
 40
20.0
  9
$PROXYGRAPHICS
 70
     1
  9
$MEASUREMENT
 70
     1
  9
$CELWEIGHT
370
    -1
  9
$ENDCAPS
280
     0
  9
$JOINSTYLE
280
     0
  9
$LWDISPLAY
290
     0
  9
$INSUNITS
 70
     4
  9
$HYPERLINKBASE
  1

  9
$STYLESHEET
  1

  9
$XEDIT
290
     1
  9
$CEPSNTYPE
380
     0
  9
$PSTYLEMODE
290
     1
  9
$FINGERPRINTGUID
  2
{FDEAD578-A652-11D2-9A35-0060089B3A3F}
  9
$VERSIONGUID
  2
{E50D9015-9F4B-4981-96C4-28B10A24EBA3}
  9
$EXTNAMES
290
     1
  9
$PSVPSCALE
 40
0.0
  9
$OLESTARTUP
290
     0
  0
ENDSEC
  0
SECTION
  2
CLASSES
  0
CLASS
  1
ACDBDICTIONARYWDFLT
  2
AcDbDictionaryWithDefault
  3
AutoCAD 2000
 90
        0
280
     0
281
     0
  0
CLASS
  1
ACDBPLACEHOLDER
  2
AcDbPlaceHolder
  3
AutoCAD 2000
 90
        0
280
     0
281
     0
  0
CLASS
  1
LAYOUT
  2
AcDbLayout
  3
AutoCAD 2000
 90
        0
280
     0
281
     0
  0
CLASS
  1
DICTIONARYVAR
  2
AcDbDictionaryVar
  3
AutoCAD 2000
 90
        0
280
     0
281
     0
  0
CLASS
  1
LONG_TRANSACTION
  2
AcDbLongTransaction
  3
AutoCAD 2000
 90
    32768
280
     0
281
     0
  0
CLASS
  1
LWPOLYLINE
  2
AcDbPolyline
  3
AutoCAD 2000
 90
    32768
280
     0
281
     1
  0
CLASS
  1
HATCH
  2
AcDbHatch
  3
AutoCAD 2000
 90
    32768
280
     0
281
     1
  0
CLASS
  1
XRECORD
  2
AcDbXrecord
  3
AutoCAD 2000
 90
    32768
280
     0
281
     0
  0
ENDSEC
  0
SECTION
  2
TABLES
  0
TABLE
  2
VPORT
  5
8
330
0
100
AcDbSymbolTable
 70
     2
  0
VPORT
  5
60B
330
8
100
AcDbSymbolTableRecord
100
AcDbViewportTableRecord
  2
*Active
 70
     0
 10
0.0
 20
0.0
 11
1.0
 21
1.0
 12
626.8571246541589
 22
346.6340983315788
 13
0.0
 23
0.0
 14
10.0
 24
10.0
 15
10.0
 25
10.0
 16
0.0
 26
0.0
 36
1.0
 17
0.0
 27
0.0
 37
0.0
 40
619.5470862135749
 41
1.592161016949152
 42
50.0
 43
0.0
 44
0.0
 50
0.0
 51
0.0
 71
     0
 72
   100
 73
     1
 74
     3
 75
     0
 76
     0
 77
     0
 78
     0
281
     0
 65
     1
110
0.0
120
0.0
130
0.0
111
1.0
121
0.0
131
0.0
112
0.0
122
1.0
132
0.0
 79
     0
146
0.0
  0
ENDTAB
  0
TABLE
  2
LTYPE
  5
5
330
0
100
AcDbSymbolTable
 70
     2
  0
LTYPE
  5
14
330
5
100
AcDbSymbolTableRecord
100
AcDbLinetypeTableRecord
  2
ByBlock
 70
     0
  3

 72
    65
 73
     0
 40
0.0
  0
LTYPE
  5
15
330
5
100
AcDbSymbolTableRecord
100
AcDbLinetypeTableRecord
  2
ByLayer
 70
     0
  3

 72
    65
 73
     0
 40
0.0
  0
LTYPE
  5
16
330
5
100
AcDbSymbolTableRecord
100
AcDbLinetypeTableRecord
  2
Continuous
 70
     0
  3
Solid line
 72
    65
 73
     0
 40
0.0
  0
LTYPE
  5
255
330
5
100
AcDbSymbolTableRecord
100
AcDbLinetypeTableRecord
  2
CENTER
 70
     0
  3
Center ____ _ ____ _ ____ _ ____ _ ____ _ ____
 72
    65
 73
     4
 40
50.8
 49
31.75
 74
     0
 49
-6.349999999999999
 74
     0
 49
6.349999999999999
 74
     0
 49
-6.349999999999999
 74
     0
  0
ENDTAB
  0
TABLE
  2
LAYER
  5
2
102
{ACAD_XDICTIONARY
360
257
102
}
330
0
100
AcDbSymbolTable
 70
     2
  0
LAYER
  5
10
330
2
100
AcDbSymbolTableRecord
100
AcDbLayerTableRecord
  2
0
 70
     0
 62
     7
  6
Continuous
370
    -3
390
F
  0
LAYER
  5
26E
330
2
100
AcDbSymbolTableRecord
100
AcDbLayerTableRecord
  2
Visible (ISO)
 70
     0
 62
     7
  6
Continuous
370
    35
390
F
  0
ENDTAB
  0
TABLE
  2
STYLE
  5
3
330
0
100
AcDbSymbolTable
 70
     1
  0
STYLE
  5
11
330
3
100
AcDbSymbolTableRecord
100
AcDbTextStyleTableRecord
  2
Standard
 70
     0
 40
0.0
 41
1.0
 50
0.0
 71
     0
 42
2.5
  3
txt
  4

  0
ENDTAB
  0
TABLE
  2
VIEW
  5
6
330
0
100
AcDbSymbolTable
 70
     0
  0
ENDTAB
  0
TABLE
  2
UCS
  5
7
330
0
100
AcDbSymbolTable
 70
     0
  0
ENDTAB
  0
TABLE
  2
APPID
  5
9
330
0
100
AcDbSymbolTable
 70
     1
  0
APPID
  5
12
330
9
100
AcDbSymbolTableRecord
100
AcDbRegAppTableRecord
  2
ACAD
 70
     0
  0
ENDTAB
  0
TABLE
  2
DIMSTYLE
  5
A
330
0
100
AcDbSymbolTable
 70
     1
100
AcDbDimStyleTable
 71
     0
  0
DIMSTYLE
105
27
330
A
100
AcDbSymbolTableRecord
100
AcDbDimStyleTableRecord
  2
ISO-25
 70
     0
 41
2.5
 42
0.625
 43
3.75
 44
1.25
 73
     0
 74
     0
 77
     1
 78
     8
140
2.5
141
2.5
143
0.03937007874016
147
0.625
171
     3
172
     1
271
     2
272
     2
274
     3
278
    44
283
     0
284
     8
340
11
  0
ENDTAB
  0
TABLE
  2
BLOCK_RECORD
  5
1
330
0
100
AcDbSymbolTable
 70
     1
  0
BLOCK_RECORD
  5
1F
102
{ACAD_XDICTIONARY
360
20E
102
}
330
1
100
AcDbSymbolTableRecord
100
AcDbBlockTableRecord
  2
*Model_Space
340
22
  0
BLOCK_RECORD
  5
55
102
{ACAD_XDICTIONARY
360
210
102
}
330
1
100
AcDbSymbolTableRecord
100
AcDbBlockTableRecord
  2
*Paper_Space
340
56
  0
BLOCK_RECORD
  5
50
102
{ACAD_XDICTIONARY
360
212
102
}
330
1
100
AcDbSymbolTableRecord
100
AcDbBlockTableRecord
  2
*Paper_Space0
340
51
  0
ENDTAB
  0
ENDSEC
  0
SECTION
  2
BLOCKS
  0
BLOCK
  5
20
330
1F
100
AcDbEntity
  8
0
100
AcDbBlockBegin
  2
*Model_Space
 70
     0
 10
0.0
 20
0.0
 30
0.0
  3
*Model_Space
  1

  0
ENDBLK
  5
21
330
1F
100
AcDbEntity
  8
0
100
AcDbBlockEnd
  0
BLOCK
  5
57
330
55
100
AcDbEntity
 67
     1
  8
0
100
AcDbBlockBegin
  2
*Paper_Space
 70
     0
 10
0.0
 20
0.0
 30
0.0
  3
*Paper_Space
  1

  0
ENDBLK
  5
58
330
55
100
AcDbEntity
 67
     1
  8
0
100
AcDbBlockEnd
  0
BLOCK
  5
52
330
50
100
AcDbEntity
  8
0
100
AcDbBlockBegin
  2
*Paper_Space0
 70
     0
 10
0.0
 20
0.0
 30
0.0
  3
*Paper_Space0
  1

  0
VIEWPORT
  5
6B
330
50
100
AcDbEntity
  8
0
100
AcDbViewport
 10
133.3499908447265
 20
101.5999970436096
 30
0.0
 40
381.3957395593834
 41
218.2856291881582
 69
     0
 12
133.3499908447265
 22
101.5999970436096
 13
0.0
 23
0.0
 14
10.0
 24
10.0
 15
10.0
 25
10.0
 16
0.0
 26
0.0
 36
1.0
 17
0.0
 27
0.0
 37
0.0
 42
50.0
 43
0.0
 44
0.0
 45
218.2856291881582
 50
0.0
 51
0.0
 72
   100
 90
    32800
  1

281
     0
 71
     1
 74
     0
110
0.0
120
0.0
130
0.0
111
1.0
121
0.0
131
0.0
112
0.0
122
1.0
132
0.0
 79
     0
146
0.0
  0
VIEWPORT
  5
6D
330
50
100
AcDbEntity
  8
0
100
AcDbViewport
 10
133.349993944168
 20
101.599993944168
 30
0.0
 40
213.3599903106689
 41
162.5599903106689
 69
     0
 12
210.0
 22
148.5
 13
0.0
 23
0.0
 14
10.0
 24
10.0
 15
10.0
 25
10.0
 16
0.0
 26
0.0
 36
1.0
 17
0.0
 27
0.0
 37
0.0
 42
50.0
 43
0.0
 44
0.0
 45
324.0677920111345
 50
0.0
 51
0.0
 72
   100
 90
    32864
  1

281
     0
 71
     1
 74
     0
110
0.0
120
0.0
130
0.0
111
1.0
121
0.0
131
0.0
112
0.0
122
1.0
132
0.0
 79
     0
146
0.0
  0
ENDBLK
  5
53
330
50
100
AcDbEntity
  8
0
100
AcDbBlockEnd
  0
ENDSEC
  0
SECTION
  2
ENTITIES
  0
TEXT
  5
145
330
1F
100
AcDbEntity
  8
0
100
AcDbText
 10
135.6270571677892
 20
542.5340894282506
 30
0.0
 40
48.000002
  1
DHS2S 15A
 41
1.32095
100
AcDbText
  0
LINE
  5
146
330
1F
100
AcDbEntity
  8
0
100
AcDbLine
 10
242.7074228631589
 20
320.6611597275677
 30
0.0
 11
242.7074228631589
 21
353.2187769150671
 31
0.0
  0
ARC
  5
147
330
1F
100
AcDbEntity
  8
0
100
AcDbCircle
 10
276.7074228631591
 20
336.9399683213177
 30
0.0
 40
39.0
100
AcDbArc
 50
214.1484273314994
 51
240.6678935388828
  0
ARC
  5
148
330
1F
100
AcDbEntity
  8
0
100
AcDbCircle
 10
252.7074228631584
 20
320.6611597275677
 30
0.0
 40
10.0
100
AcDbArc
 50
180.0000086514148
 51
214.1484273314994
  0
ARC
  5
149
330
1F
100
AcDbEntity
  8
0
100
AcDbCircle
 10
276.7074228631591
 20
336.9399683213177
 30
0.0
 40
39.0
100
AcDbArc
 50
119.3321064611172
 51
145.8515726684999
  0
ARC
  5
14A
330
1F
100
AcDbEntity
  8
0
100
AcDbCircle
 10
252.7074228631584
 20
353.2187769150671
 30
0.0
 40
10.0
100
AcDbArc
 50
145.8515726684999
 51
180.0000050089634
  0
LINE
  5
14B
330
1F
100
AcDbEntity
  8
0
100
AcDbLine
 10
310.707422863159
 20
320.6611597275677
 30
0.0
 11
310.707422863159
 21
353.2187769150671
 31
0.0
  0
ARC
  5
14C
330
1F
100
AcDbEntity
  8
0
100
AcDbCircle
 10
276.7074228631591
 20
336.9399683213177
 30
0.0
 40
39.0
100
AcDbArc
 50
299.3321082823573
 51
325.8515710746553
  0
LINE
  5
14D
330
1F
100
AcDbEntity
  8
0
100
AcDbLine
 10
293.707422863159
 20
282.9399683213177
 30
0.0
 11
259.7074228631583
 21
282.9399683213177
 31
0.0
  0
LINE
  5
14E
330
1F
100
AcDbEntity
  8
0
100
AcDbLine
 10
265.8574472772211
 20
288.0283796062406
 30
0.0
 11
265.8574472772211
 21
302.9399670853756
 31
0.0
  0
LINE
  5
14F
330
1F
100
AcDbEntity
  8
0
100
AcDbLine
 10
259.7074228631583
 20
285.7899536993575
 30
0.0
 11
265.8574472772211
 21
288.0283796062406
 31
0.0
  0
LINE
  5
150
330
1F
100
AcDbEntity
  8
0
100
AcDbLine
 10
259.7074228631583
 20
282.9399683213177
 30
0.0
 11
259.7074228631583
 21
285.7899536993575
 31
0.0
  0
LINE
  5
151
330
1F
100
AcDbEntity
  8
0
100
AcDbLine
 10
287.557459484252
 20
288.0284586356016
 30
0.0
 11
287.557459484252
 21
302.9399676926586
 31
0.0
  0
LINE
  5
152
330
1F
100
AcDbEntity
  8
0
100
AcDbLine
 10
293.707422863159
 20
285.7900549436982
 30
0.0
 11
287.557459484252
 21
288.0284586356016
 31
0.0
  0
LINE
  5
153
330
1F
100
AcDbEntity
  8
0
100
AcDbLine
 10
293.707422863159
 20
282.9399683213177
 30
0.0
 11
293.707422863159
 21
285.7900549436982
 31
0.0
  0
LINE
  5
154
330
1F
100
AcDbEntity
  8
0
100
AcDbLine
 10
257.6024496886162
 20
302.9399683213177
 30
0.0
 11
295.812403331909
 21
302.9399683213177
 31
0.0
  0
ARC
  5
155
330
1F
100
AcDbEntity
  8
0
100
AcDbCircle
 10
300.7074228631584
 20
320.6611597275677
 30
0.0
 40
10.0
100
AcDbArc
 50
325.8515710746553
 51
359.9999974955313
  0
ARC
  5
156
330
1F
100
AcDbEntity
  8
0
100
AcDbCircle
 10
276.7074228631591
 20
336.9399683213177
 30
0.0
 40
39.0
100
AcDbArc
 50
34.14842209517255
 51
60.66789171764273
  0
LINE
  5
157
330
1F
100
AcDbEntity
  8
0
100
AcDbLine
 10
265.8574472772211
 20
370.9399695572597
 30
0.0
 11
265.8574472772211
 21
385.8515719255196
 31
0.0
  0
LINE
  5
158
330
1F
100
AcDbEntity
  8
0
100
AcDbLine
 10
287.557459484252
 20
370.9399683213177
 30
0.0
 11
287.557459484253
 21
385.8514766580944
 31
0.0
  0
LINE
  5
159
330
1F
100
AcDbEntity
  8
0
100
AcDbLine
 10
257.6024496886161
 20
370.9399683213177
 30
0.0
 11
295.812403331909
 21
370.9399683213177
 31
0.0
  0
LINE
  5
15A
330
1F
100
AcDbEntity
  8
0
100
AcDbLine
 10
293.707422863159
 20
390.9399683213177
 30
0.0
 11
259.7074228631583
 21
390.9399683213177
 31
0.0
  0
LINE
  5
15B
330
1F
100
AcDbEntity
  8
0
100
AcDbLine
 10
259.707422863159
 20
388.0899978324023
 30
0.0
 11
265.8574472772211
 21
385.8515719255196
 31
0.0
  0
LINE
  5
15C
330
1F
100
AcDbEntity
  8
0
100
AcDbLine
 10
259.7074228631583
 20
390.9399683213177
 30
0.0
 11
259.707422863159
 21
388.0899978324023
 31
0.0
  0
LINE
  5
15D
330
1F
100
AcDbEntity
  8
0
100
AcDbLine
 10
293.7074228631582
 20
388.0898803499977
 30
0.0
 11
287.557459484253
 21
385.8514766580944
 31
0.0
  0
LINE
  5
15E
330
1F
100
AcDbEntity
  8
0
100
AcDbLine
 10
293.707422863159
 20
390.9399683213177
 30
0.0
 11
293.7074228631582
 21
388.0898803499977
 31
0.0
  0
ARC
  5
15F
330
1F
100
AcDbEntity
  8
0
100
AcDbCircle
 10
300.7074228631584
 20
353.2187769150671
 30
0.0
 40
10.0
100
AcDbArc
 50
359.9999974955313
 51
34.14842209517255
  0
LINE
  5
160
330
1F
100
AcDbEntity
  8
0
100
AcDbLine
 10
421.8610674543461
 20
133.7169880641235
 30
0.0
 11
424.4014040974291
 21
129.3169960089475
 31
0.0
  0
LINE
  5
161
330
1F
100
AcDbEntity
  8
0
100
AcDbLine
 10
362.70251066584
 20
155.5169773489169
 30
0.0
 11
362.70251066584
 21
121.5169315725496
 31
0.0
  0
LINE
  5
162
330
1F
100
AcDbEntity
  8
0
100
AcDbLine
 10
382.7025106658389
 20
166.2170200735262
 30
0.0
 11
382.70251066584
 21
126.316980400675
 31
0.0
  0
LINE
  5
163
330
1F
100
AcDbEntity
  8
0
100
AcDbLine
 10
382.70251066584
 20
146.7170048147363
 30
0.0
 11
450.702510665842
 21
146.7170048147363
 31
0.0
  0
LINE
  5
164
330
1F
100
AcDbEntity
  8
0
100
AcDbLine
 10
367.7910230886562
 20
149.3669681936426
 30
0.0
 11
382.70251066584
 21
149.3669681936426
 31
0.0
  0
LINE
  5
165
330
1F
100
AcDbEntity
  8
0
100
AcDbLine
 10
362.70251066584
 20
155.5169773489169
 30
0.0
 11
365.5526027355172
 21
155.5169773489169
 31
0.0
  0
LINE
  5
166
330
1F
100
AcDbEntity
  8
0
100
AcDbLine
 10
365.5526027355172
 20
155.5169773489169
 30
0.0
 11
367.7910230886562
 21
149.3669681936426
 31
0.0
  0
LINE
  5
167
330
1F
100
AcDbEntity
  8
0
100
AcDbLine
 10
397.59753019709
 20
166.2170200735262
 30
0.0
 11
397.59753019709
 21
146.7170048147363
 31
0.0
  0
LINE
  5
168
330
1F
100
AcDbEntity
  8
0
100
AcDbLine
 10
403.8074606170121
 20
126.316980400675
 30
0.0
 11
382.70251066584
 21
126.316980400675
 31
0.0
  0
LINE
  5
169
330
1F
100
AcDbEntity
  8
0
100
AcDbLine
 10
367.7909160802947
 20
127.6669559866115
 30
0.0
 11
382.5939291228706
 21
127.6669559866115
 31
0.0
  0
LINE
  5
16A
330
1F
100
AcDbEntity
  8
0
100
AcDbLine
 10
365.5524901734118
 20
121.5169315725496
 30
0.0
 11
367.7909160802947
 21
127.6669559866115
 31
0.0
  0
LINE
  5
16B
330
1F
100
AcDbEntity
  8
0
100
AcDbLine
 10
362.70251066584
 20
121.5169315725496
 30
0.0
 11
365.5524901734118
 21
121.5169315725496
 31
0.0
  0
ARC
  5
16C
330
1F
100
AcDbEntity
  8
0
100
AcDbCircle
 10
403.8074606170121
 20
132.3169804006748
 30
0.0
 40
6.0
100
AcDbArc
 50
269.9999974955313
 51
330.0000016696631
  0
LINE
  5
16D
330
1F
100
AcDbEntity
  8
0
100
AcDbLine
 10
411.5439501656071
 20
133.7169949436647
 30
0.0
 11
409.003605893129
 21
129.3169896739896
 31
0.0
  0
ARC
  5
16E
330
1F
100
AcDbEntity
  8
0
100
AcDbCircle
 10
416.74010832209
 20
130.7170048147362
 30
0.0
 40
6.0
100
AcDbArc
 50
90.3590990168473
 51
149.9999966606942
  0
ARC
  5
16F
330
1F
100
AcDbEntity
  8
0
100
AcDbCircle
 10
416.6649130095898
 20
130.7170048147362
 30
0.0
 40
6.0
100
AcDbArc
 50
30.0000033393057
 51
89.64090098315269
  0
LINE
  5
170
330
1F
100
AcDbEntity
  8
0
100
AcDbLine
 10
470.7025106658402
 20
155.5169773489169
 30
0.0
 11
470.7025106658402
 21
121.5169315725496
 31
0.0
  0
LINE
  5
171
330
1F
100
AcDbEntity
  8
0
100
AcDbLine
 10
450.702510665842
 20
149.3669681936426
 30
0.0
 11
465.6140293702119
 21
149.3669681936426
 31
0.0
  0
LINE
  5
172
330
1F
100
AcDbEntity
  8
0
100
AcDbLine
 10
382.7025106658389
 20
158.7170200735263
 30
0.0
 11
450.7025106658402
 21
158.7170200735263
 31
0.0
  0
LINE
  5
173
330
1F
100
AcDbEntity
  8
0
100
AcDbLine
 10
450.7025106658391
 20
166.2170200735262
 30
0.0
 11
450.702510665842
 21
126.316980400675
 31
0.0
  0
LINE
  5
174
330
1F
100
AcDbEntity
  8
0
100
AcDbLine
 10
470.7025106658402
 20
155.5169773489169
 30
0.0
 11
467.8524497233519
 21
155.5169773489169
 31
0.0
  0
LINE
  5
175
330
1F
100
AcDbEntity
  8
0
100
AcDbLine
 10
467.8524497233519
 20
155.5169773489169
 30
0.0
 11
465.6140293702119
 21
149.3669681936426
 31
0.0
  0
LINE
  5
176
330
1F
100
AcDbEntity
  8
0
100
AcDbLine
 10
450.702510665842
 20
127.6669559866115
 30
0.0
 11
465.6141201405088
 21
127.6669559866115
 31
0.0
  0
LINE
  5
177
330
1F
100
AcDbEntity
  8
0
100
AcDbLine
 10
429.5975607146679
 20
126.316980400675
 30
0.0
 11
450.702510665842
 21
126.316980400675
 31
0.0
  0
ARC
  5
178
330
1F
100
AcDbEntity
  8
0
100
AcDbCircle
 10
429.5975607146679
 20
132.3169804006748
 30
0.0
 40
6.0
100
AcDbArc
 50
210.00000516053
 51
269.9999974955313
  0
LINE
  5
179
330
1F
100
AcDbEntity
  8
0
100
AcDbLine
 10
467.8525460473928
 20
121.5169315725496
 30
0.0
 11
465.6141201405088
 21
127.6669559866115
 31
0.0
  0
LINE
  5
17A
330
1F
100
AcDbEntity
  8
0
100
AcDbLine
 10
470.7025106658402
 20
121.5169315725496
 30
0.0
 11
467.8525460473928
 21
121.5169315725496
 31
0.0
  0
LINE
  5
17B
330
1F
100
AcDbEntity
  8
0
100
AcDbLine
 10
435.80749113459
 20
166.2170200735262
 30
0.0
 11
435.8074911345911
 21
146.7170048147374
 31
0.0
  0
LINE
  5
17C
330
1F
100
AcDbEntity
  8
0
100
AcDbLine
 10
242.7074228631589
 20
146.7170048147374
 30
0.0
 11
261.8158160865009
 21
146.7170048147374
 31
0.0
  0
LINE
  5
17D
330
1F
100
AcDbEntity
  8
0
100
AcDbLine
 10
242.7074228631589
 20
158.7170200735263
 30
0.0
 11
310.707422863159
 21
158.7170200735263
 31
0.0
  0
LINE
  5
17E
330
1F
100
AcDbEntity
  8
0
100
AcDbLine
 10
289.6024729119872
 20
126.3169804006756
 30
0.0
 11
310.7074228631617
 21
126.3169804006756
 31
0.0
  0
LINE
  5
17F
330
1F
100
AcDbEntity
  8
0
100
AcDbLine
 10
242.707422863159
 20
166.2170200735263
 30
0.0
 11
242.7074228631601
 21
126.3169804006756
 31
0.0
  0
LINE
  5
180
330
1F
100
AcDbEntity
  8
0
100
AcDbLine
 10
257.602442394409
 20
166.2170200735263
 30
0.0
 11
257.602442394409
 21
146.7170048147374
 31
0.0
  0
LINE
  5
181
330
1F
100
AcDbEntity
  8
0
100
AcDbLine
 10
295.812403331909
 20
166.2170200735263
 30
0.0
 11
295.8124033319112
 21
146.7170048147385
 31
0.0
  0
LINE
  5
182
330
1F
100
AcDbEntity
  8
0
100
AcDbLine
 10
263.8123728143312
 20
126.3169804006756
 30
0.0
 11
242.7074228631601
 21
126.3169804006756
 31
0.0
  0
LINE
  5
183
330
1F
100
AcDbEntity
  8
0
100
AcDbLine
 10
310.707422863159
 20
166.2170200735263
 30
0.0
 11
310.7074228631617
 21
126.3169804006756
 31
0.0
  0
CIRCLE
  5
184
330
1F
100
AcDbEntity
  8
0
100
AcDbCircle
 10
276.7074228631591
 20
138.5169544607375
 30
0.0
 40
17.00002288818359
  0
CIRCLE
  5
185
330
1F
100
AcDbEntity
  8
0
100
AcDbCircle
 10
276.7074228631591
 20
138.5169544607375
 30
0.0
 40
9.199999999999999
  0
LINE
  5
186
330
1F
100
AcDbEntity
  8
0
100
AcDbLine
 10
291.5990296398179
 20
146.7170048147374
 30
0.0
 11
310.7074228631617
 21
146.7170048147374
 31
0.0
  0
LINE
  5
187
330
1F
100
AcDbEntity
  8
0
100
AcDbLine
 10
405.7025156658395
 20
178.0170100735262
 30
0.0
 11
405.7025156658395
 21
180.7170100735262
 31
0.0
  0
LINE
  5
188
330
1F
100
AcDbEntity
  8
0
100
AcDbLine
 10
399.2024906658395
 20
177.0170050735262
 30
0.0
 11
404.7025106658395
 21
177.0170050735262
 31
0.0
  0
LINE
  5
189
330
1F
100
AcDbEntity
  8
0
100
AcDbLine
 10
382.7025106658389
 20
166.2170200735262
 30
0.0
 11
450.7025106658391
 21
166.2170200735262
 31
0.0
  0
LINE
  5
18A
330
1F
100
AcDbEntity
  8
0
100
AcDbLine
 10
396.2024906658395
 20
166.2170200735262
 30
0.0
 11
396.2024906658395
 21
174.0170050735262
 31
0.0
  0
LINE
  5
18B
330
1F
100
AcDbEntity
  8
0
100
AcDbLine
 10
399.2024906658395
 20
177.0170050735262
 30
0.0
 11
434.2025306658357
 21
177.0170050735262
 31
0.0
  0
LINE
  5
18C
330
1F
100
AcDbEntity
  8
0
100
AcDbLine
 10
405.7025156658395
 20
180.7170100735262
 30
0.0
 11
427.7025056658342
 21
180.7170100735262
 31
0.0
  0
LINE
  5
18D
330
1F
100
AcDbEntity
  8
0
100
AcDbLine
 10
406.6025006658395
 20
181.2169600735262
 30
0.0
 11
406.6025006658395
 21
180.7170100735262
 31
0.0
  0
LINE
  5
18E
330
1F
100
AcDbEntity
  8
0
100
AcDbLine
 10
438.7025156658395
 20
221.2169650735262
 30
0.0
 11
394.7024906658395
 21
221.2169650735262
 31
0.0
  0
LINE
  5
18F
330
1F
100
AcDbEntity
  8
0
100
AcDbLine
 10
400.2025106658395
 20
193.2169600735262
 30
0.0
 11
433.2025106658313
 21
193.2169600735262
 31
0.0
  0
LINE
  5
190
330
1F
100
AcDbEntity
  8
0
100
AcDbLine
 10
399.2025206658395
 20
193.7943100735262
 30
0.0
 11
392.7025106658395
 21
197.5471000735262
 31
0.0
  0
LINE
  5
191
330
1F
100
AcDbEntity
  8
0
100
AcDbLine
 10
400.2025106658395
 20
182.2169650735262
 30
0.0
 11
400.2025106658395
 21
192.0622750735262
 31
0.0
  0
LINE
  5
192
330
1F
100
AcDbEntity
  8
0
100
AcDbLine
 10
391.7024906658395
 20
218.2169650735262
 30
0.0
 11
391.7024906658395
 21
199.2791650735262
 31
0.0
  0
LINE
  5
193
330
1F
100
AcDbEntity
  8
0
100
AcDbLine
 10
410.1525656658394
 20
221.2169650735262
 30
0.0
 11
410.1525656658394
 21
199.2791650735262
 31
0.0
  0
LINE
  5
194
330
1F
100
AcDbEntity
  8
0
100
AcDbLine
 10
399.0831356658395
 20
221.2169650735262
 30
0.0
 11
399.0831356658395
 21
199.2791650735262
 31
0.0
  0
LINE
  5
195
330
1F
100
AcDbEntity
  8
0
100
AcDbLine
 10
392.5331756658394
 20
220.2891700735262
 30
0.0
 11
392.5331756658394
 21
199.2791650735262
 31
0.0
  0
LINE
  5
196
330
1F
100
AcDbEntity
  8
0
100
AcDbLine
 10
409.8089906658395
 20
198.1244350735262
 30
0.0
 11
399.7253306658395
 21
198.1244350735262
 31
0.0
  0
LINE
  5
197
330
1F
100
AcDbEntity
  8
0
100
AcDbLine
 10
432.202505665834
 20
181.2169600735262
 30
0.0
 11
401.2025156658395
 21
181.2169600735262
 31
0.0
  0
ARC
  5
198
330
1F
100
AcDbEntity
  8
0
100
AcDbCircle
 10
399.2024906658395
 20
174.0170050735262
 30
0.0
 40
3.0
100
AcDbArc
 50
90.0
 51
180.0
  0
ARC
  5
199
330
1F
100
AcDbEntity
  8
0
100
AcDbCircle
 10
404.7025106658395
 20
178.0170100735262
 30
0.0
 40
1.000000035
100
AcDbArc
 50
270.0
 51
0.0
  0
ARC
  5
19A
330
1F
100
AcDbEntity
  8
0
100
AcDbCircle
 10
401.2025156658395
 20
182.2169650735262
 30
0.0
 40
1.000000035
100
AcDbArc
 50
180.0
 51
270.0
  0
ARC
  5
19B
330
1F
100
AcDbEntity
  8
0
100
AcDbCircle
 10
398.2025156658395
 20
192.0622750735262
 30
0.0
 40
2.000000099999999
100
AcDbArc
 50
0.0
 51
59.99965999999912
  0
ARC
  5
19C
330
1F
100
AcDbEntity
  8
0
100
AcDbCircle
 10
394.7024906658395
 20
218.2169650735262
 30
0.0
 40
3.0
100
AcDbArc
 50
90.0
 51
180.0
  0
ARC
  5
19D
330
1F
100
AcDbEntity
  8
0
100
AcDbCircle
 10
393.7025156658395
 20
199.2791650735262
 30
0.0
 40
2.000000099999999
100
AcDbArc
 50
180.0
 51
239.999659999999
  0
ARC
  5
19E
330
1F
100
AcDbEntity
  8
0
100
AcDbCircle
 10
395.8081556658394
 20
202.1913850735262
 30
0.0
 40
5.2216455
100
AcDbArc
 50
237.1515400000033
 51
302.848461
  0
ARC
  5
19F
330
1F
100
AcDbEntity
  8
0
100
AcDbCircle
 10
409.8089906658395
 20
196.1244400735262
 30
0.0
 40
2.000000099999999
100
AcDbArc
 50
70.98238999999914
 51
90.0
  0
ARC
  5
1A0
330
1F
100
AcDbEntity
  8
0
100
AcDbCircle
 10
399.7253306658395
 20
196.1244400735262
 30
0.0
 40
2.000000099999999
100
AcDbArc
 50
90.0
 51
122.8482199999982
  0
ARC
  5
1A1
330
1F
100
AcDbEntity
  8
0
100
AcDbCircle
 10
391.8909806658394
 20
196.1244400735262
 30
0.0
 40
2.000000099999999
100
AcDbArc
 50
57.15178000000175
 51
84.70357999999876
  0
LINE
  5
1A2
330
1F
100
AcDbEntity
  8
0
100
AcDbLine
 10
427.7025056658348
 20
178.0170100735289
 30
0.0
 11
427.7025056658342
 21
180.7170100735289
 31
0.0
  0
LINE
  5
1A3
330
1F
100
AcDbEntity
  8
0
100
AcDbLine
 10
437.2025306658378
 20
166.2170200735312
 30
0.0
 11
437.2025306658358
 21
174.0170050735312
 31
0.0
  0
LINE
  5
1A4
330
1F
100
AcDbEntity
  8
0
100
AcDbLine
 10
426.802520665834
 20
181.2169600735287
 30
0.0
 11
426.8025206658342
 21
180.7170100735287
 31
0.0
  0
LINE
  5
1A5
330
1F
100
AcDbEntity
  8
0
100
AcDbLine
 10
434.2025006658309
 20
193.7943100735305
 30
0.0
 11
440.7025106658299
 21
197.5471000735321
 31
0.0
  0
LINE
  5
1A6
330
1F
100
AcDbEntity
  8
0
100
AcDbLine
 10
433.2025106658337
 20
182.2169650735303
 30
0.0
 11
433.2025106658313
 21
192.0622750735302
 31
0.0
  0
LINE
  5
1A7
330
1F
100
AcDbEntity
  8
0
100
AcDbLine
 10
441.7025306658248
 20
218.2169650735323
 30
0.0
 11
441.7025306658295
 21
199.2791650735324
 31
0.0
  0
LINE
  5
1A8
330
1F
100
AcDbEntity
  8
0
100
AcDbLine
 10
434.3218856658241
 20
221.2169650735305
 30
0.0
 11
434.3218856658295
 21
199.2791650735305
 31
0.0
  0
LINE
  5
1A9
330
1F
100
AcDbEntity
  8
0
100
AcDbLine
 10
440.8718456658244
 20
220.2891700735321
 30
0.0
 11
440.8718456658296
 21
199.2791650735322
 31
0.0
  0
ARC
  5
1AA
330
1F
100
AcDbEntity
  8
0
100
AcDbCircle
 10
434.2025306658357
 20
174.0170050735305
 30
0.0
 40
3.0
100
AcDbArc
 50
0.0000000000138418
 51
90.00000000001303
  0
ARC
  5
1AB
330
1F
100
AcDbEntity
  8
0
100
AcDbCircle
 10
428.7025106658348
 20
178.0170100735292
 30
0.0
 40
1.000000035
100
AcDbArc
 50
180.0000000000138
 51
270.000000000013
  0
ARC
  5
1AC
330
1F
100
AcDbEntity
  8
0
100
AcDbCircle
 10
432.2025056658337
 20
182.21696507353
 30
0.0
 40
1.000000035
100
AcDbArc
 50
270.000000000013
 51
0.0000000000138418
  0
ARC
  5
1AD
330
1F
100
AcDbEntity
  8
0
100
AcDbCircle
 10
435.2025056658313
 20
192.0622750735307
 30
0.0
 40
2.000000099999999
100
AcDbArc
 50
120.0003400000122
 51
180.0000000000138
  0
ARC
  5
1AE
330
1F
100
AcDbEntity
  8
0
100
AcDbCircle
 10
438.7025306658249
 20
218.2169650735316
 30
0.0
 40
3.0
100
AcDbArc
 50
0.0000000000138418
 51
90.00000000001303
  0
ARC
  5
1AF
330
1F
100
AcDbEntity
  8
0
100
AcDbCircle
 10
439.7025056658296
 20
199.2791650735319
 30
0.0
 40
2.000000099999999
100
AcDbArc
 50
300.0003400000122
 51
0.0000000000138418
  0
ARC
  5
1B0
330
1F
100
AcDbEntity
  8
0
100
AcDbCircle
 10
437.5968656658289
 20
202.1913850735313
 30
0.0
 40
5.2216455
100
AcDbArc
 50
237.1515390000134
 51
302.8484600000102
  0
ARC
  5
1B1
330
1F
100
AcDbEntity
  8
0
100
AcDbCircle
 10
433.6796906658303
 20
196.1244400735304
 30
0.0
 40
2.000000099999999
100
AcDbArc
 50
57.15178000001351
 51
90.00000000001303
  0
ARC
  5
1B2
330
1F
100
AcDbEntity
  8
0
100
AcDbCircle
 10
441.5140406658304
 20
196.1244400735323
 30
0.0
 40
2.000000099999999
100
AcDbArc
 50
95.29642000001762
 51
122.8482200000117
  0
ARC
  5
1B3
330
1F
100
AcDbEntity
  8
0
100
AcDbCircle
 10
416.7025106658395
 20
216.1242700735262
 30
0.0
 40
19.1545275
100
AcDbArc
 50
250.9820000000001
 51
289.0180334814351
  0
LINE
  5
1B4
330
1F
100
AcDbEntity
  8
0
100
AcDbLine
 10
423.2524556658241
 20
221.2169650735278
 30
0.0
 11
423.2524556658296
 21
199.2791650735278
 31
0.0
  0
LINE
  5
1B5
330
1F
100
AcDbEntity
  8
0
100
AcDbLine
 10
423.5960306658299
 20
198.1244350735279
 30
0.0
 11
433.6796906658299
 21
198.1244350735304
 31
0.0
  0
ARC
  5
1B6
330
1F
100
AcDbEntity
  8
0
100
AcDbCircle
 10
423.5960306658303
 20
196.1244400735278
 30
0.0
 40
2.000000099999999
100
AcDbArc
 50
90.00000000001303
 51
109.0176100000111
  0
CIRCLE
  5
1B7
330
1F
100
AcDbEntity
  8
0
100
AcDbCircle
 10
276.7074228631587
 20
336.9399683213177
 30
0.0
 40
6.75
  0
ARC
  5
1B8
330
1F
100
AcDbEntity
  8
0
100
AcDbCircle
 10
276.7074228631587
 20
336.9399683213177
 30
0.0
 40
25.00000199999999
100
AcDbArc
 50
137.0449799999998
 51
162.969400000001
  0
ARC
  5
1B9
330
1F
100
AcDbEntity
  8
0
100
AcDbCircle
 10
276.7074228631587
 20
336.9399683213177
 30
0.0
 40
25.00000199999999
100
AcDbArc
 50
77.04492099999949
 51
102.9550699999992
  0
ARC
  5
1BA
330
1F
100
AcDbEntity
  8
0
100
AcDbCircle
 10
240.2074128631586
 20
336.9399683213177
 30
0.0
 40
14.00000099999999
100
AcDbArc
 50
335.0793099999985
 51
24.92068699999886
  0
ARC
  5
1BB
330
1F
100
AcDbEntity
  8
0
100
AcDbCircle
 10
254.7176928631586
 20
343.6817933213177
 30
0.0
 40
2.000000099999999
100
AcDbArc
 50
162.9554599999998
 51
204.9203599999994
  0
ARC
  5
1BC
330
1F
100
AcDbEntity
  8
0
100
AcDbCircle
 10
254.7176928631586
 20
330.1981283213176
 30
0.0
 40
2.000000099999999
100
AcDbArc
 50
155.0796400000005
 51
197.0445400000001
  0
ARC
  5
1BD
330
1F
100
AcDbEntity
  8
0
100
AcDbCircle
 10
271.5511278631586
 20
314.5254083213176
 30
0.0
 40
2.000000099999999
100
AcDbArc
 50
215.0790399999985
 51
257.0447499999997
  0
ARC
  5
1BE
330
1F
100
AcDbEntity
  8
0
100
AcDbCircle
 10
259.8739878631586
 20
321.2672033213177
 30
0.0
 40
2.000000099999999
100
AcDbArc
 50
222.9548899999966
 51
264.9208600000001
  0
ARC
  5
1BF
330
1F
100
AcDbEntity
  8
0
100
AcDbCircle
 10
258.4574328631587
 20
305.3300333213177
 30
0.0
 40
14.00000099999999
100
AcDbArc
 50
35.07936400000142
 51
84.92067799999729
  0
ARC
  5
1C0
330
1F
100
AcDbEntity
  8
0
100
AcDbCircle
 10
294.9574128631587
 20
305.3300333213177
 30
0.0
 40
14.00000099999999
100
AcDbArc
 50
95.0793220000027
 51
144.9206399999978
  0
ARC
  5
1C1
330
1F
100
AcDbEntity
  8
0
100
AcDbCircle
 10
293.5408578631586
 20
321.2672033213177
 30
0.0
 40
2.000000099999999
100
AcDbArc
 50
275.0791399999998
 51
317.0451100000032
  0
ARC
  5
1C2
330
1F
100
AcDbEntity
  8
0
100
AcDbCircle
 10
281.8637178631586
 20
314.5254083213176
 30
0.0
 40
2.000000099999999
100
AcDbArc
 50
282.9552500000002
 51
324.9209600000014
  0
ARC
  5
1C3
330
1F
100
AcDbEntity
  8
0
100
AcDbCircle
 10
298.6971528631586
 20
330.1981283213176
 30
0.0
 40
2.000000099999999
100
AcDbArc
 50
342.9554599999998
 51
24.92035900000086
  0
ARC
  5
1C4
330
1F
100
AcDbEntity
  8
0
100
AcDbCircle
 10
298.6971528631586
 20
343.6817933213177
 30
0.0
 40
2.000000099999999
100
AcDbArc
 50
335.0796400000005
 51
17.04454299999918
  0
ARC
  5
1C5
330
1F
100
AcDbEntity
  8
0
100
AcDbCircle
 10
313.2074328631587
 20
336.9399683213177
 30
0.0
 40
14.00000099999999
100
AcDbArc
 50
155.0793099999986
 51
204.9206900000013
  0
ARC
  5
1C6
330
1F
100
AcDbEntity
  8
0
100
AcDbCircle
 10
294.9574128631587
 20
368.5498883213177
 30
0.0
 40
14.00000099999999
100
AcDbArc
 50
215.079360000002
 51
264.9206800000048
  0
ARC
  5
1C7
330
1F
100
AcDbEntity
  8
0
100
AcDbCircle
 10
293.5408578631586
 20
352.6127183213177
 30
0.0
 40
2.000000099999999
100
AcDbArc
 50
42.95488900000075
 51
84.9208569999994
  0
ARC
  5
1C8
330
1F
100
AcDbEntity
  8
0
100
AcDbCircle
 10
281.8637178631586
 20
359.3545133213176
 30
0.0
 40
2.000000099999999
100
AcDbArc
 50
35.07904099999921
 51
77.04474999999975
  0
ARC
  5
1C9
330
1F
100
AcDbEntity
  8
0
100
AcDbCircle
 10
258.4574328631587
 20
368.5498883213177
 30
0.0
 40
14.00000099999999
100
AcDbArc
 50
275.0793199999951
 51
324.9206399999978
  0
ARC
  5
1CA
330
1F
100
AcDbEntity
  8
0
100
AcDbCircle
 10
271.5511278631586
 20
359.3545133213176
 30
0.0
 40
2.000000099999999
100
AcDbArc
 50
102.9552500000002
 51
144.9209600000014
  0
ARC
  5
1CB
330
1F
100
AcDbEntity
  8
0
100
AcDbCircle
 10
276.7074228631587
 20
336.9399683213177
 30
0.0
 40
25.00000199999999
100
AcDbArc
 50
197.0593700000002
 51
222.9550200000001
  0
ARC
  5
1CC
330
1F
100
AcDbEntity
  8
0
100
AcDbCircle
 10
259.8739878631586
 20
352.6127183213177
 30
0.0
 40
2.000000099999999
100
AcDbArc
 50
95.07914300000059
 51
137.0451100000033
  0
ARC
  5
1CD
330
1F
100
AcDbEntity
  8
0
100
AcDbCircle
 10
276.7074228631587
 20
336.9399683213177
 30
0.0
 40
25.00000199999999
100
AcDbArc
 50
257.0449300000007
 51
282.95508
  0
ARC
  5
1CE
330
1F
100
AcDbEntity
  8
0
100
AcDbCircle
 10
276.7074228631587
 20
336.9399683213177
 30
0.0
 40
25.00000199999999
100
AcDbArc
 50
317.0449799999999
 51
342.9550500000004
  0
ARC
  5
1CF
330
1F
100
AcDbEntity
  8
0
100
AcDbCircle
 10
276.7074228631587
 20
336.9399683213177
 30
0.0
 40
25.00000199999999
100
AcDbArc
 50
17.05937299999983
 51
42.95502399999958
  0
LINE
  5
1D0
330
1F
100
AcDbEntity
  8
0
  6
Continuous
100
AcDbLine
 10
310.707422863159
 20
166.2170200735263
 30
0.0
 11
242.707422863159
 21
166.2170200735263
 31
0.0
  0
LINE
  5
1D1
330
1F
100
AcDbEntity
  8
0
100
AcDbLine
 10
265.7074278631594
 20
178.0170100735263
 30
0.0
 11
265.7074278631594
 21
180.7170100735262
 31
0.0
  0
LINE
  5
1D2
330
1F
100
AcDbEntity
  8
0
100
AcDbLine
 10
259.2074028631594
 20
177.0170050735262
 30
0.0
 11
264.7074228631594
 21
177.0170050735262
 31
0.0
  0
LINE
  5
1D3
330
1F
100
AcDbEntity
  8
0
100
AcDbLine
 10
256.2074028631594
 20
166.2170200735263
 30
0.0
 11
256.2074028631594
 21
174.0170050735262
 31
0.0
  0
LINE
  5
1D4
330
1F
100
AcDbEntity
  8
0
100
AcDbLine
 10
259.2074028631594
 20
177.0170050735262
 30
0.0
 11
294.2074428631557
 21
177.0170050735262
 31
0.0
  0
LINE
  5
1D5
330
1F
100
AcDbEntity
  8
0
100
AcDbLine
 10
265.7074278631594
 20
180.7170100735262
 30
0.0
 11
287.7074178631541
 21
180.7170100735262
 31
0.0
  0
LINE
  5
1D6
330
1F
100
AcDbEntity
  8
0
100
AcDbLine
 10
266.6074128631594
 20
181.2169600735263
 30
0.0
 11
266.6074128631594
 21
180.7170100735262
 31
0.0
  0
LINE
  5
1D7
330
1F
100
AcDbEntity
  8
0
100
AcDbLine
 10
298.7074278631594
 20
221.2169650735262
 30
0.0
 11
254.7074028631594
 21
221.2169650735262
 31
0.0
  0
LINE
  5
1D8
330
1F
100
AcDbEntity
  8
0
100
AcDbLine
 10
260.2074228631594
 20
193.2169600735263
 30
0.0
 11
293.2074228631512
 21
193.2169600735263
 31
0.0
  0
LINE
  5
1D9
330
1F
100
AcDbEntity
  8
0
100
AcDbLine
 10
259.2074328631594
 20
193.7943100735262
 30
0.0
 11
252.7074228631594
 21
197.5471000735262
 31
0.0
  0
LINE
  5
1DA
330
1F
100
AcDbEntity
  8
0
100
AcDbLine
 10
260.2074228631594
 20
182.2169650735262
 30
0.0
 11
260.2074228631594
 21
192.0622750735262
 31
0.0
  0
LINE
  5
1DB
330
1F
100
AcDbEntity
  8
0
100
AcDbLine
 10
251.7074028631594
 20
218.2169650735263
 30
0.0
 11
251.7074028631594
 21
199.2791650735263
 31
0.0
  0
LINE
  5
1DC
330
1F
100
AcDbEntity
  8
0
100
AcDbLine
 10
270.1574778631594
 20
221.2169650735262
 30
0.0
 11
270.1574778631594
 21
199.2791650735263
 31
0.0
  0
LINE
  5
1DD
330
1F
100
AcDbEntity
  8
0
100
AcDbLine
 10
259.0880478631595
 20
221.2169650735262
 30
0.0
 11
259.0880478631595
 21
199.2791650735263
 31
0.0
  0
LINE
  5
1DE
330
1F
100
AcDbEntity
  8
0
100
AcDbLine
 10
252.5380878631594
 20
220.2891700735262
 30
0.0
 11
252.5380878631594
 21
199.2791650735263
 31
0.0
  0
LINE
  5
1DF
330
1F
100
AcDbEntity
  8
0
100
AcDbLine
 10
269.8139028631594
 20
198.1244350735263
 30
0.0
 11
259.7302428631594
 21
198.1244350735263
 31
0.0
  0
LINE
  5
1E0
330
1F
100
AcDbEntity
  8
0
100
AcDbLine
 10
292.2074178631539
 20
181.2169600735263
 30
0.0
 11
261.2074278631594
 21
181.2169600735263
 31
0.0
  0
ARC
  5
1E1
330
1F
100
AcDbEntity
  8
0
100
AcDbCircle
 10
259.2074028631594
 20
174.0170050735262
 30
0.0
 40
3.0
100
AcDbArc
 50
90.0
 51
180.0
  0
ARC
  5
1E2
330
1F
100
AcDbEntity
  8
0
100
AcDbCircle
 10
264.7074228631594
 20
178.0170100735263
 30
0.0
 40
1.000000035
100
AcDbArc
 50
270.0
 51
0.0
  0
ARC
  5
1E3
330
1F
100
AcDbEntity
  8
0
100
AcDbCircle
 10
261.2074278631594
 20
182.2169650735262
 30
0.0
 40
1.000000035
100
AcDbArc
 50
180.0
 51
270.0
  0
ARC
  5
1E4
330
1F
100
AcDbEntity
  8
0
100
AcDbCircle
 10
258.2074278631594
 20
192.0622750735262
 30
0.0
 40
2.000000099999999
100
AcDbArc
 50
0.0
 51
59.99965999999912
  0
ARC
  5
1E5
330
1F
100
AcDbEntity
  8
0
100
AcDbCircle
 10
254.7074028631594
 20
218.2169650735263
 30
0.0
 40
3.0
100
AcDbArc
 50
90.0
 51
180.0
  0
ARC
  5
1E6
330
1F
100
AcDbEntity
  8
0
100
AcDbCircle
 10
253.7074278631594
 20
199.2791650735263
 30
0.0
 40
2.000000099999999
100
AcDbArc
 50
180.0
 51
239.999659999999
  0
ARC
  5
1E7
330
1F
100
AcDbEntity
  8
0
100
AcDbCircle
 10
255.8130678631594
 20
202.1913850735263
 30
0.0
 40
5.2216455
100
AcDbArc
 50
237.1515400000033
 51
302.848461
  0
ARC
  5
1E8
330
1F
100
AcDbEntity
  8
0
100
AcDbCircle
 10
269.8139028631594
 20
196.1244400735262
 30
0.0
 40
2.000000099999999
100
AcDbArc
 50
70.98238999999914
 51
90.0
  0
ARC
  5
1E9
330
1F
100
AcDbEntity
  8
0
100
AcDbCircle
 10
259.7302428631594
 20
196.1244400735262
 30
0.0
 40
2.000000099999999
100
AcDbArc
 50
90.0
 51
122.8482199999982
  0
ARC
  5
1EA
330
1F
100
AcDbEntity
  8
0
100
AcDbCircle
 10
251.8958928631594
 20
196.1244400735262
 30
0.0
 40
2.000000099999999
100
AcDbArc
 50
57.15178000000175
 51
84.70357999999876
  0
LINE
  5
1EB
330
1F
100
AcDbEntity
  8
0
100
AcDbLine
 10
287.7074178631547
 20
178.017010073529
 30
0.0
 11
287.7074178631541
 21
180.7170100735289
 31
0.0
  0
LINE
  5
1EC
330
1F
100
AcDbEntity
  8
0
100
AcDbLine
 10
297.2074428631577
 20
166.2170200735313
 30
0.0
 11
297.2074428631557
 21
174.0170050735313
 31
0.0
  0
LINE
  5
1ED
330
1F
100
AcDbEntity
  8
0
100
AcDbLine
 10
286.807432863154
 20
181.2169600735287
 30
0.0
 11
286.8074328631541
 21
180.7170100735287
 31
0.0
  0
LINE
  5
1EE
330
1F
100
AcDbEntity
  8
0
100
AcDbLine
 10
294.2074128631508
 20
193.7943100735305
 30
0.0
 11
300.7074228631499
 21
197.5471000735321
 31
0.0
  0
LINE
  5
1EF
330
1F
100
AcDbEntity
  8
0
100
AcDbLine
 10
293.2074228631536
 20
182.2169650735303
 30
0.0
 11
293.2074228631512
 21
192.0622750735303
 31
0.0
  0
LINE
  5
1F0
330
1F
100
AcDbEntity
  8
0
100
AcDbLine
 10
301.7074428631448
 20
218.2169650735324
 30
0.0
 11
301.7074428631494
 21
199.2791650735324
 31
0.0
  0
LINE
  5
1F1
330
1F
100
AcDbEntity
  8
0
100
AcDbLine
 10
294.326797863144
 20
221.2169650735306
 30
0.0
 11
294.3267978631494
 21
199.2791650735306
 31
0.0
  0
LINE
  5
1F2
330
1F
100
AcDbEntity
  8
0
100
AcDbLine
 10
300.8767578631443
 20
220.2891700735322
 30
0.0
 11
300.8767578631495
 21
199.2791650735322
 31
0.0
  0
ARC
  5
1F3
330
1F
100
AcDbEntity
  8
0
100
AcDbCircle
 10
294.2074428631557
 20
174.0170050735305
 30
0.0
 40
3.0
100
AcDbArc
 50
0.0000000000138418
 51
90.00000000001303
  0
ARC
  5
1F4
330
1F
100
AcDbEntity
  8
0
100
AcDbCircle
 10
288.7074228631547
 20
178.0170100735292
 30
0.0
 40
1.000000035
100
AcDbArc
 50
180.0000000000138
 51
270.000000000013
  0
ARC
  5
1F5
330
1F
100
AcDbEntity
  8
0
100
AcDbCircle
 10
292.2074178631536
 20
182.2169650735301
 30
0.0
 40
1.000000035
100
AcDbArc
 50
270.000000000013
 51
0.0000000000138418
  0
ARC
  5
1F6
330
1F
100
AcDbEntity
  8
0
100
AcDbCircle
 10
295.2074178631513
 20
192.0622750735308
 30
0.0
 40
2.000000099999999
100
AcDbArc
 50
120.0003400000122
 51
180.0000000000138
  0
ARC
  5
1F7
330
1F
100
AcDbEntity
  8
0
100
AcDbCircle
 10
298.7074428631448
 20
218.2169650735317
 30
0.0
 40
3.0
100
AcDbArc
 50
0.0000000000138418
 51
90.00000000001303
  0
ARC
  5
1F8
330
1F
100
AcDbEntity
  8
0
100
AcDbCircle
 10
299.7074178631494
 20
199.2791650735319
 30
0.0
 40
2.000000099999999
100
AcDbArc
 50
300.0003400000122
 51
0.0000000000138418
  0
ARC
  5
1F9
330
1F
100
AcDbEntity
  8
0
100
AcDbCircle
 10
297.6017778631488
 20
202.1913850735314
 30
0.0
 40
5.2216455
100
AcDbArc
 50
237.1515390000134
 51
302.8484600000102
  0
ARC
  5
1FA
330
1F
100
AcDbEntity
  8
0
100
AcDbCircle
 10
293.6846028631503
 20
196.1244400735304
 30
0.0
 40
2.000000099999999
100
AcDbArc
 50
57.15178000001351
 51
90.00000000001303
  0
ARC
  5
1FB
330
1F
100
AcDbEntity
  8
0
100
AcDbCircle
 10
301.5189528631503
 20
196.1244400735323
 30
0.0
 40
2.000000099999999
100
AcDbArc
 50
95.29642000001762
 51
122.8482200000117
  0
ARC
  5
1FC
330
1F
100
AcDbEntity
  8
0
100
AcDbCircle
 10
276.7074228631595
 20
216.1242700735263
 30
0.0
 40
19.1545275
100
AcDbArc
 50
250.9820000000001
 51
289.0180334814351
  0
LINE
  5
1FD
330
1F
100
AcDbEntity
  8
0
100
AcDbLine
 10
283.2573678631441
 20
221.2169650735278
 30
0.0
 11
283.2573678631495
 21
199.2791650735279
 31
0.0
  0
LINE
  5
1FE
330
1F
100
AcDbEntity
  8
0
100
AcDbLine
 10
283.6009428631498
 20
198.124435073528
 30
0.0
 11
293.6846028631498
 21
198.1244350735305
 31
0.0
  0
ARC
  5
1FF
330
1F
100
AcDbEntity
  8
0
100
AcDbCircle
 10
283.6009428631502
 20
196.1244400735279
 30
0.0
 40
2.000000099999999
100
AcDbArc
 50
90.00000000001303
 51
109.0176100000111
  0
LINE
  5
263
330
1F
100
AcDbEntity
  8
0
  6
CENTER
100
AcDbLine
 10
318.0547107453272
 20
336.9399683213178
 30
0.0
 11
235.3601349809901
 21
336.9399683213176
 31
0.0
  0
LINE
  5
264
330
1F
100
AcDbEntity
  8
0
  6
CENTER
100
AcDbLine
 10
276.7074228631587
 20
270.6348637073846
 30
0.0
 11
276.7074228631587
 21
403.2450729352508
 31
0.0
  0
LINE
  5
265
330
1F
100
AcDbEntity
  8
0
  6
CENTER
100
AcDbLine
 10
307.5385543247448
 20
138.5169544607377
 30
0.0
 11
245.8762914015733
 21
138.5169544607374
 31
0.0
  0
LINE
  5
266
330
1F
100
AcDbEntity
  8
0
  6
CENTER
100
AcDbLine
 10
276.7074228631591
 20
109.6501742434842
 30
0.0
 11
276.7074228631591
 21
230.4278017060624
 31
0.0
  0
LINE
  5
267
330
1F
100
AcDbEntity
  8
0
  6
CENTER
100
AcDbLine
 10
473.8302575621485
 20
138.5169544607333
 30
0.0
 11
359.5747637695306
 21
138.5169544607333
 31
0.0
  0
LINE
  5
268
330
1F
100
AcDbEntity
  8
0
  6
CENTER
100
AcDbLine
 10
416.7025106658376
 20
125.1584713719813
 30
0.0
 11
416.7025106658376
 21
230.6425002843362
 31
0.0
  0
SPLINE
  5
43A
330
1F
100
AcDbEntity
  8
Visible (ISO)
100
AcDbSpline
210
0.0
220
0.0
230
1.0
 70
     8
 71
     3
 72
     8
 73
     4
 74
     0
 42
0.0000000001
 43
0.0000000001
 40
1.408775630527585
 40
1.408775630527585
 40
1.408775630527585
 40
1.408775630527585
 40
1.496912165487497
 40
1.496912165487497
 40
1.496912165487497
 40
1.496912165487497
 10
948.3034456981693
 20
191.0002979974951
 30
0.0
 10
948.5590158540215
 20
190.8427850506549
 30
0.0
 10
948.8157121687006
 20
190.6781553531063
 30
0.0
 10
949.0704817358908
 20
190.5068035176508
 30
0.0
  0
LINE
  5
43B
330
1F
100
AcDbEntity
  8
Visible (ISO)
100
AcDbLine
 10
927.6641491980365
 20
181.8110911510474
 30
0.0
 11
948.3034456981693
 21
191.0002979974951
 31
0.0
  0
SPLINE
  5
43C
330
1F
100
AcDbEntity
  8
Visible (ISO)
100
AcDbSpline
210
0.0
220
0.0
230
1.0
 70
     8
 71
     3
 72
    14
 73
    10
 74
     0
 42
0.0000000001
 43
0.0000000001
 40
2.027893901294498
 40
2.027893901294498
 40
2.027893901294498
 40
2.027893901294498
 40
2.309187565547178
 40
2.309187565547178
 40
2.69372287949158
 40
2.69372287949158
 40
3.078258193435982
 40
3.078258193435982
 40
3.359551857688662
 40
3.359551857688662
 40
3.359551857688662
 40
3.359551857688662
 10
932.2785088618768
 20
171.4470696580428
 30
0.0
 10
931.7564839586404
 20
171.7414976442859
 30
0.0
 10
931.2208610205427
 20
172.1455503529568
 30
0.0
 10
930.0413449107148
 20
173.3640272807978
 30
0.0
 10
929.4350626936319
 20
174.2848805062339
 30
0.0
 10
928.5320602986997
 20
176.3130570921747
 30
0.0
 10
928.1768908753759
 20
177.5516596074239
 30
0.0
 10
927.7978870130612
 20
179.833675849878
 30
0.0
 10
927.7059779024542
 20
180.839083199401
 30
0.0
 10
927.6641491980365
 20
181.8110911510474
 30
0.0
  0
LINE
  5
43D
330
1F
100
AcDbEntity
  8
Visible (ISO)
100
AcDbLine
 10
952.9178053620096
 20
180.6362765044895
 30
0.0
 11
932.2785088618768
 21
171.4470696580428
 31
0.0
  0
SPLINE
  5
43E
330
1F
100
AcDbEntity
  8
Visible (ISO)
100
AcDbSpline
210
0.0
220
0.0
230
1.0
 70
     8
 71
     3
 72
     8
 73
     4
 74
     0
 42
0.0000000001
 43
0.0000000001
 40
2.735440551106417
 40
2.735440551106417
 40
2.735440551106417
 40
2.735440551106417
 40
2.823577086066327
 40
2.823577086066327
 40
2.823577086066327
 40
2.823577086066327
 10
953.2022152191377
 20
181.2267781743057
 30
0.0
 10
953.1145662264714
 20
181.0227716762864
 30
0.0
 10
953.0189604098115
 20
180.8256074590553
 30
0.0
 10
952.9178053620096
 20
180.6362765044895
 30
0.0
  0
LINE
  5
43F
330
1F
100
AcDbEntity
  8
Visible (ISO)
100
AcDbLine
 10
949.0704817358908
 20
190.5068035176508
 30
0.0
 11
953.2022152191377
 21
181.2267781743057
 31
0.0
  0
SPLINE
  5
440
330
1F
100
AcDbEntity
  8
Visible (ISO)
100
AcDbSpline
210
0.0
220
0.0
230
1.0
 70
     8
 71
     3
 72
    10
 73
     6
 74
     0
 42
0.0000000001
 43
0.0000000001
 40
2.027893901294498
 40
2.027893901294498
 40
2.027893901294498
 40
2.027893901294498
 40
2.30918756554718
 40
2.30918756554718
 40
2.693722879491582
 40
2.693722879491582
 40
2.693722879491584
 40
2.693722879491584
 10
925.064720039427
 20
187.6495046324425
 30
0.0
 10
924.9107863950197
 20
187.1171861152042
 30
0.0
 10
924.7639500474177
 20
186.6480098444198
 30
0.0
 10
924.4950686077634
 20
185.8211678154602
 30
0.0
 10
924.4077742615633
 20
185.5763551976842
 30
0.0
 10
924.4077742615633
 20
185.5763551976842
 30
0.0
  0
LINE
  5
441
330
1F
100
AcDbEntity
  8
Visible (ISO)
100
AcDbLine
 10
945.7040165395598
 20
196.8387114788901
 30
0.0
 11
925.064720039427
 21
187.6495046324425
 31
0.0
  0
SPLINE
  5
442
330
1F
100
AcDbEntity
  8
Visible (ISO)
100
AcDbSpline
210
0.0
220
0.0
230
1.0
 70
     8
 71
     3
 72
     8
 73
     4
 74
     0
 42
0.0000000001
 43
0.0000000001
 40
2.73544055110642
 40
2.73544055110642
 40
2.73544055110642
 40
2.73544055110642
 40
2.823577086066332
 40
2.823577086066332
 40
2.823577086066332
 40
2.823577086066332
 10
946.2986897055886
 20
196.7323503473225
 30
0.0
 10
946.1052230896637
 20
196.7660141224705
 30
0.0
 10
945.905984664221
 20
196.8016125555404
 30
0.0
 10
945.7040165395598
 20
196.8387114788901
 30
0.0
  0
SPLINE
  5
443
330
1F
100
AcDbEntity
  8
Visible (ISO)
100
AcDbSpline
210
0.0
220
0.0
230
1.0
 70
     8
 71
     3
 72
     8
 73
     4
 74
     0
 42
0.0000000001
 43
0.0000000001
 40
1.408775630527585
 40
1.408775630527585
 40
1.408775630527585
 40
1.408775630527585
 40
1.496912165487497
 40
1.496912165487497
 40
1.496912165487497
 40
1.496912165487497
 10
965.3304525016768
 20
152.7570145673007
 30
0.0
 10
965.4380200117978
 20
152.9319210054081
 30
0.0
 10
965.5448872963413
 20
153.1038128193421
 30
0.0
 10
965.6493247932901
 20
153.2701123419437
 30
0.0
  0
LINE
  5
444
330
1F
100
AcDbEntity
  8
Visible (ISO)
100
AcDbLine
 10
944.691156001544
 20
143.567807720853
 30
0.0
 11
965.3304525016768
 21
152.7570145673007
 31
0.0
  0
SPLINE
  5
445
330
1F
100
AcDbEntity
  8
Visible (ISO)
100
AcDbSpline
210
0.0
220
0.0
230
1.0
 70
     8
 71
     3
 72
    10
 73
     6
 74
     0
 42
0.0000000001
 43
0.0000000001
 40
2.693722879491578
 40
2.693722879491578
 40
2.693722879491581
 40
2.693722879491581
 40
3.078258193435982
 40
3.078258193435982
 40
3.359551857688663
 40
3.359551857688663
 40
3.359551857688663
 40
3.359551857688663
 10
942.7109231999741
 20
144.4668096037666
 30
0.0
 10
942.7109231999741
 20
144.4668096037666
 30
0.0
 10
942.951265748891
 20
144.3678703300619
 30
0.0
 10
943.745645924954
 20
144.0144228724065
 30
0.0
 10
944.1925645371309
 20
143.8096033417595
 30
0.0
 10
944.691156001544
 20
143.567807720853
 30
0.0
  0
LINE
  5
446
330
1F
100
AcDbEntity
  8
Visible (ISO)
100
AcDbLine
 10
958.7457992797414
 20
168.7756845149605
 30
0.0
 11
953.2022152191377
 21
181.2267781743057
 31
0.0
  0
LINE
  5
447
330
1F
100
AcDbEntity
  8
Visible (ISO)
100
AcDbLine
 10
965.6493247932901
 20
153.2701123419428
 30
0.0
 11
962.8775327629885
 21
159.4956591716153
 31
0.0
  0
LINE
  5
448
330
1F
100
AcDbEntity
  8
Visible (ISO)
100
AcDbLine
 10
949.0704817358908
 20
190.5068035176508
 30
0.0
 11
946.2986897055886
 21
196.7323503473225
 31
0.0
  0
LINE
  5
449
330
1F
100
AcDbEntity
  8
Visible (ISO)
100
AcDbLine
 10
958.116663679227
 20
168.9594495417003
 30
0.0
 11
952.9178053620096
 21
180.6362765044895
 31
0.0
  0
LINE
  5
44A
330
1F
100
AcDbEntity
  8
Visible (ISO)
100
AcDbLine
 10
965.3304525016768
 20
152.7570145673007
 30
0.0
 11
962.7310233430673
 21
158.5954280486957
 31
0.0
  0
LINE
  5
44B
330
1F
100
AcDbEntity
  8
Visible (ISO)
100
AcDbLine
 10
937.4773671790942
 20
159.7702426952536
 30
0.0
 11
932.2785088618768
 21
171.4470696580428
 31
0.0
  0
LINE
  5
44C
330
1F
100
AcDbEntity
  8
Visible (ISO)
100
AcDbLine
 10
944.691156001544
 20
143.567807720853
 30
0.0
 11
942.0917268429345
 21
149.4062212022481
 31
0.0
  0
LINE
  5
44D
330
1F
100
AcDbEntity
  8
Visible (ISO)
100
AcDbLine
 10
916.3183710719652
 20
138.1892697104066
 30
0.0
 11
902.0825885643123
 21
170.1633607278972
 31
0.0
  0
LINE
  5
44E
330
1F
100
AcDbEntity
  8
Visible (ISO)
100
AcDbLine
 10
925.2297980968439
 20
143.2515289274223
 30
0.0
 11
911.8074888753428
 21
173.3985290296286
 31
0.0
  0
LINE
  5
44F
330
1F
100
AcDbEntity
  8
Visible (ISO)
100
AcDbLine
 10
937.1058890461975
 20
148.5391052874082
 30
0.0
 11
923.6835798246968
 21
178.6861053896145
 31
0.0
  0
LINE
  5
450
330
1F
100
AcDbEntity
  8
Visible (ISO)
100
AcDbLine
 10
927.6641491980365
 20
181.8110911510484
 30
0.0
 11
925.064720039427
 21
187.6495046324425
 31
0.0
  0
LINE
  5
451
330
1F
100
AcDbEntity
  8
Visible (ISO)
100
AcDbLine
 10
948.3034456981693
 20
191.0002979974951
 30
0.0
 11
945.7040165395598
 21
196.8387114788901
 31
0.0
  0
LINE
  5
452
330
1F
100
AcDbEntity
  8
Visible (ISO)
100
AcDbLine
 10
892.2162976217721
 20
165.7706049826783
 30
0.0
 11
902.0825885643123
 21
170.1633607278972
 31
0.0
  0
LINE
  5
453
330
1F
100
AcDbEntity
  8
Visible (ISO)
100
AcDbLine
 10
906.4520801294253
 20
133.7965139651887
 30
0.0
 11
916.3183710719652
 21
138.1892697104066
 31
0.0
  0
LINE
  5
454
330
1F
100
AcDbEntity
  8
Visible (ISO)
100
AcDbLine
 10
904.7263767443054
 20
164.2253152532202
 30
0.0
 11
914.0445404122599
 21
168.3740290125942
 31
0.0
  0
LINE
  5
455
330
1F
100
AcDbEntity
  8
0
  6
CENTER
100
AcDbLine
 10
848.4333723982585
 20
127.1210558725897
 30
0.0
 11
964.4139756706072
 21
178.7589473888383
 31
0.0
  0
LINE
  5
456
330
1F
100
AcDbEntity
  8
Visible (ISO)
100
AcDbLine
 10
913.6745828919723
 20
144.1273151850836
 30
0.0
 11
922.9927465599269
 21
148.2760289444567
 31
0.0
  0
LINE
  5
457
330
1F
100
AcDbEntity
  8
Visible (ISO)
100
AcDbLine
 10
911.8074888753428
 20
173.3985290296286
 30
0.0
 11
923.6835798246959
 21
178.6861053896136
 31
0.0
  0
LINE
  5
458
330
1F
100
AcDbEntity
  8
Visible (ISO)
100
AcDbLine
 10
925.2297980968439
 20
143.2515289274223
 30
0.0
 11
937.1058890461975
 21
148.5391052874082
 31
0.0
  0
LINE
  5
459
330
1F
100
AcDbEntity
  8
Visible (ISO)
100
AcDbLine
 10
923.6835798246959
 20
178.6861053896136
 30
0.0
 11
924.4077742615633
 21
185.5763551976842
 31
0.0
  0
LINE
  5
45A
330
1F
100
AcDbEntity
  8
Visible (ISO)
100
AcDbLine
 10
937.1058890461975
 20
148.5391052874082
 30
0.0
 11
942.7109231999741
 21
144.4668096037666
 31
0.0
  0
LINE
  5
45B
330
1F
100
AcDbEntity
  8
Visible (ISO)
100
AcDbLine
 10
958.7457992797414
 20
168.7756845149605
 30
0.0
 11
962.8775327629885
 21
159.4956591716153
 31
0.0
  0
SPLINE
  5
45C
330
1F
100
AcDbEntity
  8
Visible (ISO)
100
AcDbSpline
210
0.0
220
0.0
230
1.0
 70
     8
 71
     3
 72
     8
 73
     4
 74
     0
 42
0.0000000001
 43
0.0000000001
 40
1.408457373953741
 40
1.408457373953741
 40
1.408457373953741
 40
1.408457373953741
 40
1.496593908913653
 40
1.496593908913653
 40
1.496593908913653
 40
1.496593908913653
 10
958.116663679227
 20
168.9594495417003
 30
0.0
 10
958.3250388262934
 20
168.9079383201396
 30
0.0
 10
958.5355444417576
 20
168.8470546316402
 30
0.0
 10
958.7457992797414
 20
168.7756845149605
 30
0.0
  0
SPLINE
  5
45D
330
1F
100
AcDbEntity
  8
Visible (ISO)
100
AcDbSpline
210
0.0
220
0.0
230
1.0
 70
     8
 71
     3
 72
     8
 73
     4
 74
     0
 42
0.0000000001
 43
0.0000000001
 40
2.735122294532572
 40
2.735122294532572
 40
2.735122294532572
 40
2.735122294532572
 40
2.823258829492485
 40
2.823258829492485
 40
2.823258829492485
 40
2.823258829492485
 10
962.8775327629885
 20
159.4956591716153
 30
0.0
 10
962.8343983914266
 20
159.19167119762
 30
0.0
 10
962.7849809189395
 20
158.8907662608498
 30
0.0
 10
962.7310233430673
 20
158.5954280486957
 30
0.0
  0
LINE
  5
45E
330
1F
100
AcDbEntity
  8
Visible (ISO)
100
AcDbLine
 10
937.4773671790951
 20
159.7702426952536
 30
0.0
 11
958.116663679227
 21
168.9594495417003
 31
0.0
  0
LINE
  5
45F
330
1F
100
AcDbEntity
  8
Visible (ISO)
100
AcDbLine
 10
962.7310233430673
 20
158.5954280486957
 30
0.0
 11
942.091726842935
 21
149.4062212022481
 31
0.0
  0
SPLINE
  5
460
330
1F
100
AcDbEntity
  8
Visible (ISO)
100
AcDbSpline
210
0.0
220
0.0
230
1.0
 70
     8
 71
     3
 72
    14
 73
    10
 74
     0
 42
0.0000000001
 43
0.0000000001
 40
2.026856503107581
 40
2.026856503107581
 40
2.026856503107581
 40
2.026856503107581
 40
2.308150167360262
 40
2.308150167360262
 40
2.692685481304664
 40
2.692685481304664
 40
3.077220795249066
 40
3.077220795249066
 40
3.358514459501746
 40
3.358514459501746
 40
3.358514459501746
 40
3.358514459501746
 10
942.091726842935
 20
149.4062212022481
 30
0.0
 10
941.3973730296964
 20
150.0877062575636
 30
0.0
 10
940.7117089593109
 20
150.8287568669501
 30
0.0
 10
939.269443481279
 20
152.6373785380982
 30
0.0
 10
938.5866371628369
 20
153.7301077092751
 30
0.0
 10
937.6836347679057
 20
155.7582842952169
 30
0.0
 10
937.4049894459393
 20
156.8250108647252
 30
0.0
 10
937.2887349518299
 20
158.5168823638714
 30
0.0
 10
937.34686697351
 20
159.1852918126796
 30
0.0
 10
937.4773671790951
 20
159.7702426952536
 30
0.0
  0
LINE
  5
461
330
1F
100
AcDbEntity
  8
Visible (ISO)
100
AcDbLine
 10
895.3490983161453
 20
110.7916493741067
 30
0.0
 11
889.2907451066351
 21
124.3989334719671
 31
0.0
  0
LINE
  5
462
330
1F
100
AcDbEntity
  8
Visible (ISO)
100
AcDbLine
 10
887.5770152520924
 20
128.2480337458091
 30
0.0
 11
889.2907451066351
 21
124.398933471968
 31
0.0
  0
LINE
  5
463
330
1F
100
AcDbEntity
  8
Visible (ISO)
100
AcDbLine
 10
873.7493597965015
 20
159.3054563959421
 30
0.0
 11
875.4630896510446
 21
155.456356122102
 31
0.0
  0
LINE
  5
464
330
1F
100
AcDbEntity
  8
Visible (ISO)
100
AcDbLine
 10
873.7493597965015
 20
159.3054563959421
 30
0.0
 11
867.6910065869913
 21
172.9127404938035
 31
0.0
  0
LINE
  5
465
330
1F
100
AcDbEntity
  8
Visible (ISO)
100
AcDbLine
 10
900.2532905983459
 20
129.2797731888776
 30
0.0
 11
889.2907451066351
 21
124.398933471968
 31
0.0
  0
LINE
  5
466
330
1F
100
AcDbEntity
  8
Visible (ISO)
100
AcDbLine
 10
900.2532905983459
 20
129.2797731888776
 30
0.0
 11
884.7119052882124
 21
164.1862961128526
 31
0.0
  0
LINE
  5
467
330
1F
100
AcDbEntity
  8
Visible (ISO)
100
AcDbLine
 10
884.7119052882124
 20
164.1862961128526
 30
0.0
 11
873.7493597965015
 21
159.3054563959421
 31
0.0
  0
LINE
  5
468
330
1F
100
AcDbEntity
  8
Visible (ISO)
100
AcDbLine
 10
878.6535520787023
 20
177.7935802107139
 30
0.0
 11
884.7119052882124
 21
164.1862961128526
 31
0.0
  0
LINE
  5
469
330
1F
100
AcDbEntity
  8
Visible (ISO)
100
AcDbLine
 10
900.2532905983459
 20
129.2797731888776
 30
0.0
 11
906.3116438078562
 21
115.6724890910163
 31
0.0
  0
LINE
  5
46A
330
1F
100
AcDbEntity
  8
Visible (ISO)
100
AcDbLine
 10
878.6535520787023
 20
177.7935802107139
 30
0.0
 11
867.6910065869913
 21
172.9127404938035
 31
0.0
  0
LINE
  5
46B
330
1F
100
AcDbEntity
  8
Visible (ISO)
100
AcDbLine
 10
906.3116438078562
 20
115.6724890910163
 30
0.0
 11
895.3490983161453
 21
110.7916493741067
 31
0.0
  0
LINE
  5
46C
330
1F
100
AcDbEntity
  8
Visible (ISO)
100
AcDbLine
 10
885.9198657996978
 20
126.3675994269132
 30
0.0
 11
888.4142385517032
 21
126.3675994269132
 31
0.0
  0
LINE
  5
46D
330
1F
100
AcDbEntity
  8
Visible (ISO)
100
AcDbLine
 10
874.6258663514334
 20
157.3367904409978
 30
0.0
 11
872.9568051993995
 21
155.4831102375328
 31
0.0
  0
LINE
  5
46E
330
1F
100
AcDbEntity
  8
Visible (ISO)
100
AcDbLine
 10
864.0655782876331
 20
165.5664477611971
 30
0.0
 11
867.5228397537773
 21
157.8013113712349
 31
0.0
  0
LINE
  5
46F
330
1F
100
AcDbEntity
  8
Visible (ISO)
100
AcDbLine
 10
864.0655782876331
 20
165.5664477611971
 30
0.0
 11
869.820914670781
 21
168.1288886125748
 31
0.0
  0
LINE
  5
470
330
1F
100
AcDbEntity
  8
Visible (ISO)
100
AcDbLine
 10
867.5228397537773
 20
157.8013113712349
 30
0.0
 11
873.2781761369258
 21
160.3637522226126
 31
0.0
  0
LINE
  5
471
330
1F
100
AcDbEntity
  8
Visible (ISO)
100
AcDbLine
 10
887.4638538492066
 20
113.0130604039585
 30
0.0
 11
884.0065923830623
 21
120.7781967939199
 31
0.0
  0
LINE
  5
472
330
1F
100
AcDbEntity
  8
Visible (ISO)
100
AcDbLine
 10
893.219190232355
 20
115.5755012553353
 30
0.0
 11
887.4638538492066
 21
113.0130604039585
 31
0.0
  0
LINE
  5
473
330
1F
100
AcDbEntity
  8
Visible (ISO)
100
AcDbLine
 10
889.7619287662108
 20
123.3406376452975
 30
0.0
 11
884.0065923830623
 21
120.7781967939199
 31
0.0
  0
CIRCLE
  5
474
330
1F
100
AcDbEntity
  8
Visible (ISO)
100
AcDbCircle
 10
874.0289796988992
 20
138.5169544607333
 30
0.0
 40
16.99999999999997
  0
CIRCLE
  5
475
330
1F
100
AcDbEntity
  8
Visible (ISO)
100
AcDbCircle
 10
874.0289796988992
 20
138.5169544607333
 30
0.0
 40
9.199999999999985
  0
LINE
  5
476
330
1F
100
AcDbEntity
  8
Visible (ISO)
100
AcDbLine
 10
912.2496892825337
 20
118.3162772710092
 30
0.0
 11
906.1913360730233
 21
131.9235613688696
 31
0.0
  0
SPLINE
  5
477
330
1F
100
AcDbEntity
  8
Visible (ISO)
100
AcDbSpline
210
0.0
220
0.0
230
1.0
 70
    24
 71
     3
 72
     8
 73
     4
 74
     0
 42
0.0000000001
 43
0.0000000001
 40
-0.1438477767739135
 40
-0.1438477767739135
 40
-0.1438477767739135
 40
-0.1438477767739135
 40
0.0
 40
0.0
 40
0.0
 40
0.0
 10
912.2496892825337
 20
118.3162772710092
 30
0.0
 10
912.418655124817
 20
118.7564483390478
 30
0.0
 10
912.5876109630301
 20
119.1965933455948
 30
0.0
 10
912.7564980971003
 20
119.6365593717281
 30
0.0
  0
LINE
  5
478
330
1F
100
AcDbEntity
  8
Visible (ISO)
100
AcDbLine
 10
906.99769442928
 20
132.5710441833461
 30
0.0
 11
912.7564980971003
 21
119.6365593717272
 31
0.0
  0
SPLINE
  5
479
330
1F
100
AcDbEntity
  8
Visible (ISO)
100
AcDbSpline
210
0.0
220
0.0
230
1.0
 70
     8
 71
     3
 72
     8
 73
     4
 74
     0
 42
0.0000000001
 43
0.0000000001
 40
-0.1438477767741587
 40
-0.1438477767741587
 40
-0.1438477767741587
 40
-0.1438477767741587
 40
0.0
 40
0.0
 40
0.0
 40
0.0
 10
906.1913360730224
 20
131.9235613688696
 30
0.0
 10
906.4604157024103
 20
132.1388731894957
 30
0.0
 10
906.7292362835308
 20
132.3547183110594
 30
0.0
 10
906.99769442928
 20
132.5710441833461
 30
0.0
  0
SPLINE
  5
47A
330
1F
100
AcDbEntity
  8
Visible (ISO)
100
AcDbSpline
210
0.0
220
0.0
230
1.0
 70
    24
 71
     3
 72
     8
 73
     4
 74
     0
 42
0.0000000001
 43
0.0000000001
 40
-0.1438477767741587
 40
-0.1438477767741587
 40
-0.1438477767741587
 40
-0.1438477767741587
 40
0.0
 40
0.0
 40
0.0
 40
0.0
 10
884.5915975533786
 20
180.437368390706
 30
0.0
 10
885.0317686214165
 20
180.2684025484231
 30
0.0
 10
885.4719136279639
 20
180.099446710209
 30
0.0
 10
885.9118796540972
 20
179.9305595761388
 30
0.0
  0
LINE
  5
47B
330
1F
100
AcDbEntity
  8
Visible (ISO)
100
AcDbLine
 10
890.6499507628899
 20
166.8300842928446
 30
0.0
 11
884.5915975533797
 21
180.437368390706
 31
0.0
  0
SPLINE
  5
47C
330
1F
100
AcDbEntity
  8
Visible (ISO)
100
AcDbSpline
210
0.0
220
0.0
230
1.0
 70
     8
 71
     3
 72
     8
 73
     4
 74
     0
 42
0.0000000001
 43
0.0000000001
 40
-0.1438477767739135
 40
-0.1438477767739135
 40
-0.1438477767739135
 40
-0.1438477767739135
 40
0.0
 40
0.0
 40
0.0
 40
0.0
 10
890.6499507628899
 20
166.8300842928446
 30
0.0
 10
890.9900080438236
 20
166.8859776979742
 30
0.0
 10
891.3302883074637
 20
166.9413217447444
 30
0.0
 10
891.6706833219175
 20
166.9960747645208
 30
0.0
  0
LINE
  5
47D
330
1F
100
AcDbEntity
  8
Visible (ISO)
100
AcDbLine
 10
885.9118796540972
 20
179.9305595761397
 30
0.0
 11
891.6706833219175
 21
166.9960747645208
 31
0.0
  0
LINE
  5
47E
330
1F
100
AcDbEntity
  8
Visible (ISO)
100
AcDbLine
 10
890.6499507628899
 20
166.8300842928446
 30
0.0
 11
906.1913360730224
 21
131.9235613688696
 31
0.0
  0
LINE
  5
47F
330
1F
100
AcDbEntity
  8
Visible (ISO)
100
AcDbLine
 10
906.99769442928
 20
132.5710441833461
 30
0.0
 11
891.6706833219175
 21
166.9960747645208
 31
0.0
  0
LINE
  5
480
330
1F
100
AcDbEntity
  8
Visible (ISO)
100
AcDbLine
 10
879.5670975363453
 20
178.2003168537893
 30
0.0
 11
885.6254507458555
 21
164.593032755928
 31
0.0
  0
SPLINE
  5
481
330
1F
100
AcDbEntity
  8
Visible (ISO)
100
AcDbSpline
210
0.0
220
0.0
230
1.0
 70
    24
 71
     3
 72
     8
 73
     4
 74
     0
 42
0.0000000001
 43
0.0000000001
 40
-0.143847744367378
 40
-0.143847744367378
 40
-0.143847744367378
 40
-0.143847744367378
 40
0.0
 40
0.0
 40
0.0
 40
0.0
 10
905.9049071647807
 20
116.5860345486589
 30
0.0
 10
906.3448731909137
 20
116.4171474145886
 30
0.0
 10
906.7850181974606
 20
116.2481915763755
 30
0.0
 10
907.2251892654993
 20
116.0792257340917
 30
0.0
  0
SPLINE
  5
482
330
1F
100
AcDbEntity
  8
Visible (ISO)
100
AcDbSpline
210
0.0
220
0.0
230
1.0
 70
    24
 71
     3
 72
     8
 73
     4
 74
     0
 42
0.0000000001
 43
0.0000000001
 40
-0.1438477443675261
 40
-0.1438477443675261
 40
-0.1438477443675261
 40
-0.1438477443675261
 40
0.0
 40
0.0
 40
0.0
 40
0.0
 10
879.0602887217781
 20
176.8800347530704
 30
0.0
 10
879.2291758558478
 20
177.3200007792037
 30
0.0
 10
879.398131694062
 20
177.7601457857508
 30
0.0
 10
879.5670975363444
 20
178.2003168537893
 30
0.0
  0
SPLINE
  5
483
330
1F
100
AcDbEntity
  8
Visible (ISO)
100
AcDbSpline
210
0.0
220
0.0
230
1.0
 70
     8
 71
     3
 72
     8
 73
     4
 74
     0
 42
0.0000000001
 43
0.0000000001
 40
-0.143847744367378
 40
-0.143847744367378
 40
-0.143847744367378
 40
-0.143847744367378
 40
0.0
 40
0.0
 40
0.0
 40
0.0
 10
884.8190923895979
 20
163.9455499414524
 30
0.0
 10
885.0875505353476
 20
164.1618758137392
 30
0.0
 10
885.3563711164676
 20
164.3777209353019
 30
0.0
 10
885.6254507458555
 20
164.593032755928
 30
0.0
  0
SPLINE
  5
484
330
1F
100
AcDbEntity
  8
Visible (ISO)
100
AcDbSpline
210
0.0
220
0.0
230
1.0
 70
     8
 71
     3
 72
     8
 73
     4
 74
     0
 42
0.0000000001
 43
0.0000000001
 40
-0.1438477443672876
 40
-0.1438477443672876
 40
-0.1438477443672876
 40
-0.1438477443672876
 40
0.0
 40
0.0
 40
0.0
 40
0.0
 10
900.1461034969604
 20
129.5205193602777
 30
0.0
 10
900.4864985114148
 20
129.5752723800541
 30
0.0
 10
900.8267787750558
 20
129.6306164268252
 30
0.0
 10
901.1668360559886
 20
129.686509831953
 30
0.0
  0
LINE
  5
485
330
1F
100
AcDbEntity
  8
Visible (ISO)
100
AcDbLine
 10
901.1668360559886
 20
129.686509831953
 30
0.0
 11
885.6254507458555
 21
164.593032755928
 31
0.0
  0
LINE
  5
486
330
1F
100
AcDbEntity
  8
Visible (ISO)
100
AcDbLine
 10
901.1668360559891
 20
129.686509831953
 30
0.0
 11
907.2251892654993
 21
116.0792257340917
 31
0.0
  0
LINE
  5
487
330
1F
100
AcDbEntity
  8
Visible (ISO)
100
AcDbLine
 10
884.5915975533786
 20
180.437368390706
 30
0.0
 11
879.5670975363444
 21
178.2003168537893
 31
0.0
  0
LINE
  5
488
330
1F
100
AcDbEntity
  8
Visible (ISO)
100
AcDbLine
 10
890.6499507628899
 20
166.8300842928446
 30
0.0
 11
885.6254507458555
 21
164.593032755928
 31
0.0
  0
LINE
  5
489
330
1F
100
AcDbEntity
  8
Visible (ISO)
100
AcDbLine
 10
906.1913360730224
 20
131.9235613688696
 30
0.0
 11
901.1668360559886
 21
129.686509831953
 31
0.0
  0
LINE
  5
48A
330
1F
100
AcDbEntity
  8
Visible (ISO)
100
AcDbLine
 10
912.2496892825337
 20
118.3162772710092
 30
0.0
 11
907.2251892654993
 21
116.0792257340917
 31
0.0
  0
SPLINE
  5
48B
330
1F
100
AcDbEntity
  8
Visible (ISO)
100
AcDbSpline
210
0.0
220
0.0
230
1.0
 70
     8
 71
     3
 72
     8
 73
     4
 74
     0
 42
0.0000000001
 43
0.0000000001
 40
1.408775630527585
 40
1.408775630527585
 40
1.408775630527585
 40
1.408775630527585
 40
1.496912165487497
 40
1.496912165487497
 40
1.496912165487497
 40
1.496912165487497
 10
948.3034456992378
 20
319.3205939929049
 30
0.0
 10
948.55901585509
 20
319.3114843777876
 30
0.0
 10
948.8157121697692
 20
319.2955055051825
 30
0.0
 10
949.0704817369593
 20
319.271675617425
 30
0.0
  0
LINE
  5
48C
330
1F
100
AcDbEntity
  8
Visible (ISO)
100
AcDbLine
 10
927.664149199105
 20
319.320593992903
 30
0.0
 11
948.3034456992378
 21
319.3205939929049
 31
0.0
  0
SPLINE
  5
48D
330
1F
100
AcDbEntity
  8
Visible (ISO)
100
AcDbSpline
210
0.0
220
0.0
230
1.0
 70
     8
 71
     3
 72
    14
 73
    10
 74
     0
 42
0.0000000001
 43
0.0000000001
 40
2.027893901294498
 40
2.027893901294498
 40
2.027893901294498
 40
2.027893901294498
 40
2.309187565547178
 40
2.309187565547178
 40
2.69372287949158
 40
2.69372287949158
 40
3.078258193435982
 40
3.078258193435982
 40
3.359551857688662
 40
3.359551857688662
 40
3.359551857688662
 40
3.359551857688662
 10
932.2785088629453
 20
312.7706510767421
 30
0.0
 10
931.7564839597091
 20
313.5377610366177
 30
0.0
 10
931.2208610216114
 20
314.30261056786
 30
0.0
 10
930.0413449117833
 20
315.9681934504297
 30
0.0
 10
929.4350626947004
 20
316.813504546275
 30
0.0
 10
928.5320602997682
 20
318.0952889260898
 30
0.0
 10
928.1768908764444
 20
318.6147291327216
 30
0.0
 10
927.7978870141296
 20
319.1614178533437
 30
0.0
 10
927.7059779035226
 20
319.2873309406477
 30
0.0
 10
927.664149199105
 20
319.320593992903
 30
0.0
  0
LINE
  5
48E
330
1F
100
AcDbEntity
  8
Visible (ISO)
100
AcDbLine
 10
952.9178053630781
 20
312.7706510767439
 30
0.0
 11
932.2785088629453
 21
312.7706510767421
 31
0.0
  0
SPLINE
  5
48F
330
1F
100
AcDbEntity
  8
Visible (ISO)
100
AcDbSpline
210
0.0
220
0.0
230
1.0
 70
     8
 71
     3
 72
     8
 73
     4
 74
     0
 42
0.0000000001
 43
0.0000000001
 40
2.735440551106417
 40
2.735440551106417
 40
2.735440551106417
 40
2.735440551106417
 40
2.823577086066327
 40
2.823577086066327
 40
2.823577086066327
 40
2.823577086066327
 10
953.2022152202063
 20
313.4068058561607
 30
0.0
 10
953.1145662275399
 20
313.1934138167944
 30
0.0
 10
953.0189604108802
 20
312.9807475399975
 30
0.0
 10
952.9178053630781
 20
312.7706510767439
 30
0.0
  0
ELLIPSE
  5
490
330
1F
100
AcDbEntity
  8
Visible (ISO)
100
AcDbEllipse
 10
948.5510635143747
 20
305.3300410832053
 30
0.0
 11
-0.0000000000018426
 21
13.99999999999988
 31
0.0
210
0.0
220
0.0
230
1.0
 40
0.4067366430758011
 41
5.327331740713336
 42
6.191841322448451
  0
SPLINE
  5
491
330
1F
100
AcDbEntity
  8
Visible (ISO)
100
AcDbSpline
210
0.0
220
0.0
230
1.0
 70
     8
 71
     3
 72
     8
 73
     4
 74
     0
 42
0.0000000001
 43
0.0000000001
 40
1.408775630527585
 40
1.408775630527585
 40
1.408775630527585
 40
1.408775630527585
 40
1.496912165487496
 40
1.496912165487496
 40
1.496912165487496
 40
1.496912165487496
 10
945.7040165406285
 20
343.4899112374951
 30
0.0
 10
945.905974068323
 20
343.2707163772757
 30
0.0
 10
946.1052227512961
 20
343.0420597625653
 30
0.0
 10
946.2986897066572
 20
342.8048380826022
 30
0.0
  0
LINE
  5
492
330
1F
100
AcDbEntity
  8
Visible (ISO)
100
AcDbLine
 10
925.0647200404957
 20
343.4899112374933
 30
0.0
 11
945.7040165406285
 21
343.4899112374951
 31
0.0
  0
SPLINE
  5
493
330
1F
100
AcDbEntity
  8
Visible (ISO)
100
AcDbSpline
210
0.0
220
0.0
230
1.0
 70
     8
 71
     3
 72
    14
 73
    10
 74
     0
 42
0.0000000001
 43
0.0000000001
 40
2.027893901294498
 40
2.027893901294498
 40
2.027893901294498
 40
2.027893901294498
 40
2.30918756554718
 40
2.30918756554718
 40
2.693722879491582
 40
2.693722879491582
 40
3.078258193435984
 40
3.078258193435984
 40
3.359551857688667
 40
3.359551857688667
 40
3.359551857688667
 40
3.359551857688667
 10
925.0647200404957
 20
330.3900254051787
 30
0.0
 10
924.9107863960881
 20
331.1903984173114
 30
0.0
 10
924.7639500484861
 20
332.081161035856
 30
0.0
 10
924.4950686088319
 20
334.293432639046
 30
0.0
 10
924.407774262632
 20
335.6581839415212
 30
0.0
 10
924.407774262632
 20
338.221752701149
 30
0.0
 10
924.4950686088319
 20
339.5865040036261
 30
0.0
 10
924.7639500484861
 20
341.798775606816
 30
0.0
 10
924.9107863960881
 20
342.6895382253624
 30
0.0
 10
925.0647200404957
 20
343.4899112374933
 30
0.0
  0
LINE
  5
494
330
1F
100
AcDbEntity
  8
Visible (ISO)
100
AcDbLine
 10
945.7040165406285
 20
330.3900254051823
 30
0.0
 11
925.0647200404957
 21
330.3900254051787
 31
0.0
  0
SPLINE
  5
495
330
1F
100
AcDbEntity
  8
Visible (ISO)
100
AcDbSpline
210
0.0
220
0.0
230
1.0
 70
     8
 71
     3
 72
     8
 73
     4
 74
     0
 42
0.0000000001
 43
0.0000000001
 40
2.73544055110642
 40
2.73544055110642
 40
2.73544055110642
 40
2.73544055110642
 40
2.823577086066332
 40
2.823577086066332
 40
2.823577086066332
 40
2.823577086066332
 10
946.2986897066572
 20
331.0750985600771
 30
0.0
 10
946.1052230907322
 20
330.8378759254483
 30
0.0
 10
945.9059846652895
 20
330.6092322126297
 30
0.0
 10
945.7040165406285
 20
330.3900254051823
 30
0.0
  0
ELLIPSE
  5
496
330
1F
100
AcDbEntity
  8
Visible (ISO)
100
AcDbEllipse
 10
941.1281197782415
 20
336.9399683213415
 30
0.0
 11
0.0000000000012535
 21
-13.99999999999995
 31
0.0
210
0.0
220
0.0
230
1.0
 40
0.4067366430758011
 41
1.138541535927217
 42
2.003051117662252
  0
SPLINE
  5
497
330
1F
100
AcDbEntity
  8
Visible (ISO)
100
AcDbSpline
210
0.0
220
0.0
230
1.0
 70
     8
 71
     3
 72
     8
 73
     4
 74
     0
 42
0.0000000001
 43
0.0000000001
 40
1.408775630527585
 40
1.408775630527585
 40
1.408775630527585
 40
1.408775630527585
 40
1.496912165487496
 40
1.496912165487496
 40
1.496912165487496
 40
1.496912165487496
 10
952.9178053630781
 20
361.1092855659244
 30
0.0
 10
953.0189552538269
 20
360.8992003208186
 30
0.0
 10
953.1145656058807
 20
360.6865225787133
 30
0.0
 10
953.2022152202063
 20
360.4731307865095
 30
0.0
  0
LINE
  5
498
330
1F
100
AcDbEntity
  8
Visible (ISO)
100
AcDbLine
 10
932.2785088629453
 20
361.1092855659208
 30
0.0
 11
952.9178053630781
 21
361.1092855659244
 31
0.0
  0
SPLINE
  5
499
330
1F
100
AcDbEntity
  8
Visible (ISO)
100
AcDbSpline
210
0.0
220
0.0
230
1.0
 70
     8
 71
     3
 72
    14
 73
    10
 74
     0
 42
0.0000000001
 43
0.0000000001
 40
2.027893901294498
 40
2.027893901294498
 40
2.027893901294498
 40
2.027893901294498
 40
2.309187565547178
 40
2.309187565547178
 40
2.693722879491581
 40
2.693722879491581
 40
3.078258193435983
 40
3.078258193435983
 40
3.359551857688663
 40
3.359551857688663
 40
3.359551857688663
 40
3.359551857688663
 10
927.664149199105
 20
354.559342649769
 30
0.0
 10
927.7059779035226
 20
354.5926057020224
 30
0.0
 10
927.7978870141296
 20
354.7185187893247
 30
0.0
 10
928.1768908764444
 20
355.2652075099468
 30
0.0
 10
928.5320602997682
 20
355.7846477165767
 30
0.0
 10
929.4350626947004
 20
357.0664320963897
 30
0.0
 10
930.0413449117833
 20
357.911743192235
 30
0.0
 10
931.2208610216114
 20
359.5773260748028
 30
0.0
 10
931.7564839597091
 20
360.342175606047
 30
0.0
 10
932.2785088629453
 20
361.1092855659208
 30
0.0
  0
LINE
  5
49A
330
1F
100
AcDbEntity
  8
Visible (ISO)
100
AcDbLine
 10
948.3034456992378
 20
354.559342649769
 30
0.0
 11
927.664149199105
 21
354.559342649769
 31
0.0
  0
SPLINE
  5
49B
330
1F
100
AcDbEntity
  8
Visible (ISO)
100
AcDbSpline
210
0.0
220
0.0
230
1.0
 70
     8
 71
     3
 72
     8
 73
     4
 74
     0
 42
0.0000000001
 43
0.0000000001
 40
2.735440551106417
 40
2.735440551106417
 40
2.735440551106417
 40
2.735440551106417
 40
2.823577086066329
 40
2.823577086066329
 40
2.823577086066329
 40
2.823577086066329
 10
949.0704817369593
 20
354.6082610252488
 30
0.0
 10
948.8157121188784
 20
354.5844304299881
 30
0.0
 10
948.5590294288273
 20
354.5684529939645
 30
0.0
 10
948.3034456992378
 20
354.5593426497708
 30
0.0
  0
ELLIPSE
  5
49C
330
1F
100
AcDbEntity
  8
Visible (ISO)
100
AcDbEllipse
 10
948.5510635143747
 20
368.5498955594685
 30
0.0
 11
0.0000000000018426
 21
-13.99999999999987
 31
0.0
210
0.0
220
0.0
230
1.0
 40
0.4067366430758011
 41
0.0913439847304911
 42
0.9558535664653931
  0
SPLINE
  5
49D
330
1F
100
AcDbEntity
  8
Visible (ISO)
100
AcDbSpline
210
0.0
220
0.0
230
1.0
 70
     8
 71
     3
 72
     8
 73
     4
 74
     0
 42
0.0000000001
 43
0.0000000001
 40
2.735440551106416
 40
2.735440551106416
 40
2.735440551106416
 40
2.735440551106416
 40
2.823577086066327
 40
2.823577086066327
 40
2.823577086066327
 40
2.823577086066327
 10
958.7457992808101
 20
360.4731307865059
 30
0.0
 10
958.5355442838336
 20
360.6865228258721
 30
0.0
 10
958.3250499379552
 20
360.8991891026672
 30
0.0
 10
958.1166636802956
 20
361.1092855659208
 30
0.0
  0
ELLIPSE
  5
49E
330
1F
100
AcDbEntity
  8
Visible (ISO)
100
AcDbEllipse
 10
963.3969509866412
 20
368.5498955594594
 30
0.0
 11
0.0000000000018424
 21
-13.99999999999989
 31
0.0
210
0.0
220
0.0
230
1.0
 40
0.4067366430758012
 41
5.327331740713336
 42
6.191841322448452
  0
ELLIPSE
  5
49F
330
1F
100
AcDbEntity
  8
Visible (ISO)
100
AcDbEllipse
 10
970.8198947227744
 20
336.9399683213214
 30
0.0
 11
-0.0000000000012535
 21
13.99999999999989
 31
0.0
210
0.0
220
0.0
230
1.0
 40
0.4067366430758012
 41
1.138541535927217
 42
2.003051117662252
  0
ELLIPSE
  5
4A0
330
1F
100
AcDbEntity
  8
Visible (ISO)
100
AcDbEllipse
 10
955.9740072505078
 20
336.9399683213324
 30
0.0
 11
0.0000000000000006
 21
-6.749999999999952
 31
0.0
210
0.0
220
0.0
230
1.0
 40
0.4067366430758011
 41
0.0
 42
6.283185307179585
  0
ELLIPSE
  5
4A1
330
1F
100
AcDbEntity
  8
Visible (ISO)
100
AcDbEllipse
 10
955.9740072505078
 20
336.9399683213324
 30
0.0
 11
0.0000000000032242
 21
-24.49999999999982
 31
0.0
210
0.0
220
0.0
230
1.0
 40
0.4067366430758011
 41
6.001316278893958
 42
6.565054335464558
  0
ELLIPSE
  5
4A2
330
1F
100
AcDbEntity
  8
Visible (ISO)
100
AcDbEllipse
 10
955.9740072505078
 20
336.9399683213324
 30
0.0
 11
-0.0000000000042528
 21
24.49999999999976
 31
0.0
210
0.0
220
0.0
230
1.0
 40
0.4067366430758012
 41
3.906921176500201
 42
4.470659233071084
  0
ELLIPSE
  5
4A3
330
1F
100
AcDbEntity
  8
Visible (ISO)
100
AcDbEllipse
 10
955.9740072505078
 20
336.9399683213324
 30
0.0
 11
-0.0000000000032252
 21
24.49999999999984
 31
0.0
210
0.0
220
0.0
230
1.0
 40
0.4067366430758012
 41
4.954118727697355
 42
5.51785678426794
  0
ELLIPSE
  5
4A4
330
1F
100
AcDbEntity
  8
Visible (ISO)
100
AcDbEllipse
 10
955.9740072505078
 20
336.9399683213324
 30
0.0
 11
-0.0000000000032235
 21
24.49999999999985
 31
0.0
210
0.0
220
0.0
230
1.0
 40
0.4067366430758012
 41
6.001316278893959
 42
6.565054335464559
  0
ELLIPSE
  5
4A5
330
1F
100
AcDbEntity
  8
Visible (ISO)
100
AcDbEllipse
 10
955.9740072505078
 20
336.9399683213324
 30
0.0
 11
0.0000000000042535
 21
-24.49999999999983
 31
0.0
210
0.0
220
0.0
230
1.0
 40
0.4067366430758011
 41
3.906921176500201
 42
4.470659233071084
  0
ELLIPSE
  5
4A6
330
1F
100
AcDbEntity
  8
Visible (ISO)
100
AcDbEllipse
 10
955.9740072505078
 20
336.9399683213324
 30
0.0
 11
0.0000000000032235
 21
-24.49999999999984
 31
0.0
210
0.0
220
0.0
230
1.0
 40
0.4067366430758012
 41
4.954118727697355
 42
5.51785678426794
  0
ELLIPSE
  5
4A7
330
1F
100
AcDbEntity
  8
Visible (ISO)
100
AcDbEllipse
 10
955.517234521687
 20
336.9399683213324
 30
0.0
 11
0.0000000000032911
 21
-24.99999999999985
 31
0.0
210
0.0
220
0.0
230
1.0
 40
0.4067366430758012
 41
6.024678180409146
 42
6.541692433949301
  0
ELLIPSE
  5
4A8
330
1F
100
AcDbEntity
  8
Visible (ISO)
100
AcDbEllipse
 10
955.517234521687
 20
336.9399683213324
 30
0.0
 11
-0.0000000000032904
 21
24.9999999999998
 31
0.0
210
0.0
220
0.0
230
1.0
 40
0.4067366430758012
 41
6.024678180409146
 42
6.541692433949301
  0
ELLIPSE
  5
4A9
330
1F
100
AcDbEntity
  8
Visible (ISO)
100
AcDbEllipse
 10
955.517234521687
 20
336.9399683213324
 30
0.0
 11
0.0000000000043389
 21
-24.99999999999973
 31
0.0
210
0.0
220
0.0
230
1.0
 40
0.406736643075801
 41
3.930283078015452
 42
4.447297331555854
  0
ELLIPSE
  5
4AA
330
1F
100
AcDbEntity
  8
Visible (ISO)
100
AcDbEllipse
 10
934.8779380215543
 20
336.9399683213287
 30
0.0
 11
0.0000000000032897
 21
-24.99999999999963
 31
0.0
210
0.0
220
0.0
230
1.0
 40
0.4067366430758012
 41
6.024678180409146
 42
6.283185307179333
  0
ELLIPSE
  5
4AB
330
1F
100
AcDbEntity
  8
Visible (ISO)
100
AcDbEllipse
 10
934.8779380215543
 20
336.9399683213287
 30
0.0
 11
0.0000000000000091
 21
24.99999999999955
 31
0.0
210
0.0
220
0.0
230
1.0
 40
0.4067366430758011
 41
0.0000000000032447
 42
0.2585071267732217
  0
ELLIPSE
  5
4AC
330
1F
100
AcDbEntity
  8
Visible (ISO)
100
AcDbEllipse
 10
934.8779380215543
 20
336.9399683213287
 30
0.0
 11
0.0000000000043444
 21
-24.99999999999975
 31
0.0
210
0.0
220
0.0
230
1.0
 40
0.4067366430758012
 41
3.930283078015452
 42
4.447297331555854
  0
ELLIPSE
  5
4AD
330
1F
100
AcDbEntity
  8
Visible (ISO)
100
AcDbEllipse
 10
909.2004798192075
 20
336.9399683213269
 30
0.0
 11
-0.000000000002303
 21
17.49999999999987
 31
0.0
210
0.0
220
0.0
230
1.0
 40
0.406736643075801
 41
5.512033013339095
 42
10.19593025460914
  0
ELLIPSE
  5
4AE
330
1F
100
AcDbEntity
  8
Visible (ISO)
100
AcDbEllipse
 10
899.3341888766673
 20
336.9399683213251
 30
0.0
 11
0.0000000000000022
 21
-17.49999999999987
 31
0.0
210
0.0
220
0.0
230
1.0
 40
0.4067366430758011
 41
3.14159265359302
 42
6.283185307182813
  0
ELLIPSE
  5
4AF
330
1F
100
AcDbEntity
  8
Visible (ISO)
100
AcDbEllipse
 10
909.2004798192075
 20
336.9399683213269
 30
0.0
 11
-0.0000000000000003
 21
10.99999999999991
 31
0.0
210
0.0
220
0.0
230
1.0
 40
0.4067366430758011
 41
0.0000000000032199
 42
3.141592653593012
  0
ELLIPSE
  5
4B0
330
1F
100
AcDbEntity
  8
Visible (ISO)
100
AcDbEllipse
 10
918.5186434871617
 20
336.9399683213287
 30
0.0
 11
-0.0000000000000004
 21
16.49999999999988
 31
0.0
210
0.0
220
0.0
230
1.0
 40
0.4067366430758012
 41
0.0000000000032199
 42
3.141592653593012
  0
ELLIPSE
  5
4B1
330
1F
100
AcDbEntity
  8
Visible (ISO)
100
AcDbEllipse
 10
930.3947344365157
 20
336.9399683213287
 30
0.0
 11
0.0000000000028644
 21
-16.49999999999989
 31
0.0
210
0.0
220
0.0
230
1.0
 40
0.4067366430758011
 41
4.022251826099385
 42
5.402526134668477
  0
ELLIPSE
  5
4B2
330
1F
100
AcDbEntity
  8
Visible (ISO)
100
AcDbEllipse
 10
934.8779380215543
 20
336.9399683213287
 30
0.0
 11
0.0000000000032887
 21
-24.99999999999979
 31
0.0
210
0.0
220
0.0
230
1.0
 40
0.4067366430758012
 41
4.97748062921259
 42
5.494494882752721
  0
ELLIPSE
  5
4B3
330
1F
100
AcDbEntity
  8
Visible (ISO)
100
AcDbEllipse
 10
955.517234521687
 20
336.9399683213324
 30
0.0
 11
0.0000000000032887
 21
-24.99999999999975
 31
0.0
210
0.0
220
0.0
230
1.0
 40
0.4067366430758012
 41
4.97748062921259
 42
5.494494882752721
  0
ELLIPSE
  5
4B4
330
1F
100
AcDbEntity
  8
Visible (ISO)
100
AcDbEllipse
 10
954.6950436098088
 20
336.9399683213324
 30
0.0
 11
0.0000000000008884
 21
-6.749999999999954
 31
0.0
210
0.0
220
0.0
230
1.0
 40
0.4067366430758012
 41
0.2350815899236603
 42
2.906511063665213
  0
LINE
  5
4B5
330
1F
100
AcDbEntity
  8
Visible (ISO)
100
AcDbLine
 10
934.8779380215543
 20
311.9399683213287
 30
0.0
 11
955.517234521687
 21
311.9399683213324
 31
0.0
  0
LINE
  5
4B6
330
1F
100
AcDbEntity
  8
Visible (ISO)
100
AcDbLine
 10
934.8779380215543
 20
361.9399683213287
 30
0.0
 11
955.517234521687
 21
361.9399683213324
 31
0.0
  0
LINE
  5
4B7
330
1F
100
AcDbEntity
  8
Visible (ISO)
100
AcDbLine
 10
899.3341888766673
 20
354.4399683213251
 30
0.0
 11
909.2004798192075
 21
354.4399683213269
 31
0.0
  0
LINE
  5
4B8
330
1F
100
AcDbEntity
  8
Visible (ISO)
100
AcDbLine
 10
899.3341888766673
 20
319.4399683213251
 30
0.0
 11
909.2004798192075
 21
319.4399683213269
 31
0.0
  0
LINE
  5
4B9
330
1F
100
AcDbEntity
  8
Visible (ISO)
100
AcDbLine
 10
909.2004798192075
 20
347.9399683213269
 30
0.0
 11
913.5164441814454
 21
347.9399683213269
 31
0.0
  0
LINE
  5
4BA
330
1F
100
AcDbEntity
  8
Visible (ISO)
100
AcDbLine
 10
909.2004798192075
 20
325.9399683213269
 30
0.0
 11
913.5164441814454
 21
325.9399683213269
 31
0.0
  0
LINE
  5
4BB
330
1F
100
AcDbEntity
  8
Visible (ISO)
100
AcDbLine
 10
918.5186434871617
 20
353.4399683213269
 30
0.0
 11
927.2387568282944
 21
353.4399683213287
 31
0.0
  0
LINE
  5
4BC
330
1F
100
AcDbEntity
  8
0
  6
CENTER
100
AcDbLine
 10
855.8552593158676
 20
336.9399683213142
 30
0.0
 11
962.2102059393775
 21
336.939968321336
 31
0.0
  0
LINE
  5
4BD
330
1F
100
AcDbEntity
  8
Visible (ISO)
100
AcDbLine
 10
918.5186434871617
 20
320.4399683213269
 30
0.0
 11
927.2387568282944
 21
320.4399683213287
 31
0.0
  0
LINE
  5
4BE
330
1F
100
AcDbEntity
  8
Visible (ISO)
100
AcDbLine
 10
925.2193691449379
 20
347.4445770941784
 30
0.0
 11
927.0364754585582
 21
352.856042219586
 31
0.0
  0
LINE
  5
4BF
330
1F
100
AcDbEntity
  8
Visible (ISO)
100
AcDbLine
 10
925.2193691449379
 20
326.4353595484863
 30
0.0
 11
927.0364754585582
 21
321.0238944230841
 31
0.0
  0
ELLIPSE
  5
4C0
330
1F
100
AcDbEntity
  8
Visible (ISO)
100
AcDbEllipse
 10
963.3969509866412
 20
305.3300410831962
 30
0.0
 11
-0.000000000001843
 21
13.99999999999988
 31
0.0
210
0.0
220
0.0
230
1.0
 40
0.4067366430758011
 41
0.091343984730492
 42
0.9558535664653931
  0
SPLINE
  5
4C1
330
1F
100
AcDbEntity
  8
Visible (ISO)
100
AcDbSpline
210
0.0
220
0.0
230
1.0
 70
     8
 71
     3
 72
     8
 73
     4
 74
     0
 42
0.0000000001
 43
0.0000000001
 40
1.408457373953741
 40
1.408457373953741
 40
1.408457373953741
 40
1.408457373953741
 40
1.496593908913653
 40
1.496593908913653
 40
1.496593908913653
 40
1.496593908913653
 10
958.1166636802956
 20
312.7706510767403
 30
0.0
 10
958.3250388273619
 20
312.9807363218461
 30
0.0
 10
958.5355444428261
 20
313.1934140639514
 30
0.0
 10
958.7457992808101
 20
313.4068058561552
 30
0.0
  0
ELLIPSE
  5
4C2
330
1F
100
AcDbEntity
  8
Visible (ISO)
100
AcDbEllipse
 10
883.2627466119703
 20
318.2809222578253
 30
0.0
 11
-16.45120049422621
 21
-0.000000000005401
 31
0.0
210
0.0
220
0.0
230
1.0
 40
0.6078583750474365
 41
5.954728441188295
 42
6.047011617055038
  0
ELLIPSE
  5
4C3
330
1F
100
AcDbEntity
  8
Visible (ISO)
100
AcDbEllipse
 10
883.2627466119703
 20
355.5990143848358
 30
0.0
 11
-16.45120049422621
 21
-0.000000000005401
 31
0.0
210
0.0
220
0.0
230
1.0
 40
0.6078583750474365
 41
0.2361736901267967
 42
0.3284568659935271
  0
ELLIPSE
  5
4C4
330
1F
100
AcDbEntity
  8
Visible (ISO)
100
AcDbEllipse
 10
881.5200524526368
 20
336.9399683213214
 30
0.0
 11
0.000000000005132
 21
-38.99999999999972
 31
0.0
210
0.0
220
0.0
230
1.0
 40
0.4067366430758011
 41
5.224330879368512
 42
5.771243408195121
  0
LINE
  5
4C5
330
1F
100
AcDbEntity
  8
Visible (ISO)
100
AcDbLine
 10
867.6910065880594
 20
356.0449414958748
 30
0.0
 11
867.6910065880594
 21
317.8349951467899
 31
0.0
  0
ELLIPSE
  5
4C6
330
1F
100
AcDbEntity
  8
Visible (ISO)
100
AcDbEllipse
 10
881.5200524526368
 20
336.9399683213214
 30
0.0
 11
0.0000000000067737
 21
-38.99999999999972
 31
0.0
210
0.0
220
0.0
230
1.0
 40
0.4067366430758011
 41
3.653534552572732
 42
4.200447081399733
  0
LINE
  5
4C7
330
1F
100
AcDbEntity
  8
Visible (ISO)
100
AcDbLine
 10
885.6254507469239
 20
302.9399683213287
 30
0.0
 11
884.7119052892809
 21
302.9399683213287
 31
0.0
  0
LINE
  5
4C8
330
1F
100
AcDbEntity
  8
Visible (ISO)
100
AcDbLine
 10
884.7119052892809
 20
302.9399683213287
 30
0.0
 11
873.7493597975699
 21
302.9399683213269
 31
0.0
  0
LINE
  5
4C9
330
1F
100
AcDbEntity
  8
Visible (ISO)
100
AcDbLine
 10
884.7119052892809
 20
370.9399683213305
 30
0.0
 11
873.7493597975699
 21
370.9399683213287
 31
0.0
  0
LINE
  5
4CA
330
1F
100
AcDbEntity
  8
Visible (ISO)
100
AcDbLine
 10
884.7119052892809
 20
370.9399683213305
 30
0.0
 11
885.6254507469239
 21
370.9399683213287
 31
0.0
  0
LINE
  5
4CB
330
1F
100
AcDbEntity
  8
Visible (ISO)
100
AcDbLine
 10
878.6535520797707
 20
317.8349951467917
 30
0.0
 11
878.6535520797707
 21
356.0449414958767
 31
0.0
  0
ELLIPSE
  5
4CC
330
1F
100
AcDbEntity
  8
Visible (ISO)
100
AcDbEllipse
 10
892.4825979443477
 20
336.9399683213233
 30
0.0
 11
-0.0000000000034917
 21
38.99999999999959
 31
0.0
210
0.0
220
0.0
230
1.0
 40
0.4067366430758012
 41
2.082738225779234
 42
2.629650754606171
  0
ELLIPSE
  5
4CD
330
1F
100
AcDbEntity
  8
Visible (ISO)
100
AcDbEllipse
 10
892.4825979443477
 20
336.9399683213233
 30
0.0
 11
-0.0000000000051334
 21
38.99999999999959
 31
0.0
210
0.0
220
0.0
230
1.0
 40
0.4067366430758012
 41
0.5119418989837819
 42
1.058854427810423
  0
ELLIPSE
  5
4CE
330
1F
100
AcDbEntity
  8
Visible (ISO)
100
AcDbEllipse
 10
892.4825979443477
 20
336.9399683213233
 30
0.0
 11
0.0000000000050016
 21
-37.99999999999982
 31
0.0
210
0.0
220
0.0
230
1.0
 40
0.4067366430758011
 41
5.231176391947878
 42
5.764397895615735
  0
LINE
  5
4CF
330
1F
100
AcDbEntity
  8
Visible (ISO)
100
AcDbLine
 10
879.0602887228466
 20
355.7814120027488
 30
0.0
 11
879.0602887228466
 21
318.0985246399159
 31
0.0
  0
ELLIPSE
  5
4D0
330
1F
100
AcDbEntity
  8
Visible (ISO)
100
AcDbEllipse
 10
892.4825979443477
 20
336.9399683213233
 30
0.0
 11
0.0000000000066031
 21
-37.99999999999982
 31
0.0
210
0.0
220
0.0
230
1.0
 40
0.4067366430758011
 41
3.660380065152152
 42
4.193601568820321
  0
LINE
  5
4D1
330
1F
100
AcDbEntity
  8
Visible (ISO)
100
AcDbLine
 10
878.6535520797707
 20
317.8349951467917
 30
0.0
 11
867.6910065880598
 21
317.8349951467899
 31
0.0
  0
LINE
  5
4D2
330
1F
100
AcDbEntity
  8
Visible (ISO)
100
AcDbLine
 10
878.6535520797707
 20
356.0449414958767
 30
0.0
 11
867.6910065880594
 21
356.0449414958748
 31
0.0
  0
LINE
  5
4D3
330
1F
100
AcDbEntity
  8
Visible (ISO)
100
AcDbLine
 10
866.8115461177446
 20
302.9399683213251
 30
0.0
 11
866.8115461177446
 21
312.1207648113559
 31
0.0
  0
LINE
  5
4D4
330
1F
100
AcDbEntity
  8
Visible (ISO)
100
AcDbLine
 10
873.7493597975699
 20
302.9399683213269
 30
0.0
 11
866.8115461177446
 21
302.9399683213251
 31
0.0
  0
LINE
  5
4D5
330
1F
100
AcDbEntity
  8
Visible (ISO)
100
AcDbLine
 10
866.8115461177446
 20
370.9399683213232
 30
0.0
 11
873.7493597975699
 21
370.9399683213251
 31
0.0
  0
LINE
  5
4D6
330
1F
100
AcDbEntity
  8
Visible (ISO)
100
AcDbLine
 10
866.8115461177446
 20
361.7591718312942
 30
0.0
 11
866.8115461177446
 21
370.9399683213232
 31
0.0
  0
ELLIPSE
  5
4D7
330
1F
100
AcDbEntity
  8
Visible (ISO)
100
AcDbEllipse
 10
865.7942090217741
 20
357.5091718312979
 30
0.0
 11
-0.0000000000000003
 21
4.249999999999968
 31
0.0
210
0.0
220
0.0
230
1.0
 40
0.4067366430758012
 41
0.0000000000032752
 42
3.141592653593068
  0
ELLIPSE
  5
4D8
330
1F
100
AcDbEntity
  8
Visible (ISO)
100
AcDbEllipse
 10
865.7942090217741
 20
316.3707648113596
 30
0.0
 11
0.0000000000000003
 21
-4.249999999999968
 31
0.0
210
0.0
220
0.0
230
1.0
 40
0.4067366430758012
 41
3.141592653593068
 42
6.283185307182861
  0
LINE
  5
4D9
330
1F
100
AcDbEntity
  8
Visible (ISO)
100
AcDbLine
 10
867.6910065880598
 20
353.2591718312979
 30
0.0
 11
865.7942090217741
 21
353.2591718312979
 31
0.0
  0
LINE
  5
4DA
330
1F
100
AcDbEntity
  8
Visible (ISO)
100
AcDbLine
 10
869.2840571375151
 20
361.7591718312979
 30
0.0
 11
865.7942090217741
 21
361.7591718312979
 31
0.0
  0
LINE
  5
4DB
330
1F
100
AcDbEntity
  8
Visible (ISO)
100
AcDbLine
 10
865.7942090217741
 20
320.6207648113596
 30
0.0
 11
867.6910065880598
 21
320.6207648113596
 31
0.0
  0
LINE
  5
4DC
330
1F
100
AcDbEntity
  8
Visible (ISO)
100
AcDbLine
 10
865.7942090217741
 20
312.1207648113596
 30
0.0
 11
869.2840571375151
 21
312.1207648113596
 31
0.0
  0
LINE
  5
4DD
330
1F
100
AcDbEntity
  8
Visible (ISO)
100
AcDbLine
 10
866.8115461177446
 20
370.9399683213232
 30
0.0
 11
859.6837917622075
 21
370.9399683213232
 31
0.0
  0
LINE
  5
4DE
330
1F
100
AcDbEntity
  8
Visible (ISO)
100
AcDbLine
 10
859.6837917622075
 20
346.3399683213211
 30
0.0
 11
859.6837917622075
 21
370.9399683213232
 31
0.0
  0
LINE
  5
4DF
330
1F
100
AcDbEntity
  8
Visible (ISO)
100
AcDbLine
 10
859.6837917622075
 20
302.9399683213233
 30
0.0
 11
859.6837917622075
 21
327.5399683213236
 31
0.0
  0
LINE
  5
4E0
330
1F
100
AcDbEntity
  8
Visible (ISO)
100
AcDbLine
 10
859.6837917622075
 20
302.9399683213233
 30
0.0
 11
866.8115461177446
 21
302.9399683213251
 31
0.0
  0
LINE
  5
4E1
330
1F
100
AcDbEntity
  8
Visible (ISO)
100
AcDbLine
 10
859.6837917622075
 20
346.3399683213211
 30
0.0
 11
865.0169972955191
 21
342.1361207440314
 31
0.0
  0
ELLIPSE
  5
4E2
330
1F
100
AcDbEntity
  8
Visible (ISO)
100
AcDbEllipse
 10
862.8196333851821
 20
336.9399683213233
 30
0.0
 11
-0.0000000000000002
 21
-5.999999999999959
 31
0.0
210
0.0
220
0.0
230
1.0
 40
0.7324546367791532
 41
0.5235987755984191
 42
2.617993877991477
  0
LINE
  5
4E3
330
1F
100
AcDbEntity
  8
Visible (ISO)
100
AcDbLine
 10
865.0169972955191
 20
331.743815898617
 30
0.0
 11
859.6837917622075
 21
327.5399683213236
 31
0.0
  0
LINE
  5
4E4
330
1F
100
AcDbEntity
  8
Visible (ISO)
100
AcDbLine
 10
891.0289796999679
 20
390.9399683213214
 30
0.0
 11
857.0289796999674
 21
390.9399683213214
 31
0.0
  0
LINE
  5
4E5
330
1F
100
AcDbEntity
  8
Visible (ISO)
100
AcDbLine
 10
891.0289796999679
 20
388.0899683213229
 30
0.0
 11
857.0289796999674
 21
388.0899683213229
 31
0.0
  0
LINE
  5
4E6
330
1F
100
AcDbEntity
  8
Visible (ISO)
100
AcDbLine
 10
884.8789796999678
 20
385.8515513805851
 30
0.0
 11
863.1789796999679
 21
385.8515513805851
 31
0.0
  0
LINE
  5
4E7
330
1F
100
AcDbEntity
  8
Visible (ISO)
100
AcDbLine
 10
857.0289796999674
 20
388.0899683213229
 30
0.0
 11
857.0289796999674
 21
390.9399683213214
 31
0.0
  0
LINE
  5
4E8
330
1F
100
AcDbEntity
  8
Visible (ISO)
100
AcDbLine
 10
891.0289796999673
 20
388.0899683213229
 30
0.0
 11
891.0289796999673
 21
390.9399683213214
 31
0.0
  0
LINE
  5
4E9
330
1F
100
AcDbEntity
  8
Visible (ISO)
100
AcDbLine
 10
863.1789796999679
 20
385.8515513805851
 30
0.0
 11
857.0289796999674
 21
388.0899683213229
 31
0.0
  0
LINE
  5
4EA
330
1F
100
AcDbEntity
  8
Visible (ISO)
100
AcDbLine
 10
884.8789796999678
 20
385.8515513805851
 30
0.0
 11
891.0289796999673
 21
388.0899683213229
 31
0.0
  0
LINE
  5
4EB
330
1F
100
AcDbEntity
  8
Visible (ISO)
100
AcDbLine
 10
863.1789796999679
 20
370.9399683213214
 30
0.0
 11
863.1789796999679
 21
385.8515513805851
 31
0.0
  0
LINE
  5
4EC
330
1F
100
AcDbEntity
  8
0
  6
CENTER
100
AcDbLine
 10
874.0289796999679
 20
270.9685705513548
 30
0.0
 11
874.0289796999679
 21
402.9113660912808
 31
0.0
  0
LINE
  5
4ED
330
1F
100
AcDbEntity
  8
Visible (ISO)
100
AcDbLine
 10
884.8789796999678
 20
370.9399683213214
 30
0.0
 11
884.8789796999678
 21
385.8515513805851
 31
0.0
  0
LINE
  5
4EE
330
1F
100
AcDbEntity
  8
Visible (ISO)
100
AcDbLine
 10
891.0289796999679
 20
282.9399683213214
 30
0.0
 11
857.0289796999674
 21
282.9399683213214
 31
0.0
  0
LINE
  5
4EF
330
1F
100
AcDbEntity
  8
Visible (ISO)
100
AcDbLine
 10
891.0289796999679
 20
285.7899683213218
 30
0.0
 11
857.0289796999674
 21
285.7899683213218
 31
0.0
  0
LINE
  5
4F0
330
1F
100
AcDbEntity
  8
Visible (ISO)
100
AcDbLine
 10
884.8789796999678
 20
288.0283852620596
 30
0.0
 11
863.1789796999679
 21
288.0283852620596
 31
0.0
  0
LINE
  5
4F1
330
1F
100
AcDbEntity
  8
Visible (ISO)
100
AcDbLine
 10
857.0289796999674
 20
282.9399683213214
 30
0.0
 11
857.0289796999674
 21
285.7899683213218
 31
0.0
  0
LINE
  5
4F2
330
1F
100
AcDbEntity
  8
Visible (ISO)
100
AcDbLine
 10
891.0289796999673
 20
282.9399683213214
 30
0.0
 11
891.0289796999673
 21
285.7899683213218
 31
0.0
  0
LINE
  5
4F3
330
1F
100
AcDbEntity
  8
Visible (ISO)
100
AcDbLine
 10
884.8789796999678
 20
288.0283852620596
 30
0.0
 11
891.0289796999673
 21
285.7899683213218
 31
0.0
  0
LINE
  5
4F4
330
1F
100
AcDbEntity
  8
Visible (ISO)
100
AcDbLine
 10
863.1789796999679
 20
288.0283852620596
 30
0.0
 11
857.0289796999674
 21
285.7899683213218
 31
0.0
  0
LINE
  5
4F5
330
1F
100
AcDbEntity
  8
Visible (ISO)
100
AcDbLine
 10
863.1789796999679
 20
288.0283852620596
 30
0.0
 11
863.1789796999679
 21
302.9399683213215
 31
0.0
  0
LINE
  5
4F6
330
1F
100
AcDbEntity
  8
Visible (ISO)
100
AcDbLine
 10
884.8789796999678
 20
288.0283852620596
 30
0.0
 11
884.8789796999678
 21
302.9399683213215
 31
0.0
  0
ELLIPSE
  5
4F7
330
1F
100
AcDbEntity
  8
Visible (ISO)
100
AcDbEllipse
 10
899.3341888766673
 20
336.9399683213251
 30
0.0
 11
0.0000000000050002
 21
-37.99999999999993
 31
0.0
210
0.0
220
0.0
230
1.0
 40
0.4067366430758012
 41
0.5187874115632241
 42
1.052008915231023
  0
SPLINE
  5
4F8
330
1F
100
AcDbEntity
  8
Visible (ISO)
100
AcDbSpline
210
0.0
220
0.0
230
1.0
 70
     8
 71
     3
 72
     8
 73
     4
 74
     0
 42
0.0000000001
 43
0.0000000001
 40
-0.1438477767741587
 40
-0.1438477767741587
 40
-0.1438477767741587
 40
-0.1438477767741587
 40
0.0
 40
0.0
 40
0.0
 40
0.0
 10
906.1913360740911
 20
302.9399683213215
 30
0.0
 10
906.4604157034787
 20
303.2733600016273
 30
0.0
 10
906.7292362845993
 20
303.6067319425983
 30
0.0
 10
906.9976944303485
 20
303.9399683213196
 30
0.0
  0
LINE
  5
4F9
330
1F
100
AcDbEntity
  8
Visible (ISO)
100
AcDbLine
 10
912.7564980981688
 20
355.7814120027324
 30
0.0
 11
912.7564980981688
 21
352.0995658908032
 31
0.0
  0
LINE
  5
4FA
330
1F
100
AcDbEntity
  8
Visible (ISO)
100
AcDbLine
 10
912.7564980981688
 20
321.7803707518287
 30
0.0
 11
912.7564980981688
 21
318.0985246398996
 31
0.0
  0
LINE
  5
4FB
330
1F
100
AcDbEntity
  8
Visible (ISO)
100
AcDbLine
 10
906.1913360740911
 20
370.9399683213196
 30
0.0
 11
890.6499507639583
 21
370.9399683213305
 31
0.0
  0
SPLINE
  5
4FC
330
1F
100
AcDbEntity
  8
Visible (ISO)
100
AcDbSpline
210
0.0
220
0.0
230
1.0
 70
     8
 71
     3
 72
     8
 73
     4
 74
     0
 42
0.0000000001
 43
0.0000000001
 40
-0.1438477767741587
 40
-0.1438477767741587
 40
-0.1438477767741587
 40
-0.1438477767741587
 40
0.0
 40
0.0
 40
0.0
 40
0.0
 10
890.6499507639583
 20
370.9399683213305
 30
0.0
 10
890.9900080448906
 20
370.6065766410229
 30
0.0
 10
891.3302883085318
 20
370.2732047000518
 30
0.0
 10
891.6706833229861
 20
369.9399683213306
 30
0.0
  0
LINE
  5
4FD
330
1F
100
AcDbEntity
  8
Visible (ISO)
100
AcDbLine
 10
891.6706833229861
 20
369.9399683213306
 30
0.0
 11
906.9976944303485
 21
369.9399683213196
 31
0.0
  0
SPLINE
  5
4FE
330
1F
100
AcDbEntity
  8
Visible (ISO)
100
AcDbSpline
210
0.0
220
0.0
230
1.0
 70
     8
 71
     3
 72
     8
 73
     4
 74
     0
 42
0.0000000001
 43
0.0000000001
 40
-0.1438477443675565
 40
-0.1438477443675565
 40
-0.1438477443675565
 40
-0.1438477443675565
 40
0.0
 40
0.0
 40
0.0
 40
0.0
 10
906.9976944303485
 20
369.9399683213196
 30
0.0
 10
906.7292362845993
 20
370.2732047000409
 30
0.0
 10
906.4604157034796
 20
370.606576641012
 30
0.0
 10
906.1913360740911
 20
370.9399683213196
 30
0.0
  0
ELLIPSE
  5
4FF
330
1F
100
AcDbEntity
  8
Visible (ISO)
100
AcDbEllipse
 10
899.3341888766673
 20
336.9399683213251
 30
0.0
 11
0.0000000000034014
 21
-37.99999999999993
 31
0.0
210
0.0
220
0.0
230
1.0
 40
0.4067366430758012
 41
2.089583738358635
 42
2.622805242026771
  0
ELLIPSE
  5
500
330
1F
100
AcDbEntity
  8
Visible (ISO)
100
AcDbEllipse
 10
898.4206434190252
 20
336.9399683213251
 30
0.0
 11
0.0000000000067724
 21
-38.99999999999963
 31
0.0
210
0.0
220
0.0
230
1.0
 40
0.4067366430758012
 41
3.653534552572732
 42
4.200447081399733
  0
SPLINE
  5
501
330
1F
100
AcDbEntity
  8
Visible (ISO)
100
AcDbSpline
210
0.0
220
0.0
230
1.0
 70
     8
 71
     3
 72
     8
 73
     4
 74
     0
 42
0.0000000001
 43
0.0000000001
 40
-0.1438477767739135
 40
-0.1438477767739135
 40
-0.1438477767739135
 40
-0.1438477767739135
 40
0.0
 40
0.0
 40
0.0
 40
0.0
 10
884.5915975544473
 20
356.0449414958767
 30
0.0
 10
885.0317686224864
 20
355.9576889053442
 30
0.0
 10
885.4719136290329
 20
355.8698437557396
 30
0.0
 10
885.9118796551657
 20
355.7814120027506
 30
0.0
  0
ELLIPSE
  5
502
330
1F
100
AcDbEntity
  8
Visible (ISO)
100
AcDbEllipse
 10
899.3341888766673
 20
336.9399683213251
 30
0.0
 11
-0.0000000000050002
 21
37.99999999999993
 31
0.0
210
0.0
220
0.0
230
1.0
 40
0.4067366430758012
 41
0.5187874115632241
 42
1.052008915231023
  0
LINE
  5
503
330
1F
100
AcDbEntity
  8
Visible (ISO)
100
AcDbLine
 10
884.5915975544473
 20
356.0449414958767
 30
0.0
 11
884.5915975544473
 21
317.8349951467917
 31
0.0
  0
SPLINE
  5
504
330
1F
100
AcDbEntity
  8
Visible (ISO)
100
AcDbSpline
210
0.0
220
0.0
230
1.0
 70
     8
 71
     3
 72
     8
 73
     4
 74
     0
 42
0.0000000001
 43
0.0000000001
 40
-0.1438477767741587
 40
-0.1438477767741587
 40
-0.1438477767741587
 40
-0.1438477767741587
 40
0.0
 40
0.0
 40
0.0
 40
0.0
 10
884.5915975544473
 20
317.8349951467917
 30
0.0
 10
885.0317686224849
 20
317.9222477373242
 30
0.0
 10
885.4719136290324
 20
318.0100928869269
 30
0.0
 10
885.9118796551657
 20
318.0985246399178
 30
0.0
  0
LINE
  5
505
330
1F
100
AcDbEntity
  8
Visible (ISO)
100
AcDbLine
 10
885.9118796551657
 20
318.0985246399178
 30
0.0
 11
885.9118796551657
 21
355.7814120027506
 31
0.0
  0
ELLIPSE
  5
506
330
1F
100
AcDbEntity
  8
Visible (ISO)
100
AcDbEllipse
 10
898.4206434190252
 20
336.9399683213251
 30
0.0
 11
0.0000000000051348
 21
-38.99999999999963
 31
0.0
210
0.0
220
0.0
230
1.0
 40
0.4067366430758012
 41
5.224330879368512
 42
5.771243408195122
  0
SPLINE
  5
507
330
1F
100
AcDbEntity
  8
Visible (ISO)
100
AcDbSpline
210
0.0
220
0.0
230
1.0
 70
     8
 71
     3
 72
     8
 73
     4
 74
     0
 42
0.0000000001
 43
0.0000000001
 40
-0.1438477767739135
 40
-0.1438477767739135
 40
-0.1438477767739135
 40
-0.1438477767739135
 40
0.0
 40
0.0
 40
0.0
 40
0.0
 10
890.6499507639583
 20
302.9399683213306
 30
0.0
 10
890.990008044892
 20
303.27336000164
 30
0.0
 10
891.3302883085322
 20
303.6067319426093
 30
0.0
 10
891.6706833229861
 20
303.9399683213305
 30
0.0
  0
ELLIPSE
  5
508
330
1F
100
AcDbEntity
  8
Visible (ISO)
100
AcDbEllipse
 10
899.3341888766673
 20
336.9399683213251
 30
0.0
 11
-0.0000000000034014
 21
37.99999999999993
 31
0.0
210
0.0
220
0.0
230
1.0
 40
0.4067366430758012
 41
2.089583738358635
 42
2.622805242026771
  0
LINE
  5
509
330
1F
100
AcDbEntity
  8
Visible (ISO)
100
AcDbLine
 10
890.6499507639583
 20
302.9399683213306
 30
0.0
 11
906.1913360740911
 21
302.9399683213215
 31
0.0
  0
LINE
  5
50A
330
1F
100
AcDbEntity
  8
Visible (ISO)
100
AcDbLine
 10
906.9976944303485
 20
303.9399683213196
 30
0.0
 11
891.6706833229861
 21
303.9399683213305
 31
0.0
  0
ELLIPSE
  5
50B
330
1F
100
AcDbEntity
  8
Visible (ISO)
100
AcDbEllipse
 10
893.3961434019908
 20
336.9399683213233
 30
0.0
 11
-0.0000000000034875
 21
38.99999999999964
 31
0.0
210
0.0
220
0.0
230
1.0
 40
0.406736643075801
 41
2.082738225779234
 42
2.629650754606171
  0
LINE
  5
50C
330
1F
100
AcDbEntity
  8
Visible (ISO)
100
AcDbLine
 10
879.5670975374129
 20
317.8349951467917
 30
0.0
 11
879.5670975374129
 21
356.0449414958767
 31
0.0
  0
ELLIPSE
  5
50D
330
1F
100
AcDbEntity
  8
Visible (ISO)
100
AcDbEllipse
 10
893.3961434019908
 20
336.9399683213251
 30
0.0
 11
-0.000000000005132
 21
38.99999999999963
 31
0.0
210
0.0
220
0.0
230
1.0
 40
0.4067366430758012
 41
0.5119418989837819
 42
1.058854427810423
  0
SPLINE
  5
50E
330
1F
100
AcDbEntity
  8
Visible (ISO)
100
AcDbSpline
210
0.0
220
0.0
230
1.0
 70
     8
 71
     3
 72
     8
 73
     4
 74
     0
 42
0.0000000001
 43
0.0000000001
 40
-0.1438477443675261
 40
-0.1438477443675261
 40
-0.1438477443675261
 40
-0.1438477443675261
 40
0.0
 40
0.0
 40
0.0
 40
0.0
 10
884.8190923906665
 20
369.9399683213287
 30
0.0
 10
885.0875505364161
 20
370.27320470005
 30
0.0
 10
885.3563711175358
 20
370.6065766410211
 30
0.0
 10
885.6254507469239
 20
370.9399683213305
 30
0.0
  0
SPLINE
  5
50F
330
1F
100
AcDbEntity
  8
Visible (ISO)
100
AcDbSpline
210
0.0
220
0.0
230
1.0
 70
     8
 71
     3
 72
     8
 73
     4
 74
     0
 42
0.0000000001
 43
0.0000000001
 40
-0.143847744367378
 40
-0.143847744367378
 40
-0.143847744367378
 40
-0.143847744367378
 40
0.0
 40
0.0
 40
0.0
 40
0.0
 10
879.0602887228466
 20
355.7814120027488
 30
0.0
 10
879.2291758569163
 20
355.8698437557396
 30
0.0
 10
879.3981316951304
 20
355.9576889053442
 30
0.0
 10
879.5670975374129
 20
356.0449414958767
 30
0.0
  0
SPLINE
  5
510
330
1F
100
AcDbEntity
  8
Visible (ISO)
100
AcDbSpline
210
0.0
220
0.0
230
1.0
 70
     8
 71
     3
 72
     8
 73
     4
 74
     0
 42
0.0000000001
 43
0.0000000001
 40
-0.1438477443675261
 40
-0.1438477443675261
 40
-0.1438477443675261
 40
-0.1438477443675261
 40
0.0
 40
0.0
 40
0.0
 40
0.0
 10
879.0602887228466
 20
318.0985246399159
 30
0.0
 10
879.2291758569163
 20
318.0100928869269
 30
0.0
 10
879.3981316951304
 20
317.9222477373242
 30
0.0
 10
879.5670975374129
 20
317.8349951467917
 30
0.0
  0
SPLINE
  5
511
330
1F
100
AcDbEntity
  8
Visible (ISO)
100
AcDbSpline
210
0.0
220
0.0
230
1.0
 70
     8
 71
     3
 72
     8
 73
     4
 74
     0
 42
0.0000000001
 43
0.0000000001
 40
-0.143847744367378
 40
-0.143847744367378
 40
-0.143847744367378
 40
-0.143847744367378
 40
0.0
 40
0.0
 40
0.0
 40
0.0
 10
884.8190923906665
 20
303.9399683213287
 30
0.0
 10
885.0875505364161
 20
303.6067319426093
 30
0.0
 10
885.3563711175363
 20
303.2733600016364
 30
0.0
 10
885.6254507469239
 20
302.9399683213287
 30
0.0
  0
LINE
  5
512
330
1F
100
AcDbEntity
  8
Visible (ISO)
100
AcDbLine
 10
884.5915975544473
 20
317.8349951467917
 30
0.0
 11
879.5670975374129
 21
317.8349951467917
 31
0.0
  0
LINE
  5
513
330
1F
100
AcDbEntity
  8
Visible (ISO)
100
AcDbLine
 10
890.6499507639583
 20
302.9399683213306
 30
0.0
 11
885.6254507469239
 21
302.9399683213287
 31
0.0
  0
LINE
  5
514
330
1F
100
AcDbEntity
  8
Visible (ISO)
100
AcDbLine
 10
884.5915975544473
 20
356.0449414958767
 30
0.0
 11
879.5670975374129
 21
356.0449414958767
 31
0.0
  0
LINE
  5
515
330
1F
100
AcDbEntity
  8
Visible (ISO)
100
AcDbLine
 10
890.6499507639583
 20
370.9399683213305
 30
0.0
 11
885.6254507469239
 21
370.9399683213305
 31
0.0
  0
SPLINE
  5
516
330
1F
100
AcDbEntity
  8
Visible (ISO)
100
AcDbSpline
210
0.0
220
0.0
230
1.0
 70
     8
 71
     3
 72
     8
 73
     4
 74
     0
 42
0.0000000001
 43
0.0000000001
 40
1.408775630527585
 40
1.408775630527585
 40
1.408775630527585
 40
1.408775630527585
 40
1.496912165487497
 40
1.496912165487497
 40
1.496912165487497
 40
1.496912165487497
 10
1035.409605370481
 20
191.000297997496
 30
0.0
 10
1035.400495755365
 20
190.8427850506549
 30
0.0
 10
1035.38451688276
 20
190.6781553531072
 30
0.0
 10
1035.360686995001
 20
190.5068035176508
 30
0.0
  0
SPLINE
  5
517
330
1F
100
AcDbEntity
  8
Visible (ISO)
100
AcDbSpline
210
0.0
220
0.0
230
1.0
 70
     8
 71
     3
 72
     8
 73
     4
 74
     0
 42
0.0000000001
 43
0.0000000001
 40
2.735440551106417
 40
2.735440551106417
 40
2.735440551106417
 40
2.735440551106417
 40
2.823577086066327
 40
2.823577086066327
 40
2.823577086066327
 40
2.823577086066327
 10
1029.49581723374
 20
181.2267781743066
 30
0.0
 10
1029.282425194374
 20
181.0227716762864
 30
0.0
 10
1029.069758917579
 20
180.8256074590562
 30
0.0
 10
1028.859662454326
 20
180.6362765044904
 30
0.0
  0
ELLIPSE
  5
518
330
1F
100
AcDbEntity
  8
Visible (ISO)
100
AcDbEllipse
 10
1021.419052460783
 20
191.6734359466108
 30
0.0
 11
13.99999999999988
 21
-0.0000000000094164
 31
0.0
210
0.0
220
0.0
230
1.0
 40
0.9135454576426067
 41
5.327331740714524
 42
6.191841322449522
  0
SPLINE
  5
519
330
1F
100
AcDbEntity
  8
Visible (ISO)
100
AcDbSpline
210
0.0
220
0.0
230
1.0
 70
     8
 71
     3
 72
     8
 73
     4
 74
     0
 42
0.0000000001
 43
0.0000000001
 40
1.408775630527585
 40
1.408775630527585
 40
1.408775630527585
 40
1.408775630527585
 40
1.496912165487496
 40
1.496912165487496
 40
1.496912165487496
 40
1.496912165487496
 10
1059.578922615069
 20
196.8387114788901
 30
0.0
 10
1059.35972775485
 20
196.8016144664397
 30
0.0
 10
1059.13107114014
 20
196.7660142622762
 30
0.0
 10
1058.893849460176
 20
196.7323503473234
 30
0.0
  0
SPLINE
  5
51A
330
1F
100
AcDbEntity
  8
Visible (ISO)
100
AcDbSpline
210
0.0
220
0.0
230
1.0
 70
     8
 71
     3
 72
     8
 73
     4
 74
     0
 42
0.0000000001
 43
0.0000000001
 40
2.73544055110642
 40
2.73544055110642
 40
2.73544055110642
 40
2.73544055110642
 40
2.823577086066332
 40
2.823577086066332
 40
2.823577086066332
 40
2.823577086066332
 10
1047.164109937651
 20
196.7323503473234
 30
0.0
 10
1046.926887303023
 20
196.7660141224714
 30
0.0
 10
1046.698243590204
 20
196.8016125555413
 30
0.0
 10
1046.479036782756
 20
196.8387114788901
 30
0.0
  0
ELLIPSE
  5
51B
330
1F
100
AcDbEntity
  8
Visible (ISO)
100
AcDbEllipse
 10
1053.028979698912
 20
208.3456405485885
 30
0.0
 11
-13.99999999999995
 21
0.0000000000107442
 31
0.0
210
0.0
220
0.0
230
1.0
 40
0.913545457642607
 41
1.138541535928292
 42
2.003051117663222
  0
SPLINE
  5
51C
330
1F
100
AcDbEntity
  8
Visible (ISO)
100
AcDbSpline
210
0.0
220
0.0
230
1.0
 70
     8
 71
     3
 72
     8
 73
     4
 74
     0
 42
0.0000000001
 43
0.0000000001
 40
1.408775630527585
 40
1.408775630527585
 40
1.408775630527585
 40
1.408775630527585
 40
1.496912165487496
 40
1.496912165487496
 40
1.496912165487496
 40
1.496912165487496
 10
1077.198296943506
 20
180.6362765044904
 30
0.0
 10
1076.9882116984
 20
180.8255971517082
 30
0.0
 10
1076.775533956295
 20
181.0227724499772
 30
0.0
 10
1076.562142164091
 20
181.2267781743066
 30
0.0
  0
SPLINE
  5
51D
330
1F
100
AcDbEntity
  8
Visible (ISO)
100
AcDbSpline
210
0.0
220
0.0
230
1.0
 70
     8
 71
     3
 72
     8
 73
     4
 74
     0
 42
0.0000000001
 43
0.0000000001
 40
2.735440551106417
 40
2.735440551106417
 40
2.735440551106417
 40
2.735440551106417
 40
2.823577086066329
 40
2.823577086066329
 40
2.823577086066329
 40
2.823577086066329
 10
1070.697272402827
 20
190.5068035176508
 30
0.0
 10
1070.673441807566
 20
190.6781560899898
 30
0.0
 10
1070.657464371542
 20
190.8427764538209
 30
0.0
 10
1070.648354027347
 20
191.000297997496
 30
0.0
  0
ELLIPSE
  5
51E
330
1F
100
AcDbEntity
  8
Visible (ISO)
100
AcDbEllipse
 10
1084.638906937047
 20
191.6734359466108
 30
0.0
 11
-13.99999999999987
 21
0.0000000000094307
 31
0.0
210
0.0
220
0.0
230
1.0
 40
0.9135454576426067
 41
0.0913439847315267
 42
0.9558535664665388
  0
SPLINE
  5
51F
330
1F
100
AcDbEntity
  8
Visible (ISO)
100
AcDbSpline
210
0.0
220
0.0
230
1.0
 70
     8
 71
     3
 72
     8
 73
     4
 74
     0
 42
0.0000000001
 43
0.0000000001
 40
1.408775630527585
 40
1.408775630527585
 40
1.408775630527585
 40
1.408775630527585
 40
1.496912165487496
 40
1.496912165487496
 40
1.496912165487496
 40
1.496912165487496
 10
1070.648354027351
 20
158.5954280486957
 30
0.0
 10
1070.657463642468
 20
158.8907504211919
 30
0.0
 10
1070.673442515073
 20
159.1916717285102
 30
0.0
 10
1070.69727240283
 20
159.4956591716162
 30
0.0
  0
LINE
  5
520
330
1F
100
AcDbEntity
  8
Visible (ISO)
100
AcDbLine
 10
1070.648354027345
 20
149.4062212022481
 30
0.0
 11
1070.648354027351
 21
158.5954280486957
 31
0.0
  0
SPLINE
  5
521
330
1F
100
AcDbEntity
  8
Visible (ISO)
100
AcDbSpline
210
0.0
220
0.0
230
1.0
 70
     8
 71
     3
 72
    14
 73
    10
 74
     0
 42
0.0000000001
 43
0.0000000001
 40
2.027893901294497
 40
2.027893901294497
 40
2.027893901294497
 40
2.027893901294497
 40
2.309187565547178
 40
2.309187565547178
 40
2.69372287949158
 40
2.69372287949158
 40
3.078258193435981
 40
3.078258193435981
 40
3.359551857688662
 40
3.359551857688662
 40
3.359551857688662
 40
3.359551857688662
 10
1077.1982969435
 20
159.7702426952536
 30
0.0
 10
1076.431186983625
 20
159.1852918126796
 30
0.0
 10
1075.666337452381
 20
158.5168823638714
 30
0.0
 10
1074.000754569813
 20
156.8250108647252
 30
0.0
 10
1073.155443473968
 20
155.7582842952169
 30
0.0
 10
1071.873659094153
 20
153.730107709276
 30
0.0
 10
1071.354218887525
 20
152.6373785380991
 30
0.0
 10
1070.807530166903
 20
150.8287568669501
 30
0.0
 10
1070.6816170796
 20
150.0877062575645
 30
0.0
 10
1070.648354027345
 20
149.4062212022481
 30
0.0
  0
LINE
  5
522
330
1F
100
AcDbEntity
  8
Visible (ISO)
100
AcDbLine
 10
1077.198296943508
 20
168.9594495417012
 30
0.0
 11
1077.1982969435
 21
159.7702426952536
 31
0.0
  0
SPLINE
  5
523
330
1F
100
AcDbEntity
  8
Visible (ISO)
100
AcDbSpline
210
0.0
220
0.0
230
1.0
 70
     8
 71
     3
 72
     8
 73
     4
 74
     0
 42
0.0000000001
 43
0.0000000001
 40
2.735440551106416
 40
2.735440551106416
 40
2.735440551106416
 40
2.735440551106416
 40
2.823577086066327
 40
2.823577086066327
 40
2.823577086066327
 40
2.823577086066327
 10
1076.562142164091
 20
168.7756845149605
 30
0.0
 10
1076.775534203457
 20
168.8470556113233
 30
0.0
 10
1076.988200480254
 20
168.9079352556154
 30
0.0
 10
1077.198296943508
 20
168.9594495417012
 30
0.0
  0
ELLIPSE
  5
524
330
1F
100
AcDbEntity
  8
Visible (ISO)
100
AcDbEllipse
 10
1084.63890693705
 20
158.3290267426554
 30
0.0
 11
-13.99999999999989
 21
0.0000000000094189
 31
0.0
210
0.0
220
0.0
230
1.0
 40
0.913545457642607
 41
5.327331740714523
 42
6.191841322449522
  0
SPLINE
  5
525
330
1F
100
AcDbEntity
  8
Visible (ISO)
100
AcDbSpline
210
0.0
220
0.0
230
1.0
 70
     8
 71
     3
 72
     8
 73
     4
 74
     0
 42
0.0000000001
 43
0.0000000001
 40
1.408775630527585
 40
1.408775630527585
 40
1.408775630527585
 40
1.408775630527585
 40
1.496912165487497
 40
1.496912165487497
 40
1.496912165487497
 40
1.496912165487497
 10
1046.479036782762
 20
152.7570145673007
 30
0.0
 10
1046.698231642983
 20
152.9319210054081
 30
0.0
 10
1046.926888257694
 20
153.1038128193421
 30
0.0
 10
1047.164109937657
 20
153.2701123419437
 30
0.0
  0
LINE
  5
526
330
1F
100
AcDbEntity
  8
Visible (ISO)
100
AcDbLine
 10
1046.479036782756
 20
143.567807720853
 30
0.0
 11
1046.479036782762
 21
152.7570145673007
 31
0.0
  0
SPLINE
  5
527
330
1F
100
AcDbEntity
  8
Visible (ISO)
100
AcDbSpline
210
0.0
220
0.0
230
1.0
 70
     8
 71
     3
 72
    14
 73
    10
 74
     0
 42
0.0000000001
 43
0.0000000001
 40
2.027893901294497
 40
2.027893901294497
 40
2.027893901294497
 40
2.027893901294497
 40
2.309187565547178
 40
2.309187565547178
 40
2.693722879491581
 40
2.693722879491581
 40
3.078258193435982
 40
3.078258193435982
 40
3.359551857688663
 40
3.359551857688663
 40
3.359551857688663
 40
3.359551857688663
 10
1059.578922615069
 20
143.567807720853
 30
0.0
 10
1058.77854960294
 20
143.8096033417604
 30
0.0
 10
1057.887786984392
 20
144.0144228724074
 30
0.0
 10
1055.675515381202
 20
144.3678703300628
 30
0.0
 10
1054.310764078727
 20
144.4668096037666
 30
0.0
 10
1051.747195319097
 20
144.4668096037666
 30
0.0
 10
1050.382444016622
 20
144.3678703300628
 30
0.0
 10
1048.170172413432
 20
144.0144228724074
 30
0.0
 10
1047.279409794886
 20
143.8096033417604
 30
0.0
 10
1046.479036782756
 20
143.567807720853
 30
0.0
  0
LINE
  5
528
330
1F
100
AcDbEntity
  8
Visible (ISO)
100
AcDbLine
 10
1059.578922615077
 20
152.7570145673007
 30
0.0
 11
1059.578922615069
 21
143.567807720853
 31
0.0
  0
SPLINE
  5
529
330
1F
100
AcDbEntity
  8
Visible (ISO)
100
AcDbSpline
210
0.0
220
0.0
230
1.0
 70
     8
 71
     3
 72
     8
 73
     4
 74
     0
 42
0.0000000001
 43
0.0000000001
 40
2.735440551106417
 40
2.735440551106417
 40
2.735440551106417
 40
2.735440551106417
 40
2.823577086066329
 40
2.823577086066329
 40
2.823577086066329
 40
2.823577086066329
 10
1058.893849460182
 20
153.2701123419437
 30
0.0
 10
1059.131072094809
 20
153.1038131651393
 30
0.0
 10
1059.359715807629
 20
152.9319301591303
 30
0.0
 10
1059.578922615077
 20
152.7570145673007
 30
0.0
  0
ELLIPSE
  5
52A
330
1F
100
AcDbEntity
  8
Visible (ISO)
100
AcDbEllipse
 10
1053.028979698921
 20
141.6568221406786
 30
0.0
 11
13.99999999999989
 21
-0.0000000000107379
 31
0.0
210
0.0
220
0.0
230
1.0
 40
0.913545457642607
 41
1.138541535928291
 42
2.003051117663234
  0
ELLIPSE
  5
52B
330
1F
100
AcDbEntity
  8
Visible (ISO)
100
AcDbEllipse
 10
1053.028979698918
 20
175.001231344634
 30
0.0
 11
-6.749999999999952
 21
-0.0000000000000001
 31
0.0
210
0.0
220
0.0
230
1.0
 40
0.913545457642607
 41
0.0
 42
6.283185307179586
  0
ELLIPSE
  5
52C
330
1F
100
AcDbEntity
  8
Visible (ISO)
100
AcDbEllipse
 10
1053.028979698918
 20
175.001231344634
 30
0.0
 11
-24.49999999999982
 21
0.0000000000164861
 31
0.0
210
0.0
220
0.0
230
1.0
 40
0.913545457642607
 41
6.001316278895007
 42
6.565054335465604
  0
ELLIPSE
  5
52D
330
1F
100
AcDbEntity
  8
Visible (ISO)
100
AcDbEllipse
 10
1053.028979698918
 20
175.001231344634
 30
0.0
 11
24.49999999999976
 21
-0.0000000000141567
 31
0.0
210
0.0
220
0.0
230
1.0
 40
0.9135454576426068
 41
3.906921176501743
 42
4.47065923307232
  0
ELLIPSE
  5
52E
330
1F
100
AcDbEntity
  8
Visible (ISO)
100
AcDbEllipse
 10
1053.028979698918
 20
175.001231344634
 30
0.0
 11
24.49999999999984
 21
-0.0000000000164861
 31
0.0
210
0.0
220
0.0
230
1.0
 40
0.9135454576426068
 41
4.954118727698434
 42
5.517856784269056
  0
ELLIPSE
  5
52F
330
1F
100
AcDbEntity
  8
Visible (ISO)
100
AcDbEllipse
 10
1053.028979698918
 20
175.001231344634
 30
0.0
 11
24.49999999999985
 21
-0.0000000000164813
 31
0.0
210
0.0
220
0.0
230
1.0
 40
0.9135454576426068
 41
6.001316278895007
 42
6.565054335465604
  0
ELLIPSE
  5
530
330
1F
100
AcDbEntity
  8
Visible (ISO)
100
AcDbEllipse
 10
1053.028979698918
 20
175.001231344634
 30
0.0
 11
-24.49999999999983
 21
0.0000000000141651
 31
0.0
210
0.0
220
0.0
230
1.0
 40
0.913545457642607
 41
3.906921176501744
 42
4.470659233072324
  0
ELLIPSE
  5
531
330
1F
100
AcDbEntity
  8
Visible (ISO)
100
AcDbEllipse
 10
1053.028979698918
 20
175.001231344634
 30
0.0
 11
-24.49999999999984
 21
0.0000000000164833
 31
0.0
210
0.0
220
0.0
230
1.0
 40
0.913545457642607
 41
4.954118727698434
 42
5.517856784269056
  0
ELLIPSE
  5
532
330
1F
100
AcDbEntity
  8
Visible (ISO)
100
AcDbEllipse
 10
1053.028979698918
 20
174.7978630230963
 30
0.0
 11
-24.99999999999986
 21
0.0000000000168095
 31
0.0
210
0.0
220
0.0
230
1.0
 40
0.913545457642607
 41
6.02467818041025
 42
6.541692433950393
  0
ELLIPSE
  5
533
330
1F
100
AcDbEntity
  8
Visible (ISO)
100
AcDbEllipse
 10
1053.028979698918
 20
174.7978630230963
 30
0.0
 11
24.99999999999986
 21
-0.0000000000144634
 31
0.0
210
0.0
220
0.0
230
1.0
 40
0.913545457642607
 41
3.93028307801697
 42
4.447297331557082
  0
ELLIPSE
  5
534
330
1F
100
AcDbEntity
  8
Visible (ISO)
100
AcDbEllipse
 10
1053.028979698918
 20
174.7978630230963
 30
0.0
 11
24.99999999999983
 21
-0.0000000000168143
 31
0.0
210
0.0
220
0.0
230
1.0
 40
0.9135454576426068
 41
4.977480629213676
 42
5.494494882753786
  0
ELLIPSE
  5
535
330
1F
100
AcDbEntity
  8
Visible (ISO)
100
AcDbEllipse
 10
1053.028979698918
 20
174.7978630230963
 30
0.0
 11
24.9999999999998
 21
-0.0000000000168185
 31
0.0
210
0.0
220
0.0
230
1.0
 40
0.913545457642607
 41
6.02467818041025
 42
6.541692433950393
  0
ELLIPSE
  5
536
330
1F
100
AcDbEntity
  8
Visible (ISO)
100
AcDbEllipse
 10
1053.028979698918
 20
174.7978630230963
 30
0.0
 11
-24.99999999999973
 21
0.000000000014469
 31
0.0
210
0.0
220
0.0
230
1.0
 40
0.913545457642607
 41
3.93028307801697
 42
4.447297331557082
  0
ELLIPSE
  5
537
330
1F
100
AcDbEntity
  8
Visible (ISO)
100
AcDbEllipse
 10
1053.02897969891
 20
165.6086561766487
 30
0.0
 11
-24.99999999999996
 21
-0.0000000000000058
 31
0.0
210
0.0
220
0.0
230
1.0
 40
0.913545457642607
 41
0.0
 42
0.2585071267698069
  0
ELLIPSE
  5
538
330
1F
100
AcDbEntity
  8
Visible (ISO)
100
AcDbEllipse
 10
1053.02897969891
 20
165.6086561766487
 30
0.0
 11
24.99999999999971
 21
-0.0000000000144759
 31
0.0
210
0.0
220
0.0
230
1.0
 40
0.913545457642607
 41
3.93028307801697
 42
4.447297331557138
  0
ELLIPSE
  5
539
330
1F
100
AcDbEntity
  8
Visible (ISO)
100
AcDbEllipse
 10
1053.02897969891
 20
165.6086561766487
 30
0.0
 11
24.99999999999984
 21
-0.0000000000168199
 31
0.0
210
0.0
220
0.0
230
1.0
 40
0.913545457642607
 41
4.977480629213676
 42
5.494494882753786
  0
ELLIPSE
  5
53A
330
1F
100
AcDbEntity
  8
Visible (ISO)
100
AcDbEllipse
 10
1053.02897969891
 20
165.6086561766487
 30
0.0
 11
24.99999999999977
 21
-0.0000000000168171
 31
0.0
210
0.0
220
0.0
230
1.0
 40
0.913545457642607
 41
6.02467818041025
 42
6.283185307180322
  0
ELLIPSE
  5
53B
330
1F
100
AcDbEntity
  8
Visible (ISO)
100
AcDbEllipse
 10
1053.028979698903
 20
154.1763152191524
 30
0.0
 11
-17.49999999999987
 21
0.0000000000117704
 31
0.0
210
0.0
220
0.0
230
1.0
 40
0.913545457642607
 41
0.3792150020739964
 42
2.762377651517235
  0
ELLIPSE
  5
53C
330
1F
100
AcDbEntity
  8
Visible (ISO)
100
AcDbEllipse
 10
1053.028979698899
 20
149.7835594739344
 30
0.0
 11
17.49999999999987
 21
-0.0000000000117721
 31
0.0
210
0.0
220
0.0
230
1.0
 40
0.9135454576426068
 41
3.172396374205688
 42
6.252381586565163
  0
ELLIPSE
  5
53D
330
1F
100
AcDbEntity
  8
Visible (ISO)
100
AcDbEllipse
 10
1053.028979698905
 20
158.3250289785254
 30
0.0
 11
16.49999999999987
 21
-0.0000000000110988
 31
0.0
210
0.0
220
0.0
230
1.0
 40
0.913545457642607
 41
4.404037959109778
 42
5.020740001661023
  0
ELLIPSE
  5
53E
330
1F
100
AcDbEntity
  8
Visible (ISO)
100
AcDbEllipse
 10
1053.028979698918
 20
174.7978630230963
 30
0.0
 11
-24.99999999999975
 21
0.000000000016831
 31
0.0
210
0.0
220
0.0
230
1.0
 40
0.9135454576426068
 41
4.977480629213677
 42
5.494494882753797
  0
ELLIPSE
  5
53F
330
1F
100
AcDbEntity
  8
Visible (ISO)
100
AcDbEllipse
 10
1053.028979698918
 20
174.431800044328
 30
0.0
 11
6.749999999999952
 21
-0.0000000000045415
 31
0.0
210
0.0
220
0.0
230
1.0
 40
0.9135454576426068
 41
0.0461882845989401
 42
3.095404368992325
  0
LINE
  5
540
330
1F
100
AcDbEntity
  8
Visible (ISO)
100
AcDbLine
 10
1028.028979698911
 20
165.6086561766487
 30
0.0
 11
1028.028979698917
 21
174.7978630230963
 31
0.0
  0
LINE
  5
541
330
1F
100
AcDbEntity
  8
Visible (ISO)
100
AcDbLine
 10
1078.02897969891
 20
165.6086561766487
 30
0.0
 11
1078.028979698917
 21
174.7978630230963
 31
0.0
  0
ELLIPSE
  5
542
330
1F
100
AcDbEntity
  8
Visible (ISO)
100
AcDbEllipse
 10
1021.419052460788
 20
158.3290267426554
 30
0.0
 11
13.99999999999989
 21
-0.0000000000094126
 31
0.0
210
0.0
220
0.0
230
1.0
 40
0.9135454576426067
 41
0.0913439847315525
 42
0.9558535664665379
  0
SPLINE
  5
543
330
1F
100
AcDbEntity
  8
Visible (ISO)
100
AcDbSpline
210
0.0
220
0.0
230
1.0
 70
     8
 71
     3
 72
     8
 73
     4
 74
     0
 42
0.0000000001
 43
0.0000000001
 40
1.408457373953741
 40
1.408457373953741
 40
1.408457373953741
 40
1.408457373953741
 40
1.496593908913653
 40
1.496593908913653
 40
1.496593908913653
 40
1.496593908913653
 10
1028.859662454327
 20
168.9594495417012
 30
0.0
 10
1029.069747699433
 20
168.9079383201396
 30
0.0
 10
1029.282425441538
 20
168.8470546316411
 30
0.0
 10
1029.495817233743
 20
168.7756845149605
 30
0.0
  0
SPLINE
  5
544
330
1F
100
AcDbEntity
  8
Visible (ISO)
100
AcDbSpline
210
0.0
220
0.0
230
1.0
 70
     8
 71
     3
 72
     8
 73
     4
 74
     0
 42
0.0000000001
 43
0.0000000001
 40
2.735122294532572
 40
2.735122294532572
 40
2.735122294532572
 40
2.735122294532572
 40
2.823258829492485
 40
2.823258829492485
 40
2.823258829492485
 40
2.823258829492485
 10
1035.360686995007
 20
159.4956591716162
 30
0.0
 10
1035.384517590267
 20
159.1916711976208
 30
0.0
 10
1035.400495026293
 20
158.8907662608498
 30
0.0
 10
1035.409605370485
 20
158.5954280486957
 30
0.0
  0
LINE
  5
545
330
1F
100
AcDbEntity
  8
Visible (ISO)
100
AcDbLine
 10
1028.85966245432
 20
159.7702426952536
 30
0.0
 11
1028.859662454327
 21
168.9594495417012
 31
0.0
  0
LINE
  5
546
330
1F
100
AcDbEntity
  8
Visible (ISO)
100
AcDbLine
 10
1035.409605370485
 20
158.5954280486957
 30
0.0
 11
1035.409605370479
 21
149.4062212022481
 31
0.0
  0
SPLINE
  5
547
330
1F
100
AcDbEntity
  8
Visible (ISO)
100
AcDbSpline
210
0.0
220
0.0
230
1.0
 70
     8
 71
     3
 72
    14
 73
    10
 74
     0
 42
0.0000000001
 43
0.0000000001
 40
2.026856503107581
 40
2.026856503107581
 40
2.026856503107581
 40
2.026856503107581
 40
2.308150167360262
 40
2.308150167360262
 40
2.692685481304664
 40
2.692685481304664
 40
3.077220795249066
 40
3.077220795249066
 40
3.358514459501746
 40
3.358514459501746
 40
3.358514459501746
 40
3.358514459501746
 10
1035.409605370479
 20
149.4062212022481
 30
0.0
 10
1035.376342318224
 20
150.0877062575645
 30
0.0
 10
1035.250429230922
 20
150.8287568669501
 30
0.0
 10
1034.703740510298
 20
152.6373785380991
 30
0.0
 10
1034.184300303669
 20
153.730107709276
 30
0.0
 10
1032.902515923855
 20
155.7582842952169
 30
0.0
 10
1032.057204828009
 20
156.8250108647252
 30
0.0
 10
1030.39162194544
 20
158.5168823638714
 30
0.0
 10
1029.626772414197
 20
159.1852918126796
 30
0.0
 10
1028.85966245432
 20
159.7702426952536
 30
0.0
  0
ELLIPSE
  5
548
330
1F
100
AcDbEntity
  8
Visible (ISO)
100
AcDbEllipse
 10
1053.028979698894
 20
141.8521949339555
 30
0.0
 11
38.99999999999961
 21
-0.0000000000262207
 31
0.0
210
0.0
220
0.0
230
1.0
 40
0.9135454576426067
 41
5.224330879369555
 42
5.77124340819618
  0
LINE
  5
549
330
1F
100
AcDbEntity
  8
Visible (ISO)
100
AcDbLine
 10
1033.924006524357
 20
110.7916493741076
 30
0.0
 11
1072.13395287344
 21
110.7916493741076
 31
0.0
  0
ELLIPSE
  5
54A
330
1F
100
AcDbEntity
  8
Visible (ISO)
100
AcDbEllipse
 10
1053.028979698894
 20
141.8521949339555
 30
0.0
 11
38.99999999999972
 21
-0.0000000000225431
 31
0.0
210
0.0
220
0.0
230
1.0
 40
0.9135454576426068
 41
3.653534552574543
 42
4.200447081401206
  0
LINE
  5
54B
330
1F
100
AcDbEntity
  8
Visible (ISO)
100
AcDbLine
 10
1019.028979698901
 20
129.2797731888776
 30
0.0
 11
1019.028979698897
 21
124.3989334719689
 31
0.0
  0
LINE
  5
54C
330
1F
100
AcDbEntity
  8
Visible (ISO)
100
AcDbLine
 10
1019.028979698901
 20
129.2797731888776
 30
0.0
 11
1019.028979698901
 21
129.6865098319539
 31
0.0
  0
LINE
  5
54D
330
1F
100
AcDbEntity
  8
Visible (ISO)
100
AcDbLine
 10
1087.028979698899
 20
129.6865098319539
 30
0.0
 11
1087.028979698899
 21
129.2797731888776
 31
0.0
  0
LINE
  5
54E
330
1F
100
AcDbEntity
  8
Visible (ISO)
100
AcDbLine
 10
1087.028979698899
 20
129.2797731888776
 30
0.0
 11
1087.028979698897
 21
124.3989334719689
 31
0.0
  0
ELLIPSE
  5
54F
330
1F
100
AcDbEntity
  8
Visible (ISO)
100
AcDbEllipse
 10
1053.028979698898
 20
146.7330346508651
 30
0.0
 11
-38.99999999999959
 21
0.0000000000262151
 31
0.0
210
0.0
220
0.0
230
1.0
 40
0.913545457642607
 41
0.5119418989848992
 42
1.058854427811508
  0
LINE
  5
550
330
1F
100
AcDbEntity
  8
Visible (ISO)
100
AcDbLine
 10
1072.133952873445
 20
115.6724890910163
 30
0.0
 11
1033.924006524359
 21
115.6724890910163
 31
0.0
  0
ELLIPSE
  5
551
330
1F
100
AcDbEntity
  8
Visible (ISO)
100
AcDbEllipse
 10
1053.028979698898
 20
146.7330346508651
 30
0.0
 11
-38.99999999999968
 21
0.0000000000299122
 31
0.0
210
0.0
220
0.0
230
1.0
 40
0.913545457642607
 41
2.082738225779863
 42
2.62965075460651
  0
LINE
  5
552
330
1F
100
AcDbEntity
  8
Visible (ISO)
100
AcDbLine
 10
1033.924006524359
 20
115.6724890910163
 30
0.0
 11
1033.924006524357
 21
110.7916493741076
 31
0.0
  0
LINE
  5
553
330
1F
100
AcDbEntity
  8
Visible (ISO)
100
AcDbLine
 10
1072.133952873445
 20
115.6724890910163
 30
0.0
 11
1072.13395287344
 21
110.7916493741076
 31
0.0
  0
LINE
  5
554
330
1F
100
AcDbEntity
  8
Visible (ISO)
100
AcDbLine
 10
1107.028979698892
 20
121.5169544607351
 30
0.0
 11
1107.028979698892
 21
155.5169544607342
 31
0.0
  0
LINE
  5
555
330
1F
100
AcDbEntity
  8
Visible (ISO)
100
AcDbLine
 10
1104.178979698892
 20
121.5169544607351
 30
0.0
 11
1104.178979698892
 21
155.5169544607342
 31
0.0
  0
LINE
  5
556
330
1F
100
AcDbEntity
  8
Visible (ISO)
100
AcDbLine
 10
1101.940562758156
 20
127.6669544607347
 30
0.0
 11
1101.940562758156
 21
149.3669544607336
 31
0.0
  0
LINE
  5
557
330
1F
100
AcDbEntity
  8
Visible (ISO)
100
AcDbLine
 10
1104.178979698892
 20
155.5169544607342
 30
0.0
 11
1107.028979698892
 21
155.5169544607342
 31
0.0
  0
LINE
  5
558
330
1F
100
AcDbEntity
  8
Visible (ISO)
100
AcDbLine
 10
1104.178979698892
 20
121.5169544607342
 30
0.0
 11
1107.028979698892
 21
121.5169544607342
 31
0.0
  0
LINE
  5
559
330
1F
100
AcDbEntity
  8
Visible (ISO)
100
AcDbLine
 10
1101.940562758156
 20
149.3669544607336
 30
0.0
 11
1104.178979698892
 21
155.5169544607342
 31
0.0
  0
LINE
  5
55A
330
1F
100
AcDbEntity
  8
Visible (ISO)
100
AcDbLine
 10
1101.940562758156
 20
127.6669544607347
 30
0.0
 11
1104.178979698892
 21
121.5169544607342
 31
0.0
  0
LINE
  5
55B
330
1F
100
AcDbEntity
  8
Visible (ISO)
100
AcDbLine
 10
1087.028979698892
 20
149.3669544607336
 30
0.0
 11
1101.940562758156
 21
149.3669544607336
 31
0.0
  0
LINE
  5
55C
330
1F
100
AcDbEntity
  8
Visible (ISO)
100
AcDbLine
 10
1087.028979698892
 20
127.6669544607347
 30
0.0
 11
1101.940562758156
 21
127.6669544607347
 31
0.0
  0
LINE
  5
55D
330
1F
100
AcDbEntity
  8
Visible (ISO)
100
AcDbLine
 10
999.0289796988925
 20
121.5169544607351
 30
0.0
 11
999.0289796988925
 21
155.5169544607342
 31
0.0
  0
LINE
  5
55E
330
1F
100
AcDbEntity
  8
Visible (ISO)
100
AcDbLine
 10
1001.878979698892
 20
121.5169544607351
 30
0.0
 11
1001.878979698892
 21
155.5169544607342
 31
0.0
  0
LINE
  5
55F
330
1F
100
AcDbEntity
  8
Visible (ISO)
100
AcDbLine
 10
1004.11739663963
 20
127.6669544607347
 30
0.0
 11
1004.11739663963
 21
149.3669544607336
 31
0.0
  0
LINE
  5
560
330
1F
100
AcDbEntity
  8
Visible (ISO)
100
AcDbLine
 10
999.0289796988925
 20
155.5169544607342
 30
0.0
 11
1001.878979698892
 21
155.5169544607342
 31
0.0
  0
LINE
  5
561
330
1F
100
AcDbEntity
  8
Visible (ISO)
100
AcDbLine
 10
999.0289796988925
 20
121.5169544607342
 30
0.0
 11
1001.878979698892
 21
121.5169544607342
 31
0.0
  0
LINE
  5
562
330
1F
100
AcDbEntity
  8
Visible (ISO)
100
AcDbLine
 10
1004.11739663963
 20
127.6669544607347
 30
0.0
 11
1001.878979698892
 21
121.5169544607342
 31
0.0
  0
LINE
  5
563
330
1F
100
AcDbEntity
  8
Visible (ISO)
100
AcDbLine
 10
1004.11739663963
 20
149.3669544607336
 30
0.0
 11
1001.878979698892
 21
155.5169544607342
 31
0.0
  0
LINE
  5
564
330
1F
100
AcDbEntity
  8
Visible (ISO)
100
AcDbLine
 10
1004.11739663963
 20
149.3669544607336
 30
0.0
 11
1019.028979698892
 21
149.3669544607336
 31
0.0
  0
LINE
  5
565
330
1F
100
AcDbEntity
  8
Visible (ISO)
100
AcDbLine
 10
1004.11739663963
 20
127.6669544607347
 30
0.0
 11
1019.028979698892
 21
127.6669544607347
 31
0.0
  0
ELLIPSE
  5
566
330
1F
100
AcDbEntity
  8
Visible (ISO)
100
AcDbEllipse
 10
1053.028979698899
 20
149.376822830858
 30
0.0
 11
38.99999999999963
 21
-0.0000000000225431
 31
0.0
210
0.0
220
0.0
230
1.0
 40
0.9135454576426068
 41
3.653534552574543
 42
4.2004470814012
  0
SPLINE
  5
567
330
1F
100
AcDbEntity
  8
Visible (ISO)
100
AcDbSpline
210
0.0
220
0.0
230
1.0
 70
     8
 71
     3
 72
     8
 73
     4
 74
     0
 42
0.0000000001
 43
0.0000000001
 40
-0.1438477767739135
 40
-0.1438477767739135
 40
-0.1438477767739135
 40
-0.1438477767739135
 40
0.0
 40
0.0
 40
0.0
 40
0.0
 10
1033.924006524361
 20
118.3162772710101
 30
0.0
 10
1034.011259114893
 20
118.7564483390487
 30
0.0
 10
1034.099104264498
 20
119.1965933455948
 30
0.0
 10
1034.187536017487
 20
119.6365593717281
 30
0.0
  0
ELLIPSE
  5
568
330
1F
100
AcDbEntity
  8
Visible (ISO)
100
AcDbEllipse
 10
1053.028979698899
 20
149.7835594739344
 30
0.0
 11
-37.99999999999993
 21
0.0000000000255573
 31
0.0
210
0.0
220
0.0
230
1.0
 40
0.9135454576426067
 41
0.5187874115642846
 42
1.052008915232091
  0
SPLINE
  5
569
330
1F
100
AcDbEntity
  8
Visible (ISO)
100
AcDbSpline
210
0.0
220
0.0
230
1.0
 70
     8
 71
     3
 72
     8
 73
     4
 74
     0
 42
0.0000000001
 43
0.0000000001
 40
-0.1438477767741587
 40
-0.1438477767741587
 40
-0.1438477767741587
 40
-0.1438477767741587
 40
0.0
 40
0.0
 40
0.0
 40
0.0
 10
1019.028979698902
 20
131.9235613688706
 30
0.0
 10
1019.36237137921
 20
132.1388731894966
 30
0.0
 10
1019.695743320182
 20
132.3547183110594
 30
0.0
 10
1020.028979698903
 20
132.571044183347
 30
0.0
  0
LINE
  5
56A
330
1F
100
AcDbEntity
  8
Visible (ISO)
100
AcDbLine
 10
1033.924006524361
 20
118.3162772710101
 30
0.0
 11
1072.133952873445
 21
118.3162772710101
 31
0.0
  0
SPLINE
  5
56B
330
1F
100
AcDbEntity
  8
Visible (ISO)
100
AcDbSpline
210
0.0
220
0.0
230
1.0
 70
     8
 71
     3
 72
     8
 73
     4
 74
     0
 42
0.0000000001
 43
0.0000000001
 40
-0.1438477767741587
 40
-0.1438477767741587
 40
-0.1438477767741587
 40
-0.1438477767741587
 40
0.0
 40
0.0
 40
0.0
 40
0.0
 10
1072.133952873445
 20
118.3162772710101
 30
0.0
 10
1072.046700282915
 20
118.7564483390469
 30
0.0
 10
1071.95885513331
 20
119.1965933455948
 30
0.0
 10
1071.870423380321
 20
119.6365593717281
 30
0.0
  0
LINE
  5
56C
330
1F
100
AcDbEntity
  8
Visible (ISO)
100
AcDbLine
 10
1071.870423380321
 20
119.6365593717281
 30
0.0
 11
1034.187536017487
 21
119.6365593717281
 31
0.0
  0
LINE
  5
56D
330
1F
100
AcDbEntity
  8
Visible (ISO)
100
AcDbLine
 10
1087.028979698901
 20
131.9235613688706
 30
0.0
 11
1087.028979698897
 21
166.8300842928446
 31
0.0
  0
SPLINE
  5
56E
330
1F
100
AcDbEntity
  8
Visible (ISO)
100
AcDbSpline
210
0.0
220
0.0
230
1.0
 70
     8
 71
     3
 72
     8
 73
     4
 74
     0
 42
0.0000000001
 43
0.0000000001
 40
-0.1438477767741587
 40
-0.1438477767741587
 40
-0.1438477767741587
 40
-0.1438477767741587
 40
0.0
 40
0.0
 40
0.0
 40
0.0
 10
1087.028979698897
 20
166.8300842928446
 30
0.0
 10
1086.69558801859
 20
166.8859776979742
 30
0.0
 10
1086.362216077617
 20
166.9413217447444
 30
0.0
 10
1086.028979698897
 20
166.9960747645208
 30
0.0
  0
LINE
  5
56F
330
1F
100
AcDbEntity
  8
Visible (ISO)
100
AcDbLine
 10
1086.028979698897
 20
166.9960747645208
 30
0.0
 11
1086.028979698903
 21
132.571044183347
 31
0.0
  0
SPLINE
  5
570
330
1F
100
AcDbEntity
  8
Visible (ISO)
100
AcDbSpline
210
0.0
220
0.0
230
1.0
 70
     8
 71
     3
 72
     8
 73
     4
 74
     0
 42
0.0000000001
 43
0.0000000001
 40
-0.1438477443675565
 40
-0.1438477443675565
 40
-0.1438477443675565
 40
-0.1438477443675565
 40
0.0
 40
0.0
 40
0.0
 40
0.0
 10
1086.028979698903
 20
132.571044183347
 30
0.0
 10
1086.362216077622
 20
132.3547183110603
 30
0.0
 10
1086.695588018594
 20
132.1388731894975
 30
0.0
 10
1087.028979698901
 20
131.9235613688706
 30
0.0
  0
ELLIPSE
  5
571
330
1F
100
AcDbEntity
  8
Visible (ISO)
100
AcDbEllipse
 10
1053.028979698899
 20
149.376822830858
 30
0.0
 11
38.9999999999997
 21
-0.0000000000262651
 31
0.0
210
0.0
220
0.0
230
1.0
 40
0.9135454576426072
 41
5.224330879369556
 42
5.77124340819618
  0
ELLIPSE
  5
572
330
1F
100
AcDbEntity
  8
Visible (ISO)
100
AcDbEllipse
 10
1053.028979698899
 20
149.7835594739344
 30
0.0
 11
-37.99999999999993
 21
0.0000000000291683
 31
0.0
210
0.0
220
0.0
230
1.0
 40
0.9135454576426067
 41
2.08958373835928
 42
2.622805242027109
  0
ELLIPSE
  5
573
330
1F
100
AcDbEntity
  8
Visible (ISO)
100
AcDbEllipse
 10
1053.028979698899
 20
149.376822830858
 30
0.0
 11
-38.99999999999978
 21
0.000000000022557
 31
0.0
210
0.0
220
0.0
230
1.0
 40
0.9135454576426072
 41
3.653534552574543
 42
4.01975042738047
  0
ELLIPSE
  5
574
330
1F
100
AcDbEntity
  8
Visible (ISO)
100
AcDbEllipse
 10
1053.028979698899
 20
149.7835594739344
 30
0.0
 11
37.99999999999956
 21
-0.0000000000255601
 31
0.0
210
0.0
220
0.0
230
1.0
 40
0.9135454576426068
 41
0.5187874115642846
 42
0.8538940951021691
  0
ELLIPSE
  5
575
330
1F
100
AcDbEntity
  8
Visible (ISO)
100
AcDbEllipse
 10
1053.028979698899
 20
149.376822830858
 30
0.0
 11
-38.99999999999946
 21
0.000000000026304
 31
0.0
210
0.0
220
0.0
230
1.0
 40
0.913545457642607
 41
5.405027533390242
 42
5.771243408196182
  0
SPLINE
  5
576
330
1F
100
AcDbEntity
  8
Visible (ISO)
100
AcDbSpline
210
0.0
220
0.0
230
1.0
 70
     8
 71
     3
 72
     8
 73
     4
 74
     0
 42
0.0000000001
 43
0.0000000001
 40
-0.1438477767739135
 40
-0.1438477767739135
 40
-0.1438477767739135
 40
-0.1438477767739135
 40
0.0
 40
0.0
 40
0.0
 40
0.0
 10
1019.028979698898
 20
166.8300842928446
 30
0.0
 10
1019.362371379205
 20
166.8859776979742
 30
0.0
 10
1019.695743320177
 20
166.9413217447444
 30
0.0
 10
1020.028979698897
 20
166.9960747645208
 30
0.0
  0
ELLIPSE
  5
577
330
1F
100
AcDbEntity
  8
Visible (ISO)
100
AcDbEllipse
 10
1053.028979698899
 20
149.7835594739344
 30
0.0
 11
37.9999999999997
 21
-0.00000000002916
 31
0.0
210
0.0
220
0.0
230
1.0
 40
0.9135454576426068
 41
2.287698558489243
 42
2.622805242027117
  0
LINE
  5
578
330
1F
100
AcDbEntity
  8
Visible (ISO)
100
AcDbLine
 10
1019.028979698898
 20
166.8300842928446
 30
0.0
 11
1019.028979698902
 21
131.9235613688706
 31
0.0
  0
LINE
  5
579
330
1F
100
AcDbEntity
  8
Visible (ISO)
100
AcDbLine
 10
1020.028979698903
 20
132.571044183347
 30
0.0
 11
1020.028979698897
 21
166.9960747645208
 31
0.0
  0
LINE
  5
57A
330
1F
100
AcDbEntity
  8
Visible (ISO)
100
AcDbLine
 10
1072.133952873445
 20
116.0792257340926
 30
0.0
 11
1033.924006524359
 21
116.0792257340926
 31
0.0
  0
ELLIPSE
  5
57B
330
1F
100
AcDbEntity
  8
Visible (ISO)
100
AcDbEllipse
 10
1053.028979698898
 20
147.1397712939414
 30
0.0
 11
-38.99999999999978
 21
0.0000000000299094
 31
0.0
210
0.0
220
0.0
230
1.0
 40
0.913545457642607
 41
2.082738225779889
 42
2.62965075460651
  0
ELLIPSE
  5
57C
330
1F
100
AcDbEntity
  8
Visible (ISO)
100
AcDbEllipse
 10
1053.028979698898
 20
147.1397712939405
 30
0.0
 11
-38.99999999999963
 21
0.000000000026254
 31
0.0
210
0.0
220
0.0
230
1.0
 40
0.913545457642607
 41
0.5119418989848832
 42
1.058854427811513
  0
LINE
  5
57D
330
1F
100
AcDbEntity
  8
Visible (ISO)
100
AcDbLine
 10
1087.028979698901
 20
131.9235613688706
 30
0.0
 11
1087.028979698899
 21
129.6865098319539
 31
0.0
  0
LINE
  5
57E
330
1F
100
AcDbEntity
  8
Visible (ISO)
100
AcDbLine
 10
1019.028979698902
 20
131.9235613688706
 30
0.0
 11
1019.028979698901
 21
129.6865098319539
 31
0.0
  0
LINE
  5
57F
330
1F
100
AcDbEntity
  8
Visible (ISO)
100
AcDbLine
 10
1033.924006524361
 20
118.3162772710101
 30
0.0
 11
1033.924006524359
 21
116.0792257340926
 31
0.0
  0
LINE
  5
580
330
1F
100
AcDbEntity
  8
Visible (ISO)
100
AcDbLine
 10
1072.133952873445
 20
118.3162772710101
 30
0.0
 11
1072.133952873445
 21
116.0792257340926
 31
0.0
  0
SPLINE
  5
581
330
1F
100
AcDbEntity
  8
Visible (ISO)
100
AcDbSpline
210
0.0
220
0.0
230
1.0
 70
     8
 71
     3
 72
     8
 73
     4
 74
     0
 42
0.0000000001
 43
0.0000000001
 40
1.408775630527585
 40
1.408775630527585
 40
1.408775630527585
 40
1.408775630527585
 40
1.496912165487497
 40
1.496912165487497
 40
1.496912165487497
 40
1.496912165487497
 10
712.6483540273477
 20
191.000297997496
 30
0.0
 10
712.6574636424636
 20
190.8427850506549
 30
0.0
 10
712.6734425150691
 20
190.6781553531072
 30
0.0
 10
712.6972724028274
 20
190.5068035176508
 30
0.0
  0
LINE
  5
582
330
1F
100
AcDbEntity
  8
Visible (ISO)
100
AcDbLine
 10
712.6483540273417
 20
181.8110911510484
 30
0.0
 11
712.6483540273478
 21
191.000297997496
 31
0.0
  0
SPLINE
  5
583
330
1F
100
AcDbEntity
  8
Visible (ISO)
100
AcDbSpline
210
0.0
220
0.0
230
1.0
 70
     8
 71
     3
 72
     8
 73
     4
 74
     0
 42
0.0000000001
 43
0.0000000001
 40
3.22841504137508
 40
3.22841504137508
 40
3.22841504137508
 40
3.22841504137508
 40
3.359551857688662
 40
3.359551857688662
 40
3.359551857688662
 40
3.359551857688662
 10
712.7565392448937
 20
180.4374586480289
 30
0.0
 10
712.6995040371165
 20
180.8975479097034
 30
0.0
 10
712.6638609915143
 20
181.3579489569319
 30
0.0
 10
712.6483540273416
 20
181.8110911510484
 30
0.0
  0
LINE
  5
584
330
1F
100
AcDbEntity
  8
Visible (ISO)
100
AcDbLine
 10
719.1982969435062
 20
180.6362765044904
 30
0.0
 11
719.198296943504
 21
177.3385392236068
 31
0.0
  0
SPLINE
  5
585
330
1F
100
AcDbEntity
  8
Visible (ISO)
100
AcDbSpline
210
0.0
220
0.0
230
1.0
 70
     8
 71
     3
 72
     8
 73
     4
 74
     0
 42
0.0000000001
 43
0.0000000001
 40
2.735440551106417
 40
2.735440551106417
 40
2.735440551106417
 40
2.735440551106417
 40
2.823577086066327
 40
2.823577086066327
 40
2.823577086066327
 40
2.823577086066327
 10
718.5621421640909
 20
181.2267781743066
 30
0.0
 10
718.7755342034569
 20
181.0227716762864
 30
0.0
 10
718.9882004802527
 20
180.8256074590562
 30
0.0
 10
719.1982969435062
 20
180.6362765044904
 30
0.0
  0
ELLIPSE
  5
586
330
1F
100
AcDbEntity
  8
Visible (ISO)
100
AcDbEllipse
 10
726.6389069370467
 20
191.6734359466108
 30
0.0
 11
-13.99999999999988
 21
0.0000000000092372
 31
0.0
210
0.0
220
0.0
230
1.0
 40
0.913545457642607
 41
0.0913439847315134
 42
0.9558535664665241
  0
SPLINE
  5
587
330
1F
100
AcDbEntity
  8
Visible (ISO)
100
AcDbSpline
210
0.0
220
0.0
230
1.0
 70
     8
 71
     3
 72
     8
 73
     4
 74
     0
 42
0.0000000001
 43
0.0000000001
 40
1.408775630527585
 40
1.408775630527585
 40
1.408775630527585
 40
1.408775630527585
 40
1.496912165487496
 40
1.496912165487496
 40
1.496912165487496
 40
1.496912165487496
 10
688.4790367827569
 20
196.8387114788901
 30
0.0
 10
688.6982316429779
 20
196.8016144664397
 30
0.0
 10
688.9268882576889
 20
196.7660142622762
 30
0.0
 10
689.164109937652
 20
196.7323503473234
 30
0.0
  0
LINE
  5
588
330
1F
100
AcDbEntity
  8
Visible (ISO)
100
AcDbLine
 10
688.479036782751
 20
187.6495046324434
 30
0.0
 11
688.4790367827571
 21
196.8387114788901
 31
0.0
  0
SPLINE
  5
589
330
1F
100
AcDbEntity
  8
Visible (ISO)
100
AcDbSpline
210
0.0
220
0.0
230
1.0
 70
     8
 71
     3
 72
    14
 73
    10
 74
     0
 42
0.0000000001
 43
0.0000000001
 40
2.027893901294498
 40
2.027893901294498
 40
2.027893901294498
 40
2.027893901294498
 40
2.30918756554718
 40
2.30918756554718
 40
2.693722879491582
 40
2.693722879491582
 40
3.078258193435984
 40
3.078258193435984
 40
3.359551857688667
 40
3.359551857688667
 40
3.359551857688667
 40
3.359551857688667
 10
701.578922615065
 20
187.6495046324434
 30
0.0
 10
700.7785496029342
 20
187.1171861152051
 30
0.0
 10
699.887786984388
 20
186.6480098444207
 30
0.0
 10
697.6755153811978
 20
185.8211678154611
 30
0.0
 10
696.3107640787224
 20
185.5763551976842
 30
0.0
 10
693.7471953190931
 20
185.5763551976842
 30
0.0
 10
692.3824440166178
 20
185.8211678154611
 30
0.0
 10
690.1701724134277
 20
186.6480098444207
 30
0.0
 10
689.2794097948817
 20
187.1171861152051
 30
0.0
 10
688.479036782751
 20
187.6495046324434
 30
0.0
  0
LINE
  5
58A
330
1F
100
AcDbEntity
  8
Visible (ISO)
100
AcDbLine
 10
701.5789226150713
 20
196.8387114788901
 30
0.0
 11
701.578922615065
 21
187.6495046324434
 31
0.0
  0
SPLINE
  5
58B
330
1F
100
AcDbEntity
  8
Visible (ISO)
100
AcDbSpline
210
0.0
220
0.0
230
1.0
 70
     8
 71
     3
 72
     8
 73
     4
 74
     0
 42
0.0000000001
 43
0.0000000001
 40
2.73544055110642
 40
2.73544055110642
 40
2.73544055110642
 40
2.73544055110642
 40
2.823577086066332
 40
2.823577086066332
 40
2.823577086066332
 40
2.823577086066332
 10
700.8938494601766
 20
196.7323503473234
 30
0.0
 10
701.131072094804
 20
196.7660141224714
 30
0.0
 10
701.3597158076237
 20
196.8016125555413
 30
0.0
 10
701.5789226150712
 20
196.8387114788901
 30
0.0
  0
ELLIPSE
  5
58C
330
1F
100
AcDbEntity
  8
Visible (ISO)
100
AcDbEllipse
 10
695.0289796989128
 20
208.3456405485885
 30
0.0
 11
13.99999999999995
 21
-0.0000000000079138
 31
0.0
210
0.0
220
0.0
230
1.0
 40
0.9135454576426068
 41
4.280134189517832
 42
5.144643771252829
  0
SPLINE
  5
58D
330
1F
100
AcDbEntity
  8
Visible (ISO)
100
AcDbSpline
210
0.0
220
0.0
230
1.0
 70
     8
 71
     3
 72
     8
 73
     4
 74
     0
 42
0.0000000001
 43
0.0000000001
 40
1.408775630527585
 40
1.408775630527585
 40
1.408775630527585
 40
1.408775630527585
 40
1.496912165487496
 40
1.496912165487496
 40
1.496912165487496
 40
1.496912165487496
 10
670.8596624543263
 20
180.6362765044904
 30
0.0
 10
671.0697476994314
 20
180.8255971517082
 30
0.0
 10
671.2824254415369
 20
181.0227724499772
 30
0.0
 10
671.4958172337418
 20
181.2267781743066
 30
0.0
  0
LINE
  5
58E
330
1F
100
AcDbEntity
  8
Visible (ISO)
100
AcDbLine
 10
670.8596624543242
 20
177.3385392236068
 30
0.0
 11
670.8596624543263
 21
180.6362765044904
 31
0.0
  0
SPLINE
  5
58F
330
1F
100
AcDbEntity
  8
Visible (ISO)
100
AcDbSpline
210
0.0
220
0.0
230
1.0
 70
     8
 71
     3
 72
     8
 73
     4
 74
     0
 42
0.0000000001
 43
0.0000000001
 40
2.027893901294498
 40
2.027893901294498
 40
2.027893901294498
 40
2.027893901294498
 40
2.15903071760808
 40
2.15903071760808
 40
2.15903071760808
 40
2.15903071760808
 10
677.4096053704758
 20
181.8110911510484
 30
0.0
 10
677.3940984063032
 20
181.3579489569319
 30
0.0
 10
677.3584553607011
 20
180.8975479097034
 30
0.0
 10
677.3014201529238
 20
180.4374586480289
 30
0.0
  0
LINE
  5
590
330
1F
100
AcDbEntity
  8
Visible (ISO)
100
AcDbLine
 10
677.409605370482
 20
191.000297997496
 30
0.0
 11
677.4096053704758
 21
181.8110911510484
 31
0.0
  0
SPLINE
  5
591
330
1F
100
AcDbEntity
  8
Visible (ISO)
100
AcDbSpline
210
0.0
220
0.0
230
1.0
 70
     8
 71
     3
 72
     8
 73
     4
 74
     0
 42
0.0000000001
 43
0.0000000001
 40
2.735440551106417
 40
2.735440551106417
 40
2.735440551106417
 40
2.735440551106417
 40
2.823577086066329
 40
2.823577086066329
 40
2.823577086066329
 40
2.823577086066329
 10
677.3606869950029
 20
190.5068035176508
 30
0.0
 10
677.3845175902643
 20
190.6781560899898
 30
0.0
 10
677.4004950262881
 20
190.8427764538209
 30
0.0
 10
677.409605370482
 20
191.000297997496
 30
0.0
  0
ELLIPSE
  5
592
330
1F
100
AcDbEntity
  8
Visible (ISO)
100
AcDbEllipse
 10
663.4190524607832
 20
191.6734359466108
 30
0.0
 11
13.99999999999987
 21
-0.0000000000092273
 31
0.0
210
0.0
220
0.0
230
1.0
 40
0.9135454576426072
 41
5.327331740714503
 42
6.191841322449516
  0
ELLIPSE
  5
593
330
1F
100
AcDbEntity
  8
Visible (ISO)
100
AcDbEllipse
 10
695.0289796989157
 20
174.7978630230954
 30
0.0
 11
25.00000000000112
 21
-0.0000000000165076
 31
0.0
210
0.0
220
0.0
230
1.0
 40
0.913545457642607
 41
0.0875596464339417
 42
0.2585071267707963
  0
ELLIPSE
  5
594
330
1F
100
AcDbEntity
  8
Visible (ISO)
100
AcDbEllipse
 10
695.0289796989165
 20
174.7978630230963
 30
0.0
 11
-24.99999999999931
 21
0.0000000000165
 31
0.0
210
0.0
220
0.0
230
1.0
 40
0.913545457642607
 41
6.02467818041023
 42
6.195625660747099
  0
ELLIPSE
  5
595
330
1F
100
AcDbEntity
  8
Visible (ISO)
100
AcDbEllipse
 10
695.028979698917
 20
174.7978630230963
 30
0.0
 11
24.99999999999973
 21
-0.000000000018871
 31
0.0
210
0.0
220
0.0
230
1.0
 40
0.913545457642607
 41
1.835887975623931
 42
2.352902229164101
  0
ELLIPSE
  5
596
330
1F
100
AcDbEntity
  8
Visible (ISO)
100
AcDbEllipse
 10
695.0289796989109
 20
165.6086561766487
 30
0.0
 11
24.99999999999975
 21
-0.0000000000188349
 31
0.0
210
0.0
220
0.0
230
1.0
 40
0.9135454576426067
 41
1.835887975623929
 42
2.352902229164099
  0
ELLIPSE
  5
597
330
1F
100
AcDbEntity
  8
Visible (ISO)
100
AcDbEllipse
 10
695.0289796989109
 20
165.6086561766487
 30
0.0
 11
24.9999999999998
 21
-0.0000000000164979
 31
0.0
210
0.0
220
0.0
230
1.0
 40
0.9135454576426067
 41
0.7886904244272524
 42
1.305704677967393
  0
ELLIPSE
  5
598
330
1F
100
AcDbEntity
  8
Visible (ISO)
100
AcDbEllipse
 10
695.028979698917
 20
174.7978630230963
 30
0.0
 11
24.99999999999976
 21
-0.0000000000164979
 31
0.0
210
0.0
220
0.0
230
1.0
 40
0.913545457642607
 41
0.7886904244272408
 42
1.305704677967394
  0
ELLIPSE
  5
599
330
1F
100
AcDbEntity
  8
Visible (ISO)
100
AcDbEllipse
 10
715.5981832088671
 20
119.4580694503174
 30
0.0
 11
-4.24999999999997
 21
0.0000000000000001
 31
0.0
210
0.0
220
0.0
230
1.0
 40
0.913545457642607
 41
3.141592653589466
 42
6.28318530717926
  0
ELLIPSE
  5
59A
330
1F
100
AcDbEntity
  8
Visible (ISO)
100
AcDbEllipse
 10
715.5981832088654
 20
116.8956285989397
 30
0.0
 11
4.24999999999997
 21
-0.0000000000000001
 31
0.0
210
0.0
220
0.0
230
1.0
 40
0.913545457642607
 41
0.0
 42
6.283185307179586
  0
LINE
  5
59B
330
1F
100
AcDbEntity
  8
Visible (ISO)
100
AcDbLine
 10
719.848183208867
 20
119.4580694503174
 30
0.0
 11
719.8481832088654
 21
116.8956285989397
 31
0.0
  0
LINE
  5
59C
330
1F
100
AcDbEntity
  8
Visible (ISO)
100
AcDbLine
 10
711.3481832088671
 20
119.4580694503174
 30
0.0
 11
711.3481832088654
 21
116.8956285989397
 31
0.0
  0
ELLIPSE
  5
59D
330
1F
100
AcDbEntity
  8
Visible (ISO)
100
AcDbEllipse
 10
674.4597761889288
 20
119.4580694503174
 30
0.0
 11
-4.249999999999968
 21
0.0000000000000001
 31
0.0
210
0.0
220
0.0
230
1.0
 40
0.913545457642607
 41
3.141592653589466
 42
6.28318530717926
  0
ELLIPSE
  5
59E
330
1F
100
AcDbEntity
  8
Visible (ISO)
100
AcDbEllipse
 10
674.4597761889272
 20
116.8956285989397
 30
0.0
 11
-4.24999999999997
 21
0.0000000000000001
 31
0.0
210
0.0
220
0.0
230
1.0
 40
0.913545457642607
 41
0.0
 42
6.283185307179586
  0
LINE
  5
59F
330
1F
100
AcDbEntity
  8
Visible (ISO)
100
AcDbLine
 10
670.2097761889271
 20
116.8956285989397
 30
0.0
 11
670.2097761889289
 21
119.4580694503174
 31
0.0
  0
LINE
  5
5A0
330
1F
100
AcDbEntity
  8
Visible (ISO)
100
AcDbLine
 10
678.709776188927
 20
116.8956285989397
 30
0.0
 11
678.7097761889287
 21
119.4580694503174
 31
0.0
  0
LINE
  5
5A1
330
1F
100
AcDbEntity
  8
Visible (ISO)
100
AcDbLine
 10
661.0289796988975
 20
124.3989334719689
 30
0.0
 11
661.0289796988972
 21
126.3675994269141
 31
0.0
  0
ELLIPSE
  5
5A2
330
1F
100
AcDbEntity
  8
Visible (ISO)
100
AcDbEllipse
 10
695.028979698895
 20
141.8521949339555
 30
0.0
 11
-38.99999999999961
 21
0.0000000000257488
 31
0.0
210
0.0
220
0.0
230
1.0
 40
0.9135454576426067
 41
0.5119418989848619
 42
1.058854427811481
  0
LINE
  5
5A3
330
1F
100
AcDbEntity
  8
Visible (ISO)
100
AcDbLine
 10
714.1339528734418
 20
110.7916493741076
 30
0.0
 11
675.9240065243564
 21
110.7916493741076
 31
0.0
  0
ELLIPSE
  5
5A4
330
1F
100
AcDbEntity
  8
Visible (ISO)
100
AcDbEllipse
 10
695.028979698895
 20
141.8521949339555
 30
0.0
 11
-38.99999999999973
 21
0.0000000000294292
 31
0.0
210
0.0
220
0.0
230
1.0
 40
0.9135454576426067
 41
2.082738225779856
 42
2.629650754606503
  0
LINE
  5
5A5
330
1F
100
AcDbEntity
  8
Visible (ISO)
100
AcDbLine
 10
729.0289796988968
 20
126.3675994269141
 30
0.0
 11
729.028979698897
 21
124.3989334719689
 31
0.0
  0
LINE
  5
5A6
330
1F
100
AcDbEntity
  8
Visible (ISO)
100
AcDbLine
 10
729.0289796988925
 20
159.305456395943
 30
0.0
 11
729.0289796988933
 21
152.9974495171954
 31
0.0
  0
ELLIPSE
  5
5A7
330
1F
100
AcDbEntity
  8
Visible (ISO)
100
AcDbEllipse
 10
695.028979698895
 20
141.8521949339555
 30
0.0
 11
38.99999999999972
 21
-0.0000000000257239
 31
0.0
210
0.0
220
0.0
230
1.0
 40
0.913545457642607
 41
0.5119418989848601
 42
1.058854427811482
  0
LINE
  5
5A8
330
1F
100
AcDbEntity
  8
Visible (ISO)
100
AcDbLine
 10
675.9240065243483
 20
172.9127404938035
 30
0.0
 11
714.1339528734335
 21
172.9127404938035
 31
0.0
  0
ELLIPSE
  5
5A9
330
1F
100
AcDbEntity
  8
Visible (ISO)
100
AcDbEllipse
 10
695.028979698895
 20
141.8521949339555
 30
0.0
 11
38.99999999999973
 21
-0.0000000000294292
 31
0.0
210
0.0
220
0.0
230
1.0
 40
0.9135454576426067
 41
2.082738225779856
 42
2.629650754606503
  0
LINE
  5
5AA
330
1F
100
AcDbEntity
  8
Visible (ISO)
100
AcDbLine
 10
661.0289796988938
 20
152.9974495171954
 30
0.0
 11
661.0289796988929
 21
159.305456395943
 31
0.0
  0
LINE
  5
5AB
330
1F
100
AcDbEntity
  8
Visible (ISO)
100
AcDbLine
 10
729.0289796988957
 20
164.1862961128526
 30
0.0
 11
729.0289796988925
 21
159.305456395943
 31
0.0
  0
LINE
  5
5AC
330
1F
100
AcDbEntity
  8
Visible (ISO)
100
AcDbLine
 10
661.0289796988962
 20
164.1862961128526
 30
0.0
 11
661.0289796988929
 21
159.305456395943
 31
0.0
  0
LINE
  5
5AD
330
1F
100
AcDbEntity
  8
Visible (ISO)
100
AcDbLine
 10
714.1339528734369
 20
177.7935802107139
 30
0.0
 11
675.9240065243516
 21
177.7935802107139
 31
0.0
  0
ELLIPSE
  5
5AE
330
1F
100
AcDbEntity
  8
Visible (ISO)
100
AcDbEllipse
 10
695.0289796988983
 20
146.7330346508651
 30
0.0
 11
-38.99999999999961
 21
0.0000000000220601
 31
0.0
210
0.0
220
0.0
230
1.0
 40
0.9135454576426067
 41
3.653534552574518
 42
4.200447081401165
  0
ELLIPSE
  5
5AF
330
1F
100
AcDbEntity
  8
Visible (ISO)
100
AcDbEllipse
 10
695.0289796988982
 20
146.7330346508651
 30
0.0
 11
-38.99999999999959
 21
0.0000000000257266
 31
0.0
210
0.0
220
0.0
230
1.0
 40
0.913545457642607
 41
5.224330879369549
 42
5.771243408196177
  0
LINE
  5
5B0
330
1F
100
AcDbEntity
  8
Visible (ISO)
100
AcDbLine
 10
714.1339528734369
 20
177.7935802107139
 30
0.0
 11
714.1339528734335
 21
172.9127404938044
 31
0.0
  0
LINE
  5
5B1
330
1F
100
AcDbEntity
  8
Visible (ISO)
100
AcDbLine
 10
675.9240065243516
 20
177.7935802107139
 30
0.0
 11
675.9240065243483
 21
172.9127404938035
 31
0.0
  0
ELLIPSE
  5
5B2
330
1F
100
AcDbEntity
  8
Visible (ISO)
100
AcDbEllipse
 10
713.6880257623972
 20
162.1329040936215
 30
0.0
 11
9.999999999999896
 21
-0.0000000000056545
 31
0.0
210
0.0
220
0.0
230
1.0
 40
0.913545457642607
 41
4.013437499640321
 42
4.712388980385316
  0
ELLIPSE
  5
5B3
330
1F
100
AcDbEntity
  8
Visible (ISO)
100
AcDbEllipse
 10
713.6880257624004
 20
166.9290177462452
 30
0.0
 11
-0.0000000000048998
 21
-18.27090915285201
 31
0.0
210
0.0
220
0.0
230
1.0
 40
0.5473181392530197
 41
5.584233826433873
 42
6.283185307178604
  0
ELLIPSE
  5
5B4
330
1F
100
AcDbEntity
  8
Visible (ISO)
100
AcDbEllipse
 10
676.3699336353876
 20
162.1329040936215
 30
0.0
 11
9.999999999999902
 21
-0.0000000000000104
 31
0.0
210
0.0
220
0.0
230
1.0
 40
0.913545457642607
 41
4.71238898038493
 42
5.41134046112983
  0
ELLIPSE
  5
5B5
330
1F
100
AcDbEntity
  8
Visible (ISO)
100
AcDbEllipse
 10
676.3699336353908
 20
166.9290177462452
 30
0.0
 11
-0.0000000000048998
 21
-18.27090915285201
 31
0.0
210
0.0
220
0.0
230
1.0
 40
0.5473181392530197
 41
0.0
 42
0.6989514807442836
  0
ELLIPSE
  5
5B6
330
1F
100
AcDbEntity
  8
Visible (ISO)
100
AcDbEllipse
 10
715.5981832088611
 20
164.2463204175937
 30
0.0
 11
-4.24999999999997
 21
0.0000000000000001
 31
0.0
210
0.0
220
0.0
230
1.0
 40
0.913545457642607
 41
3.141592653589466
 42
6.28318530717926
  0
ELLIPSE
  5
5B7
330
1F
100
AcDbEntity
  8
Visible (ISO)
100
AcDbEllipse
 10
674.459776188923
 20
164.2463204175937
 30
0.0
 11
-4.249999999999968
 21
0.0000000000000001
 31
0.0
210
0.0
220
0.0
230
1.0
 40
0.913545457642607
 41
3.141592653589466
 42
6.28318530717926
  0
ELLIPSE
  5
5B8
330
1F
100
AcDbEntity
  8
Visible (ISO)
100
AcDbEllipse
 10
674.4597761889212
 20
161.683879566216
 30
0.0
 11
4.24999999999997
 21
-0.0000000000000001
 31
0.0
210
0.0
220
0.0
230
1.0
 40
0.913545457642607
 41
0.0
 42
6.283185307179586
  0
ELLIPSE
  5
5B9
330
1F
100
AcDbEntity
  8
Visible (ISO)
100
AcDbEllipse
 10
715.5981832088595
 20
161.683879566216
 30
0.0
 11
-4.24999999999997
 21
0.0000000000000001
 31
0.0
210
0.0
220
0.0
230
1.0
 40
0.913545457642607
 41
0.0
 42
6.283185307179586
  0
LINE
  5
5BA
330
1F
100
AcDbEntity
  8
Visible (ISO)
100
AcDbLine
 10
678.709776188923
 20
164.2463204175937
 30
0.0
 11
678.7097761889213
 21
161.683879566216
 31
0.0
  0
LINE
  5
5BB
330
1F
100
AcDbEntity
  8
Visible (ISO)
100
AcDbLine
 10
670.209776188923
 20
164.2463204175937
 30
0.0
 11
670.2097761889213
 21
161.683879566216
 31
0.0
  0
LINE
  5
5BC
330
1F
100
AcDbEntity
  8
Visible (ISO)
100
AcDbLine
 10
711.3481832088596
 20
161.683879566216
 30
0.0
 11
711.3481832088613
 21
164.2463204175937
 31
0.0
  0
LINE
  5
5BD
330
1F
100
AcDbEntity
  8
Visible (ISO)
100
AcDbLine
 10
719.8481832088595
 20
161.683879566216
 30
0.0
 11
719.8481832088612
 21
164.2463204175937
 31
0.0
  0
LINE
  5
5BE
330
1F
100
AcDbEntity
  8
Visible (ISO)
100
AcDbLine
 10
729.0289796988933
 20
152.9974495171954
 30
0.0
 11
713.6880257623984
 21
152.9974495171954
 31
0.0
  0
LINE
  5
5BF
330
1F
100
AcDbEntity
  8
Visible (ISO)
100
AcDbLine
 10
661.0289796988938
 20
152.9974495171954
 30
0.0
 11
676.3699336353887
 21
152.9974495171954
 31
0.0
  0
ELLIPSE
  5
5C0
330
1F
100
AcDbEntity
  8
Visible (ISO)
100
AcDbEllipse
 10
695.028979698895
 20
141.8521949339555
 30
0.0
 11
19.00000000000003
 21
-0.0000000000143205
 31
0.0
210
0.0
220
0.0
230
1.0
 40
0.913545457642607
 41
2.039609266675391
 42
2.26974780754071
  0
ELLIPSE
  5
5C1
330
1F
100
AcDbEntity
  8
Visible (ISO)
100
AcDbEllipse
 10
695.028979698895
 20
141.8521949339555
 30
0.0
 11
-19.00000000000003
 21
0.000000000010747
 31
0.0
210
0.0
220
0.0
230
1.0
 40
0.913545457642607
 41
4.013437499640321
 42
4.243576040505641
  0
LINE
  5
5C2
330
1F
100
AcDbEntity
  8
Visible (ISO)
100
AcDbLine
 10
729.0289796988904
 20
148.658108593393
 30
0.0
 11
713.6880257623955
 21
148.658108593393
 31
0.0
  0
LINE
  5
5C3
330
1F
100
AcDbEntity
  8
Visible (ISO)
100
AcDbLine
 10
729.0289796988933
 20
152.9974495171954
 30
0.0
 11
729.0289796988904
 21
148.658108593393
 31
0.0
  0
ELLIPSE
  5
5C4
330
1F
100
AcDbEntity
  8
Visible (ISO)
100
AcDbEllipse
 10
695.0289796988847
 20
126.3675994269132
 30
0.0
 11
-0.0000000000093097
 21
-34.71472739041881
 31
0.0
210
0.0
220
0.0
230
1.0
 40
0.5473181392530199
 41
3.610405593468616
 42
3.84054413433407
  0
LINE
  5
5C5
330
1F
100
AcDbEntity
  8
Visible (ISO)
100
AcDbLine
 10
661.0289796988909
 20
148.658108593393
 30
0.0
 11
661.0289796988938
 21
152.9974495171954
 31
0.0
  0
LINE
  5
5C6
330
1F
100
AcDbEntity
  8
Visible (ISO)
100
AcDbLine
 10
676.3699336353859
 20
148.658108593393
 30
0.0
 11
661.0289796988909
 21
148.658108593393
 31
0.0
  0
ELLIPSE
  5
5C7
330
1F
100
AcDbEntity
  8
Visible (ISO)
100
AcDbEllipse
 10
695.0289796988847
 20
126.3675994269132
 30
0.0
 11
-0.0000000000093097
 21
-34.71472739041881
 31
0.0
210
0.0
220
0.0
230
1.0
 40
0.5473181392530199
 41
2.44264117284408
 42
2.672779713709265
  0
LINE
  5
5C8
330
1F
100
AcDbEntity
  8
Visible (ISO)
100
AcDbLine
 10
686.4442548925874
 20
157.3367904409978
 30
0.0
 11
703.6137045051987
 21
157.3367904409978
 31
0.0
  0
LINE
  5
5C9
330
1F
100
AcDbEntity
  8
Visible (ISO)
100
AcDbLine
 10
661.0289796988909
 20
148.658108593393
 30
0.0
 11
661.0289796988888
 21
140.7419354035054
 31
0.0
  0
LINE
  5
5CA
330
1F
100
AcDbEntity
  8
Visible (ISO)
100
AcDbLine
 10
685.6289796988886
 20
140.7419354035054
 30
0.0
 11
661.0289796988888
 21
140.7419354035054
 31
0.0
  0
LINE
  5
5CB
330
1F
100
AcDbEntity
  8
Visible (ISO)
100
AcDbLine
 10
729.0289796988884
 20
140.7419354035054
 30
0.0
 11
704.4289796988884
 21
140.7419354035054
 31
0.0
  0
LINE
  5
5CC
330
1F
100
AcDbEntity
  8
Visible (ISO)
100
AcDbLine
 10
729.0289796988884
 20
140.7419354035054
 30
0.0
 11
729.0289796988904
 21
148.658108593393
 31
0.0
  0
LINE
  5
5CD
330
1F
100
AcDbEntity
  8
Visible (ISO)
100
AcDbLine
 10
729.0289796988902
 20
126.3675994269132
 30
0.0
 11
729.0289796988884
 21
140.7419354035054
 31
0.0
  0
LINE
  5
5CE
330
1F
100
AcDbEntity
  8
Visible (ISO)
100
AcDbLine
 10
661.0289796988888
 20
140.7419354035054
 30
0.0
 11
661.0289796988906
 21
126.3675994269132
 31
0.0
  0
LINE
  5
5CF
330
1F
100
AcDbEntity
  8
0
  6
CENTER
100
AcDbLine
 10
695.0289796988815
 20
198.1742523565762
 30
0.0
 11
695.0289796988936
 21
102.7092426122607
 31
0.0
  0
LINE
  5
5D0
330
1F
100
AcDbEntity
  8
Visible (ISO)
100
AcDbLine
 10
704.4289796988904
 20
126.3675994269132
 30
0.0
 11
729.0289796988902
 21
126.3675994269132
 31
0.0
  0
LINE
  5
5D1
330
1F
100
AcDbEntity
  8
Visible (ISO)
100
AcDbLine
 10
661.0289796988906
 20
126.3675994269132
 30
0.0
 11
685.6289796988906
 21
126.3675994269132
 31
0.0
  0
LINE
  5
5D2
330
1F
100
AcDbEntity
  8
Visible (ISO)
100
AcDbLine
 10
685.6289796988886
 20
140.7419354035054
 30
0.0
 11
689.8328272761836
 21
146.6650602129583
 31
0.0
  0
ELLIPSE
  5
5D3
330
1F
100
AcDbEntity
  8
Visible (ISO)
100
AcDbEllipse
 10
695.0289796988895
 20
144.2246403545031
 30
0.0
 11
5.999999999999959
 21
-0.0000000000000009
 31
0.0
210
0.0
220
0.0
230
1.0
 40
0.8134732861516063
 41
0.5235987755982539
 42
2.617993877991434
  0
LINE
  5
5D4
330
1F
100
AcDbEntity
  8
Visible (ISO)
100
AcDbLine
 10
700.2251321215967
 20
146.6650602129583
 30
0.0
 11
704.4289796988884
 21
140.7419354035054
 31
0.0
  0
LINE
  5
5D5
330
1F
100
AcDbEntity
  8
Visible (ISO)
100
AcDbLine
 10
704.4289796988904
 20
126.3675994269132
 30
0.0
 11
700.2251321215994
 21
126.3675994269132
 31
0.0
  0
LINE
  5
5D6
330
1F
100
AcDbEntity
  8
Visible (ISO)
100
AcDbLine
 10
700.2251321215994
 20
126.3675994269132
 30
0.0
 11
689.8328272761862
 21
126.3675994269132
 31
0.0
  0
LINE
  5
5D7
330
1F
100
AcDbEntity
  8
Visible (ISO)
100
AcDbLine
 10
689.8328272761862
 20
126.3675994269132
 30
0.0
 11
685.6289796988906
 21
126.3675994269132
 31
0.0
  0
LINE
  5
5D8
330
1F
100
AcDbEntity
  8
Visible (ISO)
100
AcDbLine
 10
704.4289796988884
 20
140.7419354035054
 30
0.0
 11
704.4289796988904
 21
126.3675994269132
 31
0.0
  0
LINE
  5
5D9
330
1F
100
AcDbEntity
  8
Visible (ISO)
100
AcDbLine
 10
685.6289796988906
 20
126.3675994269132
 30
0.0
 11
685.6289796988886
 21
140.7419354035054
 31
0.0
  0
LINE
  5
5DA
330
1F
100
AcDbEntity
  8
Visible (ISO)
100
AcDbLine
 10
641.0289796988932
 20
155.5169544607351
 30
0.0
 11
641.0289796988932
 21
121.5169544607342
 31
0.0
  0
LINE
  5
5DB
330
1F
100
AcDbEntity
  8
Visible (ISO)
100
AcDbLine
 10
643.8789796988932
 20
155.5169544607351
 30
0.0
 11
643.8789796988932
 21
121.5169544607342
 31
0.0
  0
LINE
  5
5DC
330
1F
100
AcDbEntity
  8
Visible (ISO)
100
AcDbLine
 10
646.1173966396303
 20
149.3669544607336
 30
0.0
 11
646.1173966396303
 21
127.6669544607347
 31
0.0
  0
LINE
  5
5DD
330
1F
100
AcDbEntity
  8
Visible (ISO)
100
AcDbLine
 10
643.8789796988932
 20
121.5169544607342
 30
0.0
 11
641.0289796988932
 21
121.5169544607342
 31
0.0
  0
LINE
  5
5DE
330
1F
100
AcDbEntity
  8
Visible (ISO)
100
AcDbLine
 10
643.8789796988932
 20
155.5169544607342
 30
0.0
 11
641.0289796988932
 21
155.5169544607342
 31
0.0
  0
LINE
  5
5DF
330
1F
100
AcDbEntity
  8
Visible (ISO)
100
AcDbLine
 10
646.1173966396303
 20
127.6669544607347
 30
0.0
 11
643.8789796988932
 21
121.5169544607342
 31
0.0
  0
LINE
  5
5E0
330
1F
100
AcDbEntity
  8
Visible (ISO)
100
AcDbLine
 10
646.1173966396303
 20
149.3669544607336
 30
0.0
 11
643.8789796988932
 21
155.5169544607342
 31
0.0
  0
LINE
  5
5E1
330
1F
100
AcDbEntity
  8
Visible (ISO)
100
AcDbLine
 10
661.028979698893
 20
127.6669544607347
 30
0.0
 11
646.1173966396303
 21
127.6669544607347
 31
0.0
  0
LINE
  5
5E2
330
1F
100
AcDbEntity
  8
Visible (ISO)
100
AcDbLine
 10
661.028979698893
 20
149.3669544607336
 30
0.0
 11
646.1173966396303
 21
149.3669544607336
 31
0.0
  0
LINE
  5
5E3
330
1F
100
AcDbEntity
  8
Visible (ISO)
100
AcDbLine
 10
749.0289796988925
 20
155.5169544607351
 30
0.0
 11
749.0289796988924
 21
121.5169544607342
 31
0.0
  0
LINE
  5
5E4
330
1F
100
AcDbEntity
  8
Visible (ISO)
100
AcDbLine
 10
746.1789796988925
 20
155.5169544607351
 30
0.0
 11
746.1789796988925
 21
121.5169544607342
 31
0.0
  0
LINE
  5
5E5
330
1F
100
AcDbEntity
  8
Visible (ISO)
100
AcDbLine
 10
743.9405627581553
 20
149.3669544607336
 30
0.0
 11
743.9405627581553
 21
127.6669544607347
 31
0.0
  0
LINE
  5
5E6
330
1F
100
AcDbEntity
  8
Visible (ISO)
100
AcDbLine
 10
749.0289796988925
 20
121.5169544607342
 30
0.0
 11
746.1789796988924
 21
121.5169544607342
 31
0.0
  0
LINE
  5
5E7
330
1F
100
AcDbEntity
  8
Visible (ISO)
100
AcDbLine
 10
749.0289796988925
 20
155.5169544607342
 30
0.0
 11
746.1789796988925
 21
155.5169544607342
 31
0.0
  0
LINE
  5
5E8
330
1F
100
AcDbEntity
  8
Visible (ISO)
100
AcDbLine
 10
743.9405627581553
 20
149.3669544607336
 30
0.0
 11
746.1789796988925
 21
155.5169544607342
 31
0.0
  0
LINE
  5
5E9
330
1F
100
AcDbEntity
  8
Visible (ISO)
100
AcDbLine
 10
743.9405627581553
 20
127.6669544607347
 30
0.0
 11
746.1789796988924
 21
121.5169544607342
 31
0.0
  0
LINE
  5
5EA
330
1F
100
AcDbEntity
  8
Visible (ISO)
100
AcDbLine
 10
743.9405627581553
 20
127.6669544607347
 30
0.0
 11
729.0289796988925
 21
127.6669544607347
 31
0.0
  0
LINE
  5
5EB
330
1F
100
AcDbEntity
  8
Visible (ISO)
100
AcDbLine
 10
743.9405627581553
 20
149.3669544607336
 30
0.0
 11
729.0289796988925
 21
149.3669544607336
 31
0.0
  0
LINE
  5
5EC
330
1F
100
AcDbEntity
  8
0
  6
CENTER
100
AcDbLine
 10
760.0991336254917
 20
138.5169544607333
 30
0.0
 11
621.5020602322799
 21
138.5169544607333
 31
0.0
  0
ELLIPSE
  5
5ED
330
1F
100
AcDbEntity
  8
Visible (ISO)
100
AcDbEllipse
 10
695.0289796988999
 20
149.376822830858
 30
0.0
 11
38.99999999999963
 21
-0.000000000029432
 31
0.0
210
0.0
220
0.0
230
1.0
 40
0.9135454576426068
 41
2.082738225779854
 42
2.629650754606501
  0
LINE
  5
5EE
330
1F
100
AcDbEntity
  8
Visible (ISO)
100
AcDbLine
 10
675.9240065243533
 20
180.437368390706
 30
0.0
 11
714.1339528734386
 21
180.437368390706
 31
0.0
  0
ELLIPSE
  5
5EF
330
1F
100
AcDbEntity
  8
Visible (ISO)
100
AcDbEllipse
 10
695.0289796989001
 20
149.376822830858
 30
0.0
 11
38.99999999999963
 21
-0.0000000000257377
 31
0.0
210
0.0
220
0.0
230
1.0
 40
0.913545457642607
 41
0.5119418989848619
 42
1.058854427811485
  0
ELLIPSE
  5
5F0
330
1F
100
AcDbEntity
  8
Visible (ISO)
100
AcDbEllipse
 10
695.0289796988986
 20
147.1397712939414
 30
0.0
 11
-38.99999999999963
 21
0.0000000000220352
 31
0.0
210
0.0
220
0.0
230
1.0
 40
0.913545457642607
 41
3.653534552574518
 42
4.200447081401165
  0
LINE
  5
5F1
330
1F
100
AcDbEntity
  8
Visible (ISO)
100
AcDbLine
 10
714.1339528734372
 20
178.2003168537893
 30
0.0
 11
675.9240065243518
 21
178.2003168537893
 31
0.0
  0
ELLIPSE
  5
5F2
330
1F
100
AcDbEntity
  8
Visible (ISO)
100
AcDbEllipse
 10
695.0289796988985
 20
147.1397712939414
 30
0.0
 11
-38.99999999999963
 21
0.0000000000257211
 31
0.0
210
0.0
220
0.0
230
1.0
 40
0.9135454576426068
 41
5.224330879369549
 42
5.771243408196178
  0
LINE
  5
5F3
330
1F
100
AcDbEntity
  8
Visible (ISO)
100
AcDbLine
 10
661.0289796988966
 20
164.593032755928
 30
0.0
 11
661.0289796988966
 21
164.1862961128526
 31
0.0
  0
SPLINE
  5
5F4
330
1F
100
AcDbEntity
  8
Visible (ISO)
100
AcDbSpline
210
0.0
220
0.0
230
1.0
 70
     8
 71
     3
 72
     8
 73
     4
 74
     0
 42
0.0000000001
 43
0.0000000001
 40
-0.0259507643397217
 40
-0.0259507643397217
 40
-0.0259507643397217
 40
-0.0259507643397217
 40
0.0
 40
0.0
 40
0.0
 40
0.0
 10
661.2094130580719
 20
164.4764514025245
 30
0.0
 10
661.1492697008061
 20
164.5153290046391
 30
0.0
 10
661.089125021067
 20
164.5541895586219
 30
0.0
 10
661.0289796988966
 20
164.593032755928
 30
0.0
  0
SPLINE
  5
5F5
330
1F
100
AcDbEntity
  8
Visible (ISO)
100
AcDbSpline
210
0.0
220
0.0
230
1.0
 70
     8
 71
     3
 72
     8
 73
     4
 74
     0
 42
0.0000000001
 43
0.0000000001
 40
-0.0443084237213006
 40
-0.0443084237213006
 40
-0.0443084237213006
 40
-0.0443084237213006
 40
0.0
 40
0.0
 40
0.0
 40
0.0
 10
676.0048024453342
 20
177.7935802107139
 30
0.0
 10
675.9778143667642
 20
177.929153639734
 30
0.0
 10
675.9508823350857
 20
178.0647340104287
 30
0.0
 10
675.9240065243518
 20
178.2003168537893
 30
0.0
  0
SPLINE
  5
5F6
330
1F
100
AcDbEntity
  8
Visible (ISO)
100
AcDbSpline
210
0.0
220
0.0
230
1.0
 70
     8
 71
     3
 72
     8
 73
     4
 74
     0
 42
0.0000000001
 43
0.0000000001
 40
-0.0443084237213204
 40
-0.0443084237213204
 40
-0.0443084237213204
 40
-0.0443084237213204
 40
0.0
 40
0.0
 40
0.0
 40
0.0
 10
714.0531569524546
 20
177.7935802107139
 30
0.0
 10
714.0801450310248
 20
177.929153639734
 30
0.0
 10
714.1070770627034
 20
178.0647340104277
 30
0.0
 10
714.1339528734372
 20
178.2003168537893
 30
0.0
  0
SPLINE
  5
5F7
330
1F
100
AcDbEntity
  8
Visible (ISO)
100
AcDbSpline
210
0.0
220
0.0
230
1.0
 70
     8
 71
     3
 72
     8
 73
     4
 74
     0
 42
0.0000000001
 43
0.0000000001
 40
-0.0259507643397151
 40
-0.0259507643397151
 40
-0.0259507643397151
 40
-0.0259507643397151
 40
0.0
 40
0.0
 40
0.0
 40
0.0
 10
728.8485463397206
 20
164.4764514025245
 30
0.0
 10
728.9086896969863
 20
164.5153290046391
 30
0.0
 10
728.9688343767255
 20
164.5541895586219
 30
0.0
 10
729.0289796988961
 20
164.593032755928
 30
0.0
  0
LINE
  5
5F8
330
1F
100
AcDbEntity
  8
Visible (ISO)
100
AcDbLine
 10
729.0289796988961
 20
164.1862961128526
 30
0.0
 11
729.0289796988961
 21
164.593032755928
 31
0.0
  0
LINE
  5
5F9
330
1F
100
AcDbEntity
  8
Visible (ISO)
100
AcDbLine
 10
714.1339528734386
 20
180.437368390706
 30
0.0
 11
714.1339528734372
 21
178.2003168537893
 31
0.0
  0
LINE
  5
5FA
330
1F
100
AcDbEntity
  8
Visible (ISO)
100
AcDbLine
 10
729.0289796988976
 20
166.8300842928446
 30
0.0
 11
729.0289796988961
 21
164.593032755928
 31
0.0
  0
LINE
  5
5FB
330
1F
100
AcDbEntity
  8
Visible (ISO)
100
AcDbLine
 10
675.9240065243533
 20
180.437368390706
 30
0.0
 11
675.9240065243518
 21
178.2003168537893
 31
0.0
  0
LINE
  5
5FC
330
1F
100
AcDbEntity
  8
Visible (ISO)
100
AcDbLine
 10
661.0289796988979
 20
166.8300842928446
 30
0.0
 11
661.0289796988966
 21
164.593032755928
 31
0.0
  0
LINE
  5
5FD
330
1F
100
AcDbEntity
  8
0
  6
CENTER
100
AcDbLine
 10
874.0289796988925
 20
116.9887574715348
 30
0.0
 11
874.0289796988925
 21
160.0451514499536
 31
0.0
  0
LINE
  5
5FE
330
1F
100
AcDbEntity
  8
0
  6
CENTER
100
AcDbLine
 10
852.5007827096835
 20
138.5169544607442
 30
0.0
 11
895.5571766881014
 21
138.5169544607442
 31
0.0
  0
LINE
  5
5FF
330
1F
100
AcDbEntity
  8
0
  6
CENTER
100
AcDbLine
 10
1053.028979698881
 20
198.1742523565762
 30
0.0
 11
1053.028979698893
 21
102.7092426122607
 31
0.0
  0
LINE
  5
600
330
1F
100
AcDbEntity
  8
0
  6
CENTER
100
AcDbLine
 10
1118.099133625491
 20
138.5169544607333
 30
0.0
 11
979.50206023228
 21
138.5169544607333
 31
0.0
  0
VIEWPORT
  5
71
330
55
100
AcDbEntity
 67
     1
  8
0
100
AcDbViewport
 10
133.3499908447265
 20
101.5999970436096
 30
0.0
 40
381.3957395593834
 41
218.2856291881582
 68
     1
 69
     1
 12
133.3499908447265
 22
101.5999970436096
 13
0.0
 23
0.0
 14
10.0
 24
10.0
 15
10.0
 25
10.0
 16
0.0
 26
0.0
 36
1.0
 17
0.0
 27
0.0
 37
0.0
 42
50.0
 43
0.0
 44
0.0
 45
218.2856291881582
 50
0.0
 51
0.0
 72
   100
 90
    32800
  1

281
     0
 71
     1
 74
     0
110
0.0
120
0.0
130
0.0
111
1.0
121
0.0
131
0.0
112
0.0
122
1.0
132
0.0
 79
     0
146
0.0
  0
VIEWPORT
  5
73
330
55
100
AcDbEntity
 67
     1
  8
0
100
AcDbViewport
 10
133.349993944168
 20
101.599993944168
 30
0.0
 40
213.3599903106689
 41
162.5599903106689
 68
     2
 69
     2
 12
210.0
 22
148.5
 13
0.0
 23
0.0
 14
10.0
 24
10.0
 15
10.0
 25
10.0
 16
0.0
 26
0.0
 36
1.0
 17
0.0
 27
0.0
 37
0.0
 42
50.0
 43
0.0
 44
0.0
 45
324.0677920111345
 50
0.0
 51
0.0
 72
   100
 90
    32864
  1

281
     0
 71
     1
 74
     0
110
0.0
120
0.0
130
0.0
111
1.0
121
0.0
131
0.0
112
0.0
122
1.0
132
0.0
 79
     0
146
0.0
  0
ENDSEC
  0
SECTION
  2
OBJECTS
  0
DICTIONARY
  5
C
330
0
100
AcDbDictionary
281
     1
  3
ACAD_GROUP
350
D
  3
ACAD_LAYOUT
350
1A
  3
ACAD_MLINESTYLE
350
17
  3
ACAD_PLOTSETTINGS
350
19
  3
ACAD_PLOTSTYLENAME
350
E
  3
AcDbVariableDictionary
350
5E
  0
DICTIONARY
  5
257
330
2
100
AcDbDictionary
280
     1
281
     1
  3
ACAD_LAYERSTATES
360
258
  0
DICTIONARY
  5
20E
330
1F
100
AcDbDictionary
280
     1
281
     1
  3
ACAD_LAYOUTSELFREF
360
245
  0
DICTIONARY
  5
210
330
55
100
AcDbDictionary
280
     1
281
     1
  3
ACAD_LAYOUTSELFREF
360
249
  0
DICTIONARY
  5
212
330
50
100
AcDbDictionary
280
     1
281
     1
  3
ACAD_LAYOUTSELFREF
360
248
  0
DICTIONARY
  5
D
102
{ACAD_REACTORS
330
C
102
}
330
C
100
AcDbDictionary
281
     1
  0
DICTIONARY
  5
1A
102
{ACAD_REACTORS
330
C
102
}
330
C
100
AcDbDictionary
281
     1
  3
Model
350
22
  3
ﾚｲｱｳﾄ1
350
51
  3
ﾚｲｱｳﾄ2
350
56
  0
DICTIONARY
  5
17
102
{ACAD_REACTORS
330
C
102
}
330
C
100
AcDbDictionary
281
     1
  3
Standard
350
18
  0
DICTIONARY
  5
19
102
{ACAD_REACTORS
330
C
102
}
330
C
100
AcDbDictionary
281
     1
  0
ACDBDICTIONARYWDFLT
  5
E
102
{ACAD_REACTORS
330
C
102
}
330
C
100
AcDbDictionary
281
     1
  3
Normal
350
F
100
AcDbDictionaryWithDefault
340
F
  0
DICTIONARY
  5
5E
102
{ACAD_REACTORS
330
C
102
}
330
C
100
AcDbDictionary
281
     1
  3
DIMASSOC
350
5F
  3
HIDETEXT
350
63
  0
DICTIONARY
  5
258
102
{ACAD_REACTORS
330
257
102
}
330
257
100
AcDbDictionary
281
     1
  0
XRECORD
  5
245
102
{ACAD_REACTORS
330
20E
102
}
330
20E
100
AcDbXrecord
280
     1
340
1F
  0
XRECORD
  5
249
102
{ACAD_REACTORS
330
210
102
}
330
210
100
AcDbXrecord
280
     1
340
55
  0
XRECORD
  5
248
102
{ACAD_REACTORS
330
212
102
}
330
212
100
AcDbXrecord
280
     1
340
50
  0
LAYOUT
  5
22
102
{ACAD_REACTORS
330
1A
102
}
330
1A
100
AcDbPlotSettings
  1

  2
none_device
  4
ANSI_A_(8.50_x_11.00_Inches)
  6

 40
6.349999904632568
 41
19.04999923706054
 42
6.350006103515625
 43
19.04998779296875
 44
215.8999938964843
 45
279.3999938964843
 46
0.0
 47
0.0
 48
0.0
 49
0.0
140
0.0
141
0.0
142
1.0
143
78.436453180766
 70
 11952
 72
     0
 73
     1
 74
     0
  7

 75
     0
147
0.0127491741332998
148
0.0
149
0.0
100
AcDbLayout
  1
Model
 70
     1
 71
     0
 10
0.0
 20
0.0
 11
12.0
 21
9.0
 12
0.0
 22
0.0
 32
0.0
 14
0.0
 24
0.0
 34
0.0
 15
0.0
 25
0.0
 35
0.0
146
0.0
 13
0.0
 23
0.0
 33
0.0
 16
1.0
 26
0.0
 36
0.0
 17
0.0
 27
1.0
 37
0.0
 76
     0
330
1F
  0
LAYOUT
  5
51
102
{ACAD_REACTORS
330
1A
102
}
330
1A
100
AcDbPlotSettings
  1

  2
none_device
  4
Letter_(8.50_x_11.00_Inches)
  6

 40
6.349999904632568
 41
6.349999904632568
 42
6.350006103515625
 43
6.350006103515625
 44
215.8999938964843
 45
279.3999938964843
 46
0.0
 47
0.0
 48
0.0
 49
0.0
140
0.0
141
0.0
142
1.0
143
1.0
 70
   688
 72
     1
 73
     1
 74
     5
  7

 75
    16
147
1.0
148
0.0
149
0.0
100
AcDbLayout
  1
ﾚｲｱｳﾄ1
 70
     1
 71
     1
 10
-6.350006103515625
 20
-6.349999904632568
 11
273.0499877929687
 21
209.5499939918517
 12
0.0
 22
0.0
 32
0.0
 14
26.66076962115562
 24
20.31135699206657
 34
-0.0015258207003583
 15
240.039213369355
 25
182.8886381005154
 35
0.0000000349246037
146
0.0
 13
0.0
 23
0.0
 33
0.0
 16
1.0
 26
0.0
 36
0.0
 17
0.0
 27
1.0
 37
0.0
 76
     0
330
50
331
6B
  0
LAYOUT
  5
56
102
{ACAD_REACTORS
330
1A
102
}
330
1A
100
AcDbPlotSettings
  1

  2
none_device
  4
Letter_(8.50_x_11.00_Inches)
  6

 40
6.349999904632568
 41
6.349999904632568
 42
6.350006103515625
 43
6.350006103515625
 44
215.8999938964843
 45
279.3999938964843
 46
0.0
 47
0.0
 48
0.0
 49
0.0
140
0.0
141
0.0
142
1.0
143
1.0
 70
   688
 72
     1
 73
     1
 74
     5
  7

 75
    16
147
1.0
148
0.0
149
0.0
100
AcDbLayout
  1
ﾚｲｱｳﾄ2
 70
     1
 71
     2
 10
-6.350006103515625
 20
-6.349999904632568
 11
273.0499877929687
 21
209.5499939918517
 12
0.0
 22
0.0
 32
0.0
 14
26.66076962115562
 24
20.31135699206657
 34
-0.0015258207003583
 15
240.039213369355
 25
182.8886381005154
 35
0.0000000349246037
146
0.0
 13
0.0
 23
0.0
 33
0.0
 16
1.0
 26
0.0
 36
0.0
 17
0.0
 27
1.0
 37
0.0
 76
     0
330
55
331
71
  0
MLINESTYLE
  5
18
102
{ACAD_REACTORS
330
17
102
}
330
17
100
AcDbMlineStyle
  2
STANDARD
 70
     0
  3

 62
   256
 51
90.0
 52
90.0
 71
     2
 49
0.5
 62
   256
  6
BYLAYER
 49
-0.5
 62
   256
  6
BYLAYER
  0
ACDBPLACEHOLDER
  5
F
102
{ACAD_REACTORS
330
E
102
}
330
E
  0
DICTIONARYVAR
  5
5F
102
{ACAD_REACTORS
330
5E
102
}
330
5E
100
DictionaryVariables
280
     0
  1
2
  0
DICTIONARYVAR
  5
63
102
{ACAD_REACTORS
330
5E
102
}
330
5E
100
DictionaryVariables
280
     0
  1
1
  0
ENDSEC
  0
EOF
