  0
SECTION
  2
HEADER
  9
$ACADVER
  1
AC1015
  9
$ACADMAINTVER
 70
    14
  9
$DWGCODEPAGE
  3
ANSI_932
  9
$INSBASE
 10
0.0
 20
0.0
 30
0.0
  9
$EXTMIN
 10
32.72343723744507
 20
89.82260478909394
 30
-0.0000000000112498
  9
$EXTMAX
 10
2374.822428138331
 20
1178.919404487839
 30
0.0000000000002956
  9
$LIMMIN
 10
0.0
 20
0.0
  9
$LIMMAX
 10
420.0
 20
297.0
  9
$ORTHOMODE
 70
     0
  9
$REGENMODE
 70
     1
  9
$FILLMODE
 70
     1
  9
$QTEXTMODE
 70
     0
  9
$MIRRTEXT
 70
     1
  9
$LTSCALE
 40
1.0
  9
$ATTMODE
 70
     1
  9
$TEXTSIZE
 40
2.5
  9
$TRACEWID
 40
1.0
  9
$TEXTSTYLE
  7
Standard
  9
$CLAYER
  8
0
  9
$CELTYPE
  6
ByLayer
  9
$CECOLOR
 62
   256
  9
$CELTSCALE
 40
1.0
  9
$DISPSILH
 70
     0
  9
$DIMSCALE
 40
1.0
  9
$DIMASZ
 40
2.5
  9
$DIMEXO
 40
0.625
  9
$DIMDLI
 40
3.75
  9
$DIMRND
 40
0.0
  9
$DIMDLE
 40
0.0
  9
$DIMEXE
 40
1.25
  9
$DIMTP
 40
0.0
  9
$DIMTM
 40
0.0
  9
$DIMTXT
 40
2.5
  9
$DIMCEN
 40
2.5
  9
$DIMTSZ
 40
0.0
  9
$DIMTOL
 70
     0
  9
$DIMLIM
 70
     0
  9
$DIMTIH
 70
     0
  9
$DIMTOH
 70
     0
  9
$DIMSE1
 70
     0
  9
$DIMSE2
 70
     0
  9
$DIMTAD
 70
     1
  9
$DIMZIN
 70
     8
  9
$DIMBLK
  1

  9
$DIMASO
 70
     1
  9
$DIMSHO
 70
     1
  9
$DIMPOST
  1

  9
$DIMAPOST
  1

  9
$DIMALT
 70
     0
  9
$DIMALTD
 70
     3
  9
$DIMALTF
 40
0.03937007874016
  9
$DIMLFAC
 40
1.0
  9
$DIMTOFL
 70
     1
  9
$DIMTVP
 40
0.0
  9
$DIMTIX
 70
     0
  9
$DIMSOXD
 70
     0
  9
$DIMSAH
 70
     0
  9
$DIMBLK1
  1

  9
$DIMBLK2
  1

  9
$DIMSTYLE
  2
ISO-25
  9
$DIMCLRD
 70
     0
  9
$DIMCLRE
 70
     0
  9
$DIMCLRT
 70
     0
  9
$DIMTFAC
 40
1.0
  9
$DIMGAP
 40
0.625
  9
$DIMJUST
 70
     0
  9
$DIMSD1
 70
     0
  9
$DIMSD2
 70
     0
  9
$DIMTOLJ
 70
     0
  9
$DIMTZIN
 70
     8
  9
$DIMALTZ
 70
     0
  9
$DIMALTTZ
 70
     0
  9
$DIMUPT
 70
     0
  9
$DIMDEC
 70
     2
  9
$DIMTDEC
 70
     2
  9
$DIMALTU
 70
     2
  9
$DIMALTTD
 70
     3
  9
$DIMTXSTY
  7
Standard
  9
$DIMAUNIT
 70
     0
  9
$DIMADEC
 70
     0
  9
$DIMALTRND
 40
0.0
  9
$DIMAZIN
 70
     0
  9
$DIMDSEP
 70
    44
  9
$DIMATFIT
 70
     3
  9
$DIMFRAC
 70
     0
  9
$DIMLDRBLK
  1

  9
$DIMLUNIT
 70
     2
  9
$DIMLWD
 70
    -2
  9
$DIMLWE
 70
    -2
  9
$DIMTMOVE
 70
     0
  9
$LUNITS
 70
     2
  9
$LUPREC
 70
     4
  9
$SKETCHINC
 40
1.0
  9
$FILLETRAD
 40
10.0
  9
$AUNITS
 70
     0
  9
$AUPREC
 70
     0
  9
$MENU
  1
.
  9
$ELEVATION
 40
0.0
  9
$PELEVATION
 40
0.0
  9
$THICKNESS
 40
0.0
  9
$LIMCHECK
 70
     0
  9
$CHAMFERA
 40
10.0
  9
$CHAMFERB
 40
10.0
  9
$CHAMFERC
 40
20.0
  9
$CHAMFERD
 40
0.0
  9
$SKPOLY
 70
     0
  9
$TDCREATE
 40
2454284.643660300
  9
$TDUCREATE
 40
2454284.268660301
  9
$TDUPDATE
 40
2456899.672512951
  9
$TDUUPDATE
 40
2456899.297512951
  9
$TDINDWG
 40
0.0031728935
  9
$TDUSRTIMER
 40
0.0031727083
  9
$USRTIMER
 70
     1
  9
$ANGBASE
 50
0.0
  9
$ANGDIR
 70
     0
  9
$PDMODE
 70
     0
  9
$PDSIZE
 40
0.0
  9
$PLINEWID
 40
0.0
  9
$SPLFRAME
 70
     0
  9
$SPLINETYPE
 70
     6
  9
$SPLINESEGS
 70
     8
  9
$HANDSEED
  5
8DC
  9
$SURFTAB1
 70
     6
  9
$SURFTAB2
 70
     6
  9
$SURFTYPE
 70
     6
  9
$SURFU
 70
     6
  9
$SURFV
 70
     6
  9
$UCSBASE
  2

  9
$UCSNAME
  2

  9
$UCSORG
 10
0.0
 20
0.0
 30
0.0
  9
$UCSXDIR
 10
1.0
 20
0.0
 30
0.0
  9
$UCSYDIR
 10
0.0
 20
1.0
 30
0.0
  9
$UCSORTHOREF
  2

  9
$UCSORTHOVIEW
 70
     0
  9
$UCSORGTOP
 10
0.0
 20
0.0
 30
0.0
  9
$UCSORGBOTTOM
 10
0.0
 20
0.0
 30
0.0
  9
$UCSORGLEFT
 10
0.0
 20
0.0
 30
0.0
  9
$UCSORGRIGHT
 10
0.0
 20
0.0
 30
0.0
  9
$UCSORGFRONT
 10
0.0
 20
0.0
 30
0.0
  9
$UCSORGBACK
 10
0.0
 20
0.0
 30
0.0
  9
$PUCSBASE
  2

  9
$PUCSNAME
  2

  9
$PUCSORG
 10
0.0
 20
0.0
 30
0.0
  9
$PUCSXDIR
 10
1.0
 20
0.0
 30
0.0
  9
$PUCSYDIR
 10
0.0
 20
1.0
 30
0.0
  9
$PUCSORTHOREF
  2

  9
$PUCSORTHOVIEW
 70
     0
  9
$PUCSORGTOP
 10
0.0
 20
0.0
 30
0.0
  9
$PUCSORGBOTTOM
 10
0.0
 20
0.0
 30
0.0
  9
$PUCSORGLEFT
 10
0.0
 20
0.0
 30
0.0
  9
$PUCSORGRIGHT
 10
0.0
 20
0.0
 30
0.0
  9
$PUCSORGFRONT
 10
0.0
 20
0.0
 30
0.0
  9
$PUCSORGBACK
 10
0.0
 20
0.0
 30
0.0
  9
$USERI1
 70
     0
  9
$USERI2
 70
     0
  9
$USERI3
 70
     0
  9
$USERI4
 70
     0
  9
$USERI5
 70
     0
  9
$USERR1
 40
0.0
  9
$USERR2
 40
0.0
  9
$USERR3
 40
0.0
  9
$USERR4
 40
0.0
  9
$USERR5
 40
0.0
  9
$WORLDVIEW
 70
     1
  9
$SHADEDGE
 70
     3
  9
$SHADEDIF
 70
    70
  9
$TILEMODE
 70
     1
  9
$MAXACTVP
 70
    48
  9
$PINSBASE
 10
0.0
 20
0.0
 30
0.0
  9
$PLIMCHECK
 70
     0
  9
$PEXTMIN
 10
26.66076962115562
 20
20.31135699206657
 30
-0.0015258207003583
  9
$PEXTMAX
 10
240.039213369355
 20
182.8886381005154
 30
0.0000000349246037
  9
$PLIMMIN
 10
-6.350006103515625
 20
-6.349999904632568
  9
$PLIMMAX
 10
273.0499877929687
 20
209.5499939918517
  9
$UNITMODE
 70
     0
  9
$VISRETAIN
 70
     1
  9
$PLINEGEN
 70
     0
  9
$PSLTSCALE
 70
     1
  9
$TREEDEPTH
 70
  3020
  9
$CMLSTYLE
  2
Standard
  9
$CMLJUST
 70
     0
  9
$CMLSCALE
 40
20.0
  9
$PROXYGRAPHICS
 70
     1
  9
$MEASUREMENT
 70
     1
  9
$CELWEIGHT
370
    -1
  9
$ENDCAPS
280
     0
  9
$JOINSTYLE
280
     0
  9
$LWDISPLAY
290
     0
  9
$INSUNITS
 70
     4
  9
$HYPERLINKBASE
  1

  9
$STYLESHEET
  1

  9
$XEDIT
290
     1
  9
$CEPSNTYPE
380
     0
  9
$PSTYLEMODE
290
     1
  9
$FINGERPRINTGUID
  2
{FDEAD578-A652-11D2-9A35-0060089B3A3F}
  9
$VERSIONGUID
  2
{30C1510D-0292-4C97-BD3C-258869D137C3}
  9
$EXTNAMES
290
     1
  9
$PSVPSCALE
 40
0.0
  9
$OLESTARTUP
290
     0
  0
ENDSEC
  0
SECTION
  2
CLASSES
  0
CLASS
  1
ACDBDICTIONARYWDFLT
  2
AcDbDictionaryWithDefault
  3
AutoCAD 2000
 90
        0
280
     0
281
     0
  0
CLASS
  1
ACDBPLACEHOLDER
  2
AcDbPlaceHolder
  3
AutoCAD 2000
 90
        0
280
     0
281
     0
  0
CLASS
  1
LAYOUT
  2
AcDbLayout
  3
AutoCAD 2000
 90
        0
280
     0
281
     0
  0
CLASS
  1
DICTIONARYVAR
  2
AcDbDictionaryVar
  3
AutoCAD 2000
 90
        0
280
     0
281
     0
  0
CLASS
  1
LONG_TRANSACTION
  2
AcDbLongTransaction
  3
AutoCAD 2000
 90
    32768
280
     0
281
     0
  0
CLASS
  1
LWPOLYLINE
  2
AcDbPolyline
  3
AutoCAD 2000
 90
    32768
280
     0
281
     1
  0
CLASS
  1
HATCH
  2
AcDbHatch
  3
AutoCAD 2000
 90
    32768
280
     0
281
     1
  0
CLASS
  1
XRECORD
  2
AcDbXrecord
  3
AutoCAD 2000
 90
    32768
280
     0
281
     0
  0
ENDSEC
  0
SECTION
  2
TABLES
  0
TABLE
  2
VPORT
  5
8
330
0
100
AcDbSymbolTable
 70
     2
  0
VPORT
  5
8DB
330
8
100
AcDbSymbolTableRecord
100
AcDbViewportTableRecord
  2
*Active
 70
     0
 10
0.0
 20
0.0
 11
1.0
 21
1.0
 12
1203.772932687888
 22
634.3710046384666
 13
0.0
 23
0.0
 14
10.0
 24
10.0
 15
10.0
 25
10.0
 16
0.0
 26
0.0
 36
1.0
 17
0.0
 27
0.0
 37
0.0
 40
1476.885044025444
 41
1.592161016949152
 42
50.0
 43
0.0
 44
0.0
 50
0.0
 51
0.0
 71
     0
 72
   100
 73
     1
 74
     3
 75
     0
 76
     0
 77
     0
 78
     0
281
     0
 65
     1
110
0.0
120
0.0
130
0.0
111
1.0
121
0.0
131
0.0
112
0.0
122
1.0
132
0.0
 79
     0
146
0.0
  0
ENDTAB
  0
TABLE
  2
LTYPE
  5
5
330
0
100
AcDbSymbolTable
 70
     3
  0
LTYPE
  5
14
330
5
100
AcDbSymbolTableRecord
100
AcDbLinetypeTableRecord
  2
ByBlock
 70
     0
  3

 72
    65
 73
     0
 40
0.0
  0
LTYPE
  5
15
330
5
100
AcDbSymbolTableRecord
100
AcDbLinetypeTableRecord
  2
ByLayer
 70
     0
  3

 72
    65
 73
     0
 40
0.0
  0
LTYPE
  5
16
330
5
100
AcDbSymbolTableRecord
100
AcDbLinetypeTableRecord
  2
Continuous
 70
     0
  3
Solid line
 72
    65
 73
     0
 40
0.0
  0
LTYPE
  5
86
330
5
100
AcDbSymbolTableRecord
100
AcDbLinetypeTableRecord
  2
HIDDEN
 70
     0
  3
Hidden __ __ __ __ __ __ __ __ __ __ __ __ __ _
 72
    65
 73
     2
 40
0.375
 49
0.25
 74
     0
 49
-0.125
 74
     0
  0
LTYPE
  5
491
330
5
100
AcDbSymbolTableRecord
100
AcDbLinetypeTableRecord
  2
CENTER
 70
     0
  3
Center ____ _ ____ _ ____ _ ____ _ ____ _ ____
 72
    65
 73
     4
 40
50.8
 49
31.75
 74
     0
 49
-6.349999999999999
 74
     0
 49
6.349999999999999
 74
     0
 49
-6.349999999999999
 74
     0
  0
ENDTAB
  0
TABLE
  2
LAYER
  5
2
102
{ACAD_XDICTIONARY
360
492
102
}
330
0
100
AcDbSymbolTable
 70
     1
  0
LAYER
  5
10
330
2
100
AcDbSymbolTableRecord
100
AcDbLayerTableRecord
  2
0
 70
     0
 62
     7
  6
Continuous
370
    -3
390
F
  0
ENDTAB
  0
TABLE
  2
STYLE
  5
3
330
0
100
AcDbSymbolTable
 70
     1
  0
STYLE
  5
11
330
3
100
AcDbSymbolTableRecord
100
AcDbTextStyleTableRecord
  2
Standard
 70
     0
 40
0.0
 41
1.0
 50
0.0
 71
     0
 42
2.5
  3
txt
  4

  0
ENDTAB
  0
TABLE
  2
VIEW
  5
6
330
0
100
AcDbSymbolTable
 70
     0
  0
ENDTAB
  0
TABLE
  2
UCS
  5
7
330
0
100
AcDbSymbolTable
 70
     0
  0
ENDTAB
  0
TABLE
  2
APPID
  5
9
330
0
100
AcDbSymbolTable
 70
     1
  0
APPID
  5
12
330
9
100
AcDbSymbolTableRecord
100
AcDbRegAppTableRecord
  2
ACAD
 70
     0
  0
ENDTAB
  0
TABLE
  2
DIMSTYLE
  5
A
330
0
100
AcDbSymbolTable
 70
     1
100
AcDbDimStyleTable
 71
     0
  0
DIMSTYLE
105
27
330
A
100
AcDbSymbolTableRecord
100
AcDbDimStyleTableRecord
  2
ISO-25
 70
     0
 41
2.5
 42
0.625
 43
3.75
 44
1.25
 73
     0
 74
     0
 77
     1
 78
     8
140
2.5
141
2.5
143
0.03937007874016
147
0.625
171
     3
172
     1
271
     2
272
     2
274
     3
278
    44
283
     0
284
     8
340
11
  0
ENDTAB
  0
TABLE
  2
BLOCK_RECORD
  5
1
330
0
100
AcDbSymbolTable
 70
     1
  0
BLOCK_RECORD
  5
1F
102
{ACAD_XDICTIONARY
360
44A
102
}
330
1
100
AcDbSymbolTableRecord
100
AcDbBlockTableRecord
  2
*Model_Space
340
22
  0
BLOCK_RECORD
  5
55
102
{ACAD_XDICTIONARY
360
44C
102
}
330
1
100
AcDbSymbolTableRecord
100
AcDbBlockTableRecord
  2
*Paper_Space
340
56
  0
BLOCK_RECORD
  5
50
102
{ACAD_XDICTIONARY
360
44E
102
}
330
1
100
AcDbSymbolTableRecord
100
AcDbBlockTableRecord
  2
*Paper_Space0
340
51
  0
ENDTAB
  0
ENDSEC
  0
SECTION
  2
BLOCKS
  0
BLOCK
  5
20
330
1F
100
AcDbEntity
  8
0
100
AcDbBlockBegin
  2
*Model_Space
 70
     0
 10
0.0
 20
0.0
 30
0.0
  3
*Model_Space
  1

  0
ENDBLK
  5
21
330
1F
100
AcDbEntity
  8
0
100
AcDbBlockEnd
  0
BLOCK
  5
57
330
55
100
AcDbEntity
 67
     1
  8
0
100
AcDbBlockBegin
  2
*Paper_Space
 70
     0
 10
0.0
 20
0.0
 30
0.0
  3
*Paper_Space
  1

  0
ENDBLK
  5
58
330
55
100
AcDbEntity
 67
     1
  8
0
100
AcDbBlockEnd
  0
BLOCK
  5
52
330
50
100
AcDbEntity
  8
0
100
AcDbBlockBegin
  2
*Paper_Space0
 70
     0
 10
0.0
 20
0.0
 30
0.0
  3
*Paper_Space0
  1

  0
VIEWPORT
  5
6B
330
50
100
AcDbEntity
  8
0
100
AcDbViewport
 10
133.3499908447265
 20
101.5999970436096
 30
0.0
 40
381.3957395593834
 41
218.2856291881582
 69
     0
 12
133.3499908447265
 22
101.5999970436096
 13
0.0
 23
0.0
 14
10.0
 24
10.0
 15
10.0
 25
10.0
 16
0.0
 26
0.0
 36
1.0
 17
0.0
 27
0.0
 37
0.0
 42
50.0
 43
0.0
 44
0.0
 45
218.2856291881582
 50
0.0
 51
0.0
 72
   100
 90
    32800
  1

281
     0
 71
     1
 74
     0
110
0.0
120
0.0
130
0.0
111
1.0
121
0.0
131
0.0
112
0.0
122
1.0
132
0.0
 79
     0
146
0.0
  0
VIEWPORT
  5
6D
330
50
100
AcDbEntity
  8
0
100
AcDbViewport
 10
133.349993944168
 20
101.599993944168
 30
0.0
 40
213.3599903106689
 41
162.5599903106689
 69
     0
 12
210.0
 22
148.5
 13
0.0
 23
0.0
 14
10.0
 24
10.0
 15
10.0
 25
10.0
 16
0.0
 26
0.0
 36
1.0
 17
0.0
 27
0.0
 37
0.0
 42
50.0
 43
0.0
 44
0.0
 45
324.0677920111345
 50
0.0
 51
0.0
 72
   100
 90
    32864
  1

281
     0
 71
     1
 74
     0
110
0.0
120
0.0
130
0.0
111
1.0
121
0.0
131
0.0
112
0.0
122
1.0
132
0.0
 79
     0
146
0.0
  0
ENDBLK
  5
53
330
50
100
AcDbEntity
  8
0
100
AcDbBlockEnd
  0
ENDSEC
  0
SECTION
  2
ENTITIES
  0
LINE
  5
264
330
1F
100
AcDbEntity
  8
0
  6
Continuous
100
AcDbLine
 10
343.2114941081256
 20
836.4174942778861
 30
0.0
 11
343.2115042284865
 21
826.9839555030671
 31
0.0
  0
LINE
  5
265
330
1F
100
AcDbEntity
  8
0
  6
Continuous
100
AcDbLine
 10
358.7753619938291
 20
836.7006143604458
 30
0.0
 11
346.2754015350158
 21
836.7006180589832
 31
0.0
  0
LINE
  5
266
330
1F
100
AcDbEntity
  8
0
  6
Continuous
100
AcDbLine
 10
346.2753954816292
 20
836.4506229739049
 30
0.0
 11
344.2753835043956
 21
836.4506301983517
 31
0.0
  0
LINE
  5
267
330
1F
100
AcDbEntity
  8
0
  6
Continuous
100
AcDbLine
 10
346.2753974963973
 20
826.9506241692988
 30
0.0
 11
344.2753962112421
 21
826.9506259458594
 31
0.0
  0
LINE
  5
268
330
1F
100
AcDbEntity
  8
0
  6
Continuous
100
AcDbLine
 10
344.2753835043956
 20
836.4506301983517
 30
0.0
 11
341.2114792490935
 21
836.35491083641
 31
0.0
  0
LINE
  5
269
330
1F
100
AcDbEntity
  8
0
  6
Continuous
100
AcDbLine
 10
344.2768078211145
 20
826.950647430022
 30
0.0
 11
341.2114673843873
 21
827.0464328529392
 31
0.0
  0
LINE
  5
26A
330
1F
100
AcDbEntity
  8
0
  6
Continuous
100
AcDbLine
 10
346.275433865868
 20
836.7006352553783
 30
0.0
 11
346.2754400665969
 21
826.7006716488397
 31
0.0
  0
LINE
  5
26B
330
1F
100
AcDbEntity
  8
0
  6
Continuous
100
AcDbLine
 10
358.7754242371304
 20
836.7006836552606
 30
0.0
 11
358.7754275102231
 21
826.7006878706407
 31
0.0
  0
LINE
  5
26C
330
1F
100
AcDbEntity
  8
0
  6
Continuous
100
AcDbLine
 10
358.7753652669214
 20
826.7006185758253
 30
0.0
 11
346.2753941160301
 21
826.7006277222488
 31
0.0
  0
ARC
  5
26D
330
1F
100
AcDbEntity
  8
0
  6
Continuous
100
AcDbCircle
 10
165.7115658220675
 20
826.7005288364805
 30
0.0
 40
2.00000007
100
AcDbArc
 50
180.000069999994
 51
270.0003690000032
  0
LINE
  5
26E
330
1F
100
AcDbEntity
  8
0
  6
Continuous
100
AcDbLine
 10
168.0147352966639
 20
824.7005391993578
 30
0.0
 11
165.7005214651885
 21
824.7005389545638
 31
0.0
  0
ARC
  5
26F
330
1F
100
AcDbEntity
  8
0
  6
Continuous
100
AcDbCircle
 10
165.7115658220675
 20
836.7008726894209
 30
0.0
 40
2.00000007
100
AcDbArc
 50
89.99963099999673
 51
179.9999300000059
  0
LINE
  5
270
330
1F
100
AcDbEntity
  8
0
  6
Continuous
100
AcDbLine
 10
168.0147352966639
 20
838.7008623265435
 30
0.0
 11
165.7005214651885
 21
838.7008625713376
 31
0.0
  0
ARC
  5
271
330
1F
100
AcDbEntity
  8
0
  6
Continuous
100
AcDbCircle
 10
248.7116226850405
 20
831.7007007629506
 30
0.0
 40
87.85708312230509
100
AcDbArc
 50
353.4643476237832
 51
6.535632683827936
  0
LINE
  5
272
330
1F
100
AcDbEntity
  8
0
  6
Continuous
100
AcDbLine
 10
341.2114789250192
 20
821.7006807629507
 30
0.0
 11
335.997742170095
 21
821.7006807629507
 31
0.0
  0
LINE
  5
273
330
1F
100
AcDbEntity
  8
0
  6
Continuous
100
AcDbLine
 10
341.2114789250192
 20
841.7006907629506
 30
0.0
 11
335.9977456070694
 21
841.7006907629506
 31
0.0
  0
ARC
  5
274
330
1F
100
AcDbEntity
  8
0
  6
Continuous
100
AcDbCircle
 10
347.7115978035287
 20
822.7007007629506
 30
0.0
 40
1.000000019999999
100
AcDbArc
 50
270.0
 51
0.0
  0
ARC
  5
275
330
1F
100
AcDbEntity
  8
0
  6
Continuous
100
AcDbCircle
 10
347.7115978035287
 20
840.7007007629506
 30
0.0
 40
1.000000019999999
100
AcDbArc
 50
0.0
 51
90.0
  0
ARC
  5
276
330
1F
100
AcDbEntity
  8
0
  6
Continuous
100
AcDbCircle
 10
342.4466578035292
 20
843.7007007629507
 30
0.0
 40
2.00000007
100
AcDbArc
 50
187.2953202000069
 51
270.0
  0
ARC
  5
277
330
1F
100
AcDbEntity
  8
0
  6
Continuous
100
AcDbCircle
 10
342.4466578035292
 20
819.7007007629506
 30
0.0
 40
2.00000007
100
AcDbArc
 50
90.0
 51
172.7046799999956
  0
LINE
  5
278
330
1F
100
AcDbEntity
  8
0
  6
Continuous
100
AcDbLine
 10
348.7116478035289
 20
822.7007007629506
 30
0.0
 11
348.7116478035289
 21
826.700625939604
 31
0.0
  0
LINE
  5
279
330
1F
100
AcDbEntity
  8
0
  6
Continuous
100
AcDbLine
 10
342.4466578035292
 20
821.7006807629507
 30
0.0
 11
347.7171478035291
 21
821.7006807629507
 31
0.0
  0
LINE
  5
27A
330
1F
100
AcDbEntity
  8
0
  6
Continuous
100
AcDbLine
 10
342.4466578035292
 20
841.7006907629506
 30
0.0
 11
347.7171478035291
 21
841.7006907629506
 31
0.0
  0
LINE
  5
27B
330
1F
100
AcDbEntity
  8
0
  6
Continuous
100
AcDbLine
 10
348.7116478035289
 20
840.7007007629506
 30
0.0
 11
348.7116478035289
 21
836.7006173381371
 31
0.0
  0
LINE
  5
27C
330
1F
100
AcDbEntity
  8
0
  6
Continuous
100
AcDbLine
 10
341.2114789250192
 20
841.7006907629506
 30
0.0
 11
341.2114789250192
 21
821.7006807629507
 31
0.0
  0
ARC
  5
27D
330
1F
100
AcDbEntity
  8
0
  6
Continuous
100
AcDbCircle
 10
248.7116226850405
 20
831.7007007629506
 30
0.0
 40
80.99993689245939
100
AcDbArc
 50
184.9577897227095
 51
175.0422102772904
  0
ARC
  5
27E
330
1F
100
AcDbEntity
  8
0
  6
Continuous
100
AcDbCircle
 10
330.4081086850408
 20
884.9166807629506
 30
0.0
 40
4.9999998
100
AcDbArc
 50
213.0794500000001
 51
257.5000400000043
  0
ARC
  5
27F
330
1F
100
AcDbEntity
  8
0
  6
Continuous
100
AcDbCircle
 10
338.3279256850407
 20
868.8210207629506
 30
0.0
 40
9.0
100
AcDbArc
 50
327.5000999999836
 51
77.49995599999978
  0
ARC
  5
280
330
1F
100
AcDbEntity
  8
0
  6
Continuous
100
AcDbCircle
 10
344.1091356850404
 20
851.8395207629506
 30
0.0
 40
4.9999998
100
AcDbArc
 50
147.500240000009
 51
191.9203499999987
  0
LINE
  5
281
330
1F
100
AcDbEntity
  8
0
  6
Continuous
100
AcDbLine
 10
340.2758916850405
 20
877.6076307629507
 30
0.0
 11
329.3259096850404
 21
880.0352007629507
 31
0.0
  0
LINE
  5
282
330
1F
100
AcDbEntity
  8
0
  6
Continuous
100
AcDbLine
 10
345.9185166850404
 20
863.9853207629506
 30
0.0
 11
339.8922186850402
 21
854.5259307629507
 31
0.0
  0
ARC
  5
283
330
1F
100
AcDbEntity
  8
0
  6
Continuous
100
AcDbCircle
 10
330.4081086850408
 20
884.9166807629506
 30
0.0
 40
4.9999998
100
AcDbArc
 50
213.0794500000001
 51
257.5000400000043
  0
ARC
  5
284
330
1F
100
AcDbEntity
  8
0
  6
Continuous
100
AcDbCircle
 10
338.3279256850407
 20
868.8210207629506
 30
0.0
 40
9.0
100
AcDbArc
 50
327.5000999999836
 51
77.49995599999978
  0
ARC
  5
285
330
1F
100
AcDbEntity
  8
0
  6
Continuous
100
AcDbCircle
 10
344.1091356850404
 20
851.8395207629506
 30
0.0
 40
4.9999998
100
AcDbArc
 50
147.500240000009
 51
191.9203499999987
  0
LINE
  5
286
330
1F
100
AcDbEntity
  8
0
  6
Continuous
100
AcDbLine
 10
340.2758916850405
 20
877.6076307629507
 30
0.0
 11
329.3259096850404
 21
880.0352007629507
 31
0.0
  0
LINE
  5
287
330
1F
100
AcDbEntity
  8
0
  6
Continuous
100
AcDbLine
 10
345.9185166850404
 20
863.9853207629506
 30
0.0
 11
339.8922186850402
 21
854.5259307629507
 31
0.0
  0
ARC
  5
288
330
1F
100
AcDbEntity
  8
0
  6
Continuous
100
AcDbCircle
 10
330.4081086850408
 20
778.4847207629505
 30
0.0
 40
4.9999998
100
AcDbArc
 50
102.4999599999956
 51
146.9205499999998
  0
ARC
  5
289
330
1F
100
AcDbEntity
  8
0
  6
Continuous
100
AcDbCircle
 10
344.1091356850404
 20
811.5619407629505
 30
0.0
 40
4.9999998
100
AcDbArc
 50
168.0796500000012
 51
212.4997599999909
  0
ARC
  5
28A
330
1F
100
AcDbEntity
  8
0
  6
Continuous
100
AcDbCircle
 10
338.3279256850407
 20
794.5804107629506
 30
0.0
 40
9.0
100
AcDbArc
 50
282.5000399999931
 51
32.49990199999889
  0
LINE
  5
28B
330
1F
100
AcDbEntity
  8
0
  6
Continuous
100
AcDbLine
 10
345.9184476850403
 20
799.4161407629507
 30
0.0
 11
339.8921736850404
 21
808.8755007629506
 31
0.0
  0
LINE
  5
28C
330
1F
100
AcDbEntity
  8
0
  6
Continuous
100
AcDbLine
 10
340.2759156850404
 20
785.7937407629506
 30
0.0
 11
329.3191146850406
 21
783.3646707629506
 31
0.0
  0
ARC
  5
28D
330
1F
100
AcDbEntity
  8
0
  6
Continuous
100
AcDbCircle
 10
268.8503816092647
 20
927.0982203381505
 30
0.0
 40
4.9999998
100
AcDbArc
 50
258.0794499999994
 51
302.5000400000013
  0
ARC
  5
28E
330
1F
100
AcDbEntity
  8
0
  6
Continuous
100
AcDbCircle
 10
285.8318882493943
 20
921.3170263109338
 30
0.0
 40
9.0
100
AcDbArc
 50
12.50009999999773
 51
122.4999559999973
  0
ARC
  5
28F
330
1F
100
AcDbEntity
  8
0
  6
Continuous
100
AcDbCircle
 10
301.9275548485768
 20
913.3972253006778
 30
0.0
 40
4.9999998
100
AcDbArc
 50
192.5002400000085
 51
236.9203499999946
  0
LINE
  5
290
330
1F
100
AcDbEntity
  8
0
  6
Continuous
100
AcDbLine
 10
280.9962367028735
 20
928.9075177936959
 30
0.0
 11
271.5368789679976
 21
922.8812624764303
 31
0.0
  0
LINE
  5
291
330
1F
100
AcDbEntity
  8
0
  6
Continuous
100
AcDbLine
 10
294.6186028804916
 20
923.2650284184634
 30
0.0
 11
297.0461655141286
 21
912.3149934223242
 31
0.0
  0
ARC
  5
292
330
1F
100
AcDbEntity
  8
0
  6
Continuous
100
AcDbCircle
 10
268.8503816092647
 20
927.0982203381505
 30
0.0
 40
4.9999998
100
AcDbArc
 50
258.0794499999994
 51
302.5000400000013
  0
ARC
  5
293
330
1F
100
AcDbEntity
  8
0
  6
Continuous
100
AcDbCircle
 10
285.8318882493943
 20
921.3170263109338
 30
0.0
 40
9.0
100
AcDbArc
 50
12.50009999999773
 51
122.4999559999973
  0
ARC
  5
294
330
1F
100
AcDbEntity
  8
0
  6
Continuous
100
AcDbCircle
 10
301.9275548485768
 20
913.3972253006778
 30
0.0
 40
4.9999998
100
AcDbArc
 50
192.5002400000085
 51
236.9203499999946
  0
LINE
  5
295
330
1F
100
AcDbEntity
  8
0
  6
Continuous
100
AcDbLine
 10
280.9962367028735
 20
928.9075177936959
 30
0.0
 11
271.5368789679976
 21
922.8812624764303
 31
0.0
  0
LINE
  5
296
330
1F
100
AcDbEntity
  8
0
  6
Continuous
100
AcDbLine
 10
294.6186028804916
 20
923.2650284184634
 30
0.0
 11
297.0461655141286
 21
912.3149934223242
 31
0.0
  0
ARC
  5
297
330
1F
100
AcDbEntity
  8
0
  6
Continuous
100
AcDbCircle
 10
301.927637803529
 20
750.0042498814386
 30
0.0
 40
4.9999998
100
AcDbArc
 50
123.0794500000004
 51
167.5000400000039
  0
ARC
  5
298
330
1F
100
AcDbEntity
  8
0
  6
Continuous
100
AcDbCircle
 10
285.831977803529
 20
742.0844328814387
 30
0.0
 40
9.0
100
AcDbArc
 50
237.500099999984
 51
347.4999559999998
  0
ARC
  5
299
330
1F
100
AcDbEntity
  8
0
  6
Continuous
100
AcDbCircle
 10
268.8504778035289
 20
736.3032228814391
 30
0.0
 40
4.9999998
100
AcDbArc
 50
57.50024000000847
 51
101.9203499999971
  0
LINE
  5
29A
330
1F
100
AcDbEntity
  8
0
  6
Continuous
100
AcDbLine
 10
294.6185878035289
 20
740.1364668814389
 30
0.0
 11
297.046157803529
 21
751.0864488814391
 31
0.0
  0
LINE
  5
29B
330
1F
100
AcDbEntity
  8
0
  6
Continuous
100
AcDbLine
 10
280.996277803529
 20
734.493841881439
 30
0.0
 11
271.536887803529
 21
740.5201398814392
 31
0.0
  0
ARC
  5
29C
330
1F
100
AcDbEntity
  8
0
  6
Continuous
100
AcDbCircle
 10
301.927637803529
 20
750.0042498814386
 30
0.0
 40
4.9999998
100
AcDbArc
 50
123.0794500000004
 51
167.5000400000039
  0
ARC
  5
29D
330
1F
100
AcDbEntity
  8
0
  6
Continuous
100
AcDbCircle
 10
285.831977803529
 20
742.0844328814387
 30
0.0
 40
9.0
100
AcDbArc
 50
237.500099999984
 51
347.4999559999998
  0
ARC
  5
29E
330
1F
100
AcDbEntity
  8
0
  6
Continuous
100
AcDbCircle
 10
268.8504778035289
 20
736.3032228814391
 30
0.0
 40
4.9999998
100
AcDbArc
 50
57.50024000000847
 51
101.9203499999971
  0
LINE
  5
29F
330
1F
100
AcDbEntity
  8
0
  6
Continuous
100
AcDbLine
 10
294.6185878035289
 20
740.1364668814389
 30
0.0
 11
297.046157803529
 21
751.0864488814391
 31
0.0
  0
LINE
  5
2A0
330
1F
100
AcDbEntity
  8
0
  6
Continuous
100
AcDbLine
 10
280.996277803529
 20
734.493841881439
 30
0.0
 11
271.536887803529
 21
740.5201398814392
 31
0.0
  0
ARC
  5
2A1
330
1F
100
AcDbEntity
  8
0
  6
Continuous
100
AcDbCircle
 10
195.4956529710075
 20
913.3971619304293
 30
0.0
 40
4.9999998
100
AcDbArc
 50
303.0794500000004
 51
347.5000400000039
  0
ARC
  5
2A2
330
1F
100
AcDbEntity
  8
0
  6
Continuous
100
AcDbCircle
 10
211.5913129710075
 20
921.3169789304293
 30
0.0
 40
9.0
100
AcDbArc
 50
57.50009999998398
 51
167.4999559999998
  0
ARC
  5
2A3
330
1F
100
AcDbEntity
  8
0
  6
Continuous
100
AcDbCircle
 10
228.5728129710075
 20
927.0981889304291
 30
0.0
 40
4.9999998
100
AcDbArc
 50
237.5002400000088
 51
281.9203499999971
  0
LINE
  5
2A4
330
1F
100
AcDbEntity
  8
0
  6
Continuous
100
AcDbLine
 10
202.8047029710076
 20
923.2649449304291
 30
0.0
 11
200.3771329710075
 21
912.3149629304291
 31
0.0
  0
LINE
  5
2A5
330
1F
100
AcDbEntity
  8
0
  6
Continuous
100
AcDbLine
 10
216.4270129710075
 20
928.9075699304291
 30
0.0
 11
225.8864029710073
 21
922.881271930429
 31
0.0
  0
ARC
  5
2A6
330
1F
100
AcDbEntity
  8
0
  6
Continuous
100
AcDbCircle
 10
195.4956529710075
 20
913.3971619304293
 30
0.0
 40
4.9999998
100
AcDbArc
 50
303.0794500000004
 51
347.5000400000039
  0
ARC
  5
2A7
330
1F
100
AcDbEntity
  8
0
  6
Continuous
100
AcDbCircle
 10
195.4956778035288
 20
750.0042498814387
 30
0.0
 40
4.9999998
100
AcDbArc
 50
12.49995999999606
 51
56.9205499999996
  0
ARC
  5
2A8
330
1F
100
AcDbEntity
  8
0
  6
Continuous
100
AcDbCircle
 10
211.5913129710075
 20
921.3169789304293
 30
0.0
 40
9.0
100
AcDbArc
 50
57.50009999998398
 51
167.4999559999998
  0
ARC
  5
2A9
330
1F
100
AcDbEntity
  8
0
  6
Continuous
100
AcDbCircle
 10
228.5728129710075
 20
927.0981889304291
 30
0.0
 40
4.9999998
100
AcDbArc
 50
237.5002400000088
 51
281.9203499999971
  0
ARC
  5
2AA
330
1F
100
AcDbEntity
  8
0
  6
Continuous
100
AcDbCircle
 10
228.572897803529
 20
736.3032228814391
 30
0.0
 40
4.9999998
100
AcDbArc
 50
78.07965000000288
 51
122.4997599999907
  0
ARC
  5
2AB
330
1F
100
AcDbEntity
  8
0
  6
Continuous
100
AcDbCircle
 10
211.591367803529
 20
742.0844328814388
 30
0.0
 40
9.0
100
AcDbArc
 50
192.5000399999931
 51
302.4999019999994
  0
LINE
  5
2AC
330
1F
100
AcDbEntity
  8
0
  6
Continuous
100
AcDbLine
 10
202.8047029710076
 20
923.2649449304291
 30
0.0
 11
200.3771329710075
 21
912.3149629304291
 31
0.0
  0
LINE
  5
2AD
330
1F
100
AcDbEntity
  8
0
  6
Continuous
100
AcDbLine
 10
216.4270129710075
 20
928.9075699304291
 30
0.0
 11
225.8864029710073
 21
922.881271930429
 31
0.0
  0
LINE
  5
2AE
330
1F
100
AcDbEntity
  8
0
  6
Continuous
100
AcDbLine
 10
216.427097803529
 20
734.4939108814393
 30
0.0
 11
225.886457803529
 21
740.5201848814392
 31
0.0
  0
LINE
  5
2AF
330
1F
100
AcDbEntity
  8
0
  6
Continuous
100
AcDbLine
 10
202.804697803529
 20
740.1364428814392
 30
0.0
 11
200.3756278035291
 21
751.0932438814389
 31
0.0
  0
ARC
  5
2B0
330
1F
100
AcDbEntity
  8
0
  6
Continuous
100
AcDbCircle
 10
167.0152069220173
 20
778.4847207629507
 30
0.0
 40
4.9999998
100
AcDbArc
 50
33.07945000000017
 51
77.50004000000433
  0
ARC
  5
2B1
330
1F
100
AcDbEntity
  8
0
  6
Continuous
100
AcDbCircle
 10
159.0953899220173
 20
794.5803807629507
 30
0.0
 40
9.0
100
AcDbArc
 50
147.500099999998
 51
257.4999559999997
  0
ARC
  5
2B2
330
1F
100
AcDbEntity
  8
0
  6
Continuous
100
AcDbCircle
 10
153.3141799220177
 20
811.5618807629507
 30
0.0
 40
4.9999998
100
AcDbArc
 50
327.500240000009
 51
11.92034999999879
  0
LINE
  5
2B3
330
1F
100
AcDbEntity
  8
0
  6
Continuous
100
AcDbLine
 10
157.1474239220176
 20
785.7937707629507
 30
0.0
 11
168.0974059220177
 21
783.3662007629507
 31
0.0
  0
LINE
  5
2B4
330
1F
100
AcDbEntity
  8
0
  6
Continuous
100
AcDbLine
 10
151.5047989220176
 20
799.4160807629507
 30
0.0
 11
157.5310969220179
 21
808.8754707629506
 31
0.0
  0
ARC
  5
2B5
330
1F
100
AcDbEntity
  8
0
  6
Continuous
100
AcDbCircle
 10
167.0152069220173
 20
778.4847207629507
 30
0.0
 40
4.9999998
100
AcDbArc
 50
33.07945000000017
 51
77.50004000000433
  0
ARC
  5
2B6
330
1F
100
AcDbEntity
  8
0
  6
Continuous
100
AcDbCircle
 10
167.0152069220173
 20
884.9166807629508
 30
0.0
 40
4.9999998
100
AcDbArc
 50
282.4999599999956
 51
326.9205499999998
  0
ARC
  5
2B7
330
1F
100
AcDbEntity
  8
0
  6
Continuous
100
AcDbCircle
 10
248.7116526850406
 20
831.7007007629506
 30
0.0
 40
92.500014
100
AcDbArc
 50
6.206260577326542
 51
353.7937207307135
  0
ARC
  5
2B8
330
1F
100
AcDbEntity
  8
0
  6
Continuous
100
AcDbCircle
 10
159.0953899220173
 20
794.5803807629507
 30
0.0
 40
9.0
100
AcDbArc
 50
147.500099999998
 51
257.4999559999997
  0
ARC
  5
2B9
330
1F
100
AcDbEntity
  8
0
  6
Continuous
100
AcDbCircle
 10
153.3141799220177
 20
811.5618807629507
 30
0.0
 40
4.9999998
100
AcDbArc
 50
327.500240000009
 51
11.92034999999879
  0
ARC
  5
2BA
330
1F
100
AcDbEntity
  8
0
  6
Continuous
100
AcDbCircle
 10
153.3141799220177
 20
851.8394607629508
 30
0.0
 40
4.9999998
100
AcDbArc
 50
348.0796500000012
 51
32.49975999999097
  0
ARC
  5
2BB
330
1F
100
AcDbEntity
  8
0
  6
Continuous
100
AcDbCircle
 10
159.0953899220173
 20
868.8209907629508
 30
0.0
 40
9.0
100
AcDbArc
 50
102.5000399999931
 51
212.4999019999989
  0
LINE
  5
2BC
330
1F
100
AcDbEntity
  8
0
  6
Continuous
100
AcDbLine
 10
157.1474239220176
 20
785.7937707629507
 30
0.0
 11
168.0974059220177
 21
783.3662007629507
 31
0.0
  0
LINE
  5
2BD
330
1F
100
AcDbEntity
  8
0
  6
Continuous
100
AcDbLine
 10
151.5047989220176
 20
799.4160807629507
 30
0.0
 11
157.5310969220179
 21
808.8754707629506
 31
0.0
  0
LINE
  5
2BE
330
1F
100
AcDbEntity
  8
0
  6
Continuous
100
AcDbLine
 10
151.5048679220178
 20
863.9852607629507
 30
0.0
 11
157.5311419220176
 21
854.5259007629507
 31
0.0
  0
LINE
  5
2BF
330
1F
100
AcDbEntity
  8
0
  6
Continuous
100
AcDbLine
 10
157.1473999220177
 20
877.6076607629507
 30
0.0
 11
168.1042009220175
 21
880.0367307629507
 31
0.0
  0
LINE
  5
2C0
330
1F
100
AcDbEntity
  8
0
  6
Continuous
100
AcDbLine
 10
156.0254254802921
 20
834.8507006129509
 30
0.0
 11
157.1853833913751
 21
839.2006639476608
 31
0.0
  0
LINE
  5
2C1
330
1F
100
AcDbEntity
  8
0
  6
Continuous
100
AcDbLine
 10
156.0254292922743
 20
828.5507009129503
 30
0.0
 11
157.1853867658126
 21
824.2006892460317
 31
0.0
  0
LINE
  5
2C2
330
1F
100
AcDbEntity
  8
0
  6
Continuous
100
AcDbLine
 10
163.7116273008093
 20
839.200687223194
 30
0.0
 11
157.1854291883503
 21
839.2007080343601
 31
0.0
  0
LINE
  5
2C3
330
1F
100
AcDbEntity
  8
0
  6
Continuous
100
AcDbLine
 10
163.7116273008093
 20
824.2007143676753
 30
0.0
 11
157.1854325627878
 21
824.2007333327309
 31
0.0
  0
LINE
  5
2C4
330
1F
100
AcDbEntity
  8
0
  6
Continuous
100
AcDbLine
 10
157.1854315842065
 20
828.5507009129505
 30
0.0
 11
157.1854325627878
 21
824.2007333327309
 31
0.0
  0
LINE
  5
2C5
330
1F
100
AcDbEntity
  8
0
  6
Continuous
100
AcDbLine
 10
157.1854291883503
 20
839.2007080343601
 30
0.0
 11
157.1854301669407
 21
834.8507006129507
 31
0.0
  0
LINE
  5
2C6
330
1F
100
AcDbEntity
  8
0
  6
Continuous
100
AcDbLine
 10
162.1854390214689
 20
839.2006920900026
 30
0.0
 11
162.1854423959061
 21
824.2007173883733
 31
0.0
  0
ELLIPSE
  5
2C7
330
1F
100
AcDbEntity
  8
0
  6
Continuous
100
AcDbEllipse
 10
157.4214928623559
 20
831.7007007629506
 30
0.0
 11
0.0
 21
3.149999850000198
 31
0.0
210
0.0
220
0.0
230
1.0
 40
0.7098473443812015
 41
3.141592653589793
 42
6.283185307179586
  0
LINE
  5
2C8
330
1F
100
AcDbEntity
  8
0
  6
Continuous
100
AcDbLine
 10
132.0354729841462
 20
828.5507009129505
 30
0.0
 11
157.4214928623559
 21
828.5507009129505
 31
0.0
  0
LINE
  5
2C9
330
1F
100
AcDbEntity
  8
0
  6
Continuous
100
AcDbLine
 10
132.0354729841462
 20
834.8507006129509
 30
0.0
 11
157.4214928623559
 21
834.8507006129509
 31
0.0
  0
ARC
  5
2CA
330
1F
100
AcDbEntity
  8
0
  6
Continuous
100
AcDbCircle
 10
132.0354729841462
 20
831.7007007629506
 30
0.0
 40
3.149999850000199
100
AcDbArc
 50
90.0
 51
270.0
  0
LINE
  5
2CB
330
1F
100
AcDbEntity
  8
0
  6
Continuous
100
AcDbLine
 10
163.7116273008093
 20
839.200687223194
 30
0.0
 11
163.7116273008093
 21
824.2007143676753
 31
0.0
  0
LINE
  5
2CC
330
1F
100
AcDbEntity
  8
0
100
AcDbLine
 10
167.7116340929935
 20
229.9297063603213
 30
0.0
 11
329.7116112048109
 21
229.9297063603213
 31
0.0
  0
ARC
  5
2CD
330
1F
100
AcDbEntity
  8
0
100
AcDbCircle
 10
331.7115858632305
 20
252.6297256147089
 30
0.0
 40
2.00000007
100
AcDbArc
 50
89.99966399999745
 51
180.0008300000053
  0
ARC
  5
2CE
330
1F
100
AcDbEntity
  8
0
100
AcDbCircle
 10
331.7115935223807
 20
257.6297394550155
 30
0.0
 40
3.0
100
AcDbArc
 50
270.000109999985
 51
359.9992199999996
  0
ARC
  5
2CF
330
1F
100
AcDbEntity
  8
0
100
AcDbCircle
 10
254.7115787982491
 20
232.9296770187626
 30
0.0
 40
3.0
100
AcDbArc
 50
179.9992199999996
 51
270.000109999985
  0
ARC
  5
2D0
330
1F
100
AcDbEntity
  8
0
100
AcDbCircle
 10
165.7115833729683
 20
252.6297129067283
 30
0.0
 40
2.00000007
100
AcDbArc
 50
0.0008300000053973
 51
89.99996599999136
  0
ARC
  5
2D1
330
1F
100
AcDbEntity
  8
0
100
AcDbCircle
 10
165.7115799860603
 20
257.6297314358088
 30
0.0
 40
3.0
100
AcDbArc
 50
179.9992999999946
 51
270.000109999985
  0
ARC
  5
2D2
330
1F
100
AcDbEntity
  8
0
100
AcDbCircle
 10
312.7115355512012
 20
249.6293080831022
 30
0.0
 40
4.9999998
100
AcDbArc
 50
89.99993000000598
 51
179.9998600000119
  0
ARC
  5
2D3
330
1F
100
AcDbEntity
  8
0
100
AcDbCircle
 10
242.7115769476774
 20
232.9296925156355
 30
0.0
 40
3.0
100
AcDbArc
 50
270.000109999985
 51
359.9992199999996
  0
ARC
  5
2D4
330
1F
100
AcDbEntity
  8
0
100
AcDbCircle
 10
242.7115827190878
 20
251.6297109678684
 30
0.0
 40
3.0
100
AcDbArc
 50
359.9992199999996
 51
90.00010600000546
  0
ARC
  5
2D5
330
1F
100
AcDbEntity
  8
0
100
AcDbCircle
 10
184.7116466133927
 20
249.6297329056004
 30
0.0
 40
4.9999998
100
AcDbArc
 50
359.9999100000039
 51
90.000049999992
  0
ARC
  5
2D6
330
1F
100
AcDbEntity
  8
0
100
AcDbCircle
 10
310.7115110130084
 20
232.9296805933269
 30
0.0
 40
3.0
100
AcDbArc
 50
179.9992199999996
 51
270.000109999985
  0
ARC
  5
2D7
330
1F
100
AcDbEntity
  8
0
100
AcDbCircle
 10
254.7115852455349
 20
251.6297277749142
 30
0.0
 40
3.0
100
AcDbArc
 50
90.00010600000546
 51
179.9992199999996
  0
ARC
  5
2D8
330
1F
100
AcDbEntity
  8
0
100
AcDbCircle
 10
186.7116364483745
 20
232.9296924576509
 30
0.0
 40
3.0
100
AcDbArc
 50
270.000109999985
 51
359.9992999999946
  0
LINE
  5
2D9
330
1F
100
AcDbEntity
  8
0
100
AcDbLine
 10
334.7115708121211
 20
262.7611034781617
 30
0.0
 11
334.7115802064568
 21
257.629676247829
 31
0.0
  0
LINE
  5
2DA
330
1F
100
AcDbEntity
  8
0
100
AcDbLine
 10
251.7115627197813
 20
251.6296758327445
 30
0.0
 11
251.7115569483712
 21
232.9296573805119
 31
0.0
  0
LINE
  5
2DB
330
1F
100
AcDbEntity
  8
0
100
AcDbLine
 10
189.7116627980863
 20
249.6297307694793
 30
0.0
 11
189.7116582982521
 21
232.9297120959012
 31
0.0
  0
LINE
  5
2DC
330
1F
100
AcDbEntity
  8
0
100
AcDbLine
 10
162.7115894886899
 20
262.761089141071
 30
0.0
 11
162.711599558901
 21
257.6296942146574
 31
0.0
  0
LINE
  5
2DD
330
1F
100
AcDbEntity
  8
0
100
AcDbLine
 10
165.7115750082498
 20
254.629651594125
 30
0.0
 11
248.711575548499
 21
254.6296908381313
 31
0.0
  0
LINE
  5
2DE
330
1F
100
AcDbEntity
  8
0
100
AcDbLine
 10
331.6702386984216
 20
254.6292866354489
 30
0.0
 11
248.7115619149626
 21
254.629305535488
 31
0.0
  0
LINE
  5
2DF
330
1F
100
AcDbEntity
  8
0
100
AcDbLine
 10
245.7115700790395
 20
251.629680064601
 30
0.0
 11
245.7115905130115
 21
232.9297156704662
 31
0.0
  0
LINE
  5
2E0
330
1F
100
AcDbEntity
  8
0
100
AcDbLine
 10
167.7115790595353
 20
252.629755740195
 30
0.0
 11
167.7115613138765
 21
229.9297063603213
 31
0.0
  0
LINE
  5
2E1
330
1F
100
AcDbEntity
  8
0
100
AcDbLine
 10
307.7115262993002
 20
249.6292420948047
 30
0.0
 11
307.7115657516508
 21
232.9297262176127
 31
0.0
  0
LINE
  5
2E2
330
1F
100
AcDbEntity
  8
0
100
AcDbLine
 10
329.7115598000034
 20
252.6296956753691
 30
0.0
 11
329.7115711837733
 21
229.9297063603213
 31
0.0
  0
LINE
  5
2E3
330
1F
100
AcDbEntity
  8
0
100
AcDbLine
 10
163.7116684845641
 20
389.1299269374753
 30
0.0
 11
163.711693489146
 21
404.1298997929176
 31
0.0
  0
ARC
  5
2E4
330
1F
100
AcDbEntity
  8
0
100
AcDbCircle
 10
145.1855270201908
 20
396.6299179852685
 30
0.0
 40
16.30000019999999
100
AcDbArc
 50
27.3950531076479
 51
332.605083107657
  0
CIRCLE
  5
2E5
330
1F
100
AcDbEntity
  8
0
100
AcDbCircle
 10
145.1855270201908
 20
396.6299179852685
 30
0.0
 40
10.00000049999999
  0
LINE
  5
2E6
330
1F
100
AcDbEntity
  8
0
100
AcDbLine
 10
155.1855093353872
 20
396.6299385741651
 30
0.0
 11
157.1854370774208
 21
404.1298765174243
 31
0.0
  0
LINE
  5
2E7
330
1F
100
AcDbEntity
  8
0
100
AcDbLine
 10
155.1855093353872
 20
396.6299385741651
 30
0.0
 11
157.185440451858
 21
389.1299018157953
 31
0.0
  0
LINE
  5
2E8
330
1F
100
AcDbEntity
  8
0
100
AcDbLine
 10
163.711693489146
 20
404.1298997929176
 30
0.0
 11
157.185482874396
 21
404.1299206041237
 31
0.0
  0
LINE
  5
2E9
330
1F
100
AcDbEntity
  8
0
100
AcDbLine
 10
163.7116684845641
 20
389.1299269374753
 30
0.0
 11
157.1854862488335
 21
389.1299459024947
 31
0.0
  0
LINE
  5
2EA
330
1F
100
AcDbEntity
  8
0
100
AcDbLine
 10
157.185482874396
 20
404.1299206041237
 30
0.0
 11
157.1854862488335
 21
389.1299459024947
 31
0.0
  0
LINE
  5
2EB
330
1F
100
AcDbEntity
  8
0
100
AcDbLine
 10
162.1854927075146
 20
404.1299046597662
 30
0.0
 11
162.1854960819518
 21
389.1299299581368
 31
0.0
  0
LINE
  5
2EC
330
1F
100
AcDbEntity
  8
0
100
AcDbLine
 10
163.7116882047907
 20
400.9598733624934
 30
0.0
 11
163.7116684844998
 21
389.1298882924111
 31
0.0
  0
LINE
  5
2ED
330
1F
100
AcDbEntity
  8
0
100
AcDbLine
 10
163.7116684844998
 20
389.1298882924111
 30
0.0
 11
159.7358590485252
 21
389.1298879699748
 31
0.0
  0
LINE
  5
2EE
330
1F
100
AcDbEntity
  8
0
100
AcDbLine
 10
259.7072209764478
 20
408.6270234912197
 30
0.0
 11
258.7082564495108
 21
412.3594599483781
 31
0.0
  0
ARC
  5
2EF
330
1F
100
AcDbEntity
  8
0
100
AcDbCircle
 10
285.8315858769417
 20
269.0998620174974
 30
0.0
 40
7.299638399999999
100
AcDbArc
 50
297.5832299999992
 51
343.5263800000011
  0
ARC
  5
2F0
330
1F
100
AcDbEntity
  8
0
100
AcDbCircle
 10
285.8315858769417
 20
269.0998620174974
 30
0.0
 40
7.299638399999999
100
AcDbArc
 50
196.4735200000085
 51
242.416749999995
  0
ARC
  5
2F1
330
1F
100
AcDbEntity
  8
0
100
AcDbCircle
 10
338.3316155710204
 20
269.0999016163592
 30
0.0
 40
7.299638399999999
100
AcDbArc
 50
297.5832299999992
 51
343.5267399999905
  0
ARC
  5
2F2
330
1F
100
AcDbEntity
  8
0
100
AcDbCircle
 10
338.3316155710204
 20
269.0999016163592
 30
0.0
 40
7.299638399999999
100
AcDbArc
 50
196.4735499999918
 51
242.416749999995
  0
ARC
  5
2F3
330
1F
100
AcDbEntity
  8
0
100
AcDbCircle
 10
159.0915977110225
 20
269.0999075440216
 30
0.0
 40
7.299638399999999
100
AcDbArc
 50
297.5831799999982
 51
343.5263700000021
  0
ARC
  5
2F4
330
1F
100
AcDbEntity
  8
0
100
AcDbCircle
 10
159.0915977110225
 20
269.0999075440216
 30
0.0
 40
7.299638399999999
100
AcDbArc
 50
196.4735200000085
 51
242.416839999995
  0
ARC
  5
2F5
330
1F
100
AcDbEntity
  8
0
100
AcDbCircle
 10
211.5916517168943
 20
269.0999684251932
 30
0.0
 40
7.299638399999999
100
AcDbArc
 50
297.5832299999992
 51
343.5263800000011
  0
ARC
  5
2F6
330
1F
100
AcDbEntity
  8
0
100
AcDbCircle
 10
211.5916517168943
 20
269.0999684251932
 30
0.0
 40
7.299638399999999
100
AcDbArc
 50
196.4735200000085
 51
242.416839999995
  0
ARC
  5
2F7
330
1F
100
AcDbEntity
  8
0
100
AcDbCircle
 10
209.2970510672375
 20
313.1296537649008
 30
0.0
 40
4.9999998
100
AcDbArc
 50
225.2607599999999
 51
292.6812000000019
  0
ARC
  5
2F8
330
1F
100
AcDbEntity
  8
0
100
AcDbCircle
 10
288.1261709623004
 20
313.1296408186564
 30
0.0
 40
4.9999998
100
AcDbArc
 50
247.3186899999995
 51
314.7394300000156
  0
ARC
  5
2F9
330
1F
100
AcDbEntity
  8
0
100
AcDbCircle
 10
345.6300940576627
 20
313.1202191333822
 30
0.0
 40
4.9999998
100
AcDbArc
 50
247.3186899999995
 51
286.8994600000035
  0
ARC
  5
2FA
330
1F
100
AcDbEntity
  8
0
100
AcDbCircle
 10
151.7931569687696
 20
313.1202729343011
 30
0.0
 40
4.9999998
100
AcDbArc
 50
253.100659999994
 51
292.6812000000019
  0
ARC
  5
2FB
330
1F
100
AcDbEntity
  8
0
100
AcDbCircle
 10
347.7115658094025
 20
298.1299603213798
 30
0.0
 40
1.000000019999999
100
AcDbArc
 50
0.0009499999914338
 51
90.00051799999742
  0
ARC
  5
2FC
330
1F
100
AcDbEntity
  8
0
100
AcDbCircle
 10
347.7115759087094
 20
282.1299713224494
 30
0.0
 40
1.000000019999999
100
AcDbArc
 50
270.0005200000002
 51
0.0009499999914338
  0
ARC
  5
2FD
330
1F
100
AcDbEntity
  8
0
100
AcDbCircle
 10
340.2115409542875
 20
369.6300092015657
 30
0.0
 40
1.000000019999999
100
AcDbArc
 50
0.0010999999935268
 51
90.00022599999148
  0
ARC
  5
2FE
330
1F
100
AcDbEntity
  8
0
100
AcDbCircle
 10
90.35958630977257
 20
327.2590329795638
 30
0.0
 40
250.0000079999999
100
AcDbArc
 50
10.37230000000079
 51
11.99999000000139
  0
ARC
  5
2FF
330
1F
100
AcDbEntity
  8
0
100
AcDbCircle
 10
338.241613028624
 20
372.6300529620288
 30
0.0
 40
2.00000007
100
AcDbArc
 50
190.3724999999925
 51
269.9999199999919
  0
ARC
  5
300
330
1F
100
AcDbEntity
  8
0
100
AcDbCircle
 10
332.30200242623
 20
310.3743211480672
 30
0.0
 40
4.9999998
100
AcDbArc
 50
89.99986599999433
 51
180.000040000004
  0
ARC
  5
301
330
1F
100
AcDbEntity
  8
0
100
AcDbCircle
 10
292.4948135744752
 20
310.3743498347647
 30
0.0
 40
4.9999998
100
AcDbArc
 50
0.0000400000040257
 51
89.99986599999433
  0
ARC
  5
302
330
1F
100
AcDbEntity
  8
0
100
AcDbCircle
 10
241.7162116475715
 20
438.6300918103549
 30
0.0
 40
3.0
100
AcDbArc
 50
89.999828999988
 51
180.0002200000091
  0
ARC
  5
303
330
1F
100
AcDbEntity
  8
0
100
AcDbCircle
 10
255.7161669286481
 20
438.6300730738058
 30
0.0
 40
3.0
100
AcDbArc
 50
0.0002200000091144
 51
89.999828999988
  0
ARC
  5
304
330
1F
100
AcDbEntity
  8
0
100
AcDbCircle
 10
165.1212334310653
 20
310.374400679423
 30
0.0
 40
4.9999998
100
AcDbArc
 50
0.0000999999970368
 51
89.99998299999568
  0
ARC
  5
305
330
1F
100
AcDbEntity
  8
0
100
AcDbCircle
 10
204.9284115907417
 20
310.3743774406112
 30
0.0
 40
4.9999998
100
AcDbArc
 50
89.99998299999568
 51
180.000099999997
  0
ARC
  5
306
330
1F
100
AcDbEntity
  8
0
100
AcDbCircle
 10
222.6347208634868
 20
310.3742807013905
 30
0.0
 40
4.9999998
100
AcDbArc
 50
0.0000999999970368
 51
89.99998299999568
  0
ARC
  5
307
330
1F
100
AcDbEntity
  8
0
100
AcDbCircle
 10
155.0952839329133
 20
310.3743623217118
 30
0.0
 40
4.9999998
100
AcDbArc
 50
89.99998299999568
 51
180.000099999997
  0
ARC
  5
308
330
1F
100
AcDbEntity
  8
0
100
AcDbCircle
 10
151.8681853531052
 20
318.2900193965921
 30
0.0
 40
4.9999998
100
AcDbArc
 50
324.3284999999942
 51
359.0000299999975
  0
ARC
  5
309
330
1F
100
AcDbEntity
  8
0
100
AcDbCircle
 10
90.35958630977257
 20
327.2590329795638
 30
0.0
 40
250.0000079999999
100
AcDbArc
 50
10.37230000000079
 51
11.99999000000139
  0
ARC
  5
30A
330
1F
100
AcDbEntity
  8
0
100
AcDbCircle
 10
90.35958630977257
 20
327.2590329795638
 30
0.0
 40
250.0000079999999
100
AcDbArc
 50
0.9999900000019598
 51
10.37230000000079
  0
ARC
  5
30B
330
1F
100
AcDbEntity
  8
0
100
AcDbCircle
 10
407.0636045405178
 20
327.2590604697119
 30
0.0
 40
250.0000079999999
100
AcDbArc
 50
167.999999999997
 51
178.9999899999983
  0
ARC
  5
30C
330
1F
100
AcDbEntity
  8
0
100
AcDbCircle
 10
175.8094598098855
 20
393.6301173898283
 30
0.0
 40
9.9999999
100
AcDbArc
 50
89.99998499999849
 51
168.0000399999983
  0
ARC
  5
30D
330
1F
100
AcDbEntity
  8
0
100
AcDbCircle
 10
274.788454914292
 20
310.3743033892061
 30
0.0
 40
4.9999998
100
AcDbArc
 50
89.99986599999433
 51
180.000040000004
  0
ARC
  5
30E
330
1F
100
AcDbEntity
  8
0
100
AcDbCircle
 10
345.5550266929208
 20
318.2900464526932
 30
0.0
 40
4.9999998
100
AcDbArc
 50
181.0000700000013
 51
209.6935099999921
  0
ARC
  5
30F
330
1F
100
AcDbEntity
  8
0
100
AcDbCircle
 10
165.7116195081132
 20
401.6300852591826
 30
0.0
 40
2.00000007
100
AcDbArc
 50
89.99963099999673
 51
179.9999300000059
  0
ARC
  5
310
330
1F
100
AcDbEntity
  8
0
100
AcDbCircle
 10
224.7116246910527
 20
407.6299719235715
 30
0.0
 40
1.000000019999999
100
AcDbArc
 50
90.00022599999148
 51
180.0007999999893
  0
ARC
  5
311
330
1F
100
AcDbEntity
  8
0
100
AcDbCircle
 10
224.7116246910527
 20
407.6299719235715
 30
0.0
 40
1.000000019999999
100
AcDbArc
 50
90.00022599999148
 51
180.0007999999893
  0
ARC
  5
312
330
1F
100
AcDbEntity
  8
0
100
AcDbCircle
 10
321.6137681778109
 20
393.6300491297969
 30
0.0
 40
9.9999999
100
AcDbArc
 50
11.99995000000322
 51
90.0000439999966
  0
ARC
  5
313
330
1F
100
AcDbEntity
  8
0
100
AcDbCircle
 10
272.7116159487145
 20
407.6300167957909
 30
0.0
 40
1.000000019999999
100
AcDbArc
 50
0.0007999999893474
 51
90.00022599999148
  0
ARC
  5
314
330
1F
100
AcDbEntity
  8
0
100
AcDbCircle
 10
342.3279463237256
 20
310.374328689668
 30
0.0
 40
4.9999998
100
AcDbArc
 50
0.0000699999940175
 51
89.99986599999433
  0
LINE
  5
315
330
1F
100
AcDbEntity
  8
0
100
AcDbLine
 10
293.3316941732962
 20
268.6300249263002
 30
0.0
 11
293.3316575954056
 21
267.0299879397201
 31
0.0
  0
LINE
  5
316
330
1F
100
AcDbEntity
  8
0
100
AcDbLine
 10
345.8316723161515
 20
268.6299897824604
 30
0.0
 11
345.8316683237301
 21
267.0300035323292
 31
0.0
  0
LINE
  5
317
330
1F
100
AcDbEntity
  8
0
100
AcDbLine
 10
330.8316301091274
 20
267.0299640771298
 30
0.0
 11
345.8316250461825
 21
267.0299582437668
 31
0.0
  0
LINE
  5
318
330
1F
100
AcDbEntity
  8
0
100
AcDbLine
 10
282.4516243160648
 20
262.6299098842868
 30
0.0
 11
289.2116310198675
 21
262.6299673230336
 31
0.0
  0
LINE
  5
319
330
1F
100
AcDbEntity
  8
0
100
AcDbLine
 10
278.3316383465571
 20
267.0299724907732
 30
0.0
 11
293.3316469033275
 21
267.0299933876061
 31
0.0
  0
LINE
  5
31A
330
1F
100
AcDbEntity
  8
0
100
AcDbLine
 10
334.9516569377803
 20
262.6299816612305
 30
0.0
 11
341.7116254554573
 21
262.6299575474182
 31
0.0
  0
LINE
  5
31B
330
1F
100
AcDbEntity
  8
0
100
AcDbLine
 10
278.3316856165261
 20
268.6300040294673
 30
0.0
 11
278.3316463656158
 21
267.0299684048587
 31
0.0
  0
LINE
  5
31C
330
1F
100
AcDbEntity
  8
0
100
AcDbLine
 10
166.5916071861849
 20
267.0299641714294
 30
0.0
 11
151.5916095761101
 21
267.0299713667637
 31
0.0
  0
LINE
  5
31D
330
1F
100
AcDbEntity
  8
0
100
AcDbLine
 10
166.5916544561537
 20
268.6299957101228
 30
0.0
 11
166.591666756467
 21
267.0300348282161
 31
0.0
  0
LINE
  5
31E
330
1F
100
AcDbEntity
  8
0
100
AcDbLine
 10
151.5916595190983
 20
268.6300015434857
 30
0.0
 11
151.5916718194116
 21
267.0300406615789
 31
0.0
  0
LINE
  5
31F
330
1F
100
AcDbEntity
  8
0
100
AcDbLine
 10
162.4716369986749
 20
262.6299484933941
 30
0.0
 11
155.7116497698605
 21
262.6299821410069
 31
0.0
  0
LINE
  5
320
330
1F
100
AcDbEntity
  8
0
100
AcDbLine
 10
219.091598948755
 20
267.0299557577854
 30
0.0
 11
204.0915903919849
 21
267.0299348609524
 31
0.0
  0
LINE
  5
321
330
1F
100
AcDbEntity
  8
0
100
AcDbLine
 10
219.0916569108023
 20
268.6299818485932
 30
0.0
 11
219.0916611920568
 21
267.0300250526007
 31
0.0
  0
LINE
  5
322
330
1F
100
AcDbEntity
  8
0
100
AcDbLine
 10
204.0916376619536
 20
268.6299663996464
 30
0.0
 11
204.0916499622669
 21
267.0300055177393
 31
0.0
  0
LINE
  5
323
330
1F
100
AcDbEntity
  8
0
100
AcDbLine
 10
214.9716258336084
 20
262.6299079016688
 30
0.0
 11
208.211627912716
 21
262.6299469971676
 31
0.0
  0
LINE
  5
324
330
1F
100
AcDbEntity
  8
0
100
AcDbLine
 10
343.2116589571116
 20
366.3468737901338
 30
0.0
 11
343.2116690774726
 21
356.9133350153148
 31
0.0
  0
LINE
  5
325
330
1F
100
AcDbEntity
  8
0
100
AcDbLine
 10
358.7755268428152
 20
366.6299938726934
 30
0.0
 11
346.2755663840021
 21
366.629997571231
 31
0.0
  0
LINE
  5
326
330
1F
100
AcDbEntity
  8
0
100
AcDbLine
 10
346.2755603306152
 20
366.3800024861526
 30
0.0
 11
344.2755483533817
 21
366.3800097105994
 31
0.0
  0
LINE
  5
327
330
1F
100
AcDbEntity
  8
0
100
AcDbLine
 10
346.2755623453836
 20
356.8800036815465
 30
0.0
 11
344.2755610602284
 21
356.8800054581071
 31
0.0
  0
LINE
  5
328
330
1F
100
AcDbEntity
  8
0
100
AcDbLine
 10
344.2755483533817
 20
366.3800097105994
 30
0.0
 11
341.2116440980799
 21
366.2842903486577
 31
0.0
  0
LINE
  5
329
330
1F
100
AcDbEntity
  8
0
100
AcDbLine
 10
344.2769726701005
 20
356.8800269422696
 30
0.0
 11
341.2116322333736
 21
356.9758123651869
 31
0.0
  0
LINE
  5
32A
330
1F
100
AcDbEntity
  8
0
100
AcDbLine
 10
346.2755987148541
 20
366.630014767626
 30
0.0
 11
346.2756049155832
 21
356.6300511610874
 31
0.0
  0
LINE
  5
32B
330
1F
100
AcDbEntity
  8
0
100
AcDbLine
 10
358.7755890861167
 20
366.6300631675084
 30
0.0
 11
358.7755923592092
 21
356.6300673828883
 31
0.0
  0
LINE
  5
32C
330
1F
100
AcDbEntity
  8
0
100
AcDbLine
 10
211.2250673545129
 20
308.5163305554993
 30
0.0
 11
223.3782367640722
 21
313.5954814073489
 31
0.0
  0
LINE
  5
32D
330
1F
100
AcDbEntity
  8
0
100
AcDbLine
 10
294.9720823846409
 20
312.8744476841187
 30
0.0
 11
291.6456091852014
 21
309.5780938527128
 31
0.0
  0
LINE
  5
32E
330
1F
100
AcDbEntity
  8
0
100
AcDbLine
 10
286.1981550091174
 20
308.5163310814992
 30
0.0
 11
274.0450245371355
 21
313.5954361761533
 31
0.0
  0
LINE
  5
32F
330
1F
100
AcDbEntity
  8
0
100
AcDbLine
 10
269.7884917488315
 20
286.7271878498153
 30
0.0
 11
248.711625263297
 21
286.7271734264773
 31
0.0
  0
LINE
  5
330
330
1F
100
AcDbEntity
  8
0
100
AcDbLine
 10
343.7020588841085
 20
308.5068518499191
 30
0.0
 11
331.5489420318415
 21
313.5859836747689
 31
0.0
  0
LINE
  5
331
330
1F
100
AcDbEntity
  8
0
100
AcDbLine
 10
280.9814199676231
 20
285.6299645982927
 30
0.0
 11
248.7116144155775
 21
285.6299816004924
 31
0.0
  0
LINE
  5
332
330
1F
100
AcDbEntity
  8
0
100
AcDbLine
 10
269.7884898396635
 20
286.7272898319466
 30
0.0
 11
280.9814528077095
 21
285.6300488747944
 31
0.0
  0
LINE
  5
333
330
1F
100
AcDbEntity
  8
0
100
AcDbLine
 10
202.4510614626767
 20
312.874385422819
 30
0.0
 11
205.7775824667362
 21
309.5780695673289
 31
0.0
  0
LINE
  5
334
330
1F
100
AcDbEntity
  8
0
100
AcDbLine
 10
227.63473790284
 20
286.7272369790171
 30
0.0
 11
216.4417767872971
 21
285.6300149463507
 31
0.0
  0
LINE
  5
335
330
1F
100
AcDbEntity
  8
0
100
AcDbLine
 10
153.7211110127436
 20
308.5068804300848
 30
0.0
 11
165.8742668025877
 21
313.5860045517385
 31
0.0
  0
LINE
  5
336
330
1F
100
AcDbEntity
  8
0
100
AcDbLine
 10
216.4417954984339
 20
285.6300054125503
 30
0.0
 11
248.7116144155775
 21
285.6299816004924
 31
0.0
  0
LINE
  5
337
330
1F
100
AcDbEntity
  8
0
100
AcDbLine
 10
331.3952476326353
 20
395.7092160088494
 30
0.0
 11
334.8965360201173
 21
379.2369105135165
 31
0.0
  0
LINE
  5
338
330
1F
100
AcDbEntity
  8
0
100
AcDbLine
 10
347.7116297219636
 20
281.1300185650685
 30
0.0
 11
347.3279710954841
 21
281.130015615107
 31
0.0
  0
LINE
  5
339
330
1F
100
AcDbEntity
  8
0
100
AcDbLine
 10
347.3279690733613
 20
299.1299521841841
 30
0.0
 11
347.7116223538018
 21
299.1299578580889
 31
0.0
  0
LINE
  5
33A
330
1F
100
AcDbEntity
  8
0
100
AcDbLine
 10
338.2416311724014
 20
370.6300246920603
 30
0.0
 11
340.2115654224519
 21
370.6300230819325
 31
0.0
  0
LINE
  5
33B
330
1F
100
AcDbEntity
  8
0
100
AcDbLine
 10
348.7116906638529
 20
282.1299796304864
 30
0.0
 11
348.7116997849175
 21
298.1300261757234
 31
0.0
  0
LINE
  5
33C
330
1F
100
AcDbEntity
  8
0
100
AcDbLine
 10
341.2116490959231
 20
315.3743912204851
 30
0.0
 11
341.2116428535675
 21
369.6300913995672
 31
0.0
  0
LINE
  5
33D
330
1F
100
AcDbEntity
  8
0
100
AcDbLine
 10
340.2116019135887
 20
268.6299096154058
 30
0.0
 11
335.7116118461415
 21
268.6299239133294
 31
0.0
  0
LINE
  5
33E
330
1F
100
AcDbEntity
  8
0
100
AcDbLine
 10
347.3280075157681
 20
310.3743620459851
 30
0.0
 11
347.3280098087957
 21
268.6299864086755
 31
0.0
  0
LINE
  5
33F
330
1F
100
AcDbEntity
  8
0
100
AcDbLine
 10
297.4948504547246
 20
310.3743619087721
 30
0.0
 11
297.4948527477522
 21
268.6299862714628
 31
0.0
  0
LINE
  5
340
330
1F
100
AcDbEntity
  8
0
100
AcDbLine
 10
258.7162243301554
 20
412.36222101708
 30
0.0
 11
258.7162321815749
 21
438.6301054827409
 31
0.0
  0
LINE
  5
341
330
1F
100
AcDbEntity
  8
0
100
AcDbLine
 10
241.716217208107
 20
441.6300333405298
 30
0.0
 11
255.7161997286139
 21
441.6300680643725
 31
0.0
  0
LINE
  5
342
330
1F
100
AcDbEntity
  8
0
100
AcDbLine
 10
238.7162569199376
 20
412.3622156291727
 30
0.0
 11
238.7162647713571
 21
438.6301000948336
 31
0.0
  0
LINE
  5
343
330
1F
100
AcDbEntity
  8
0
100
AcDbLine
 10
237.7159853253676
 20
408.6300923409229
 30
0.0
 11
238.7159915271486
 21
412.3622498441915
 31
0.0
  0
LINE
  5
344
330
1F
100
AcDbEntity
  8
0
100
AcDbLine
 10
258.7161757065689
 20
412.3621784524606
 30
0.0
 11
238.7162219160659
 21
412.3621997947488
 31
0.0
  0
LINE
  5
345
330
1F
100
AcDbEntity
  8
0
100
AcDbLine
 10
150.0953763760719
 20
310.3744190332851
 30
0.0
 11
150.0953378099545
 21
268.6299632053886
 31
0.0
  0
LINE
  5
346
330
1F
100
AcDbEntity
  8
0
100
AcDbLine
 10
155.0953119541995
 20
315.3743787723886
 30
0.0
 11
165.1212179201868
 21
315.3743383014838
 31
0.0
  0
LINE
  5
347
330
1F
100
AcDbEntity
  8
0
100
AcDbLine
 10
204.9284609961844
 20
315.3743829955161
 30
0.0
 11
222.6347301736359
 21
315.3743066858682
 31
0.0
  0
LINE
  5
348
330
1F
100
AcDbEntity
  8
0
100
AcDbLine
 10
199.9284605017358
 20
310.3743553235691
 30
0.0
 11
199.9284654677828
 21
268.6299783242881
 31
0.0
  0
LINE
  5
349
330
1F
100
AcDbEntity
  8
0
100
AcDbLine
 10
227.6348092949595
 20
310.3743675180995
 30
0.0
 11
227.6347967092706
 21
286.7272070156442
 31
0.0
  0
LINE
  5
34A
330
1F
100
AcDbEntity
  8
0
100
AcDbLine
 10
170.1212997145298
 20
310.3743977717439
 30
0.0
 11
170.1212611484124
 21
268.6299419438467
 31
0.0
  0
LINE
  5
34B
330
1F
100
AcDbEntity
  8
0
100
AcDbLine
 10
358.7755301159077
 20
356.6299980880729
 30
0.0
 11
346.2755589650162
 21
356.6300072344964
 31
0.0
  0
LINE
  5
34C
330
1F
100
AcDbEntity
  8
0
100
AcDbLine
 10
340.2116019135887
 20
268.6299096154058
 30
0.0
 11
335.7116118461415
 21
268.6299239133294
 31
0.0
  0
LINE
  5
34D
330
1F
100
AcDbEntity
  8
0
100
AcDbLine
 10
150.0953378099545
 20
268.6299632053886
 30
0.0
 11
248.7116294499351
 21
268.6299637395085
 31
0.0
  0
LINE
  5
34E
330
1F
100
AcDbEntity
  8
0
100
AcDbLine
 10
150.0953377772411
 20
280.6299763642051
 30
0.0
 11
248.7116294172214
 21
280.6299768983247
 31
0.0
  0
LINE
  5
34F
330
1F
100
AcDbEntity
  8
0
100
AcDbLine
 10
341.2116442098733
 20
280.6299343154365
 30
0.0
 11
335.7107451180834
 21
280.6299409682482
 31
0.0
  0
LINE
  5
350
330
1F
100
AcDbEntity
  8
0
100
AcDbLine
 10
347.3279608978787
 20
280.6299234628191
 30
0.0
 11
248.7116294172214
 21
280.6299768983247
 31
0.0
  0
LINE
  5
351
330
1F
100
AcDbEntity
  8
0
100
AcDbLine
 10
347.3279555845529
 20
268.6299130279459
 30
0.0
 11
248.7116294499351
 21
268.6299637395085
 31
0.0
  0
LINE
  5
352
330
1F
100
AcDbEntity
  8
0
100
AcDbLine
 10
260.7115991966436
 20
280.6299182264546
 30
0.0
 11
236.7116078319593
 21
280.6299272874411
 31
0.0
  0
LINE
  5
353
330
1F
100
AcDbEntity
  8
0
100
AcDbLine
 10
342.3279420141596
 20
315.3743279439494
 30
0.0
 11
332.3020117363789
 21
315.3743471325445
 31
0.0
  0
LINE
  5
354
330
1F
100
AcDbEntity
  8
0
100
AcDbLine
 10
163.7116536049734
 20
384.8116062993097
 30
0.0
 11
162.5267304791393
 21
379.2369825192266
 31
0.0
  0
LINE
  5
355
330
1F
100
AcDbEntity
  8
0
100
AcDbLine
 10
166.0279991340398
 20
395.7091933226305
 30
0.0
 11
163.7116536049734
 21
384.8116062993097
 31
0.0
  0
LINE
  5
356
330
1F
100
AcDbEntity
  8
0
100
AcDbLine
 10
157.1016839645703
 20
331.6221230653226
 30
0.0
 11
156.8674335784298
 21
318.2027571846705
 31
0.0
  0
LINE
  5
357
330
1F
100
AcDbEntity
  8
0
100
AcDbLine
 10
292.4948386681246
 20
315.3743341073601
 30
0.0
 11
274.7884829355782
 21
315.3743198398827
 31
0.0
  0
LINE
  5
358
330
1F
100
AcDbEntity
  8
0
100
AcDbLine
 10
269.7885259732941
 20
310.3743709965516
 30
0.0
 11
269.7884997678902
 21
286.7271837639008
 31
0.0
  0
LINE
  5
359
330
1F
100
AcDbEntity
  8
0
100
AcDbLine
 10
331.3952476326353
 20
395.7092160088494
 30
0.0
 11
334.8965360201173
 21
379.2369105135165
 31
0.0
  0
LINE
  5
35A
330
1F
100
AcDbEntity
  8
0
100
AcDbLine
 10
340.3215793444769
 20
331.6221321946035
 30
0.0
 11
340.5557950421837
 21
318.2027560429636
 31
0.0
  0
LINE
  5
35B
330
1F
100
AcDbEntity
  8
0
100
AcDbLine
 10
248.7116025743885
 20
403.6300663603209
 30
0.0
 11
165.7005751512342
 21
403.6300751410993
 31
0.0
  0
LINE
  5
35C
330
1F
100
AcDbEntity
  8
0
100
AcDbLine
 10
227.6347371389888
 20
286.7271363588575
 30
0.0
 11
248.711625263297
 21
286.7271734264773
 31
0.0
  0
LINE
  5
35D
330
1F
100
AcDbEntity
  8
0
100
AcDbLine
 10
341.2116442098733
 20
280.6299343154365
 30
0.0
 11
248.7116294172214
 21
280.6299768983247
 31
0.0
  0
LINE
  5
35E
330
1F
100
AcDbEntity
  8
0
100
AcDbLine
 10
163.7116846553331
 20
401.6300877025956
 30
0.0
 11
163.7116723161104
 21
384.811596765509
 31
0.0
  0
LINE
  5
35F
330
1F
100
AcDbEntity
  8
0
100
AcDbLine
 10
150.0953377772411
 20
280.6299763642051
 30
0.0
 11
248.7116294172214
 21
280.6299768983247
 31
0.0
  0
LINE
  5
360
330
1F
100
AcDbEntity
  8
0
100
AcDbLine
 10
248.7116033562447
 20
408.6300293506063
 30
0.0
 11
224.7116229382557
 21
408.6300665037598
 31
0.0
  0
LINE
  5
361
330
1F
100
AcDbEntity
  8
0
100
AcDbLine
 10
273.7116848916575
 20
403.6301114051686
 30
0.0
 11
273.7117119927211
 21
407.6300346376289
 31
0.0
  0
LINE
  5
362
330
1F
100
AcDbEntity
  8
0
100
AcDbLine
 10
327.3020921963689
 20
310.3743792216122
 30
0.0
 11
327.3021107821311
 21
268.6300289525269
 31
0.0
  0
LINE
  5
363
330
1F
100
AcDbEntity
  8
0
100
AcDbLine
 10
248.7116033562447
 20
408.6300293506063
 30
0.0
 11
272.7116110136635
 21
408.6300456578443
 31
0.0
  0
LINE
  5
364
330
1F
100
AcDbEntity
  8
0
100
AcDbLine
 10
223.7116712193012
 20
403.6301127453351
 30
0.0
 11
223.7116983203645
 21
407.6300359777953
 31
0.0
  0
LINE
  5
365
330
1F
100
AcDbEntity
  8
0
100
AcDbLine
 10
248.7116025743885
 20
403.6300663603209
 30
0.0
 11
321.6137604983612
 21
403.6300716446116
 31
0.0
  0
LINE
  5
366
330
1F
100
AcDbEntity
  8
0
100
AcDbLine
 10
330.8316773790961
 20
268.6299956158235
 30
0.0
 11
330.8316843333702
 21
267.0300374578595
 31
0.0
  0
ARC
  5
367
330
1F
100
AcDbEntity
  8
0
100
AcDbCircle
 10
698.3833415919759
 20
232.9297063603212
 30
0.0
 40
3.0
100
AcDbArc
 50
180.0
 51
270.0
  0
ARC
  5
368
330
1F
100
AcDbEntity
  8
0
100
AcDbCircle
 10
609.3833263331866
 20
252.629716360321
 30
0.0
 40
2.00000007
100
AcDbArc
 50
0.0
 51
90.0
  0
ARC
  5
369
330
1F
100
AcDbEntity
  8
0
100
AcDbCircle
 10
609.3833263331866
 20
257.6297263603212
 30
0.0
 40
3.0
100
AcDbArc
 50
180.0
 51
270.0
  0
ARC
  5
36A
330
1F
100
AcDbEntity
  8
0
100
AcDbCircle
 10
756.3832363331869
 20
249.6292963603212
 30
0.0
 40
4.9999998
100
AcDbArc
 50
90.0
 51
180.0
  0
ARC
  5
36B
330
1F
100
AcDbEntity
  8
0
100
AcDbCircle
 10
686.3833063331867
 20
232.9297063603212
 30
0.0
 40
3.0
100
AcDbArc
 50
270.0
 51
0.0
  0
ARC
  5
36C
330
1F
100
AcDbEntity
  8
0
100
AcDbCircle
 10
686.3833063331867
 20
251.6297263603212
 30
0.0
 40
3.0
100
AcDbArc
 50
0.0
 51
90.0
  0
ARC
  5
36D
330
1F
100
AcDbEntity
  8
0
100
AcDbCircle
 10
628.3833763331865
 20
249.629716360321
 30
0.0
 40
4.9999998
100
AcDbArc
 50
0.0
 51
90.0
  0
ARC
  5
36E
330
1F
100
AcDbEntity
  8
0
100
AcDbCircle
 10
754.3832863331868
 20
232.9297063603212
 30
0.0
 40
3.0
100
AcDbArc
 50
180.0
 51
270.0
  0
ARC
  5
36F
330
1F
100
AcDbEntity
  8
0
100
AcDbCircle
 10
698.3833063331867
 20
251.6297263603212
 30
0.0
 40
3.0
100
AcDbArc
 50
90.0
 51
180.0
  0
ARC
  5
370
330
1F
100
AcDbEntity
  8
0
100
AcDbCircle
 10
630.3833863331867
 20
232.9297063603212
 30
0.0
 40
3.0
100
AcDbArc
 50
270.0
 51
0.0
  0
ARC
  5
371
330
1F
100
AcDbEntity
  8
0
100
AcDbCircle
 10
775.3833163331867
 20
257.6297263603212
 30
0.0
 40
3.0
100
AcDbArc
 50
270.0
 51
0.0
  0
ARC
  5
372
330
1F
100
AcDbEntity
  8
0
100
AcDbCircle
 10
775.3833163331867
 20
252.629716360321
 30
0.0
 40
2.00000007
100
AcDbArc
 50
90.0
 51
180.0
  0
LINE
  5
373
330
1F
100
AcDbEntity
  8
0
100
AcDbLine
 10
633.3833863331867
 20
249.629716360321
 30
0.0
 11
633.3833863331867
 21
232.9297063603212
 31
0.0
  0
LINE
  5
374
330
1F
100
AcDbEntity
  8
0
100
AcDbLine
 10
778.3833163331867
 20
262.6299763603213
 30
0.0
 11
778.3833163331867
 21
257.6297263603212
 31
0.0
  0
LINE
  5
375
330
1F
100
AcDbEntity
  8
0
100
AcDbLine
 10
606.3833263331867
 20
262.7610763603211
 30
0.0
 11
606.3833263331867
 21
257.6297263603212
 31
0.0
  0
LINE
  5
376
330
1F
100
AcDbEntity
  8
0
100
AcDbLine
 10
609.3833263331866
 20
254.6297263603213
 30
0.0
 11
692.3833063331867
 21
254.6297263603213
 31
0.0
  0
LINE
  5
377
330
1F
100
AcDbEntity
  8
0
100
AcDbLine
 10
775.3419763331867
 20
254.6293063603214
 30
0.0
 11
692.3833063331867
 21
254.6293063603214
 31
0.0
  0
LINE
  5
378
330
1F
100
AcDbEntity
  8
0
100
AcDbLine
 10
689.3833063331867
 20
251.6297263603212
 30
0.0
 11
689.3833063331867
 21
232.9297063603212
 31
0.0
  0
LINE
  5
379
330
1F
100
AcDbEntity
  8
0
100
AcDbLine
 10
611.3833063331867
 20
252.629716360321
 30
0.0
 11
611.3833063331867
 21
229.9297063603213
 31
0.0
  0
LINE
  5
37A
330
1F
100
AcDbEntity
  8
0
100
AcDbLine
 10
751.3832863331868
 20
249.6292963603212
 30
0.0
 11
751.3832863331868
 21
232.9297063603212
 31
0.0
  0
LINE
  5
37B
330
1F
100
AcDbEntity
  8
0
100
AcDbLine
 10
695.3833063331867
 20
251.6297263603212
 30
0.0
 11
695.3833063331867
 21
232.9297063603212
 31
0.0
  0
LINE
  5
37C
330
1F
100
AcDbEntity
  8
0
100
AcDbLine
 10
773.3833063331867
 20
252.629716360321
 30
0.0
 11
773.3833063331867
 21
229.9297063603213
 31
0.0
  0
LINE
  5
37D
330
1F
100
AcDbEntity
  8
0
100
AcDbLine
 10
685.3833163331865
 20
441.6300163603209
 30
0.0
 11
699.3833263331866
 21
441.6300163603209
 31
0.0
  0
CIRCLE
  5
37E
330
1F
100
AcDbEntity
  8
0
100
AcDbCircle
 10
692.3833063331865
 20
361.630066360321
 30
0.0
 40
5.0000001
  0
ARC
  5
37F
330
1F
100
AcDbEntity
  8
0
100
AcDbCircle
 10
619.4811463331866
 20
393.6300163603209
 30
0.0
 40
9.9999999
100
AcDbArc
 50
90.0
 51
167.9997699999998
  0
ARC
  5
380
330
1F
100
AcDbEntity
  8
0
100
AcDbCircle
 10
729.5033263331865
 20
269.0998963603208
 30
0.0
 40
7.299638399999999
100
AcDbArc
 50
196.473449999985
 51
242.4167899999999
  0
ARC
  5
381
330
1F
100
AcDbEntity
  8
0
100
AcDbCircle
 10
729.5033263331865
 20
269.0998963603208
 30
0.0
 40
7.299638399999999
100
AcDbArc
 50
297.5832129999938
 51
343.5265539999909
  0
ARC
  5
382
330
1F
100
AcDbEntity
  8
0
100
AcDbCircle
 10
782.0033263331866
 20
269.0998963603208
 30
0.0
 40
7.299638399999999
100
AcDbArc
 50
196.473449999985
 51
242.4167899999999
  0
ARC
  5
383
330
1F
100
AcDbEntity
  8
0
100
AcDbCircle
 10
782.0033263331866
 20
269.0998963603208
 30
0.0
 40
7.299638399999999
100
AcDbArc
 50
297.5832129999938
 51
343.5265539999909
  0
ARC
  5
384
330
1F
100
AcDbEntity
  8
0
100
AcDbCircle
 10
655.2633463331865
 20
269.099896360321
 30
0.0
 40
7.299638399999999
100
AcDbArc
 50
297.5832129999938
 51
343.5265539999909
  0
ARC
  5
385
330
1F
100
AcDbEntity
  8
0
100
AcDbCircle
 10
655.2633463331865
 20
269.099896360321
 30
0.0
 40
7.299638399999999
100
AcDbArc
 50
196.473449999985
 51
242.4167899999999
  0
ARC
  5
386
330
1F
100
AcDbEntity
  8
0
100
AcDbCircle
 10
602.7633463331865
 20
269.099896360321
 30
0.0
 40
7.299638399999999
100
AcDbArc
 50
297.5832129999938
 51
343.5265539999909
  0
ARC
  5
387
330
1F
100
AcDbEntity
  8
0
100
AcDbCircle
 10
602.7633463331865
 20
269.099896360321
 30
0.0
 40
7.299638399999999
100
AcDbArc
 50
196.473449999985
 51
242.4167899999999
  0
ARC
  5
388
330
1F
100
AcDbEntity
  8
0
100
AcDbCircle
 10
652.9687663331865
 20
313.1296663603209
 30
0.0
 40
4.9999998
100
AcDbArc
 50
225.2603899999877
 51
292.6810359999948
  0
ARC
  5
389
330
1F
100
AcDbEntity
  8
0
100
AcDbCircle
 10
731.7979063331866
 20
313.1296663603206
 30
0.0
 40
4.9999998
100
AcDbArc
 50
247.3189599999992
 51
314.7396140000088
  0
ARC
  5
38A
330
1F
100
AcDbEntity
  8
0
100
AcDbCircle
 10
789.3018163331865
 20
313.1202463603206
 30
0.0
 40
4.9999998
100
AcDbArc
 50
247.3189599999992
 51
286.8992139999966
  0
ARC
  5
38B
330
1F
100
AcDbEntity
  8
0
100
AcDbCircle
 10
595.4648563331866
 20
313.1202463603208
 30
0.0
 40
4.9999998
100
AcDbArc
 50
253.100789999995
 51
292.6810359999948
  0
ARC
  5
38C
330
1F
100
AcDbEntity
  8
0
100
AcDbCircle
 10
775.9737463331864
 20
310.3743463603207
 30
0.0
 40
4.9999998
100
AcDbArc
 50
90.0
 51
180.0
  0
ARC
  5
38D
330
1F
100
AcDbEntity
  8
0
100
AcDbCircle
 10
736.1665363331865
 20
310.3743463603207
 30
0.0
 40
4.9999998
100
AcDbArc
 50
0.0
 51
90.0
  0
ARC
  5
38E
330
1F
100
AcDbEntity
  8
0
100
AcDbCircle
 10
608.7929263331866
 20
310.3743463603209
 30
0.0
 40
4.9999998
100
AcDbArc
 50
0.0
 51
90.0
  0
ARC
  5
38F
330
1F
100
AcDbEntity
  8
0
100
AcDbCircle
 10
648.6001363331865
 20
310.3743463603209
 30
0.0
 40
4.9999998
100
AcDbArc
 50
90.0
 51
180.0
  0
ARC
  5
390
330
1F
100
AcDbEntity
  8
0
100
AcDbCircle
 10
666.3064663331866
 20
310.3743463603209
 30
0.0
 40
4.9999998
100
AcDbArc
 50
0.0
 51
90.0
  0
ARC
  5
391
330
1F
100
AcDbEntity
  8
0
100
AcDbCircle
 10
598.7669863331866
 20
310.3743463603209
 30
0.0
 40
4.9999998
100
AcDbArc
 50
90.0
 51
180.0
  0
ARC
  5
392
330
1F
100
AcDbEntity
  8
0
100
AcDbCircle
 10
683.3833063331865
 20
282.1300063603209
 30
0.0
 40
1.000000019999999
100
AcDbArc
 50
180.0
 51
270.0
  0
ARC
  5
393
330
1F
100
AcDbEntity
  8
0
100
AcDbCircle
 10
701.3833063331865
 20
298.1299963603209
 30
0.0
 40
1.000000019999999
100
AcDbArc
 50
0.0
 51
90.0
  0
ARC
  5
394
330
1F
100
AcDbEntity
  8
0
100
AcDbCircle
 10
692.3833063331865
 20
361.630066360321
 30
0.0
 40
9.0
100
AcDbArc
 50
0.0
 51
180.0
  0
ARC
  5
395
330
1F
100
AcDbEntity
  8
0
100
AcDbCircle
 10
595.5399163331865
 20
318.2900563603211
 30
0.0
 40
4.9999998
100
AcDbArc
 50
324.3285959999888
 51
359.0001399999928
  0
ARC
  5
396
330
1F
100
AcDbEntity
  8
0
100
AcDbCircle
 10
534.0313663331865
 20
327.2590663603209
 30
0.0
 40
250.0000079999999
100
AcDbArc
 50
10.37229999998753
 51
11.99999000001561
  0
ARC
  5
397
330
1F
100
AcDbEntity
  8
0
100
AcDbCircle
 10
534.0313663331865
 20
327.2590663603209
 30
0.0
 40
250.0000079999999
100
AcDbArc
 50
0.9999959999862102
 51
10.37229999998753
  0
ARC
  5
398
330
1F
100
AcDbEntity
  8
0
100
AcDbCircle
 10
850.7353063331866
 20
327.2590663603207
 30
0.0
 40
250.0000079999999
100
AcDbArc
 50
168.0000099999844
 51
178.9999999999982
  0
ARC
  5
399
330
1F
100
AcDbEntity
  8
0
100
AcDbCircle
 10
718.4601763331865
 20
310.3743463603209
 30
0.0
 40
4.9999998
100
AcDbArc
 50
90.0
 51
180.0
  0
ARC
  5
39A
330
1F
100
AcDbEntity
  8
0
100
AcDbCircle
 10
789.2267263331864
 20
318.2900563603209
 30
0.0
 40
4.9999998
100
AcDbArc
 50
180.999859999981
 51
215.671399999994
  0
CIRCLE
  5
39B
330
1F
100
AcDbEntity
  8
0
100
AcDbCircle
 10
692.3833063331865
 20
290.1300163603209
 30
0.0
 40
4.793684999999999
  0
ARC
  5
39C
330
1F
100
AcDbEntity
  8
0
100
AcDbCircle
 10
701.3833063331865
 20
282.1300063603209
 30
0.0
 40
1.000000019999999
100
AcDbArc
 50
270.0
 51
0.0
  0
ARC
  5
39D
330
1F
100
AcDbEntity
  8
0
100
AcDbCircle
 10
765.2854663331866
 20
393.6300163603207
 30
0.0
 40
9.9999999
100
AcDbArc
 50
12.00023000000018
 51
90.0
  0
CIRCLE
  5
39E
330
1F
100
AcDbEntity
  8
0
100
AcDbCircle
 10
692.3833063331865
 20
290.1300163603209
 30
0.0
 40
4.212704699999999
  0
CIRCLE
  5
39F
330
1F
100
AcDbEntity
  8
0
100
AcDbCircle
 10
692.3833063331865
 20
290.1300163603209
 30
0.0
 40
1.5
  0
ARC
  5
3A0
330
1F
100
AcDbEntity
  8
0
100
AcDbCircle
 10
683.3833063331865
 20
298.1299963603209
 30
0.0
 40
1.000000019999999
100
AcDbArc
 50
90.0
 51
180.0
  0
ARC
  5
3A1
330
1F
100
AcDbEntity
  8
0
100
AcDbCircle
 10
785.9996263331863
 20
310.3743463603207
 30
0.0
 40
4.9999998
100
AcDbArc
 50
0.0
 51
90.0
  0
ARC
  5
3A2
330
1F
100
AcDbEntity
  8
0
100
AcDbCircle
 10
685.3833163331865
 20
438.6300163603209
 30
0.0
 40
3.0
100
AcDbArc
 50
90.0
 51
180.0
  0
ARC
  5
3A3
330
1F
100
AcDbEntity
  8
0
100
AcDbCircle
 10
699.3833263331866
 20
438.6300163603209
 30
0.0
 40
3.0
100
AcDbArc
 50
0.0
 51
90.0
  0
ARC
  5
3A4
330
1F
100
AcDbEntity
  8
0
100
AcDbCircle
 10
668.3833063331867
 20
407.629996360321
 30
0.0
 40
1.000000019999999
100
AcDbArc
 50
90.0
 51
180.0
  0
ARC
  5
3A5
330
1F
100
AcDbEntity
  8
0
100
AcDbCircle
 10
716.3833063331867
 20
407.629996360321
 30
0.0
 40
1.000000019999999
100
AcDbArc
 50
0.0
 51
90.0
  0
ARC
  5
3A6
330
1F
100
AcDbEntity
  8
0
100
AcDbCircle
 10
716.3833063331867
 20
407.629996360321
 30
0.0
 40
1.000000019999999
100
AcDbArc
 50
0.0
 51
90.0
  0
LINE
  5
3A7
330
1F
100
AcDbEntity
  8
0
100
AcDbLine
 10
667.3833163331864
 20
403.630066360321
 30
0.0
 11
619.4811463331866
 21
403.630066360321
 31
0.0
  0
LINE
  5
3A8
330
1F
100
AcDbEntity
  8
0
100
AcDbLine
 10
722.0033263331865
 20
267.0299863603208
 30
0.0
 11
737.0033263331865
 21
267.0299863603206
 31
0.0
  0
LINE
  5
3A9
330
1F
100
AcDbEntity
  8
0
100
AcDbLine
 10
722.0033263331865
 20
268.6300063603209
 30
0.0
 11
722.0033263331865
 21
267.0299863603208
 31
0.0
  0
LINE
  5
3AA
330
1F
100
AcDbEntity
  8
0
100
AcDbLine
 10
737.0033263331865
 20
268.6300063603207
 30
0.0
 11
737.0033263331865
 21
267.0299863603206
 31
0.0
  0
LINE
  5
3AB
330
1F
100
AcDbEntity
  8
0
100
AcDbLine
 10
726.1233163331865
 20
262.6300063603207
 30
0.0
 11
732.8833063331865
 21
262.6300063603207
 31
0.0
  0
LINE
  5
3AC
330
1F
100
AcDbEntity
  8
0
100
AcDbLine
 10
774.5033263331865
 20
267.0299863603206
 30
0.0
 11
789.5033263331866
 21
267.0299863603206
 31
0.0
  0
LINE
  5
3AD
330
1F
100
AcDbEntity
  8
0
100
AcDbLine
 10
774.5033263331865
 20
268.6300063603207
 30
0.0
 11
774.5033263331865
 21
267.0299863603206
 31
0.0
  0
LINE
  5
3AE
330
1F
100
AcDbEntity
  8
0
100
AcDbLine
 10
789.5033263331866
 20
268.6300063603207
 30
0.0
 11
789.5033263331866
 21
267.0299863603206
 31
0.0
  0
LINE
  5
3AF
330
1F
100
AcDbEntity
  8
0
100
AcDbLine
 10
778.6233163331867
 20
262.6300063603207
 30
0.0
 11
785.3833063331864
 21
262.6300063603207
 31
0.0
  0
LINE
  5
3B0
330
1F
100
AcDbEntity
  8
0
100
AcDbLine
 10
662.7633463331865
 20
267.0299863603208
 30
0.0
 11
647.7633463331865
 21
267.0299863603208
 31
0.0
  0
LINE
  5
3B1
330
1F
100
AcDbEntity
  8
0
100
AcDbLine
 10
662.7633463331865
 20
268.6300063603209
 30
0.0
 11
662.7633463331865
 21
267.0299863603208
 31
0.0
  0
LINE
  5
3B2
330
1F
100
AcDbEntity
  8
0
100
AcDbLine
 10
647.7633463331865
 20
268.6300063603209
 30
0.0
 11
647.7633463331865
 21
267.0299863603208
 31
0.0
  0
LINE
  5
3B3
330
1F
100
AcDbEntity
  8
0
100
AcDbLine
 10
658.6433263331864
 20
262.6300063603209
 30
0.0
 11
651.8833063331864
 21
262.6300063603209
 31
0.0
  0
LINE
  5
3B4
330
1F
100
AcDbEntity
  8
0
100
AcDbLine
 10
610.2633463331865
 20
267.0299863603208
 30
0.0
 11
595.2633463331864
 21
267.0299863603208
 31
0.0
  0
LINE
  5
3B5
330
1F
100
AcDbEntity
  8
0
100
AcDbLine
 10
610.2633463331865
 20
268.6300063603209
 30
0.0
 11
610.2633463331865
 21
267.0299863603208
 31
0.0
  0
LINE
  5
3B6
330
1F
100
AcDbEntity
  8
0
100
AcDbLine
 10
595.2633463331864
 20
268.6300063603209
 30
0.0
 11
595.2633463331864
 21
267.0299863603208
 31
0.0
  0
LINE
  5
3B7
330
1F
100
AcDbEntity
  8
0
100
AcDbLine
 10
606.1433263331864
 20
262.6300063603209
 30
0.0
 11
599.3833063331865
 21
262.6300063603209
 31
0.0
  0
LINE
  5
3B8
330
1F
100
AcDbEntity
  8
0
100
AcDbLine
 10
654.8967763331866
 20
308.5162963603211
 30
0.0
 11
667.0498963331866
 21
313.5954163603209
 31
0.0
  0
LINE
  5
3B9
330
1F
100
AcDbEntity
  8
0
100
AcDbLine
 10
738.6438163331863
 20
312.8744863603208
 30
0.0
 11
735.3173263331864
 21
309.5781163603207
 31
0.0
  0
LINE
  5
3BA
330
1F
100
AcDbEntity
  8
0
100
AcDbLine
 10
729.8698363331864
 20
308.5162963603209
 30
0.0
 11
717.7167163331865
 21
313.5954163603209
 31
0.0
  0
LINE
  5
3BB
330
1F
100
AcDbEntity
  8
0
100
AcDbLine
 10
787.3738063331866
 20
308.5069063603207
 30
0.0
 11
775.2206263331864
 21
313.5859663603207
 31
0.0
  0
LINE
  5
3BC
330
1F
100
AcDbEntity
  8
0
100
AcDbLine
 10
646.1228563331864
 20
312.8744263603211
 30
0.0
 11
649.4493163331865
 21
309.5780563603211
 31
0.0
  0
LINE
  5
3BD
330
1F
100
AcDbEntity
  8
0
100
AcDbLine
 10
597.3928963331866
 20
308.5069063603209
 30
0.0
 11
609.5460163331865
 21
313.586026360321
 31
0.0
  0
LINE
  5
3BE
330
1F
100
AcDbEntity
  8
0
100
AcDbLine
 10
790.9996663331867
 20
310.3743463603207
 30
0.0
 11
790.9996663331867
 21
268.6300063603207
 31
0.0
  0
LINE
  5
3BF
330
1F
100
AcDbEntity
  8
0
100
AcDbLine
 10
741.1665463331864
 20
310.3743463603207
 30
0.0
 11
741.1665463331864
 21
268.6300063603207
 31
0.0
  0
LINE
  5
3C0
330
1F
100
AcDbEntity
  8
0
100
AcDbLine
 10
593.7670063331865
 20
310.3743463603209
 30
0.0
 11
593.7670063331865
 21
268.6300063603209
 31
0.0
  0
LINE
  5
3C1
330
1F
100
AcDbEntity
  8
0
100
AcDbLine
 10
598.7669863331866
 20
315.3743563603211
 30
0.0
 11
608.7929263331866
 21
315.3743563603211
 31
0.0
  0
LINE
  5
3C2
330
1F
100
AcDbEntity
  8
0
100
AcDbLine
 10
648.6001363331865
 20
315.3743563603211
 30
0.0
 11
666.3064663331866
 21
315.3743563603211
 31
0.0
  0
LINE
  5
3C3
330
1F
100
AcDbEntity
  8
0
100
AcDbLine
 10
643.6001263331863
 20
310.3743463603209
 30
0.0
 11
643.6001263331863
 21
268.6300063603209
 31
0.0
  0
LINE
  5
3C4
330
1F
100
AcDbEntity
  8
0
100
AcDbLine
 10
671.3064463331866
 20
310.3743463603209
 30
0.0
 11
671.3064463331866
 21
268.6300063603209
 31
0.0
  0
LINE
  5
3C5
330
1F
100
AcDbEntity
  8
0
100
AcDbLine
 10
613.7929363331866
 20
310.3743463603209
 30
0.0
 11
613.7929363331866
 21
268.6300063603209
 31
0.0
  0
LINE
  5
3C6
330
1F
100
AcDbEntity
  8
0
100
AcDbLine
 10
701.3833063331865
 20
299.1300163603209
 30
0.0
 11
683.3833063331865
 21
299.1300163603209
 31
0.0
  0
LINE
  5
3C7
330
1F
100
AcDbEntity
  8
0
100
AcDbLine
 10
784.8833263331864
 20
280.6300063603207
 30
0.0
 11
692.3833063331865
 21
280.6300063603209
 31
0.0
  0
LINE
  5
3C8
330
1F
100
AcDbEntity
  8
0
100
AcDbLine
 10
783.9933163331866
 20
331.6221763603207
 30
0.0
 11
784.2275563331863
 21
318.2027863603207
 31
0.0
  0
LINE
  5
3C9
330
1F
100
AcDbEntity
  8
0
100
AcDbLine
 10
775.0669063331866
 20
395.7092863603209
 30
0.0
 11
778.5682063331864
 21
379.2369163603207
 31
0.0
  0
LINE
  5
3CA
330
1F
100
AcDbEntity
  8
0
100
AcDbLine
 10
713.4601663331864
 20
310.3743463603209
 30
0.0
 11
713.4601663331864
 21
268.6300063603209
 31
0.0
  0
LINE
  5
3CB
330
1F
100
AcDbEntity
  8
0
100
AcDbLine
 10
736.1665363331865
 20
315.3743563603209
 30
0.0
 11
718.4601763331865
 21
315.3743563603211
 31
0.0
  0
LINE
  5
3CC
330
1F
100
AcDbEntity
  8
0
100
AcDbLine
 10
692.3833063331867
 20
403.630066360321
 30
0.0
 11
619.4811463331866
 21
403.630066360321
 31
0.0
  0
LINE
  5
3CD
330
1F
100
AcDbEntity
  8
0
100
AcDbLine
 10
697.1770063331864
 20
290.1300163603209
 30
0.0
 11
687.5896363331867
 21
290.1300163603209
 31
0.0
  0
LINE
  5
3CE
330
1F
100
AcDbEntity
  8
0
100
AcDbLine
 10
701.3833063331865
 20
361.630066360321
 30
0.0
 11
702.3830563331864
 21
297.1609963603209
 31
0.0
  0
LINE
  5
3CF
330
1F
100
AcDbEntity
  8
0
100
AcDbLine
 10
593.7670063331865
 20
280.6300063603209
 30
0.0
 11
692.3833063331865
 21
280.6300063603209
 31
0.0
  0
LINE
  5
3D0
330
1F
100
AcDbEntity
  8
0
100
AcDbLine
 10
702.3832963331865
 20
298.1299963603209
 30
0.0
 11
702.3832963331865
 21
282.1300063603209
 31
0.0
  0
LINE
  5
3D1
330
1F
100
AcDbEntity
  8
0
100
AcDbLine
 10
682.3833163331864
 20
298.1299963603209
 30
0.0
 11
682.3833163331864
 21
282.1300063603209
 31
0.0
  0
LINE
  5
3D2
330
1F
100
AcDbEntity
  8
0
100
AcDbLine
 10
770.9737363331864
 20
310.3743463603207
 30
0.0
 11
770.9737363331864
 21
268.6300063603207
 31
0.0
  0
LINE
  5
3D3
330
1F
100
AcDbEntity
  8
0
100
AcDbLine
 10
692.3833063331867
 20
403.630066360321
 30
0.0
 11
765.2854663331866
 21
403.6300663603208
 31
0.0
  0
LINE
  5
3D4
330
1F
100
AcDbEntity
  8
0
100
AcDbLine
 10
600.7733863331866
 20
331.6221763603209
 30
0.0
 11
600.5391463331866
 21
318.2027863603209
 31
0.0
  0
LINE
  5
3D5
330
1F
100
AcDbEntity
  8
0
100
AcDbLine
 10
785.9996263331863
 20
315.3743563603209
 30
0.0
 11
775.9737463331864
 21
315.3743563603209
 31
0.0
  0
LINE
  5
3D6
330
1F
100
AcDbEntity
  8
0
100
AcDbLine
 10
701.3833063331865
 20
281.1300163603209
 30
0.0
 11
683.3833063331865
 21
281.1300163603209
 31
0.0
  0
LINE
  5
3D7
330
1F
100
AcDbEntity
  8
0
100
AcDbLine
 10
704.3833063331865
 20
280.6300063603209
 30
0.0
 11
680.3833063331865
 21
280.6300063603209
 31
0.0
  0
LINE
  5
3D8
330
1F
100
AcDbEntity
  8
0
100
AcDbLine
 10
790.9996663331867
 20
268.6300063603207
 30
0.0
 11
692.3833063331865
 21
268.6300063603209
 31
0.0
  0
LINE
  5
3D9
330
1F
100
AcDbEntity
  8
0
100
AcDbLine
 10
790.9996663331867
 20
280.6300063603207
 30
0.0
 11
692.3833063331865
 21
280.6300063603209
 31
0.0
  0
LINE
  5
3DA
330
1F
100
AcDbEntity
  8
0
100
AcDbLine
 10
609.6996814472579
 20
395.709171943949
 30
0.0
 11
606.1984063331865
 21
379.2370363603208
 31
0.0
  0
LINE
  5
3DB
330
1F
100
AcDbEntity
  8
0
100
AcDbLine
 10
784.8833263331864
 20
280.6300063603207
 30
0.0
 11
779.3824363331864
 21
280.6300063603207
 31
0.0
  0
LINE
  5
3DC
330
1F
100
AcDbEntity
  8
0
100
AcDbLine
 10
593.7670063331865
 20
280.6300063603209
 30
0.0
 11
692.3833063331865
 21
280.6300063603209
 31
0.0
  0
LINE
  5
3DD
330
1F
100
AcDbEntity
  8
0
100
AcDbLine
 10
593.7670063331865
 20
268.6300063603209
 30
0.0
 11
692.3833063331865
 21
268.6300063603209
 31
0.0
  0
LINE
  5
3DE
330
1F
100
AcDbEntity
  8
0
100
AcDbLine
 10
783.8833063331865
 20
268.6300063603207
 30
0.0
 11
779.3833063331865
 21
268.6300063603207
 31
0.0
  0
LINE
  5
3DF
330
1F
100
AcDbEntity
  8
0
100
AcDbLine
 10
683.3833063331865
 20
361.630066360321
 30
0.0
 11
682.3835563331865
 21
297.1609963603209
 31
0.0
  0
LINE
  5
3E0
330
1F
100
AcDbEntity
  8
0
100
AcDbLine
 10
702.3833263331867
 20
412.3621663603209
 30
0.0
 11
702.3833263331867
 21
438.6300163603209
 31
0.0
  0
LINE
  5
3E1
330
1F
100
AcDbEntity
  8
0
100
AcDbLine
 10
703.3833661026938
 20
408.6300163603209
 30
0.0
 11
702.3832963331865
 21
412.362346360321
 31
0.0
  0
LINE
  5
3E2
330
1F
100
AcDbEntity
  8
0
100
AcDbLine
 10
702.3833263331867
 20
412.3621663603209
 30
0.0
 11
682.3833163331864
 21
412.3621663603209
 31
0.0
  0
LINE
  5
3E3
330
1F
100
AcDbEntity
  8
0
100
AcDbLine
 10
682.3833163331864
 20
412.3621663603209
 30
0.0
 11
682.3833163331864
 21
438.6300163603209
 31
0.0
  0
LINE
  5
3E4
330
1F
100
AcDbEntity
  8
0
100
AcDbLine
 10
681.3830673604352
 20
408.6300163603209
 30
0.0
 11
682.3831963331867
 21
412.362256360321
 31
0.0
  0
LINE
  5
3E5
330
1F
100
AcDbEntity
  8
0
100
AcDbLine
 10
692.3833063331867
 20
408.6300163603209
 30
0.0
 11
716.3833063331867
 21
408.6300163603209
 31
0.0
  0
LINE
  5
3E6
330
1F
100
AcDbEntity
  8
0
100
AcDbLine
 10
667.3833163331864
 20
403.630066360321
 30
0.0
 11
667.3833163331864
 21
407.629996360321
 31
0.0
  0
LINE
  5
3E7
330
1F
100
AcDbEntity
  8
0
100
AcDbLine
 10
717.3832963331865
 20
403.630066360321
 30
0.0
 11
717.3832963331865
 21
407.629996360321
 31
0.0
  0
LINE
  5
3E8
330
1F
100
AcDbEntity
  8
0
100
AcDbLine
 10
692.3833063331867
 20
408.6300163603209
 30
0.0
 11
668.3833063331867
 21
408.6300163603209
 31
0.0
  0
CIRCLE
  5
3E9
330
1F
100
AcDbEntity
  8
0
100
AcDbCircle
 10
692.3833063331867
 20
221.4297463603212
 30
0.0
 40
4.000000199999999
  0
LINE
  5
3EA
330
1F
100
AcDbEntity
  8
0
100
AcDbLine
 10
773.3833468507651
 20
229.9297063603213
 30
0.0
 11
611.3833010743976
 21
229.9297063603213
 31
0.0
  0
LINE
  5
3EB
330
1F
100
AcDbEntity
  8
0
100
AcDbLine
 10
692.3833063331867
 20
403.6300663603211
 30
0.0
 11
765.2854663331868
 21
403.6300663603211
 31
0.0
  0
CIRCLE
  5
3EC
330
1F
100
AcDbEntity
  8
0
  6
Continuous
100
AcDbCircle
 10
248.7115875665519
 20
831.7007007629507
 30
0.0
 40
24.99999745505022
  0
CIRCLE
  5
3ED
330
1F
100
AcDbEntity
  8
0
  6
Continuous
100
AcDbCircle
 10
248.7116226850405
 20
831.7007007629507
 30
0.0
 40
10.00004238406432
  0
ARC
  5
3EE
330
1F
100
AcDbEntity
  8
0
  6
Continuous
100
AcDbCircle
 10
248.7116025743884
 20
831.7007007629507
 30
0.0
 40
96.0
100
AcDbArc
 50
122.4617400000004
 51
147.5382499999972
  0
ARC
  5
3EF
330
1F
100
AcDbEntity
  8
0
  6
Continuous
100
AcDbCircle
 10
248.7116025743884
 20
831.7007007629507
 30
0.0
 40
96.0
100
AcDbArc
 50
212.4617500000018
 51
237.5382599999995
  0
ARC
  5
3F0
330
1F
100
AcDbEntity
  8
0
  6
Continuous
100
AcDbCircle
 10
248.7116025743884
 20
831.7007007629507
 30
0.0
 40
96.0
100
AcDbArc
 50
302.4617400000004
 51
327.538249999998
  0
ARC
  5
3F1
330
1F
100
AcDbEntity
  8
0
  6
Continuous
100
AcDbCircle
 10
248.7116025743884
 20
831.7007007629507
 30
0.0
 40
96.0
100
AcDbArc
 50
32.46175000000188
 51
57.53826100000498
  0
LINE
  5
3F2
330
1F
100
AcDbEntity
  8
0
  6
HIDDEN
 48
10.0
100
AcDbLine
 10
197.1848925743884
 20
750.7007007629507
 30
0.0
 11
300.2383065743883
 21
750.7007007629507
 31
0.0
  0
LINE
  5
3F3
330
1F
100
AcDbEntity
  8
0
  6
HIDDEN
 48
10.0
100
AcDbLine
 10
329.7116025743884
 20
780.1739907629507
 30
0.0
 11
329.7116025743884
 21
883.2274107629508
 31
0.0
  0
LINE
  5
3F4
330
1F
100
AcDbEntity
  8
0
  6
HIDDEN
 48
10.0
100
AcDbLine
 10
197.1848925743884
 20
912.7007007629508
 30
0.0
 11
300.2383065743883
 21
912.7007007629508
 31
0.0
  0
LINE
  5
3F5
330
1F
100
AcDbEntity
  8
0
  6
HIDDEN
 48
10.0
100
AcDbLine
 10
167.7116025743884
 20
780.1739907629507
 30
0.0
 11
167.7116025743884
 21
883.2274107629508
 31
0.0
  0
TEXT
  5
3F6
330
1F
100
AcDbEntity
  8
0
100
AcDbText
 10
32.85499999999911
 20
1130.90140784119
 30
0.0
 40
48.000002
  1
DHC2S17AD000 3S
 41
1.32095
100
AcDbText
  0
LINE
  5
3F7
330
1F
100
AcDbEntity
  8
0
100
AcDbLine
 10
337.7116262685711
 20
216.9296848739196
 30
0.0
 11
329.7116110097825
 21
216.9296855812695
 31
0.0
  0
LINE
  5
3F8
330
1F
100
AcDbEntity
  8
0
100
AcDbLine
 10
337.7116268875037
 20
223.929715391497
 30
0.0
 11
329.7116116287147
 21
223.9297160988463
 31
0.0
  0
LINE
  5
3F9
330
1F
100
AcDbEntity
  8
0
100
AcDbLine
 10
337.7116262685711
 20
216.9296848739196
 30
0.0
 11
337.7116268875037
 21
223.929715391497
 31
0.0
  0
LINE
  5
3FA
330
1F
100
AcDbEntity
  8
0
100
AcDbLine
 10
819.3832858156088
 20
207.2796887309268
 30
0.0
 11
816.5332780508036
 21
207.2796887309268
 31
0.0
  0
LINE
  5
3FB
330
1F
100
AcDbEntity
  8
0
100
AcDbLine
 10
816.5332780508036
 20
207.2796887309268
 30
0.0
 11
813.8581000654006
 21
199.9296978862003
 31
0.0
  0
LINE
  5
3FC
330
1F
100
AcDbEntity
  8
0
100
AcDbLine
 10
819.3832858156088
 20
116.2797039897162
 30
0.0
 11
816.5333384952582
 21
116.2797039897162
 31
0.0
  0
LINE
  5
3FD
330
1F
100
AcDbEntity
  8
0
100
AcDbLine
 10
816.5333384952582
 20
116.2797039897162
 30
0.0
 11
813.8581605098544
 21
123.6296948344424
 31
0.0
  0
ARC
  5
3FE
330
1F
100
AcDbEntity
  8
0
100
AcDbCircle
 10
817.0934603761557
 20
117.079691782685
 30
0.0
 40
0.8000000417232513
100
AcDbArc
 50
200.0000071589904
 51
270.0000043257204
  0
LINE
  5
3FF
330
1F
100
AcDbEntity
  8
0
100
AcDbLine
 10
813.8581000654006
 20
199.9296978862003
 30
0.0
 11
813.8581000654006
 21
123.6298609042107
 31
0.0
  0
LINE
  5
400
330
1F
100
AcDbEntity
  8
0
100
AcDbLine
 10
819.3832858156088
 20
207.2796887309268
 30
0.0
 11
819.3832858156088
 21
116.2797039897162
 31
0.0
  0
LINE
  5
401
330
1F
100
AcDbEntity
  8
0
100
AcDbLine
 10
743.9100117965469
 20
229.9297063603213
 30
0.0
 11
743.9100117965469
 21
195.9298514498233
 31
0.0
  0
ARC
  5
402
330
1F
100
AcDbEntity
  8
0
100
AcDbCircle
 10
736.9295657228352
 20
133.6297253520212
 30
0.0
 40
13.00000047683716
100
AcDbArc
 50
210.0000051605297
 51
269.9999974955313
  0
LINE
  5
403
330
1F
100
AcDbEntity
  8
0
100
AcDbLine
 10
773.3833468507651
 20
120.6297406108103
 30
0.0
 11
736.9437563966634
 21
120.6297406108103
 31
0.0
  0
LINE
  5
404
330
1F
100
AcDbEntity
  8
0
100
AcDbLine
 10
773.3833468507651
 20
229.9297063603213
 30
0.0
 11
773.3833468507651
 21
120.6297406108103
 31
0.0
  0
LINE
  5
405
330
1F
100
AcDbEntity
  8
0
100
AcDbLine
 10
813.8581605098544
 20
123.6296948344424
 30
0.0
 11
773.3833468507651
 21
123.629694834443
 31
0.0
  0
LINE
  5
406
330
1F
100
AcDbEntity
  8
0
100
AcDbLine
 10
813.8581000654006
 20
199.9296978862003
 30
0.0
 11
773.3833468507651
 21
199.9296978862003
 31
0.0
  0
LINE
  5
407
330
1F
100
AcDbEntity
  8
0
100
AcDbLine
 10
690.6764376710775
 20
161.8297070414737
 30
0.0
 11
694.0901644777182
 21
161.8297070414737
 31
0.0
  0
LINE
  5
408
330
1F
100
AcDbEntity
  8
0
100
AcDbLine
 10
640.856642771925
 20
229.9297058075524
 30
0.0
 11
640.8566193913052
 21
195.9298868831321
 31
0.0
  0
LINE
  5
409
330
1F
100
AcDbEntity
  8
0
100
AcDbLine
 10
673.3559257199424
 20
151.8297379821839
 30
0.0
 11
659.0953740753421
 21
127.129738433097
 31
0.0
  0
ARC
  5
40A
330
1F
100
AcDbEntity
  8
0
100
AcDbCircle
 10
647.8370364259601
 20
133.6297253520212
 30
0.0
 40
13.00000047683716
100
AcDbArc
 50
269.9999974955313
 51
330.0000016696627
  0
ARC
  5
40B
330
1F
100
AcDbEntity
  8
0
100
AcDbCircle
 10
690.6764376710775
 20
141.8297375590524
 30
0.0
 40
20.00000095367429
100
AcDbArc
 50
90.00000865141489
 51
149.9999966606942
  0
ARC
  5
40C
330
1F
100
AcDbEntity
  8
0
100
AcDbCircle
 10
694.0901644777182
 20
141.8297375590524
 30
0.0
 40
20.00000095367429
100
AcDbArc
 50
30.0000033393057
 51
90.00000500896346
  0
LINE
  5
40D
330
1F
100
AcDbEntity
  8
0
100
AcDbLine
 10
611.3833010743976
 20
229.9297063603213
 30
0.0
 11
611.3833010743976
 21
213.929758921357
 31
0.0
  0
LINE
  5
40E
330
1F
100
AcDbEntity
  8
0
100
AcDbLine
 10
568.2332785383882
 20
207.2796887309268
 30
0.0
 11
570.9084565237917
 21
199.9296978862008
 31
0.0
  0
LINE
  5
40F
330
1F
100
AcDbEntity
  8
0
100
AcDbLine
 10
565.3833163331866
 20
207.2796887309268
 30
0.0
 11
568.2332785383882
 21
207.2796887309268
 31
0.0
  0
LINE
  5
410
330
1F
100
AcDbEntity
  8
0
100
AcDbLine
 10
570.9084565237917
 20
199.9296978862008
 30
0.0
 11
611.3833010743976
 21
199.9296978862008
 31
0.0
  0
LINE
  5
411
330
1F
100
AcDbEntity
  8
0
100
AcDbLine
 10
606.8833010743976
 20
123.6297406108099
 30
0.0
 11
611.3833010743976
 21
123.6297406108099
 31
0.0
  0
LINE
  5
412
330
1F
100
AcDbEntity
  8
0
100
AcDbLine
 10
568.2333155223187
 20
116.2797039897162
 30
0.0
 11
570.9084935077214
 21
123.6296948344424
 31
0.0
  0
LINE
  5
413
330
1F
100
AcDbEntity
  8
0
100
AcDbLine
 10
565.3833163331866
 20
116.2797039897156
 30
0.0
 11
568.2333155223187
 21
116.2797039897162
 31
0.0
  0
LINE
  5
414
330
1F
100
AcDbEntity
  8
0
100
AcDbLine
 10
570.9084935077214
 20
123.6296948344424
 30
0.0
 11
606.8833010743976
 21
123.629694834443
 31
0.0
  0
LINE
  5
415
330
1F
100
AcDbEntity
  8
0
100
AcDbLine
 10
565.3833163331866
 20
207.2796887309268
 30
0.0
 11
565.3833163331866
 21
116.2797039897156
 31
0.0
  0
LINE
  5
416
330
1F
100
AcDbEntity
  8
0
100
AcDbLine
 10
570.9084565237917
 20
199.9296978862008
 30
0.0
 11
570.9084935077214
 21
123.6296948344424
 31
0.0
  0
LINE
  5
417
330
1F
100
AcDbEntity
  8
0
100
AcDbLine
 10
611.3833010743976
 20
226.929743662568
 30
0.0
 11
611.3833010743976
 21
120.6297406108103
 31
0.0
  0
LINE
  5
418
330
1F
100
AcDbEntity
  8
0
100
AcDbLine
 10
611.3833010743976
 20
120.6297406108103
 30
0.0
 11
647.8512728761556
 21
120.6297406108103
 31
0.0
  0
LINE
  5
419
330
1F
100
AcDbEntity
  8
0
100
AcDbLine
 10
611.3833010743976
 20
212.9297284037785
 30
0.0
 11
773.3833468507651
 21
212.9297284037785
 31
0.0
  0
LINE
  5
41A
330
1F
100
AcDbEntity
  8
0
100
AcDbLine
 10
611.3833011225803
 20
195.9298494983573
 30
0.0
 11
773.3833128919179
 21
195.9298514498237
 31
0.0
  0
LINE
  5
41B
330
1F
100
AcDbEntity
  8
0
100
AcDbLine
 10
711.4106629469992
 20
151.8297525303104
 30
0.0
 11
725.6712145915996
 21
127.1297529812241
 31
0.0
  0
LINE
  5
41C
330
1F
100
AcDbEntity
  8
0
100
AcDbLine
 10
294.211592167462
 20
955.8507123116605
 30
0.0
 11
286.8616470991029
 21
953.1755509874924
 31
0.0
  0
LINE
  5
41D
330
1F
100
AcDbEntity
  8
0
100
AcDbLine
 10
294.211592167462
 20
958.7006855041616
 30
0.0
 11
294.211592167462
 21
955.8507123116605
 31
0.0
  0
LINE
  5
41E
330
1F
100
AcDbEntity
  8
0
  6
HIDDEN
 48
10.0
100
AcDbLine
 10
286.861647099103
 20
930.2579209368339
 30
0.0
 11
286.8616470991029
 21
912.7007007629508
 31
0.0
  0
LINE
  5
41F
330
1F
100
AcDbEntity
  8
0
100
AcDbLine
 10
286.8616470991029
 20
953.1755509874924
 30
0.0
 11
286.8616470991029
 21
930.2579209368339
 31
0.0
  0
LINE
  5
420
330
1F
100
AcDbEntity
  8
0
100
AcDbLine
 10
203.2116532026186
 20
955.8507113073684
 30
0.0
 11
210.5615982709779
 21
953.1755499832003
 31
0.0
  0
LINE
  5
421
330
1F
100
AcDbEntity
  8
0
100
AcDbLine
 10
203.2116532026186
 20
958.7006855041616
 30
0.0
 11
203.2116532026186
 21
955.8507113073684
 31
0.0
  0
LINE
  5
422
330
1F
100
AcDbEntity
  8
0
  6
HIDDEN
 48
10.0
100
AcDbLine
 10
210.5615982709778
 20
930.2578786411153
 30
0.0
 11
210.5615982709779
 21
912.7007007629508
 31
0.0
  0
LINE
  5
423
330
1F
100
AcDbEntity
  8
0
100
AcDbLine
 10
210.5615982709779
 20
953.1755499832003
 30
0.0
 11
210.5615982709778
 21
930.2578786411153
 31
0.0
  0
LINE
  5
424
330
1F
100
AcDbEntity
  8
0
100
AcDbLine
 10
203.2116532026186
 20
958.7006855041616
 30
0.0
 11
294.211592167462
 21
958.7006855041616
 31
0.0
  0
LINE
  5
425
330
1F
100
AcDbEntity
  8
0
100
AcDbLine
 10
210.5615982709779
 20
953.1755237609976
 30
0.0
 11
286.8616470991029
 21
953.1755237609976
 31
0.0
  0
LINE
  5
426
330
1F
100
AcDbEntity
  8
0
100
AcDbLine
 10
294.211592167462
 20
707.550728904474
 30
0.0
 11
286.8616470991029
 21
710.2258902286417
 31
0.0
  0
LINE
  5
427
330
1F
100
AcDbEntity
  8
0
100
AcDbLine
 10
294.211592167462
 20
704.7007160217401
 30
0.0
 11
294.211592167462
 21
707.550728904474
 31
0.0
  0
LINE
  5
428
330
1F
100
AcDbEntity
  8
0
100
AcDbLine
 10
203.2116532026186
 20
707.5507177302185
 30
0.0
 11
210.561598270978
 21
710.2258790543857
 31
0.0
  0
LINE
  5
429
330
1F
100
AcDbEntity
  8
0
100
AcDbLine
 10
203.2116532026186
 20
704.7007160217401
 30
0.0
 11
203.2116532026186
 21
707.5507177302185
 31
0.0
  0
LINE
  5
42A
330
1F
100
AcDbEntity
  8
0
100
AcDbLine
 10
203.2116532026186
 20
704.7007160217401
 30
0.0
 11
294.211592167462
 21
704.7007160217401
 31
0.0
  0
LINE
  5
42B
330
1F
100
AcDbEntity
  8
0
100
AcDbLine
 10
210.561598270978
 20
710.225923541271
 30
0.0
 11
286.8616470991029
 21
710.225923541271
 31
0.0
  0
LINE
  5
42C
330
1F
100
AcDbEntity
  8
0
  6
HIDDEN
 48
10.0
100
AcDbLine
 10
286.8616470991029
 20
733.1435279416828
 30
0.0
 11
286.8616470991029
 21
750.7007007629506
 31
0.0
  0
LINE
  5
42D
330
1F
100
AcDbEntity
  8
0
100
AcDbLine
 10
286.8616470991029
 20
710.2258902286417
 30
0.0
 11
286.8616470991028
 21
733.1435279416828
 31
0.0
  0
LINE
  5
42E
330
1F
100
AcDbEntity
  8
0
  6
HIDDEN
 48
10.0
100
AcDbLine
 10
210.5615982709778
 20
733.1435394859313
 30
0.0
 11
210.5615982709777
 21
750.7007007629507
 31
0.0
  0
LINE
  5
42F
330
1F
100
AcDbEntity
  8
0
100
AcDbLine
 10
210.561598270978
 20
710.2258790543857
 30
0.0
 11
210.5615982709778
 21
733.1435394859313
 31
0.0
  0
LINE
  5
430
330
1F
100
AcDbEntity
  8
0
100
AcDbLine
 10
329.7116112048109
 20
229.9297063603213
 30
0.0
 11
329.7116116143769
 21
195.9298231787532
 31
0.0
  0
LINE
  5
431
330
1F
100
AcDbEntity
  8
0
100
AcDbLine
 10
308.4159570734005
 20
195.929822922224
 30
0.0
 11
294.1897699491765
 21
163.1877194495874
 31
0.0
  0
LINE
  5
432
330
1F
100
AcDbEntity
  8
0
100
AcDbLine
 10
300.2383105190062
 20
226.92971636723
 30
0.0
 11
300.2383105190062
 21
195.9298231787532
 31
0.0
  0
ARC
  5
433
330
1F
100
AcDbEntity
  8
0
100
AcDbCircle
 10
269.1404589825373
 20
130.6297554692818
 30
0.0
 40
10.00000047683716
100
AcDbArc
 50
269.9999984909091
 51
336.515433723047
  0
LINE
  5
434
330
1F
100
AcDbEntity
  8
0
100
AcDbLine
 10
278.7784631203716
 20
195.9298225652082
 30
0.0
 11
329.7116116143769
 21
195.9298231787532
 31
0.0
  0
LINE
  5
435
330
1F
100
AcDbEntity
  8
0
100
AcDbLine
 10
167.7116340929935
 20
229.9297063603213
 30
0.0
 11
167.7116345025602
 21
195.929821227288
 31
0.0
  0
LINE
  5
436
330
1F
100
AcDbEntity
  8
0
100
AcDbLine
 10
197.1849394314283
 20
226.9297518005315
 30
0.0
 11
197.1849181137644
 21
195.929858612062
 31
0.0
  0
LINE
  5
437
330
1F
100
AcDbEntity
  8
0
100
AcDbLine
 10
167.7116345025602
 20
195.929821227288
 30
0.0
 11
218.6447412056544
 21
195.9298218408326
 31
0.0
  0
LINE
  5
438
330
1F
100
AcDbEntity
  8
0
100
AcDbLine
 10
189.0072677115902
 20
195.9298214838165
 30
0.0
 11
203.2334360601004
 21
163.1877624261458
 31
0.0
  0
ARC
  5
439
330
1F
100
AcDbEntity
  8
0
100
AcDbCircle
 10
228.2827516995492
 20
130.6297342602146
 30
0.0
 40
10.00000047683716
100
AcDbArc
 50
203.4845664464887
 51
269.9999948484357
  0
LINE
  5
43A
330
1F
100
AcDbEntity
  8
0
100
AcDbLine
 10
167.7116342977765
 20
212.9297907097098
 30
0.0
 11
329.7116114095932
 21
212.9297926611756
 31
0.0
  0
CIRCLE
  5
43B
330
1F
100
AcDbEntity
  8
0
100
AcDbCircle
 10
248.7116025743883
 20
161.7796963603213
 30
0.0
 40
36.14999485015868
  0
CIRCLE
  5
43C
330
1F
100
AcDbEntity
  8
0
100
AcDbCircle
 10
248.7116025743883
 20
161.7796963603213
 30
0.0
 40
45.49996948242188
  0
LINE
  5
49E
330
1F
100
AcDbEntity
  8
0
  6
CENTER
100
AcDbLine
 10
364.4050350479365
 20
831.7007007629509
 30
0.0
 11
119.8520758837269
 21
831.7007007629506
 31
0.0
  0
LINE
  5
49F
330
1F
100
AcDbEntity
  8
0
  6
CENTER
100
AcDbLine
 10
248.7115875665519
 20
691.1403344764667
 30
0.0
 11
248.7115875665519
 21
972.2610670494347
 31
0.0
  0
LINE
  5
4A0
330
1F
100
AcDbEntity
  8
0
  6
CENTER
100
AcDbLine
 10
311.6173368190892
 20
161.7796963603214
 30
0.0
 11
185.8058683296875
 21
161.7796963603211
 31
0.0
  0
LINE
  5
4A1
330
1F
100
AcDbEntity
  8
0
  6
CENTER
100
AcDbLine
 10
248.7116025743883
 20
100.8155326016251
 30
0.0
 11
248.7116025743883
 21
445.1682314178437
 31
0.0
  0
LINE
  5
4A2
330
1F
100
AcDbEntity
  8
0
  6
CENTER
100
AcDbLine
 10
830.6647648152379
 20
161.779593365191
 30
0.0
 11
554.1018478511355
 21
161.7795933651908
 31
0.0
  0
LINE
  5
4A3
330
1F
100
AcDbEntity
  8
0
  6
CENTER
100
AcDbLine
 10
692.3833063331867
 20
137.5002887258981
 30
0.0
 11
692.3833063331867
 21
445.1681284227134
 31
0.0
  0
LINE
  5
6BD
330
1F
100
AcDbEntity
  8
0
  6
CENTER
100
AcDbLine
 10
1677.021359138742
 20
671.3651424701537
 30
0.0
 11
1677.021359138742
 21
992.0362590557514
 31
0.0
  0
LINE
  5
6BE
330
1F
100
AcDbEntity
  8
0
  6
CENTER
100
AcDbLine
 10
1634.142109431732
 20
831.7007007629481
 30
0.0
 11
1952.339367664858
 21
831.7007007629799
 31
0.0
  0
LINE
  5
6BF
330
1F
100
AcDbEntity
  8
0
  6
CENTER
100
AcDbLine
 10
2211.099980009787
 20
89.86319402526318
 30
0.0
 11
2211.099980009787
 21
345.321180075021
 31
0.0
  0
LINE
  5
6C0
330
1F
100
AcDbEntity
  8
0
  6
CENTER
100
AcDbLine
 10
2374.803015530565
 20
161.779593365191
 30
0.0
 11
2047.39694448901
 21
161.779593365191
 31
0.0
  0
LINE
  5
6C1
330
1F
100
AcDbEntity
  8
0
  6
CENTER
100
AcDbLine
 10
1616.092128518849
 20
161.7795933651906
 30
0.0
 11
1737.950589756868
 21
161.7795933651906
 31
0.0
  0
LINE
  5
6C2
330
1F
100
AcDbEntity
  8
0
  6
CENTER
100
AcDbLine
 10
1677.021359137858
 20
100.8503627461815
 30
0.0
 11
1677.021359137858
 21
222.7088239841997
 31
0.0
  0
LINE
  5
6C3
330
1F
100
AcDbEntity
  8
0
  6
CENTER
100
AcDbLine
 10
1626.779499657782
 20
140.4531892962805
 30
0.0
 11
1946.205449502783
 21
276.0414606493169
 31
0.0
  0
LINE
  5
6C4
330
1F
100
AcDbEntity
  8
0
  6
CENTER
100
AcDbLine
 10
1360.137824421152
 20
89.86319402526318
 30
0.0
 11
1360.137824421152
 21
342.6409703737223
 31
0.0
  0
LINE
  5
6C5
330
1F
100
AcDbEntity
  8
0
  6
CENTER
100
AcDbLine
 10
1523.840859941929
 20
161.779593365191
 30
0.0
 11
1196.434788900375
 21
161.779593365191
 31
0.0
  0
SPLINE
  5
6C6
330
1F
100
AcDbEntity
  8
0
  6
Continuous
100
AcDbSpline
210
0.0
220
0.0
230
1.0
 70
     8
 71
     3
 72
    20
 73
    16
 74
     0
 42
0.0000000001
 43
0.0000000001
 40
0.5255736325111853
 40
0.5255736325111853
 40
0.5255736325111853
 40
0.5255736325111853
 40
0.8440338776736522
 40
0.8440338776736522
 40
1.164852702947676
 40
1.164852702947676
 40
1.487350388922882
 40
1.487350388922882
 40
1.810560468777499
 40
1.810560468777499
 40
2.133545360562517
 40
2.133545360562517
 40
2.455341047571125
 40
2.455341047571125
 40
2.616019021078612
 40
2.616019021078612
 40
2.616019021078612
 40
2.616019021078612
 10
1431.080857673704
 20
292.3164725033194
 30
0.0
 10
1426.672759457617
 20
299.3126290622022
 30
0.0
 10
1421.058630277618
 20
305.6348328756727
 30
0.0
 10
1407.956163974081
 20
316.3582119722247
 30
0.0
 10
1400.45667830695
 20
320.7438225663928
 30
0.0
 10
1384.327446897327
 20
327.1253312884024
 30
0.0
 10
1375.694334566106
 20
329.1080559642297
 30
0.0
 10
1358.17609812686
 20
330.4568055909872
 30
0.0
 10
1349.292878001219
 20
329.8168944894138
 30
0.0
 10
1332.190218351278
 20
325.9682348344414
 30
0.0
 10
1323.972731208578
 20
322.7615713357255
 30
0.0
 10
1309.057977686238
 20
314.1014489212758
 30
0.0
 10
1302.357640188965
 20
308.6569941275735
 30
0.0
 10
1293.94842957552
 20
299.2061872316704
 30
0.0
 10
1291.418881299744
 20
295.8463581807255
 30
0.0
 10
1289.194791168743
 20
292.316472503319
 30
0.0
  0
LINE
  5
6C7
330
1F
100
AcDbEntity
  8
0
  6
Continuous
100
AcDbLine
 10
1279.137824421176
 20
234.2755654291787
 30
0.0
 11
1279.137824421172
 21
229.5867918873074
 31
0.0
  0
LINE
  5
6C8
330
1F
100
AcDbEntity
  8
0
  6
Continuous
100
AcDbLine
 10
1308.611132309218
 20
261.4058883874237
 30
0.0
 11
1308.611132309214
 21
256.7171148455528
 31
0.0
  0
LINE
  5
6C9
330
1F
100
AcDbEntity
  8
0
  6
Continuous
100
AcDbLine
 10
1441.137824421174
 20
234.2755654291782
 30
0.0
 11
1441.137824421172
 21
229.5867918873074
 31
0.0
  0
LINE
  5
6CA
330
1F
100
AcDbEntity
  8
0
  6
Continuous
100
AcDbLine
 10
1411.664516533123
 20
261.4058883874237
 30
0.0
 11
1411.664516533122
 21
256.7171148455523
 31
0.0
  0
LINE
  5
6CB
330
1F
100
AcDbEntity
  8
0
  6
Continuous
100
AcDbLine
 10
1441.137824421172
 20
229.1960607588181
 30
0.0
 11
1441.137824421172
 21
229.5867918873069
 31
0.0
  0
SPLINE
  5
6CC
330
1F
100
AcDbEntity
  8
0
  6
Continuous
100
AcDbSpline
210
0.0
220
0.0
230
1.0
 70
     8
 71
     3
 72
     8
 73
     4
 74
     0
 42
0.0000000001
 43
0.0000000001
 40
-0.0268635700143866
 40
-0.0268635700143866
 40
-0.0268635700143866
 40
-0.0268635700143866
 40
0.0
 40
0.0
 40
0.0
 40
0.0
 10
1440.951774352069
 20
229.4642143927855
 30
0.0
 10
1441.013789952149
 20
229.5050815921255
 30
0.0
 10
1441.075806683056
 20
229.5459407752092
 30
0.0
 10
1441.137824421172
 20
229.5867918873074
 30
0.0
  0
SPLINE
  5
6CD
330
1F
100
AcDbEntity
  8
0
  6
Continuous
100
AcDbSpline
210
0.0
220
0.0
230
1.0
 70
     8
 71
     3
 72
     8
 73
     4
 74
     0
 42
0.0000000001
 43
0.0000000001
 40
-0.0430264723429812
 40
-0.0430264723429812
 40
-0.0430264723429812
 40
-0.0430264723429812
 40
0.0
 40
0.0
 40
0.0
 40
0.0
 10
1411.577696051913
 20
256.3263837170635
 30
0.0
 10
1411.606659782802
 20
256.4566235945595
 30
0.0
 10
1411.635599952775
 20
256.5868675260472
 30
0.0
 10
1411.664516533122
 20
256.7171148455528
 30
0.0
  0
SPLINE
  5
6CE
330
1F
100
AcDbEntity
  8
0
  6
Continuous
100
AcDbSpline
210
0.0
220
0.0
230
1.0
 70
     8
 71
     3
 72
     8
 73
     4
 74
     0
 42
0.0000000001
 43
0.0000000001
 40
-0.0430264723427793
 40
-0.0430264723427793
 40
-0.0430264723427793
 40
-0.0430264723427793
 40
0.0
 40
0.0
 40
0.0
 40
0.0
 10
1308.697952790423
 20
256.3263837170635
 30
0.0
 10
1308.668989059534
 20
256.4566235945595
 30
0.0
 10
1308.640048889562
 20
256.5868675260481
 30
0.0
 10
1308.611132309214
 20
256.7171148455528
 30
0.0
  0
SPLINE
  5
6CF
330
1F
100
AcDbEntity
  8
0
  6
Continuous
100
AcDbSpline
210
0.0
220
0.0
230
1.0
 70
     8
 71
     3
 72
     8
 73
     4
 74
     0
 42
0.0000000001
 43
0.0000000001
 40
-0.0268635700142329
 40
-0.0268635700142329
 40
-0.0268635700142329
 40
-0.0268635700142329
 40
0.0
 40
0.0
 40
0.0
 40
0.0
 10
1279.323874490276
 20
229.4642143927855
 30
0.0
 10
1279.261858890194
 20
229.5050815921255
 30
0.0
 10
1279.19984215929
 20
229.5459407752097
 30
0.0
 10
1279.137824421172
 20
229.5867918873074
 30
0.0
  0
LINE
  5
6D0
330
1F
100
AcDbEntity
  8
0
  6
Continuous
100
AcDbLine
 10
1279.137824421172
 20
229.5867918873074
 30
0.0
 11
1279.137824421172
 21
229.1960607588181
 31
0.0
  0
ELLIPSE
  5
6D1
330
1F
100
AcDbEntity
  8
0
  6
Continuous
100
AcDbEllipse
 10
1360.137824421178
 20
182.1562217159058
 30
0.0
 11
-95.99999999999951
 21
0.0000000000674849
 31
0.0
210
0.0
220
0.0
230
1.0
 40
0.9205048534524369
 41
5.278953311006532
 42
5.716620976559274
  0
LINE
  5
6D2
330
1F
100
AcDbEntity
  8
0
  6
Continuous
100
AcDbLine
 10
1411.664516533122
 20
256.7171148455523
 30
0.0
 11
1308.611132309214
 21
256.7171148455523
 31
0.0
  0
ELLIPSE
  5
6D3
330
1F
100
AcDbEntity
  8
0
  6
Continuous
100
AcDbEllipse
 10
1360.137824421178
 20
182.1562217159054
 30
0.0
 11
-95.99999999999964
 21
0.0000000000584088
 31
0.0
210
0.0
220
0.0
230
1.0
 40
0.9205048534524365
 41
3.708156984211512
 42
4.145824649764269
  0
ELLIPSE
  5
6D4
330
1F
100
AcDbEntity
  8
0
  6
Continuous
100
AcDbEllipse
 10
1360.137824421181
 20
186.8449952577767
 30
0.0
 11
95.99999999999958
 21
-0.0000000000674072
 31
0.0
210
0.0
220
0.0
230
1.0
 40
0.9205048534524371
 41
0.5665643306218407
 42
1.00423199617458
  0
LINE
  5
6D5
330
1F
100
AcDbEntity
  8
0
  6
Continuous
100
AcDbLine
 10
1308.611132309218
 20
261.4058883874237
 30
0.0
 11
1411.664516533123
 21
261.4058883874237
 31
0.0
  0
ELLIPSE
  5
6D6
330
1F
100
AcDbEntity
  8
0
  6
Continuous
100
AcDbEllipse
 10
1360.13782442118
 20
186.8449952577767
 30
0.0
 11
95.9999999999998
 21
-0.000000000076722
 31
0.0
210
0.0
220
0.0
230
1.0
 40
0.9205048534524365
 41
2.137360657416849
 42
2.5750283229696
  0
LINE
  5
6D7
330
1F
100
AcDbEntity
  8
0
  6
Continuous
100
AcDbLine
 10
1481.612643199306
 20
199.9295933651898
 30
0.0
 11
1441.137824421163
 21
199.9295933651898
 31
0.0
  0
LINE
  5
6D8
330
1F
100
AcDbEntity
  8
0
  6
Continuous
100
AcDbLine
 10
1481.612643199306
 20
123.62959336519
 30
0.0
 11
1441.137824421163
 21
123.62959336519
 31
0.0
  0
LINE
  5
6D9
330
1F
100
AcDbEntity
  8
0
  6
Continuous
100
AcDbLine
 10
1481.612643199306
 20
123.62959336519
 30
0.0
 11
1484.287824421163
 21
116.2795933651901
 31
0.0
  0
LINE
  5
6DA
330
1F
100
AcDbEntity
  8
0
  6
Continuous
100
AcDbLine
 10
1481.612643199306
 20
199.9295933651898
 30
0.0
 11
1484.287824421163
 21
207.2795933651897
 31
0.0
  0
LINE
  5
6DB
330
1F
100
AcDbEntity
  8
0
  6
Continuous
100
AcDbLine
 10
1487.137824421163
 20
207.2795933651897
 30
0.0
 11
1484.287824421163
 21
207.2795933651897
 31
0.0
  0
LINE
  5
6DC
330
1F
100
AcDbEntity
  8
0
  6
Continuous
100
AcDbLine
 10
1487.137824421163
 20
116.2795933651901
 30
0.0
 11
1484.287824421163
 21
116.2795933651901
 31
0.0
  0
LINE
  5
6DD
330
1F
100
AcDbEntity
  8
0
  6
Continuous
100
AcDbLine
 10
1481.612643199306
 20
199.9295933651898
 30
0.0
 11
1481.612643199306
 21
123.6295933651905
 31
0.0
  0
LINE
  5
6DE
330
1F
100
AcDbEntity
  8
0
  6
Continuous
100
AcDbLine
 10
1484.287824421163
 20
207.2795933651897
 30
0.0
 11
1484.287824421163
 21
116.2795933651901
 31
0.0
  0
LINE
  5
6DF
330
1F
100
AcDbEntity
  8
0
  6
Continuous
100
AcDbLine
 10
1487.137824421163
 20
207.2795933651897
 30
0.0
 11
1487.137824421163
 21
116.2795933651901
 31
0.0
  0
LINE
  5
6E0
330
1F
100
AcDbEntity
  8
0
  6
Continuous
100
AcDbLine
 10
1279.137824421163
 20
199.9295933651898
 30
0.0
 11
1238.663005643021
 21
199.9295933651898
 31
0.0
  0
LINE
  5
6E1
330
1F
100
AcDbEntity
  8
0
  6
Continuous
100
AcDbLine
 10
1279.137824421163
 20
123.62959336519
 30
0.0
 11
1238.663005643021
 21
123.62959336519
 31
0.0
  0
LINE
  5
6E2
330
1F
100
AcDbEntity
  8
0
  6
Continuous
100
AcDbLine
 10
1238.663005643021
 20
199.9295933651898
 30
0.0
 11
1235.987824421164
 21
207.2795933651897
 31
0.0
  0
LINE
  5
6E3
330
1F
100
AcDbEntity
  8
0
  6
Continuous
100
AcDbLine
 10
1238.663005643021
 20
123.62959336519
 30
0.0
 11
1235.987824421164
 21
116.2795933651901
 31
0.0
  0
LINE
  5
6E4
330
1F
100
AcDbEntity
  8
0
  6
Continuous
100
AcDbLine
 10
1235.987824421164
 20
207.2795933651897
 30
0.0
 11
1233.137824421163
 21
207.2795933651897
 31
0.0
  0
LINE
  5
6E5
330
1F
100
AcDbEntity
  8
0
  6
Continuous
100
AcDbLine
 10
1235.987824421164
 20
116.2795933651901
 30
0.0
 11
1233.137824421163
 21
116.2795933651901
 31
0.0
  0
LINE
  5
6E6
330
1F
100
AcDbEntity
  8
0
  6
Continuous
100
AcDbLine
 10
1238.663005643021
 20
199.9295933651898
 30
0.0
 11
1238.663005643021
 21
123.6295933651905
 31
0.0
  0
LINE
  5
6E7
330
1F
100
AcDbEntity
  8
0
  6
Continuous
100
AcDbLine
 10
1235.987824421164
 20
207.2795933651897
 30
0.0
 11
1235.987824421164
 21
116.2795933651901
 31
0.0
  0
LINE
  5
6E8
330
1F
100
AcDbEntity
  8
0
  6
Continuous
100
AcDbLine
 10
1233.137824421163
 20
207.2795933651897
 30
0.0
 11
1233.137824421163
 21
116.2795933651901
 31
0.0
  0
LINE
  5
6E9
330
1F
100
AcDbEntity
  8
0
  6
Continuous
100
AcDbLine
 10
1279.137824421156
 20
120.1228964093157
 30
0.0
 11
1319.673722806018
 21
120.1228964093157
 31
0.0
  0
LINE
  5
6EA
330
1F
100
AcDbEntity
  8
0
  6
Continuous
100
AcDbLine
 10
1322.271799017372
 20
120.1228964093157
 30
0.0
 11
1319.673722806018
 21
120.1228964093157
 31
0.0
  0
LINE
  5
6EB
330
1F
100
AcDbEntity
  8
0
  6
Continuous
100
AcDbLine
 10
1322.271799017372
 20
120.1228964093153
 30
0.0
 11
1340.219240134124
 21
120.1228964093153
 31
0.0
  0
LINE
  5
6EC
330
1F
100
AcDbEntity
  8
0
  6
Continuous
100
AcDbLine
 10
1340.219240134124
 20
120.1228964093157
 30
0.0
 11
1380.056408708208
 21
120.1228964093157
 31
0.0
  0
LINE
  5
6ED
330
1F
100
AcDbEntity
  8
0
  6
Continuous
100
AcDbLine
 10
1380.056408708208
 20
120.1228964093157
 30
0.0
 11
1398.00384982494
 21
120.1228964093157
 31
0.0
  0
LINE
  5
6EE
330
1F
100
AcDbEntity
  8
0
  6
Continuous
100
AcDbLine
 10
1400.601926036294
 20
120.1228964093157
 30
0.0
 11
1398.00384982494
 21
120.1228964093157
 31
0.0
  0
LINE
  5
6EF
330
1F
100
AcDbEntity
  8
0
  6
Continuous
100
AcDbLine
 10
1400.601926036294
 20
120.1228964093153
 30
0.0
 11
1441.137824421156
 21
120.1228964093153
 31
0.0
  0
LINE
  5
6F0
330
1F
100
AcDbEntity
  8
0
  6
Continuous
100
AcDbLine
 10
1279.137824421149
 20
169.4513118318651
 30
0.0
 11
1279.137824421149
 21
172.7074803287097
 31
0.0
  0
LINE
  5
6F1
330
1F
100
AcDbEntity
  8
0
  6
Continuous
100
AcDbLine
 10
1279.137824421156
 20
120.1228964093153
 30
0.0
 11
1279.137824421154
 21
121.9507030238479
 31
0.0
  0
LINE
  5
6F2
330
1F
100
AcDbEntity
  8
0
  6
Continuous
100
AcDbLine
 10
1441.137824421154
 20
121.9507030238479
 30
0.0
 11
1441.137824421156
 21
120.1228964093153
 31
0.0
  0
LINE
  5
6F3
330
1F
100
AcDbEntity
  8
0
  6
Continuous
100
AcDbLine
 10
1441.137824421149
 20
172.7074803287097
 30
0.0
 11
1441.137824421149
 21
169.4513118318651
 31
0.0
  0
LINE
  5
6F4
330
1F
100
AcDbEntity
  8
0
  6
Continuous
100
AcDbLine
 10
1315.143665207507
 20
110.2250593004961
 30
0.0
 11
1315.143665207511
 21
115.8906606635906
 31
0.0
  0
LINE
  5
6F5
330
1F
100
AcDbEntity
  8
0
  6
Continuous
100
AcDbLine
 10
1297.143665207507
 20
110.2250593004961
 30
0.0
 11
1297.143665207511
 21
115.8906606635906
 31
0.0
  0
ELLIPSE
  5
6F6
330
1F
100
AcDbEntity
  8
0
  6
Continuous
100
AcDbEllipse
 10
1306.143665207507
 20
110.2250593004961
 30
0.0
 11
-8.999999999999978
 21
0.0
 31
0.0
210
0.0
220
0.0
230
1.0
 40
0.9205048534524369
 41
0.0
 42
6.283185307179586
  0
ELLIPSE
  5
6F7
330
1F
100
AcDbEntity
  8
0
  6
Continuous
100
AcDbEllipse
 10
1306.14366520751
 20
115.8906606635906
 30
0.0
 11
8.999999999999953
 21
-0.0000000000063345
 31
0.0
210
0.0
220
0.0
230
1.0
 40
0.9205048534524369
 41
0.0
 42
0.5361840081461358
  0
ELLIPSE
  5
6F8
330
1F
100
AcDbEntity
  8
0
  6
Continuous
100
AcDbEllipse
 10
1306.143665207512
 20
115.8906606635906
 30
0.0
 11
-9.000000000000142
 21
0.0
 31
0.0
210
0.0
220
0.0
230
1.0
 40
0.9205048534524365
 41
5.74700129903401
 42
6.283185307179319
  0
LINE
  5
6F9
330
1F
100
AcDbEntity
  8
0
  6
Continuous
100
AcDbLine
 10
1405.131983634849
 20
115.8906606635906
 30
0.0
 11
1405.131983634845
 21
110.2250593004961
 31
0.0
  0
LINE
  5
6FA
330
1F
100
AcDbEntity
  8
0
  6
Continuous
100
AcDbLine
 10
1423.131983634849
 20
115.8906606635906
 30
0.0
 11
1423.131983634845
 21
110.2250593004961
 31
0.0
  0
ELLIPSE
  5
6FB
330
1F
100
AcDbEntity
  8
0
  6
Continuous
100
AcDbEllipse
 10
1414.131983634845
 20
110.2250593004961
 30
0.0
 11
8.999999999999978
 21
0.0
 31
0.0
210
0.0
220
0.0
230
1.0
 40
0.9205048534524369
 41
0.0
 42
6.283185307179586
  0
ELLIPSE
  5
6FC
330
1F
100
AcDbEntity
  8
0
  6
Continuous
100
AcDbEllipse
 10
1414.131983634849
 20
115.8906606635906
 30
0.0
 11
9.00000000000009
 21
-0.0000000000063338
 31
0.0
210
0.0
220
0.0
230
1.0
 40
0.9205048534524369
 41
0.0
 42
0.5361840081461358
  0
ELLIPSE
  5
6FD
330
1F
100
AcDbEntity
  8
0
  6
Continuous
100
AcDbEllipse
 10
1414.131983634849
 20
115.8906606635906
 30
0.0
 11
-9.000000000000044
 21
0.0000000000000245
 31
0.0
210
0.0
220
0.0
230
1.0
 40
0.9205048534524367
 41
5.747001299033994
 42
6.283185307179323
  0
LINE
  5
6FE
330
1F
100
AcDbEntity
  8
0
  6
Continuous
100
AcDbLine
 10
1423.131983634831
 20
228.689860779512
 30
0.0
 11
1423.131983634834
 21
234.3554621426065
 31
0.0
  0
LINE
  5
6FF
330
1F
100
AcDbEntity
  8
0
  6
Continuous
100
AcDbLine
 10
1405.131983634831
 20
228.689860779512
 30
0.0
 11
1405.131983634834
 21
234.3554621426065
 31
0.0
  0
LINE
  5
700
330
1F
100
AcDbEntity
  8
0
  6
Continuous
100
AcDbLine
 10
1297.143665207496
 20
234.3554621426065
 30
0.0
 11
1297.143665207492
 21
228.689860779512
 31
0.0
  0
LINE
  5
701
330
1F
100
AcDbEntity
  8
0
  6
Continuous
100
AcDbLine
 10
1315.143665207496
 20
234.3554621426065
 30
0.0
 11
1315.143665207492
 21
228.689860779512
 31
0.0
  0
ELLIPSE
  5
702
330
1F
100
AcDbEntity
  8
0
  6
Continuous
100
AcDbEllipse
 10
1414.131983634831
 20
228.689860779512
 30
0.0
 11
-8.999999999999978
 21
0.0
 31
0.0
210
0.0
220
0.0
230
1.0
 40
0.9205048534524369
 41
0.0
 42
6.283185307179586
  0
ELLIPSE
  5
703
330
1F
100
AcDbEntity
  8
0
  6
Continuous
100
AcDbEllipse
 10
1306.143665207492
 20
228.689860779512
 30
0.0
 11
8.999999999999978
 21
0.0
 31
0.0
210
0.0
220
0.0
230
1.0
 40
0.9205048534524369
 41
0.0
 42
6.283185307179586
  0
ELLIPSE
  5
704
330
1F
100
AcDbEntity
  8
0
  6
Continuous
100
AcDbEllipse
 10
1306.143665207496
 20
234.3554621426065
 30
0.0
 11
-8.999999999999989
 21
-0.0000000000000164
 31
0.0
210
0.0
220
0.0
230
1.0
 40
0.9205048534524367
 41
3.141592653589524
 42
6.283185307179317
  0
ELLIPSE
  5
705
330
1F
100
AcDbEntity
  8
0
  6
Continuous
100
AcDbEllipse
 10
1414.131983634834
 20
234.3554621426065
 30
0.0
 11
-8.999999999999982
 21
0.0
 31
0.0
210
0.0
220
0.0
230
1.0
 40
0.9205048534524367
 41
3.141592653589526
 42
6.283185307179319
  0
LINE
  5
706
330
1F
100
AcDbEntity
  8
0
  6
Continuous
100
AcDbLine
 10
1279.137824421149
 20
169.4513118318651
 30
0.0
 11
1279.137824421154
 21
121.9507030238479
 31
0.0
  0
LINE
  5
707
330
1F
100
AcDbEntity
  8
0
  6
Continuous
100
AcDbLine
 10
1279.137824421156
 20
194.4996885682722
 30
0.0
 11
1279.137824421149
 21
172.7074803287097
 31
0.0
  0
LINE
  5
708
330
1F
100
AcDbEntity
  8
0
  6
Continuous
100
AcDbLine
 10
1441.137824421154
 20
121.9507030238479
 30
0.0
 11
1441.137824421149
 21
169.4513118318647
 31
0.0
  0
LINE
  5
709
330
1F
100
AcDbEntity
  8
0
  6
Continuous
100
AcDbLine
 10
1441.137824421149
 20
172.7074803287097
 30
0.0
 11
1441.137824421156
 21
194.4996885682718
 31
0.0
  0
LINE
  5
70A
330
1F
100
AcDbEntity
  8
0
  6
Continuous
100
AcDbLine
 10
1337.204497144036
 20
230.1232263968814
 30
0.0
 11
1383.071151698298
 21
230.1232263968814
 31
0.0
  0
LINE
  5
70B
330
1F
100
AcDbEntity
  8
0
  6
Continuous
100
AcDbLine
 10
1308.611132309214
 20
256.3263837170635
 30
0.0
 11
1308.611132309211
 21
249.6839545327458
 31
0.0
  0
LINE
  5
70C
330
1F
100
AcDbEntity
  8
0
  6
Continuous
100
AcDbLine
 10
1411.66451653312
 20
256.3263837170635
 30
0.0
 11
1411.664516533116
 21
249.6839545327458
 31
0.0
  0
ELLIPSE
  5
70D
330
1F
100
AcDbEntity
  8
0
  6
Continuous
100
AcDbEllipse
 10
1360.137824421178
 20
181.7654905874161
 30
0.0
 11
-95.99999999999985
 21
0.0000000000675571
 31
0.0
210
0.0
220
0.0
230
1.0
 40
0.9205048534524367
 41
5.27895331100653
 42
5.716620976559273
  0
ELLIPSE
  5
70E
330
1F
100
AcDbEntity
  8
0
  6
Continuous
100
AcDbEllipse
 10
1360.137824421178
 20
181.7654905874161
 30
0.0
 11
-95.99999999999985
 21
0.0000000000584532
 31
0.0
210
0.0
220
0.0
230
1.0
 40
0.9205048534524369
 41
3.708156984211512
 42
4.145824649764268
  0
LINE
  5
70F
330
1F
100
AcDbEntity
  8
0
  6
Continuous
100
AcDbLine
 10
1411.66451653312
 20
256.3263837170635
 30
0.0
 11
1308.611132309214
 21
256.3263837170635
 31
0.0
  0
LINE
  5
710
330
1F
100
AcDbEntity
  8
0
  6
Continuous
100
AcDbLine
 10
1279.137824421172
 20
229.1960607588181
 30
0.0
 11
1279.137824421167
 21
222.5536315745003
 31
0.0
  0
LINE
  5
711
330
1F
100
AcDbEntity
  8
0
  6
Continuous
100
AcDbLine
 10
1441.13782442117
 20
229.1960607588181
 30
0.0
 11
1441.137824421167
 21
222.5536315745003
 31
0.0
  0
ELLIPSE
  5
712
330
1F
100
AcDbEntity
  8
0
  6
Continuous
100
AcDbEllipse
 10
1360.137824421252
 20
175.1230614029842
 30
0.0
 11
-95.99999999985149
 21
0.0000000000767497
 31
0.0
210
0.0
220
0.0
230
1.0
 40
0.9205048534524367
 41
2.137360657416826
 42
2.165824213709914
  0
ELLIPSE
  5
713
330
1F
100
AcDbEntity
  8
0
  6
Continuous
100
AcDbEllipse
 10
1360.137824421173
 20
175.1230614030988
 30
0.0
 11
-96.00000000000036
 21
0.0000000000766109
 31
0.0
210
0.0
220
0.0
230
1.0
 40
0.9205048534524371
 41
2.282899949126131
 42
2.469792686735965
  0
LINE
  5
714
330
1F
100
AcDbEntity
  8
0
  6
Continuous
100
AcDbLine
 10
1411.664516533134
 20
100.5621682734509
 30
0.0
 11
1308.611132309229
 21
100.5621682734509
 31
0.0
  0
ELLIPSE
  5
715
330
1F
100
AcDbEntity
  8
0
  6
Continuous
100
AcDbEllipse
 10
1360.137824421173
 20
175.1230614030984
 30
0.0
 11
-95.99999999999921
 21
0.000000000067607
 31
0.0
210
0.0
220
0.0
230
1.0
 40
0.9205048534524367
 41
0.6717999668554633
 42
0.8586927044652963
  0
ELLIPSE
  5
716
330
1F
100
AcDbEntity
  8
0
  6
Continuous
100
AcDbEllipse
 10
1360.137824421143
 20
175.1230614030565
 30
0.0
 11
-95.99999999994491
 21
0.0000000000675515
 31
0.0
210
0.0
220
0.0
230
1.0
 40
0.9205048534524369
 41
0.9757684398815182
 42
1.004231996174589
  0
LINE
  5
717
330
1F
100
AcDbEntity
  8
0
  6
Continuous
100
AcDbLine
 10
1279.137824421169
 20
212.3114574825768
 30
0.0
 11
1279.137824421167
 21
222.5536315745003
 31
0.0
  0
ELLIPSE
  5
718
330
1F
100
AcDbEntity
  8
0
  6
Continuous
100
AcDbEllipse
 10
1360.137824421173
 20
175.1230614030984
 30
0.0
 11
96.0000000000001
 21
-0.0000000000766553
 31
0.0
210
0.0
220
0.0
230
1.0
 40
0.9205048534524367
 41
2.137360657416845
 42
2.575028322969597
  0
LINE
  5
719
330
1F
100
AcDbEntity
  8
0
  6
Continuous
100
AcDbLine
 10
1308.611132309211
 20
249.6839545327458
 30
0.0
 11
1411.664516533116
 21
249.6839545327458
 31
0.0
  0
ELLIPSE
  5
71A
330
1F
100
AcDbEntity
  8
0
  6
Continuous
100
AcDbEllipse
 10
1360.137824421173
 20
175.1230614030984
 30
0.0
 11
96.0000000000001
 21
-0.0000000000675626
 31
0.0
210
0.0
220
0.0
230
1.0
 40
0.9205048534524367
 41
0.5665643306218433
 42
1.004231996174581
  0
LINE
  5
71B
330
1F
100
AcDbEntity
  8
0
  6
Continuous
100
AcDbLine
 10
1441.137824421167
 20
222.5536315745003
 30
0.0
 11
1441.137824421167
 21
212.3114574825768
 31
0.0
  0
LINE
  5
71C
330
1F
100
AcDbEntity
  8
0
  6
Continuous
100
AcDbLine
 10
1441.137824421167
 20
212.3114574825764
 30
0.0
 11
1441.137824421156
 21
194.4996885682722
 31
0.0
  0
LINE
  5
71D
330
1F
100
AcDbEntity
  8
0
  6
Continuous
100
AcDbLine
 10
1441.137824421156
 20
194.4996885682722
 30
0.0
 11
1414.321216710675
 21
194.4996885682722
 31
0.0
  0
LINE
  5
71E
330
1F
100
AcDbEntity
  8
0
  6
Continuous
100
AcDbLine
 10
1305.954432131636
 20
194.4996885682722
 30
0.0
 11
1279.137824421156
 21
194.4996885682722
 31
0.0
  0
LINE
  5
71F
330
1F
100
AcDbEntity
  8
0
  6
Continuous
100
AcDbLine
 10
1279.137824421156
 20
194.4996885682722
 30
0.0
 11
1279.137824421169
 21
212.3114574825768
 31
0.0
  0
ELLIPSE
  5
720
330
1F
100
AcDbEntity
  8
0
  6
Continuous
100
AcDbEllipse
 10
1360.137824421134
 20
120.1228964093157
 30
0.0
 11
-0.0000000000338255
 21
-117.8246212419116
 31
0.0
210
0.0
220
0.0
230
1.0
 40
0.5431801887026503
 41
3.508074616430313
 42
3.963150890496171
  0
ELLIPSE
  5
721
330
1F
100
AcDbEntity
  8
0
  6
Continuous
100
AcDbEllipse
 10
1360.137824421173
 20
175.1230614030988
 30
0.0
 11
63.99999999999981
 21
-0.000000000051148
 31
0.0
210
0.0
220
0.0
230
1.0
 40
0.9205048534524367
 41
1.937278289637246
 42
2.392354563702838
  0
LINE
  5
722
330
1F
100
AcDbEntity
  8
0
  6
Continuous
100
AcDbLine
 10
1279.137824421169
 20
212.3114574825768
 30
0.0
 11
1305.954432131648
 21
212.3114574825768
 31
0.0
  0
LINE
  5
723
330
1F
100
AcDbEntity
  8
0
  6
Continuous
100
AcDbLine
 10
1441.137824421167
 20
212.3114574825764
 30
0.0
 11
1414.321216710687
 21
212.3114574825764
 31
0.0
  0
ELLIPSE
  5
724
330
1F
100
AcDbEntity
  8
0
  6
Continuous
100
AcDbEllipse
 10
1360.137824421134
 20
120.1228964093157
 30
0.0
 11
-0.0000000000338255
 21
-117.8246212419116
 31
0.0
210
0.0
220
0.0
230
1.0
 40
0.5431801887026503
 41
2.320034416682037
 42
2.775110690747336
  0
ELLIPSE
  5
725
330
1F
100
AcDbEntity
  8
0
  6
Continuous
100
AcDbEllipse
 10
1360.137824421173
 20
175.1230614030988
 30
0.0
 11
-63.99999999999984
 21
0.0000000000389522
 31
0.0
210
0.0
220
0.0
230
1.0
 40
0.9205048534524365
 41
3.890830743478283
 42
4.345907017543867
  0
ELLIPSE
  5
726
330
1F
100
AcDbEntity
  8
0
  6
Continuous
100
AcDbEllipse
 10
1305.954432131641
 20
212.909785637321
 30
0.0
 11
-0.0000000000052847
 21
-18.41009706904868
 31
0.0
210
0.0
220
0.0
230
1.0
 40
0.5431801887026503
 41
0.0
 42
0.8215582369063696
  0
ELLIPSE
  5
727
330
1F
100
AcDbEntity
  8
0
  6
Continuous
100
AcDbEllipse
 10
1305.954432131647
 20
221.5165060171012
 30
0.0
 11
10.00000000000002
 21
0.0000000000000164
 31
0.0
210
0.0
220
0.0
230
1.0
 40
0.9205048534524367
 41
4.712388980384901
 42
5.53394721729183
  0
ELLIPSE
  5
728
330
1F
100
AcDbEntity
  8
0
  6
Continuous
100
AcDbEllipse
 10
1414.32121671068
 20
212.909785637321
 30
0.0
 11
-0.0000000000052858
 21
-18.41009706904868
 31
0.0
210
0.0
220
0.0
230
1.0
 40
0.5431801887026503
 41
5.461627070271825
 42
6.28318530717852
  0
ELLIPSE
  5
729
330
1F
100
AcDbEntity
  8
0
  6
Continuous
100
AcDbEllipse
 10
1414.321216710687
 20
221.5165060171012
 30
0.0
 11
10.00000000000003
 21
-0.000000000006091
 31
0.0
210
0.0
220
0.0
230
1.0
 40
0.9205048534524365
 41
3.890830743478304
 42
4.712388980385392
  0
LINE
  5
72A
330
1F
100
AcDbEntity
  8
0
  6
Continuous
100
AcDbLine
 10
1267.637824421209
 20
225.4277193759886
 30
0.0
 11
1267.637824421192
 21
203.5487510006924
 31
0.0
  0
LINE
  5
72B
330
1F
100
AcDbEntity
  8
0
  6
Continuous
100
AcDbLine
 10
1452.637824421209
 20
225.4277193759886
 30
0.0
 11
1452.637824421192
 21
203.5487510006934
 31
0.0
  0
LINE
  5
72C
330
1F
100
AcDbEntity
  8
0
  6
Continuous
100
AcDbLine
 10
1289.194791168746
 20
292.3164725033249
 30
0.0
 11
1280.121967855681
 21
277.9168631439998
 31
0.0
  0
LINE
  5
72D
330
1F
100
AcDbEntity
  8
0
  6
Continuous
100
AcDbLine
 10
1431.0808576737
 20
292.3164725033249
 30
0.0
 11
1440.153680986738
 21
277.9168631439998
 31
0.0
  0
ELLIPSE
  5
72E
330
1F
100
AcDbEntity
  8
0
  6
Continuous
100
AcDbEllipse
 10
1360.137824421193
 20
203.5487510006929
 30
0.0
 11
-92.49999999999969
 21
0.0000000000650979
 31
0.0
210
0.0
220
0.0
230
1.0
 40
0.9205048534524371
 41
4.502974954982121
 42
4.921803005788785
  0
ELLIPSE
  5
72F
330
1F
100
AcDbEntity
  8
0
  6
Continuous
100
AcDbEllipse
 10
1360.137824421193
 20
203.5487510006929
 30
0.0
 11
-92.49999999999969
 21
0.0000000000651201
 31
0.0
210
0.0
220
0.0
230
1.0
 40
0.9205048534524371
 41
5.288373118379567
 42
5.70720116918623
  0
ELLIPSE
  5
730
330
1F
100
AcDbEntity
  8
0
  6
Continuous
100
AcDbEllipse
 10
1360.137824421193
 20
203.5487510006929
 30
0.0
 11
-92.49999999999944
 21
0.0000000000651146
 31
0.0
210
0.0
220
0.0
230
1.0
 40
0.9205048534524365
 41
6.073771281777014
 42
6.325703083433088
  0
ELLIPSE
  5
731
330
1F
100
AcDbEntity
  8
0
  6
Continuous
100
AcDbEllipse
 10
1360.137824421193
 20
203.5487510006929
 30
0.0
 11
92.50000000000028
 21
-0.0000000000650834
 31
0.0
210
0.0
220
0.0
230
1.0
 40
0.9205048534524367
 41
6.240667530927616
 42
6.492599332583684
  0
ELLIPSE
  5
732
330
1F
100
AcDbEntity
  8
0
  6
Continuous
100
AcDbEllipse
 10
1360.137824421193
 20
203.5487510006929
 30
0.0
 11
-92.49999999999998
 21
0.0000000000562161
 31
0.0
210
0.0
220
0.0
230
1.0
 40
0.9205048534524367
 41
3.717576791584551
 42
4.13640484239123
  0
ELLIPSE
  5
733
330
1F
100
AcDbEntity
  8
0
  6
Continuous
100
AcDbEllipse
 10
1360.137824421214
 20
235.197972408324
 30
0.0
 11
92.49999999999978
 21
-0.0000000000650924
 31
0.0
210
0.0
220
0.0
230
1.0
 40
0.9205048534524365
 41
0.3376203183244792
 42
2.803972335266842
  0
LINE
  5
734
330
1F
100
AcDbEntity
  8
0
  6
Continuous
100
AcDbLine
 10
1458.525777672316
 20
238.7749466834831
 30
0.0
 11
1458.525777672327
 21
254.1912598703357
 31
0.0
  0
LINE
  5
735
330
1F
100
AcDbEntity
  8
0
  6
Continuous
100
AcDbLine
 10
1261.74987117006
 20
238.7749466834831
 30
0.0
 11
1261.749871170071
 21
254.1912598703353
 31
0.0
  0
ELLIPSE
  5
736
330
1F
100
AcDbEntity
  8
0
  6
Continuous
100
AcDbEllipse
 10
1452.525777672316
 20
238.7749466834831
 30
0.0
 11
6.00000000000001
 21
-0.0000000000042234
 31
0.0
210
0.0
220
0.0
230
1.0
 40
0.9205048534524367
 41
5.864306286701702
 42
7.487462491056414
  0
LINE
  5
737
330
1F
100
AcDbEntity
  8
0
  6
Continuous
100
AcDbLine
 10
1450.616967579754
 20
221.2496226089639
 30
0.0
 11
1458.007050418174
 21
236.5285283593135
 31
0.0
  0
ELLIPSE
  5
738
330
1F
100
AcDbEntity
  8
0
  6
Continuous
100
AcDbEllipse
 10
1398.406167657692
 20
288.5923103688938
 30
0.0
 11
6.000000000000002
 21
-0.0000000000042223
 31
0.0
210
0.0
220
0.0
230
1.0
 40
0.9205048534524367
 41
0.3665191429195843
 42
1.989675347274326
  0
LINE
  5
739
330
1F
100
AcDbEntity
  8
0
  6
Continuous
100
AcDbLine
 10
1410.51891218155
 20
293.3219625395478
 30
0.0
 11
1410.518912181537
 21
274.9575995005522
 31
0.0
  0
LINE
  5
73A
330
1F
100
AcDbEntity
  8
0
  6
Continuous
100
AcDbLine
 10
1410.518912181537
 20
274.9575995005522
 30
0.0
 11
1404.007650216673
 21
290.5715869901629
 31
0.0
  0
LINE
  5
73B
330
1F
100
AcDbEntity
  8
0
  6
Continuous
100
AcDbLine
 10
1340.90829886043
 20
305.1996044533645
 30
0.0
 11
1340.908298860419
 21
286.8352414143688
 31
0.0
  0
LINE
  5
73C
330
1F
100
AcDbEntity
  8
0
  6
Continuous
100
AcDbLine
 10
1340.908298860419
 20
286.8352414143688
 30
0.0
 11
1324.309901043128
 21
293.6378485345504
 31
0.0
  0
LINE
  5
73D
330
1F
100
AcDbEntity
  8
0
  6
Continuous
100
AcDbLine
 10
1282.562080814815
 20
268.2891498453065
 30
0.0
 11
1282.562080814802
 21
249.9247868063108
 31
0.0
  0
LINE
  5
73E
330
1F
100
AcDbEntity
  8
0
  6
Continuous
100
AcDbLine
 10
1282.562080814802
 20
249.9247868063108
 30
0.0
 11
1265.599663472788
 21
243.9311385655561
 31
0.0
  0
LINE
  5
73F
330
1F
100
AcDbEntity
  8
0
  6
Continuous
100
AcDbLine
 10
1262.268598424204
 20
236.528528359314
 30
0.0
 11
1269.658681262625
 21
221.2496226089639
 31
0.0
  0
ELLIPSE
  5
740
330
1F
100
AcDbEntity
  8
0
  6
Continuous
100
AcDbEllipse
 10
1267.74987117006
 20
238.7749466834831
 30
0.0
 11
-6.000000000000002
 21
0.0000000000042227
 31
0.0
210
0.0
220
0.0
230
1.0
 40
0.9205048534524369
 41
5.07890812330425
 42
6.702064327658949
  0
LINE
  5
741
330
1F
100
AcDbEntity
  8
0
  6
Continuous
100
AcDbLine
 10
1454.675985369588
 20
243.9311385655561
 30
0.0
 11
1437.713568027572
 21
249.9247868063108
 31
0.0
  0
LINE
  5
742
330
1F
100
AcDbEntity
  8
0
  6
Continuous
100
AcDbLine
 10
1437.713568027572
 20
249.9247868063108
 30
0.0
 11
1437.713568027585
 21
268.2891498453065
 31
0.0
  0
LINE
  5
743
330
1F
100
AcDbEntity
  8
0
  6
Continuous
100
AcDbLine
 10
1316.26799862569
 20
290.5715869901629
 30
0.0
 11
1309.75673666083
 21
274.9575995005526
 31
0.0
  0
LINE
  5
744
330
1F
100
AcDbEntity
  8
0
  6
Continuous
100
AcDbLine
 10
1309.75673666083
 20
274.9575995005526
 30
0.0
 11
1309.756736660844
 21
293.3219625395482
 31
0.0
  0
ELLIPSE
  5
745
330
1F
100
AcDbEntity
  8
0
  6
Continuous
100
AcDbEllipse
 10
1321.869481184673
 20
288.5923103688938
 30
0.0
 11
-6.000000000000012
 21
0.0000000000036554
 31
0.0
210
0.0
220
0.0
230
1.0
 40
0.9205048534524365
 41
4.293509959906744
 42
5.916666164261405
  0
LINE
  5
746
330
1F
100
AcDbEntity
  8
0
  6
Continuous
100
AcDbLine
 10
1395.965747799236
 20
293.6378485345504
 30
0.0
 11
1379.367349981946
 21
286.8352414143688
 31
0.0
  0
LINE
  5
747
330
1F
100
AcDbEntity
  8
0
  6
Continuous
100
AcDbLine
 10
1379.367349981946
 20
286.8352414143688
 30
0.0
 11
1379.367349981958
 21
305.1996044533645
 31
0.0
  0
SPLINE
  5
748
330
1F
100
AcDbEntity
  8
0
  6
Continuous
100
AcDbSpline
210
0.0
220
0.0
230
1.0
 70
    12
 71
     2
 72
     6
 73
     3
 74
     0
 42
0.0000000001
 43
0.0000000001
 40
0.0
 40
0.0
 40
0.0
 40
2.028228737672955
 40
2.028228737672955
 40
2.028228737672955
 10
1410.51891218155
 20
293.3219625395478
 30
0.0
 41
1.0
 10
1407.457258343355
 20
299.5310139445702
 30
0.0
 41
1.006852855008617
 10
1404.007650216684
 20
306.2918152547105
 30
0.0
 41
1.005104936193821
  0
SPLINE
  5
749
330
1F
100
AcDbEntity
  8
0
  6
Continuous
100
AcDbSpline
210
0.0
220
0.0
230
1.0
 70
     8
 71
     3
 72
    14
 73
    10
 74
     0
 42
0.0000000001
 43
0.0000000001
 40
0.5302283687096684
 40
0.5302283687096684
 40
0.5302283687096684
 40
0.5302283687096684
 40
0.7705741176297878
 40
0.7705741176297878
 40
1.013400618476665
 40
1.013400618476665
 40
1.256227119323542
 40
1.256227119323542
 40
1.496572868243662
 40
1.496572868243662
 40
1.496572868243662
 40
1.496572868243662
 10
1395.965747799246
 20
309.3580767990975
 30
0.0
 10
1396.645801094192
 20
309.5199074242374
 30
0.0
 10
1397.449802563537
 20
309.5955720850671
 30
0.0
 10
1399.10386499324
 20
309.4868769994314
 30
0.0
 10
1399.954460138279
 20
309.298967681285
 30
0.0
 10
1401.450076365504
 20
308.7287107588982
 30
0.0
 10
1402.167499933056
 20
308.3187571299805
 30
0.0
 10
1403.311053054577
 20
307.3607617069002
 30
0.0
 10
1403.74087717014
 20
306.8146571243825
 30
0.0
 10
1404.007650216684
 20
306.2918152547105
 30
0.0
  0
SPLINE
  5
74A
330
1F
100
AcDbEntity
  8
0
  6
Continuous
100
AcDbSpline
210
0.0
220
0.0
230
1.0
 70
    12
 71
     2
 72
     6
 73
     3
 74
     0
 42
0.0000000001
 43
0.0000000001
 40
1.203842643101298
 40
1.203842643101298
 40
1.203842643101298
 40
3.232071380774219
 40
3.232071380774219
 40
3.232071380774219
 10
1395.965747799246
 20
309.3580767990975
 30
0.0
 41
1.005104936193812
 10
1387.172065666781
 20
307.2654656944183
 30
0.0
 41
1.006852855008605
 10
1379.367349981958
 20
305.1996044533649
 30
0.0
 41
1.0
  0
SPLINE
  5
74B
330
1F
100
AcDbEntity
  8
0
  6
Continuous
100
AcDbSpline
210
0.0
220
0.0
230
1.0
 70
     8
 71
     3
 72
    12
 73
     8
 74
     0
 42
0.0000000001
 43
0.0000000001
 40
0.5302283687096675
 40
0.5302283687096675
 40
0.5302283687096675
 40
0.5302283687096675
 40
0.7705741176297892
 40
0.7705741176297892
 40
1.013400618476665
 40
1.013400618476665
 40
1.24323392333931
 40
1.24323392333931
 40
1.24323392333931
 40
1.24323392333931
 10
1454.675985369599
 20
259.6513668301037
 30
0.0
 10
1455.370952915905
 20
259.2889218162946
 30
0.0
 10
1456.078158582456
 20
258.7883849658561
 30
0.0
 10
1457.273802982033
 20
257.5931377175817
 30
0.0
 10
1457.759302604684
 20
256.8957947115883
 30
0.0
 10
1458.36223286065
 20
255.5559056366606
 30
0.0
 10
1458.524834667111
 20
254.8527187035893
 30
0.0
 10
1458.525700097055
 20
254.191280857082
 30
0.0
  0
SPLINE
  5
74C
330
1F
100
AcDbEntity
  8
0
  6
Continuous
100
AcDbSpline
210
0.0
220
0.0
230
1.0
 70
    12
 71
     2
 72
     6
 73
     3
 74
     0
 42
0.0000000001
 43
0.0000000001
 40
1.203842643101268
 40
1.203842643101268
 40
1.203842643101268
 40
3.232071380774218
 40
3.232071380774218
 40
3.232071380774218
 10
1454.675985369599
 20
259.6513668301037
 30
0.0
 41
1.005104936193854
 10
1445.689448961336
 20
264.3380969226047
 30
0.0
 41
1.006852855008661
 10
1437.713568027585
 20
268.2891498453065
 30
0.0
 41
1.0
  0
SPLINE
  5
74D
330
1F
100
AcDbEntity
  8
0
  6
Continuous
100
AcDbSpline
210
0.0
220
0.0
230
1.0
 70
     8
 71
     3
 72
    14
 73
    10
 74
     0
 42
0.0000000001
 43
0.0000000001
 40
0.5302283687096655
 40
0.5302283687096655
 40
0.5302283687096655
 40
0.5302283687096655
 40
0.7705741176297893
 40
0.7705741176297893
 40
1.013400618476665
 40
1.013400618476665
 40
1.256227119323543
 40
1.256227119323543
 40
1.496572868243664
 40
1.496572868243664
 40
1.496572868243664
 40
1.496572868243664
 10
1316.267998625701
 20
306.2918152547105
 30
0.0
 10
1316.534771672245
 20
306.8146571243825
 30
0.0
 10
1316.964595787808
 20
307.3607617069002
 30
0.0
 10
1318.108148909329
 20
308.3187571299805
 30
0.0
 10
1318.825572476881
 20
308.7287107588982
 30
0.0
 10
1320.321188704106
 20
309.298967681285
 30
0.0
 10
1321.171783849145
 20
309.4868769994314
 30
0.0
 10
1322.825846278846
 20
309.5955720850676
 30
0.0
 10
1323.629847748191
 20
309.5199074242374
 30
0.0
 10
1324.309901043138
 20
309.3580767990975
 30
0.0
  0
SPLINE
  5
74E
330
1F
100
AcDbEntity
  8
0
  6
Continuous
100
AcDbSpline
210
0.0
220
0.0
230
1.0
 70
    12
 71
     2
 72
     6
 73
     3
 74
     0
 42
0.0000000001
 43
0.0000000001
 40
1.203842643101288
 40
1.203842643101288
 40
1.203842643101288
 40
3.232071380774218
 40
3.232071380774218
 40
3.232071380774218
 10
1316.267998625701
 20
306.2918152547105
 30
0.0
 41
1.005104936193822
 10
1312.818390499035
 20
299.5310139445706
 30
0.0
 41
1.006852855008618
 10
1309.756736660844
 20
293.3219625395478
 30
0.0
 41
1.0
  0
SPLINE
  5
74F
330
1F
100
AcDbEntity
  8
0
  6
Continuous
100
AcDbSpline
210
0.0
220
0.0
230
1.0
 70
    12
 71
     2
 72
     6
 73
     3
 74
     0
 42
0.0000000001
 43
0.0000000001
 40
0.0
 40
0.0
 40
0.0
 40
2.028228737672935
 40
2.028228737672935
 40
2.028228737672935
 10
1340.90829886043
 20
305.1996044533649
 30
0.0
 41
1.0
 10
1333.103583175606
 20
307.2654656944183
 30
0.0
 41
1.006852855008602
 10
1324.309901043138
 20
309.3580767990975
 30
0.0
 41
1.00510493619381
  0
SPLINE
  5
750
330
1F
100
AcDbEntity
  8
0
  6
Continuous
100
AcDbSpline
210
0.0
220
0.0
230
1.0
 70
     8
 71
     3
 72
    12
 73
     8
 74
     0
 42
0.0000000001
 43
0.0000000001
 40
0.7835673136140152
 40
0.7835673136140152
 40
0.7835673136140152
 40
0.7835673136140152
 40
1.013400618476665
 40
1.013400618476665
 40
1.256227119323542
 40
1.256227119323542
 40
1.496572868243663
 40
1.496572868243663
 40
1.496572868243663
 40
1.496572868243663
 10
1261.749948745341
 20
254.191280857082
 30
0.0
 10
1261.750814175287
 20
254.8527187035898
 30
0.0
 10
1261.913415981746
 20
255.5559056366611
 30
0.0
 10
1262.516346237714
 20
256.8957947115883
 30
0.0
 10
1263.001845860365
 20
257.5931377175817
 30
0.0
 10
1264.19749025994
 20
258.7883849658566
 30
0.0
 10
1264.904695926491
 20
259.2889218162946
 30
0.0
 10
1265.599663472799
 20
259.6513668301037
 30
0.0
  0
SPLINE
  5
751
330
1F
100
AcDbEntity
  8
0
  6
Continuous
100
AcDbSpline
210
0.0
220
0.0
230
1.0
 70
    12
 71
     2
 72
     6
 73
     3
 74
     0
 42
0.0000000001
 43
0.0000000001
 40
0.0
 40
0.0
 40
0.0
 40
2.028228737672955
 40
2.028228737672955
 40
2.028228737672955
 10
1282.562080814815
 20
268.2891498453065
 30
0.0
 41
1.0
 10
1274.586199881062
 20
264.3380969226051
 30
0.0
 41
1.006852855008617
 10
1265.599663472799
 20
259.6513668301037
 30
0.0
 41
1.005104936193821
  0
SPLINE
  5
752
330
1F
100
AcDbEntity
  8
0
  6
Continuous
100
AcDbSpline
210
0.0
220
0.0
230
1.0
 70
     8
 71
     3
 72
    20
 73
    16
 74
     0
 42
0.0000000001
 43
0.0000000001
 40
0.5255736325111853
 40
0.5255736325111853
 40
0.5255736325111853
 40
0.5255736325111853
 40
0.8440338776736522
 40
0.8440338776736522
 40
1.164852702947676
 40
1.164852702947676
 40
1.487350388922882
 40
1.487350388922882
 40
1.810560468777499
 40
1.810560468777499
 40
2.133545360562517
 40
2.133545360562517
 40
2.455341047571125
 40
2.455341047571125
 40
2.616019021078612
 40
2.616019021078612
 40
2.616019021078612
 40
2.616019021078612
 10
2140.156946757378
 20
292.3164725033194
 30
0.0
 10
2144.565044973463
 20
299.3126290622022
 30
0.0
 10
2150.17917415346
 20
305.6348328756727
 30
0.0
 10
2163.281640456995
 20
316.3582119722247
 30
0.0
 10
2170.781126124125
 20
320.7438225663928
 30
0.0
 10
2186.910357533747
 20
327.1253312884024
 30
0.0
 10
2195.543469864968
 20
329.1080559642297
 30
0.0
 10
2213.061706304214
 20
330.4568055909872
 30
0.0
 10
2221.944926429855
 20
329.8168944894138
 30
0.0
 10
2239.047586079796
 20
325.9682348344414
 30
0.0
 10
2247.265073222496
 20
322.7615713357255
 30
0.0
 10
2262.179826744838
 20
314.1014489212758
 30
0.0
 10
2268.880164242113
 20
308.6569941275735
 30
0.0
 10
2277.28937485556
 20
299.2061872316704
 30
0.0
 10
2279.818923131336
 20
295.8463581807255
 30
0.0
 10
2282.043013262339
 20
292.316472503319
 30
0.0
  0
LINE
  5
753
330
1F
100
AcDbEntity
  8
0
  6
Continuous
100
AcDbLine
 10
2262.626672121779
 20
112.2841021281293
 30
0.0
 11
2262.626672121775
 21
107.5953285862579
 31
0.0
  0
LINE
  5
754
330
1F
100
AcDbEntity
  8
0
  6
Continuous
100
AcDbLine
 10
2159.573287897873
 20
112.2841021281293
 30
0.0
 11
2159.573287897869
 21
107.5953285862579
 31
0.0
  0
LINE
  5
755
330
1F
100
AcDbEntity
  8
0
  6
Continuous
100
AcDbLine
 10
2130.099980009822
 20
139.4144250863747
 30
0.0
 11
2130.099980009819
 21
134.7256515445029
 31
0.0
  0
LINE
  5
756
330
1F
100
AcDbEntity
  8
0
  6
Continuous
100
AcDbLine
 10
2292.09998000982
 20
139.4144250863747
 30
0.0
 11
2292.099980009818
 21
134.7256515445034
 31
0.0
  0
ELLIPSE
  5
757
330
1F
100
AcDbEntity
  8
0
  6
Continuous
100
AcDbEllipse
 10
2211.099980009813
 20
182.1562217159054
 30
0.0
 11
-95.99999999999971
 21
0.0000000000666078
 31
0.0
210
0.0
220
0.0
230
1.0
 40
0.9205048534524369
 41
0.5665643306218318
 42
1.004231996174572
  0
ELLIPSE
  5
758
330
1F
100
AcDbEntity
  8
0
  6
Continuous
100
AcDbEllipse
 10
2211.099980009813
 20
182.1562217159054
 30
0.0
 11
-96.0
 21
0.0000000000757727
 31
0.0
210
0.0
220
0.0
230
1.0
 40
0.9205048534524369
 41
2.137360657416833
 42
2.575028322969586
  0
LINE
  5
759
330
1F
100
AcDbEntity
  8
0
  6
Continuous
100
AcDbLine
 10
2262.626672121775
 20
107.5953285862584
 30
0.0
 11
2159.573287897869
 21
107.5953285862579
 31
0.0
  0
LINE
  5
75A
330
1F
100
AcDbEntity
  8
0
  6
Continuous
100
AcDbLine
 10
2131.099980009822
 20
140.0738868204958
 30
0.0
 11
2131.099980009821
 21
158.029323057961
 31
0.0
  0
LINE
  5
75B
330
1F
100
AcDbEntity
  8
0
  6
Continuous
100
AcDbLine
 10
2130.09998000982
 20
158.382671765277
 30
0.0
 11
2130.099980009822
 21
139.4144250863747
 31
0.0
  0
ELLIPSE
  5
75C
330
1F
100
AcDbEntity
  8
0
  6
Continuous
100
AcDbEllipse
 10
2211.099980009817
 20
187.2357263862655
 30
0.0
 11
-94.99999999999948
 21
0.0000000000750122
 31
0.0
210
0.0
220
0.0
230
1.0
 40
0.9205048534524369
 41
2.140417645868684
 42
2.571971334517732
  0
ELLIPSE
  5
75D
330
1F
100
AcDbEntity
  8
0
  6
Continuous
100
AcDbEllipse
 10
2211.099980009817
 20
186.8449952577767
 30
0.0
 11
96.00000000000004
 21
-0.0000000000666245
 31
0.0
210
0.0
220
0.0
230
1.0
 40
0.9205048534524365
 41
5.278953311006523
 42
5.716620976559263
  0
SPLINE
  5
75E
330
1F
100
AcDbEntity
  8
0
  6
Continuous
100
AcDbSpline
210
0.0
220
0.0
230
1.0
 70
     8
 71
     3
 72
     8
 73
     4
 74
     0
 42
0.0000000001
 43
0.0000000001
 40
-0.1444018654038078
 40
-0.1444018654038078
 40
-0.1444018654038078
 40
-0.1444018654038078
 40
0.0
 40
0.0
 40
0.0
 40
0.0
 10
2291.09998000982
 20
140.0738868204958
 30
0.0
 10
2291.433271440463
 20
139.8538387009395
 30
0.0
 10
2291.766611173609
 20
139.6340152893004
 30
0.0
 10
2292.09998000982
 20
139.4144250863747
 30
0.0
  0
LINE
  5
75F
330
1F
100
AcDbEntity
  8
0
  6
Continuous
100
AcDbLine
 10
2291.09998000982
 20
158.0293230579615
 30
0.0
 11
2291.09998000982
 21
140.0738868204958
 31
0.0
  0
LINE
  5
760
330
1F
100
AcDbEntity
  8
0
  6
Continuous
100
AcDbLine
 10
2292.09998000982
 20
139.4144250863747
 30
0.0
 11
2292.09998000982
 21
158.382671765277
 31
0.0
  0
LINE
  5
761
330
1F
100
AcDbEntity
  8
0
  6
Continuous
100
AcDbLine
 10
2170.083941857675
 20
113.5953381100713
 30
0.0
 11
2159.865226180027
 21
113.5953381100713
 31
0.0
  0
LINE
  5
762
330
1F
100
AcDbEntity
  8
0
  6
Continuous
100
AcDbLine
 10
2246.596832131475
 20
113.5953381100713
 30
0.0
 11
2175.603127888177
 21
113.5953381100713
 31
0.0
  0
LINE
  5
763
330
1F
100
AcDbEntity
  8
0
  6
Continuous
100
AcDbLine
 10
2262.334733839624
 20
113.5953381100713
 30
0.0
 11
2252.116018161977
 21
113.5953381100713
 31
0.0
  0
SPLINE
  5
764
330
1F
100
AcDbEntity
  8
0
  6
Continuous
100
AcDbSpline
210
0.0
220
0.0
230
1.0
 70
     8
 71
     3
 72
     8
 73
     4
 74
     0
 42
0.0000000001
 43
0.0000000001
 40
-0.1444018675915859
 40
-0.1444018675915859
 40
-0.1444018675915859
 40
-0.1444018675915859
 40
0.0
 40
0.0
 40
0.0
 40
0.0
 10
2262.626672121779
 20
112.2841021281293
 30
0.0
 10
2262.529624701533
 20
112.7212273414339
 30
0.0
 10
2262.432311579066
 20
113.1583143937438
 30
0.0
 10
2262.334733839624
 20
113.5953381100713
 30
0.0
  0
LINE
  5
765
330
1F
100
AcDbEntity
  8
0
  6
Continuous
100
AcDbLine
 10
2159.573287897873
 20
112.2841021281293
 30
0.0
 11
2262.626672121779
 21
112.2841021281293
 31
0.0
  0
SPLINE
  5
766
330
1F
100
AcDbEntity
  8
0
  6
Continuous
100
AcDbSpline
210
0.0
220
0.0
230
1.0
 70
     8
 71
     3
 72
     8
 73
     4
 74
     0
 42
0.0000000001
 43
0.0000000001
 40
-0.1444018675898508
 40
-0.1444018675898508
 40
-0.1444018675898508
 40
-0.1444018675898508
 40
0.0
 40
0.0
 40
0.0
 40
0.0
 10
2130.099980009822
 20
139.4144250863747
 30
0.0
 10
2130.433348846046
 20
139.6340152893086
 30
0.0
 10
2130.766688579186
 20
139.8538387009435
 30
0.0
 10
2131.099980009822
 20
140.0738868204963
 30
0.0
  0
ELLIPSE
  5
767
330
1F
100
AcDbEntity
  8
0
  6
Continuous
100
AcDbEllipse
 10
2211.099980009817
 20
187.2357263862664
 30
0.0
 11
-95.00000000000017
 21
0.0000000000660472
 31
0.0
210
0.0
220
0.0
230
1.0
 40
0.9205048534524367
 41
0.5696213190736872
 42
1.001175007722721
  0
SPLINE
  5
768
330
1F
100
AcDbEntity
  8
0
  6
Continuous
100
AcDbSpline
210
0.0
220
0.0
230
1.0
 70
     8
 71
     3
 72
     8
 73
     4
 74
     0
 42
0.0000000001
 43
0.0000000001
 40
-0.1444018675929625
 40
-0.1444018675929625
 40
-0.1444018675929625
 40
-0.1444018675929625
 40
0.0
 40
0.0
 40
0.0
 40
0.0
 10
2159.573287897873
 20
112.2841021281293
 30
0.0
 10
2159.670335318117
 20
112.7212273414253
 30
0.0
 10
2159.767648440584
 20
113.1583143937392
 30
0.0
 10
2159.865226180027
 20
113.5953381100713
 30
0.0
  0
ELLIPSE
  5
769
330
1F
100
AcDbEntity
  8
0
  6
Continuous
100
AcDbEllipse
 10
2211.099980009817
 20
186.8449952577763
 30
0.0
 11
95.99999999999972
 21
-0.0000000000575096
 31
0.0
210
0.0
220
0.0
230
1.0
 40
0.9205048534524367
 41
3.708156984211502
 42
4.14582464976426
  0
LINE
  5
76A
330
1F
100
AcDbEntity
  8
0
  6
Continuous
100
AcDbLine
 10
2089.625161231654
 20
123.62959336519
 30
0.0
 11
2130.099980009799
 21
123.62959336519
 31
0.0
  0
LINE
  5
76B
330
1F
100
AcDbEntity
  8
0
  6
Continuous
100
AcDbLine
 10
2089.625161231654
 20
199.9295933651898
 30
0.0
 11
2118.683576375147
 21
199.9295933651898
 31
0.0
  0
LINE
  5
76C
330
1F
100
AcDbEntity
  8
0
  6
Continuous
100
AcDbLine
 10
2089.625161231654
 20
199.9295933651898
 30
0.0
 11
2086.949980009797
 21
207.2795933651897
 31
0.0
  0
LINE
  5
76D
330
1F
100
AcDbEntity
  8
0
  6
Continuous
100
AcDbLine
 10
2089.625161231654
 20
123.62959336519
 30
0.0
 11
2086.949980009797
 21
116.2795933651901
 31
0.0
  0
LINE
  5
76E
330
1F
100
AcDbEntity
  8
0
  6
Continuous
100
AcDbLine
 10
2084.099980009799
 20
116.2795933651901
 30
0.0
 11
2086.949980009797
 21
116.2795933651901
 31
0.0
  0
LINE
  5
76F
330
1F
100
AcDbEntity
  8
0
  6
Continuous
100
AcDbLine
 10
2084.099980009799
 20
207.2795933651897
 30
0.0
 11
2086.949980009797
 21
207.2795933651897
 31
0.0
  0
LINE
  5
770
330
1F
100
AcDbEntity
  8
0
  6
Continuous
100
AcDbLine
 10
2089.625161231654
 20
123.62959336519
 30
0.0
 11
2089.625161231654
 21
199.9295933651898
 31
0.0
  0
LINE
  5
771
330
1F
100
AcDbEntity
  8
0
  6
Continuous
100
AcDbLine
 10
2086.949980009799
 20
116.2795933651901
 30
0.0
 11
2086.949980009799
 21
207.2795933651897
 31
0.0
  0
LINE
  5
772
330
1F
100
AcDbEntity
  8
0
  6
Continuous
100
AcDbLine
 10
2084.099980009799
 20
116.2795933651901
 30
0.0
 11
2084.099980009799
 21
207.2795933651897
 31
0.0
  0
LINE
  5
773
330
1F
100
AcDbEntity
  8
0
  6
Continuous
100
AcDbLine
 10
2292.099980009798
 20
123.62959336519
 30
0.0
 11
2332.574798787943
 21
123.62959336519
 31
0.0
  0
LINE
  5
774
330
1F
100
AcDbEntity
  8
0
  6
Continuous
100
AcDbLine
 10
2303.51638364445
 20
199.9295933651898
 30
0.0
 11
2332.574798787943
 21
199.9295933651898
 31
0.0
  0
LINE
  5
775
330
1F
100
AcDbEntity
  8
0
  6
Continuous
100
AcDbLine
 10
2332.574798787943
 20
123.62959336519
 30
0.0
 11
2335.249980009798
 21
116.2795933651901
 31
0.0
  0
LINE
  5
776
330
1F
100
AcDbEntity
  8
0
  6
Continuous
100
AcDbLine
 10
2332.574798787943
 20
199.9295933651898
 30
0.0
 11
2335.249980009798
 21
207.2795933651897
 31
0.0
  0
LINE
  5
777
330
1F
100
AcDbEntity
  8
0
  6
Continuous
100
AcDbLine
 10
2335.249980009798
 20
116.2795933651901
 30
0.0
 11
2338.099980009798
 21
116.2795933651901
 31
0.0
  0
LINE
  5
778
330
1F
100
AcDbEntity
  8
0
  6
Continuous
100
AcDbLine
 10
2335.249980009798
 20
207.2795933651897
 30
0.0
 11
2338.099980009798
 21
207.2795933651897
 31
0.0
  0
LINE
  5
779
330
1F
100
AcDbEntity
  8
0
  6
Continuous
100
AcDbLine
 10
2332.574798787943
 20
123.62959336519
 30
0.0
 11
2332.574798787943
 21
199.9295933651898
 31
0.0
  0
LINE
  5
77A
330
1F
100
AcDbEntity
  8
0
  6
Continuous
100
AcDbLine
 10
2335.249980009798
 20
116.2795933651901
 30
0.0
 11
2335.249980009798
 21
207.2795933651897
 31
0.0
  0
LINE
  5
77B
330
1F
100
AcDbEntity
  8
0
  6
Continuous
100
AcDbLine
 10
2338.099980009798
 20
116.2795933651901
 30
0.0
 11
2338.099980009798
 21
207.2795933651897
 31
0.0
  0
ELLIPSE
  5
77C
330
1F
100
AcDbEntity
  8
0
  6
Continuous
100
AcDbEllipse
 10
2157.105820796142
 20
110.2250593004961
 30
0.0
 11
-8.999999999999953
 21
0.0000000000062433
 31
0.0
210
0.0
220
0.0
230
1.0
 40
0.9205048534524369
 41
0.2433187771533451
 42
1.5911423671935
  0
ELLIPSE
  5
77D
330
1F
100
AcDbEntity
  8
0
  6
Continuous
100
AcDbEllipse
 10
2265.094139223481
 20
110.2250593004961
 30
0.0
 11
8.999999999999994
 21
-0.0000000000062457
 31
0.0
210
0.0
220
0.0
230
1.0
 40
0.9205048534524369
 41
4.69204293998768
 42
6.039866530027754
  0
LINE
  5
77E
330
1F
100
AcDbEntity
  8
0
  6
Continuous
100
AcDbLine
 10
2135.960526325335
 20
120.1228964093153
 30
0.0
 11
2130.0999800098
 21
120.1228964093153
 31
0.0
  0
LINE
  5
77F
330
1F
100
AcDbEntity
  8
0
  6
Continuous
100
AcDbLine
 10
2292.099980009806
 20
127.6924912316968
 30
0.0
 11
2292.0999800098
 21
120.1228964093157
 31
0.0
  0
LINE
  5
780
330
1F
100
AcDbEntity
  8
0
  6
Continuous
100
AcDbLine
 10
2292.0999800098
 20
120.1228964093157
 30
0.0
 11
2286.239433694265
 21
120.1228964093157
 31
0.0
  0
LINE
  5
781
330
1F
100
AcDbEntity
  8
0
  6
Continuous
100
AcDbLine
 10
2130.0999800098
 20
120.1228964093153
 30
0.0
 11
2130.099980009806
 21
127.6924912316964
 31
0.0
  0
LINE
  5
782
330
1F
100
AcDbEntity
  8
0
  6
Continuous
100
AcDbLine
 10
2262.626672121775
 20
107.2045974577691
 30
0.0
 11
2262.626672121772
 21
100.5621682734514
 31
0.0
  0
LINE
  5
783
330
1F
100
AcDbEntity
  8
0
  6
Continuous
100
AcDbLine
 10
2159.573287897869
 20
107.2045974577691
 30
0.0
 11
2159.573287897866
 21
100.5621682734514
 31
0.0
  0
ELLIPSE
  5
784
330
1F
100
AcDbEntity
  8
0
  6
Continuous
100
AcDbEllipse
 10
2211.099980009813
 20
181.7654905874161
 30
0.0
 11
-95.99999999999985
 21
0.0000000000758504
 31
0.0
210
0.0
220
0.0
230
1.0
 40
0.9205048534524369
 41
2.137360657416831
 42
2.575028322969586
  0
LINE
  5
785
330
1F
100
AcDbEntity
  8
0
  6
Continuous
100
AcDbLine
 10
2262.626672121775
 20
107.2045974577691
 30
0.0
 11
2159.573287897869
 21
107.2045974577691
 31
0.0
  0
ELLIPSE
  5
786
330
1F
100
AcDbEntity
  8
0
  6
Continuous
100
AcDbEllipse
 10
2211.099980009813
 20
181.7654905874161
 30
0.0
 11
-95.99999999999994
 21
0.0000000000666522
 31
0.0
210
0.0
220
0.0
230
1.0
 40
0.9205048534524369
 41
0.5665643306218318
 42
1.004231996174566
  0
LINE
  5
787
330
1F
100
AcDbEntity
  8
0
  6
Continuous
100
AcDbLine
 10
2292.099980009817
 20
134.3349204160141
 30
0.0
 11
2292.099980009813
 21
127.6924912316964
 31
0.0
  0
LINE
  5
788
330
1F
100
AcDbEntity
  8
0
  6
Continuous
100
AcDbLine
 10
2292.099980009817
 20
134.7256515445029
 30
0.0
 11
2292.099980009817
 21
134.3349204160141
 31
0.0
  0
LINE
  5
789
330
1F
100
AcDbEntity
  8
0
  6
Continuous
100
AcDbLine
 10
2130.099980009819
 20
134.3349204160141
 30
0.0
 11
2130.099980009819
 21
134.7256515445029
 31
0.0
  0
LINE
  5
78A
330
1F
100
AcDbEntity
  8
0
  6
Continuous
100
AcDbLine
 10
2130.099980009819
 20
134.3349204160141
 30
0.0
 11
2130.099980009813
 21
127.6924912316964
 31
0.0
  0
ELLIPSE
  5
78B
330
1F
100
AcDbEntity
  8
0
  6
Continuous
100
AcDbEllipse
 10
2211.099980009808
 20
175.1230614030984
 30
0.0
 11
95.99999999999971
 21
-0.0000000000574651
 31
0.0
210
0.0
220
0.0
230
1.0
 40
0.9205048534524367
 41
3.708156984211505
 42
4.145824649764259
  0
LINE
  5
78C
330
1F
100
AcDbEntity
  8
0
  6
Continuous
100
AcDbLine
 10
2159.573287897866
 20
100.5621682734509
 30
0.0
 11
2262.626672121772
 21
100.5621682734509
 31
0.0
  0
ELLIPSE
  5
78D
330
1F
100
AcDbEntity
  8
0
  6
Continuous
100
AcDbEllipse
 10
2211.099980009808
 20
175.1230614030988
 30
0.0
 11
95.99999999999985
 21
-0.0000000000666689
 31
0.0
210
0.0
220
0.0
230
1.0
 40
0.9205048534524367
 41
5.278953311006524
 42
5.716620976559264
  0
LINE
  5
78E
330
1F
100
AcDbEntity
  8
0
  6
Continuous
100
AcDbLine
 10
2118.599980009849
 20
235.197972408324
 30
0.0
 11
2118.599980009828
 21
203.5487510006934
 31
0.0
  0
LINE
  5
78F
330
1F
100
AcDbEntity
  8
0
  6
Continuous
100
AcDbLine
 10
2303.599980009849
 20
235.197972408324
 30
0.0
 11
2303.599980009828
 21
203.5487510006924
 31
0.0
  0
LINE
  5
790
330
1F
100
AcDbEntity
  8
0
  6
Continuous
100
AcDbLine
 10
2186.099980009866
 20
258.251108989191
 30
0.0
 11
2186.099980009864
 21
256.2974533467451
 31
0.0
  0
LINE
  5
791
330
1F
100
AcDbEntity
  8
0
  6
Continuous
100
AcDbLine
 10
2236.099980009865
 20
258.251108989191
 30
0.0
 11
2236.099980009864
 21
256.2974533467451
 31
0.0
  0
LINE
  5
792
330
1F
100
AcDbEntity
  8
0
  6
Continuous
100
AcDbLine
 10
2140.156946757381
 20
292.3164725033249
 30
0.0
 11
2131.084123444316
 21
277.9168631439998
 31
0.0
  0
LINE
  5
793
330
1F
100
AcDbEntity
  8
0
  6
Continuous
100
AcDbLine
 10
2282.043013262336
 20
292.3164725033249
 30
0.0
 11
2291.115836575371
 21
277.9168631439998
 31
0.0
  0
LINE
  5
794
330
1F
100
AcDbEntity
  8
0
  6
Continuous
100
AcDbLine
 10
2201.099980009875
 20
270.5591395366028
 30
0.0
 11
2201.099980009866
 21
258.251108989191
 31
0.0
  0
LINE
  5
795
330
1F
100
AcDbEntity
  8
0
  6
Continuous
100
AcDbLine
 10
2221.099980009875
 20
270.5591395366028
 30
0.0
 11
2221.099980009866
 21
258.251108989191
 31
0.0
  0
ELLIPSE
  5
796
330
1F
100
AcDbEntity
  8
0
  6
Continuous
100
AcDbEllipse
 10
2211.099980009853
 20
203.5487510006924
 30
0.0
 11
92.49999999997452
 21
0.000000000000308
 31
0.0
210
0.0
220
0.0
230
1.0
 40
0.9205048534524367
 41
6.236753897348801
 42
6.283185307179312
  0
ELLIPSE
  5
797
330
1F
100
AcDbEntity
  8
0
  6
Continuous
100
AcDbEllipse
 10
2211.099980009828
 20
203.5487510006924
 30
0.0
 11
-92.49999999999934
 21
0.0000000000729472
 31
0.0
210
0.0
220
0.0
230
1.0
 40
0.9205048534524371
 41
2.14678046478987
 42
2.565608515596547
  0
ELLIPSE
  5
798
330
1F
100
AcDbEntity
  8
0
  6
Continuous
100
AcDbEllipse
 10
2211.099980009828
 20
203.5487510006934
 30
0.0
 11
-92.5
 21
0.0000000000641737
 31
0.0
210
0.0
220
0.0
230
1.0
 40
0.9205048534524365
 41
1.361382301392326
 42
1.780210352198984
  0
ELLIPSE
  5
799
330
1F
100
AcDbEntity
  8
0
  6
Continuous
100
AcDbEllipse
 10
2211.099980009828
 20
203.5487510006924
 30
0.0
 11
-92.49999999999934
 21
0.0000000000641598
 31
0.0
210
0.0
220
0.0
230
1.0
 40
0.9205048534524367
 41
0.5759841379948734
 42
0.9948121888015357
  0
ELLIPSE
  5
79A
330
1F
100
AcDbEntity
  8
0
  6
Continuous
100
AcDbEllipse
 10
2211.099980009802
 20
203.5487510006924
 30
0.0
 11
-92.49999999997339
 21
0.0000000000641924
 31
0.0
210
0.0
220
0.0
230
1.0
 40
0.9205048534524367
 41
0.0
 42
0.0464314098312704
  0
ELLIPSE
  5
79B
330
1F
100
AcDbEntity
  8
0
  6
Continuous
100
AcDbEllipse
 10
2211.099980009866
 20
258.251108989191
 30
0.0
 11
24.99999999999994
 21
0.0
 31
0.0
210
0.0
220
0.0
230
1.0
 40
0.9205048534524367
 41
0.0
 42
6.283185307179586
  0
ELLIPSE
  5
79C
330
1F
100
AcDbEntity
  8
0
  6
Continuous
100
AcDbEllipse
 10
2211.099980009849
 20
235.197972408324
 30
0.0
 11
92.4999999999998
 21
-0.0000000000641209
 31
0.0
210
0.0
220
0.0
230
1.0
 40
0.9205048534524367
 41
2.61601902107928
 42
6.808758939691605
  0
ELLIPSE
  5
79D
330
1F
100
AcDbEntity
  8
0
  6
Continuous
100
AcDbEllipse
 10
2211.099980009864
 20
256.2974533467446
 30
0.0
 11
24.99999999999994
 21
0.0
 31
0.0
210
0.0
220
0.0
230
1.0
 40
0.9205048534524367
 41
3.141592653589519
 42
6.283185307179311
  0
ELLIPSE
  5
79E
330
1F
100
AcDbEntity
  8
0
  6
Continuous
100
AcDbEllipse
 10
2211.099980009866
 20
258.251108989191
 30
0.0
 11
9.999999999999966
 21
0.0000000000000005
 31
0.0
210
0.0
220
0.0
230
1.0
 40
0.9205048534524367
 41
3.141592653589503
 42
6.283185307179295
  0
ELLIPSE
  5
79F
330
1F
100
AcDbEntity
  8
0
  6
Continuous
100
AcDbEllipse
 10
2211.099980009875
 20
270.5591395366028
 30
0.0
 11
-9.99999999999996
 21
0.0
 31
0.0
210
0.0
220
0.0
230
1.0
 40
0.9205048534524369
 41
0.0
 42
6.283185307179586
  0
ELLIPSE
  5
7A0
330
1F
100
AcDbEntity
  8
0
  6
Continuous
100
AcDbEllipse
 10
2211.099980009875
 20
271.1452362293372
 30
0.0
 11
8.499999999999964
 21
0.0
 31
0.0
210
0.0
220
0.0
230
1.0
 40
0.9205048534524367
 41
0.0
 42
6.283185307179586
  0
ELLIPSE
  5
7A1
330
1F
100
AcDbEntity
  8
0
  6
Continuous
100
AcDbEllipse
 10
2249.368323246347
 20
118.5051916324924
 30
0.0
 11
6.000000000000006
 21
-0.0000000000041678
 31
0.0
210
0.0
220
0.0
230
1.0
 40
0.9205048534524367
 41
4.293509959906802
 42
5.916666164261512
  0
LINE
  5
7A2
330
1F
100
AcDbEntity
  8
0
  6
Continuous
100
AcDbLine
 10
2261.481067770203
 20
150.5042655398293
 30
0.0
 11
2261.481067770188
 21
132.1399025008337
 31
0.0
  0
LINE
  5
7A3
330
1F
100
AcDbEntity
  8
0
  6
Continuous
100
AcDbLine
 10
2261.481067770188
 20
132.1399025008337
 30
0.0
 11
2254.969805805332
 21
116.525915011223
 31
0.0
  0
LINE
  5
7A4
330
1F
100
AcDbEntity
  8
0
  6
Continuous
100
AcDbLine
 10
2246.927903387895
 20
113.4596534668359
 30
0.0
 11
2230.329505570602
 21
120.262260587017
 31
0.0
  0
LINE
  5
7A5
330
1F
100
AcDbEntity
  8
0
  6
Continuous
100
AcDbLine
 10
2230.329505570602
 20
120.2622605870175
 30
0.0
 11
2230.329505570615
 21
138.6266236260131
 31
0.0
  0
LINE
  5
7A6
330
1F
100
AcDbEntity
  8
0
  6
Continuous
100
AcDbLine
 10
2112.712026758704
 20
168.3225553179028
 30
0.0
 11
2112.712026758715
 21
183.7388685047555
 31
0.0
  0
LINE
  5
7A7
330
1F
100
AcDbEntity
  8
0
  6
Continuous
100
AcDbLine
 10
2112.712026758695
 20
238.7749466834831
 30
0.0
 11
2112.712026758704
 21
254.1912598703357
 31
0.0
  0
LINE
  5
7A8
330
1F
100
AcDbEntity
  8
0
  6
Continuous
100
AcDbLine
 10
2309.48793326096
 20
168.3225553179032
 30
0.0
 11
2309.487933260971
 21
183.7388685047555
 31
0.0
  0
LINE
  5
7A9
330
1F
100
AcDbEntity
  8
0
  6
Continuous
100
AcDbLine
 10
2309.487933260951
 20
238.7749466834831
 30
0.0
 11
2309.487933260962
 21
254.1912598703353
 31
0.0
  0
ELLIPSE
  5
7AA
330
1F
100
AcDbEntity
  8
0
  6
Continuous
100
AcDbEllipse
 10
2172.83163677333
 20
118.5051916324924
 30
0.0
 11
-6.00000000000001
 21
0.0000000000047306
 31
0.0
210
0.0
220
0.0
230
1.0
 40
0.9205048534524367
 41
0.3665191429197723
 42
1.98967534727441
  0
LINE
  5
7AB
330
1F
100
AcDbEntity
  8
0
  6
Continuous
100
AcDbLine
 10
2191.870454449087
 20
138.6266236260131
 30
0.0
 11
2191.870454449075
 21
120.2622605870175
 31
0.0
  0
LINE
  5
7AC
330
1F
100
AcDbEntity
  8
0
  6
Continuous
100
AcDbLine
 10
2191.870454449075
 20
120.2622605870175
 30
0.0
 11
2175.272056631784
 21
113.4596534668359
 31
0.0
  0
ELLIPSE
  5
7AD
330
1F
100
AcDbEntity
  8
0
  6
Continuous
100
AcDbEllipse
 10
2118.712026758704
 20
168.3225553179028
 30
0.0
 11
-5.999999999999948
 21
0.0000000000041647
 31
0.0
210
0.0
220
0.0
230
1.0
 40
0.9205048534524367
 41
0.0
 42
1.204277183876897
  0
LINE
  5
7AE
330
1F
100
AcDbEntity
  8
0
  6
Continuous
100
AcDbLine
 10
2133.524236403461
 20
175.5370782340706
 30
0.0
 11
2133.524236403448
 21
157.172715195075
 31
0.0
  0
LINE
  5
7AF
330
1F
100
AcDbEntity
  8
0
  6
Continuous
100
AcDbLine
 10
2133.524236403448
 20
157.172715195075
 30
0.0
 11
2116.561819061432
 21
163.1663634358297
 31
0.0
  0
ELLIPSE
  5
7B0
330
1F
100
AcDbEntity
  8
0
  6
Continuous
100
AcDbEllipse
 10
2118.712026758695
 20
238.7749466834831
 30
0.0
 11
-6.0
 21
0.0000000000041682
 31
0.0
210
0.0
220
0.0
230
1.0
 40
0.9205048534524367
 41
0.0
 42
0.4188790204794124
  0
LINE
  5
7B1
330
1F
100
AcDbEntity
  8
0
  6
Continuous
100
AcDbLine
 10
2118.599980009824
 20
225.4277193759886
 30
0.0
 11
2113.230754012839
 21
236.5285283593135
 31
0.0
  0
LINE
  5
7B2
330
1F
100
AcDbEntity
  8
0
  6
Continuous
100
AcDbLine
 10
2167.230154214345
 20
116.525915011223
 30
0.0
 11
2160.718892249485
 21
132.1399025008337
 31
0.0
  0
LINE
  5
7B3
330
1F
100
AcDbEntity
  8
0
  6
Continuous
100
AcDbLine
 10
2160.718892249485
 20
132.1399025008337
 30
0.0
 11
2160.718892249496
 21
150.5042655398289
 31
0.0
  0
LINE
  5
7B4
330
1F
100
AcDbEntity
  8
0
  6
Continuous
100
AcDbLine
 10
2305.638140958233
 20
163.1663634358297
 30
0.0
 11
2288.675723616218
 21
157.172715195075
 31
0.0
  0
LINE
  5
7B5
330
1F
100
AcDbEntity
  8
0
  6
Continuous
100
AcDbLine
 10
2288.675723616218
 20
157.172715195075
 30
0.0
 11
2288.675723616233
 21
175.5370782340711
 31
0.0
  0
ELLIPSE
  5
7B6
330
1F
100
AcDbEntity
  8
0
  6
Continuous
100
AcDbEllipse
 10
2303.487933260961
 20
168.3225553179032
 30
0.0
 11
6.000000000000052
 21
0.000000000000139
 31
0.0
210
0.0
220
0.0
230
1.0
 40
0.9205048534524367
 41
5.078908123303413
 42
6.283185307179227
  0
LINE
  5
7B7
330
1F
100
AcDbEntity
  8
0
  6
Continuous
100
AcDbLine
 10
2308.969206006807
 20
236.528528359314
 30
0.0
 11
2303.599980009824
 21
225.4277193759891
 31
0.0
  0
ELLIPSE
  5
7B8
330
1F
100
AcDbEntity
  8
0
  6
Continuous
100
AcDbEllipse
 10
2303.487933260951
 20
238.7749466834831
 30
0.0
 11
5.999999999999571
 21
0.0000000000000736
 31
0.0
210
0.0
220
0.0
230
1.0
 40
0.9205048534524369
 41
5.864306286700614
 42
6.283185307179305
  0
SPLINE
  5
7B9
330
1F
100
AcDbEntity
  8
0
  6
Continuous
100
AcDbSpline
210
0.0
220
0.0
230
1.0
 70
    12
 71
     2
 72
     6
 73
     3
 74
     0
 42
0.0000000001
 43
0.0000000001
 40
0.4806968965504705
 40
0.4806968965504705
 40
0.4806968965504705
 40
2.028228737672953
 40
2.028228737672953
 40
2.028228737672953
 10
2118.942894893075
 20
242.5228814816242
 30
0.0
 41
1.002765188149344
 10
2116.219267955167
 20
247.2236696637734
 30
0.0
 41
1.00643859248782
 10
2113.230754012852
 20
252.2487566238611
 30
0.0
 41
1.005104936193849
  0
SPLINE
  5
7BA
330
1F
100
AcDbEntity
  8
0
  6
Continuous
100
AcDbSpline
210
0.0
220
0.0
230
1.0
 70
     8
 71
     3
 72
    14
 73
    10
 74
     0
 42
0.0000000001
 43
0.0000000001
 40
0.5302283687096675
 40
0.5302283687096675
 40
0.5302283687096675
 40
0.5302283687096675
 40
0.7705741176297892
 40
0.7705741176297892
 40
1.013400618476665
 40
1.013400618476665
 40
1.256227119323543
 40
1.256227119323543
 40
1.496572868243664
 40
1.496572868243664
 40
1.496572868243664
 40
1.496572868243664
 10
2116.561819061432
 20
259.6513668301037
 30
0.0
 10
2115.866851515128
 20
259.2889218162946
 30
0.0
 10
2115.159645848575
 20
258.7883849658561
 30
0.0
 10
2113.964001448998
 20
257.5931377175817
 30
0.0
 10
2113.478501826349
 20
256.8957947115883
 30
0.0
 10
2112.858997300928
 20
255.5190727155251
 30
0.0
 10
2112.695002306768
 20
254.7730468862756
 30
0.0
 10
2112.731836402722
 20
253.3930754415533
 30
0.0
 10
2112.927974778401
 20
252.757869852771
 30
0.0
 10
2113.230754012852
 20
252.2487566238611
 30
0.0
  0
SPLINE
  5
7BB
330
1F
100
AcDbEntity
  8
0
  6
Continuous
100
AcDbSpline
210
0.0
220
0.0
230
1.0
 70
    12
 71
     2
 72
     6
 73
     3
 74
     0
 42
0.0000000001
 43
0.0000000001
 40
1.203842643101268
 40
1.203842643101268
 40
1.203842643101268
 40
2.043476368156945
 40
2.043476368156945
 40
2.043476368156945
 10
2116.561819061432
 20
259.6513668301037
 30
0.0
 41
1.005104936193854
 10
2120.28579903527
 20
261.5935265470785
 30
0.0
 41
1.005828528931848
 10
2123.822013069194
 20
263.4021943523995
 30
0.0
 41
1.005078169428227
  0
ELLIPSE
  5
7BC
330
1F
100
AcDbEntity
  8
0
  6
Continuous
100
AcDbEllipse
 10
2211.09998000984
 20
221.913114039689
 30
0.0
 11
-92.49999999999955
 21
0.0000000000641626
 31
0.0
210
0.0
220
0.0
230
1.0
 40
0.9205048534524369
 41
0.2094140254040846
 42
0.5759841379948689
  0
SPLINE
  5
7BD
330
1F
100
AcDbEntity
  8
0
  6
Continuous
100
AcDbSpline
210
0.0
220
0.0
230
1.0
 70
    12
 71
     2
 72
     6
 73
     3
 74
     0
 42
0.0000000001
 43
0.0000000001
 40
0.0
 40
0.0
 40
0.0
 40
2.028228737672964
 40
2.028228737672964
 40
2.028228737672964
 10
2133.524236403461
 20
175.5370782340706
 30
0.0
 41
1.0
 10
2125.548355469708
 20
177.2225597466627
 30
0.0
 41
1.006852855008619
 10
2116.561819061443
 20
178.8865917003769
 30
0.0
 41
1.005104936193822
  0
SPLINE
  5
7BE
330
1F
100
AcDbEntity
  8
0
  6
Continuous
100
AcDbSpline
210
0.0
220
0.0
230
1.0
 70
     8
 71
     3
 72
    14
 73
    10
 74
     0
 42
0.0000000001
 43
0.0000000001
 40
0.5302283687096657
 40
0.5302283687096657
 40
0.5302283687096657
 40
0.5302283687096657
 40
0.7705741176297883
 40
0.7705741176297883
 40
1.013400618476666
 40
1.013400618476666
 40
1.256227119323542
 40
1.256227119323542
 40
1.496572868243666
 40
1.496572868243666
 40
1.496572868243666
 40
1.496572868243666
 10
2113.230754012859
 20
186.2892019066195
 30
0.0
 10
2112.92797477841
 20
185.5463304183196
 30
0.0
 10
2112.731836402729
 20
184.7013614976737
 30
0.0
 10
2112.695002306777
 20
183.0361879534849
 30
0.0
 10
2112.858997300935
 20
182.2162598640731
 30
0.0
 10
2113.478501826358
 20
180.8395378680103
 30
0.0
 10
2113.964001449009
 20
180.2160971221788
 30
0.0
 10
2115.159645848586
 20
179.3060519733709
 30
0.0
 10
2115.866851515137
 20
179.0152784547959
 30
0.0
 10
2116.561819061443
 20
178.8865917003769
 30
0.0
  0
SPLINE
  5
7BF
330
1F
100
AcDbEntity
  8
0
  6
Continuous
100
AcDbSpline
210
0.0
220
0.0
230
1.0
 70
    12
 71
     2
 72
     6
 73
     3
 74
     0
 42
0.0000000001
 43
0.0000000001
 40
1.203842643101257
 40
1.203842643101257
 40
1.203842643101257
 40
3.232071380774217
 40
3.232071380774217
 40
3.232071380774217
 10
2113.230754012859
 20
186.2892019066195
 30
0.0
 41
1.005104936193853
 10
2117.145953547717
 20
195.8951780586663
 30
0.0
 41
1.006852855008661
 10
2120.620836851279
 20
204.212242431418
 30
0.0
 41
1.0
  0
SPLINE
  5
7C0
330
1F
100
AcDbEntity
  8
0
  6
Continuous
100
AcDbSpline
210
0.0
220
0.0
230
1.0
 70
     8
 71
     3
 72
    14
 73
    10
 74
     0
 42
0.0000000001
 43
0.0000000001
 40
0.5302283687096684
 40
0.5302283687096684
 40
0.5302283687096684
 40
0.5302283687096684
 40
0.7705741176297878
 40
0.7705741176297878
 40
1.013400618476665
 40
1.013400618476665
 40
1.256227119323542
 40
1.256227119323542
 40
1.496572868243663
 40
1.496572868243663
 40
1.496572868243663
 40
1.496572868243663
 10
2308.969206006818
 20
252.2487566238611
 30
0.0
 10
2309.271985241267
 20
252.757869852771
 30
0.0
 10
2309.468123616948
 20
253.3930754415533
 30
0.0
 10
2309.5049577129
 20
254.7730468862761
 30
0.0
 10
2309.340962718742
 20
255.5190727155251
 30
0.0
 10
2308.721458193319
 20
256.8957947115883
 30
0.0
 10
2308.235958570667
 20
257.5931377175817
 30
0.0
 10
2307.040314171091
 20
258.7883849658566
 30
0.0
 10
2306.333108504542
 20
259.2889218162946
 30
0.0
 10
2305.638140958234
 20
259.6513668301037
 30
0.0
  0
SPLINE
  5
7C1
330
1F
100
AcDbEntity
  8
0
  6
Continuous
100
AcDbSpline
210
0.0
220
0.0
230
1.0
 70
    12
 71
     2
 72
     6
 73
     3
 74
     0
 42
0.0000000001
 43
0.0000000001
 40
1.203842643101298
 40
1.203842643101298
 40
1.203842643101298
 40
2.751374484223765
 40
2.751374484223765
 40
2.751374484223765
 10
2308.969206006818
 20
252.2487566238611
 30
0.0
 41
1.005104936193812
 10
2305.980692064505
 20
247.2236696637734
 30
0.0
 41
1.006438592487773
 10
2303.2570651266
 20
242.5228814816238
 30
0.0
 41
1.002765188149324
  0
SPLINE
  5
7C2
330
1F
100
AcDbEntity
  8
0
  6
Continuous
100
AcDbSpline
210
0.0
220
0.0
230
1.0
 70
    12
 71
     2
 72
     6
 73
     3
 74
     0
 42
0.0000000001
 43
0.0000000001
 40
1.188595012617281
 40
1.188595012617281
 40
1.188595012617281
 40
2.028228737672955
 40
2.028228737672955
 40
2.028228737672955
 10
2298.377946950476
 20
263.4021943523995
 30
0.0
 41
1.005078169428194
 10
2301.914160984396
 20
261.5935265470785
 30
0.0
 41
1.005828528931811
 10
2305.638140958234
 20
259.6513668301037
 30
0.0
 41
1.005104936193821
  0
ELLIPSE
  5
7C3
330
1F
100
AcDbEntity
  8
0
  6
Continuous
100
AcDbEllipse
 10
2211.09998000984
 20
221.913114039689
 30
0.0
 11
92.49999999999964
 21
-0.0000000000553502
 31
0.0
210
0.0
220
0.0
230
1.0
 40
0.9205048534524369
 41
4.13640484239124
 42
4.502974954982031
  0
SPLINE
  5
7C4
330
1F
100
AcDbEntity
  8
0
  6
Continuous
100
AcDbSpline
210
0.0
220
0.0
230
1.0
 70
    12
 71
     2
 72
     6
 73
     3
 74
     0
 42
0.0000000001
 43
0.0000000001
 40
0.0
 40
0.0
 40
0.0
 40
2.028228737672953
 40
2.028228737672953
 40
2.028228737672953
 10
2191.870454449087
 20
138.6266236260131
 30
0.0
 41
1.0
 10
2184.065738764263
 20
134.295190974849
 30
0.0
 41
1.006852855008656
 10
2175.272056631797
 20
129.179881731383
 30
0.0
 41
1.005104936193849
  0
SPLINE
  5
7C5
330
1F
100
AcDbEntity
  8
0
  6
Continuous
100
AcDbSpline
210
0.0
220
0.0
230
1.0
 70
     8
 71
     3
 72
    14
 73
    10
 74
     0
 42
0.0000000001
 43
0.0000000001
 40
0.5302283687096675
 40
0.5302283687096675
 40
0.5302283687096675
 40
0.5302283687096675
 40
0.7705741176297892
 40
0.7705741176297892
 40
1.013400618476665
 40
1.013400618476665
 40
1.256227119323543
 40
1.256227119323543
 40
1.496572868243664
 40
1.496572868243664
 40
1.496572868243664
 40
1.496572868243664
 10
2167.230154214356
 20
132.2461432757701
 30
0.0
 10
2167.4969272609
 20
131.4895431467081
 30
0.0
 10
2167.926751376463
 20
130.7336752323273
 30
0.0
 10
2169.070304497986
 20
129.4904777097805
 30
0.0
 10
2169.787728065536
 20
129.0066218206999
 30
0.0
 10
2171.283344292763
 20
128.4363648983131
 30
0.0
 10
2172.133939437802
 20
128.3223578403295
 30
0.0
 10
2173.788001867504
 20
128.4988648541603
 30
0.0
 10
2174.592003336848
 20
128.7842928468536
 30
0.0
 10
2175.272056631797
 20
129.179881731383
 30
0.0
  0
SPLINE
  5
7C6
330
1F
100
AcDbEntity
  8
0
  6
Continuous
100
AcDbSpline
210
0.0
220
0.0
230
1.0
 70
    12
 71
     2
 72
     6
 73
     3
 74
     0
 42
0.0000000001
 43
0.0000000001
 40
1.203842643101268
 40
1.203842643101268
 40
1.203842643101268
 40
3.232071380774218
 40
3.232071380774218
 40
3.232071380774218
 10
2167.230154214356
 20
132.2461432757701
 30
0.0
 41
1.005104936193854
 10
2163.780546087689
 20
142.0296427246968
 30
0.0
 41
1.006852855008661
 10
2160.718892249496
 20
150.5042655398293
 30
0.0
 41
1.0
  0
ELLIPSE
  5
7C7
330
1F
100
AcDbEntity
  8
0
  6
Continuous
100
AcDbEllipse
 10
2211.09998000984
 20
221.913114039689
 30
0.0
 11
92.49999999999998
 21
-0.0000000000642042
 31
0.0
210
0.0
220
0.0
230
1.0
 40
0.9205048534524367
 41
4.921803005788778
 42
5.288373118379563
  0
SPLINE
  5
7C8
330
1F
100
AcDbEntity
  8
0
  6
Continuous
100
AcDbSpline
210
0.0
220
0.0
230
1.0
 70
    12
 71
     2
 72
     6
 73
     3
 74
     0
 42
0.0000000001
 43
0.0000000001
 40
0.0
 40
0.0
 40
0.0
 40
2.028228737672964
 40
2.028228737672964
 40
2.028228737672964
 10
2261.481067770203
 20
150.5042655398293
 30
0.0
 41
1.0
 10
2258.41941393201
 20
142.0296427246977
 30
0.0
 41
1.006852855008619
 10
2254.969805805342
 20
132.2461432757701
 30
0.0
 41
1.005104936193822
  0
SPLINE
  5
7C9
330
1F
100
AcDbEntity
  8
0
  6
Continuous
100
AcDbSpline
210
0.0
220
0.0
230
1.0
 70
     8
 71
     3
 72
    14
 73
    10
 74
     0
 42
0.0000000001
 43
0.0000000001
 40
0.530228368709667
 40
0.530228368709667
 40
0.530228368709667
 40
0.530228368709667
 40
0.7705741176297878
 40
0.7705741176297878
 40
1.013400618476665
 40
1.013400618476665
 40
1.256227119323542
 40
1.256227119323542
 40
1.496572868243661
 40
1.496572868243661
 40
1.496572868243661
 40
1.496572868243661
 10
2246.927903387905
 20
129.179881731383
 30
0.0
 10
2247.607956682851
 20
128.7842928468536
 30
0.0
 10
2248.411958152194
 20
128.4988648541603
 30
0.0
 10
2250.066020581899
 20
128.3223578403295
 30
0.0
 10
2250.916615726936
 20
128.4363648983131
 30
0.0
 10
2252.412231954163
 20
129.0066218206999
 30
0.0
 10
2253.129655521713
 20
129.4904777097805
 30
0.0
 10
2254.273208643236
 20
130.7336752323273
 30
0.0
 10
2254.703032758798
 20
131.4895431467081
 30
0.0
 10
2254.969805805342
 20
132.2461432757701
 30
0.0
  0
SPLINE
  5
7CA
330
1F
100
AcDbEntity
  8
0
  6
Continuous
100
AcDbSpline
210
0.0
220
0.0
230
1.0
 70
    12
 71
     2
 72
     6
 73
     3
 74
     0
 42
0.0000000001
 43
0.0000000001
 40
1.203842643101239
 40
1.203842643101239
 40
1.203842643101239
 40
3.23207138077422
 40
3.23207138077422
 40
3.23207138077422
 10
2246.927903387905
 20
129.179881731383
 30
0.0
 41
1.005104936193879
 10
2238.13422125544
 20
134.295190974849
 30
0.0
 41
1.006852855008696
 10
2230.329505570615
 20
138.6266236260131
 30
0.0
 41
1.0
  0
SPLINE
  5
7CB
330
1F
100
AcDbEntity
  8
0
  6
Continuous
100
AcDbSpline
210
0.0
220
0.0
230
1.0
 70
     8
 71
     3
 72
    14
 73
    10
 74
     0
 42
0.0000000001
 43
0.0000000001
 40
0.5302283687096648
 40
0.5302283687096648
 40
0.5302283687096648
 40
0.5302283687096648
 40
0.7705741176297884
 40
0.7705741176297884
 40
1.013400618476664
 40
1.013400618476664
 40
1.256227119323541
 40
1.256227119323541
 40
1.496572868243667
 40
1.496572868243667
 40
1.496572868243667
 40
1.496572868243667
 10
2305.638140958245
 20
178.8865917003769
 30
0.0
 10
2306.333108504551
 20
179.0152784547959
 30
0.0
 10
2307.040314171102
 20
179.3060519733709
 30
0.0
 10
2308.235958570679
 20
180.2160971221793
 30
0.0
 10
2308.721458193328
 20
180.8395378680103
 30
0.0
 10
2309.340962718749
 20
182.2162598640731
 30
0.0
 10
2309.504957712909
 20
183.0361879534854
 30
0.0
 10
2309.468123616955
 20
184.7013614976741
 30
0.0
 10
2309.271985241276
 20
185.54633041832
 30
0.0
 10
2308.969206006827
 20
186.2892019066195
 30
0.0
  0
SPLINE
  5
7CC
330
1F
100
AcDbEntity
  8
0
  6
Continuous
100
AcDbSpline
210
0.0
220
0.0
230
1.0
 70
    12
 71
     2
 72
     6
 73
     3
 74
     0
 42
0.0000000001
 43
0.0000000001
 40
1.203842643101277
 40
1.203842643101277
 40
1.203842643101277
 40
3.23207138077422
 40
3.23207138077422
 40
3.23207138077422
 10
2305.638140958245
 20
178.8865917003769
 30
0.0
 41
1.005104936193828
 10
2296.651604549984
 20
177.2225597466632
 30
0.0
 41
1.006852855008627
 10
2288.67572361623
 20
175.5370782340711
 30
0.0
 41
1.0
  0
ELLIPSE
  5
7CD
330
1F
100
AcDbEntity
  8
0
  6
Continuous
100
AcDbEllipse
 10
2211.09998000984
 20
221.913114039689
 30
0.0
 11
92.50000000000005
 21
-0.0000000000642486
 31
0.0
210
0.0
220
0.0
230
1.0
 40
0.9205048534524367
 41
5.707201169186228
 42
6.073771281777011
  0
SPLINE
  5
7CE
330
1F
100
AcDbEntity
  8
0
  6
Continuous
100
AcDbSpline
210
0.0
220
0.0
230
1.0
 70
    12
 71
     2
 72
     6
 73
     3
 74
     0
 42
0.0000000001
 43
0.0000000001
 40
0.0
 40
0.0
 40
0.0
 40
2.028228737673
 40
2.028228737673
 40
2.028228737673
 10
2301.579123168406
 20
204.212242431418
 30
0.0
 41
1.0
 10
2305.054006471967
 20
195.8951780586663
 30
0.0
 41
1.0068528550087
 10
2308.969206006827
 20
186.2892019066195
 30
0.0
 41
1.005104936193882
  0
SPLINE
  5
7CF
330
1F
100
AcDbEntity
  8
0
  6
Continuous
100
AcDbSpline
210
0.0
220
0.0
230
1.0
 70
     8
 71
     3
 72
    16
 73
    12
 74
     0
 42
0.0000000001
 43
0.0000000001
 40
4.840118218704901
 40
4.840118218704901
 40
4.840118218704901
 40
4.840118218704901
 40
5.129871498772781
 40
5.129871498772781
 40
5.461050827847844
 40
5.461050827847844
 40
5.80046612082318
 40
5.80046612082318
 40
6.145675780648463
 40
6.145675780648463
 40
6.192664321023197
 40
6.192664321023197
 40
6.192664321023197
 40
6.192664321023197
 10
1929.670078112473
 20
821.700700762959
 30
0.0
 10
1929.292534490238
 20
814.177061422089
 30
0.0
 10
1928.486600112036
 20
806.7848637345541
 30
0.0
 10
1925.893543585923
 20
791.8230195692771
 30
0.0
 10
1923.985215716196
 20
784.3841926250997
 30
0.0
 10
1919.164165507006
 20
771.104098637575
 30
0.0
 10
1916.243342595312
 20
765.3047193479132
 30
0.0
 10
1909.275709991984
 20
755.9593141939243
 30
0.0
 10
1905.149271263631
 20
752.3556928527058
 30
0.0
 10
1899.582859105553
 20
750.3842707732336
 30
0.0
 10
1898.903795324972
 20
750.1847206333999
 30
0.0
 10
1898.215596288551
 20
750.0248481178786
 30
0.0
  0
SPLINE
  5
7D0
330
1F
100
AcDbEntity
  8
0
  6
Continuous
100
AcDbSpline
210
0.0
220
0.0
230
1.0
 70
     8
 71
     3
 72
    16
 73
    12
 74
     0
 42
0.0000000001
 43
0.0000000001
 40
3.232113639746181
 40
3.232113639746181
 40
3.232113639746181
 40
3.232113639746181
 40
3.472783947645587
 40
3.472783947645587
 40
3.792450774413591
 40
3.792450774413591
 40
4.138050819692482
 40
4.138050819692482
 40
4.472278227210162
 40
4.472278227210162
 40
4.58465974206448
 40
4.58465974206448
 40
4.58465974206448
 40
4.58465974206448
 10
1898.215596288551
 20
913.3765534080762
 30
0.0
 10
1901.740478582635
 20
912.5577033814842
 30
0.0
 10
1904.966756522998
 20
910.7093412267071
 30
0.0
 10
1911.578593484056
 20
904.8907033813897
 30
0.0
 10
1914.764350926548
 20
900.4114944991327
 30
0.0
 10
1920.524931229923
 20
889.1837644647393
 30
0.0
 10
1923.013047854411
 20
882.2519715023121
 30
0.0
 10
1926.84947778435
 20
867.0788911295899
 30
0.0
 10
1928.224824201176
 20
858.8924857987588
 30
0.0
 10
1929.313017920015
 20
847.5173572683301
 30
0.0
 10
1929.523646899752
 20
844.618762591789
 30
0.0
 10
1929.670078112473
 20
841.7007007629585
 30
0.0
  0
LINE
  5
7D1
330
1F
100
AcDbEntity
  8
0
  6
Continuous
100
AcDbLine
 10
1715.938662931494
 20
912.7007007629735
 30
0.0
 11
1704.892604690066
 21
912.7007007629716
 31
0.0
  0
LINE
  5
7D2
330
1F
100
AcDbEntity
  8
0
  6
Continuous
100
AcDbLine
 10
1704.422524080086
 20
883.2273928749344
 30
0.0
 11
1693.376465838658
 21
883.227392874933
 31
0.0
  0
LINE
  5
7D3
330
1F
100
AcDbEntity
  8
0
  6
Continuous
100
AcDbLine
 10
1715.938662931494
 20
750.7007007629739
 30
0.0
 11
1704.892604690066
 21
750.7007007629725
 31
0.0
  0
LINE
  5
7D4
330
1F
100
AcDbEntity
  8
0
  6
Continuous
100
AcDbLine
 10
1704.422524080086
 20
780.1740086510289
 30
0.0
 11
1693.376465838658
 21
780.174008651027
 31
0.0
  0
SPLINE
  5
7D5
330
1F
100
AcDbEntity
  8
0
  6
Continuous
100
AcDbSpline
210
0.0
220
0.0
230
1.0
 70
     8
 71
     3
 72
     8
 73
     4
 74
     0
 42
0.0000000001
 43
0.0000000001
 40
-0.144401865407123
 40
-0.144401865407123
 40
-0.144401865407123
 40
-0.144401865407123
 40
0.0
 40
0.0
 40
0.0
 40
0.0
 10
1704.086169211049
 20
751.7007007629721
 30
0.0
 10
1704.354838930318
 20
751.3674093323341
 30
0.0
 10
1704.623656506365
 20
751.0340695991916
 30
0.0
 10
1704.892604690066
 20
750.7007007629725
 30
0.0
  0
SPLINE
  5
7D6
330
1F
100
AcDbEntity
  8
0
  6
Continuous
100
AcDbSpline
210
0.0
220
0.0
230
1.0
 70
     8
 71
     3
 72
     8
 73
     4
 74
     0
 42
0.0000000001
 43
0.0000000001
 40
-0.1444018654065061
 40
-0.1444018654065061
 40
-0.1444018654065061
 40
-0.1444018654065061
 40
0.0
 40
0.0
 40
0.0
 40
0.0
 10
1692.846692113695
 20
780.4659469331822
 30
0.0
 10
1693.023261156401
 20
780.3683691937402
 30
0.0
 10
1693.199855788508
 20
780.2710560712729
 30
0.0
 10
1693.376465838658
 20
780.174008651027
 30
0.0
  0
SPLINE
  5
7D7
330
1F
100
AcDbEntity
  8
0
  6
Continuous
100
AcDbSpline
210
0.0
220
0.0
230
1.0
 70
     8
 71
     3
 72
     8
 73
     4
 74
     0
 42
0.0000000001
 43
0.0000000001
 40
-0.1444018654048609
 40
-0.1444018654048609
 40
-0.1444018654048609
 40
-0.1444018654048609
 40
0.0
 40
0.0
 40
0.0
 40
0.0
 10
1692.846692113695
 20
882.9354545927779
 30
0.0
 10
1693.023261156403
 20
883.0330323322204
 30
0.0
 10
1693.199855788509
 20
883.1303454546885
 30
0.0
 10
1693.376465838658
 20
883.227392874933
 30
0.0
  0
SPLINE
  5
7D8
330
1F
100
AcDbEntity
  8
0
  6
Continuous
100
AcDbSpline
210
0.0
220
0.0
230
1.0
 70
     8
 71
     3
 72
     8
 73
     4
 74
     0
 42
0.0000000001
 43
0.0000000001
 40
-0.1444018654035001
 40
-0.1444018654035001
 40
-0.1444018654035001
 40
-0.1444018654035001
 40
0.0
 40
0.0
 40
0.0
 40
0.0
 10
1704.086169211049
 20
911.7007007629716
 30
0.0
 10
1704.35483893032
 20
912.0339921936141
 30
0.0
 10
1704.623656506373
 20
912.3673319267613
 30
0.0
 10
1704.892604690066
 20
912.7007007629716
 30
0.0
  0
ELLIPSE
  5
7D9
330
1F
100
AcDbEntity
  8
0
  6
Continuous
100
AcDbEllipse
 10
1725.025687246287
 20
831.700700762958
 30
0.0
 11
-0.0000000000122513
 21
95.99999999999953
 31
0.0
210
0.0
220
0.0
230
1.0
 40
0.3907311284892725
 41
0.5665643306207624
 42
1.004231996173491
  0
LINE
  5
7DA
330
1F
100
AcDbEntity
  8
0
  6
Continuous
100
AcDbLine
 10
1693.376465838658
 20
780.174008651027
 30
0.0
 11
1693.376465838656
 21
883.227392874933
 31
0.0
  0
ELLIPSE
  5
7DB
330
1F
100
AcDbEntity
  8
0
  6
Continuous
100
AcDbEllipse
 10
1725.025687246287
 20
831.700700762958
 30
0.0
 11
-0.00000000000836
 21
95.9999999999996
 31
0.0
210
0.0
220
0.0
230
1.0
 40
0.3907311284892727
 41
2.137360657416241
 42
2.575028322969266
  0
LINE
  5
7DC
330
1F
100
AcDbEntity
  8
0
  6
Continuous
100
AcDbLine
 10
1756.101477162851
 20
751.7007007629461
 30
0.0
 11
1716.973237159382
 21
751.7007007629739
 31
0.0
  0
LINE
  5
7DD
330
1F
100
AcDbEntity
  8
0
  6
Continuous
100
AcDbLine
 10
1715.938662931494
 20
750.7007007629739
 30
0.0
 11
1756.20482804394
 21
750.7007007629453
 31
0.0
  0
ELLIPSE
  5
7DE
330
1F
100
AcDbEntity
  8
0
  6
Continuous
100
AcDbEllipse
 10
1736.992250341171
 20
831.7007007629598
 30
0.0
 11
-0.0000000000082878
 21
95.00000000000015
 31
0.0
210
0.0
220
0.0
230
1.0
 40
0.3907311284892726
 41
2.140417645868092
 42
2.571971334517407
  0
SPLINE
  5
7DF
330
1F
100
AcDbEntity
  8
0
  6
Continuous
100
AcDbSpline
210
0.0
220
0.0
230
1.0
 70
     8
 71
     3
 72
     8
 73
     4
 74
     0
 42
0.0000000001
 43
0.0000000001
 40
-0.1444018675914813
 40
-0.1444018675914813
 40
-0.1444018675914813
 40
-0.1444018675914813
 40
0.0
 40
0.0
 40
0.0
 40
0.0
 10
1715.938662931496
 20
750.7007007629739
 30
0.0
 10
1716.283450011252
 20
751.0340695991902
 30
0.0
 10
1716.628314119617
 20
751.3674093323341
 30
0.0
 10
1716.973237159384
 20
751.7007007629739
 30
0.0
  0
ELLIPSE
  5
7E0
330
1F
100
AcDbEntity
  8
0
  6
Continuous
100
AcDbEllipse
 10
1736.071745487718
 20
831.7007007629594
 30
0.0
 11
0.0000000000122485
 21
-95.99999999999958
 31
0.0
210
0.0
220
0.0
230
1.0
 40
0.3907311284892726
 41
5.278953311005432
 42
5.716620976558187
  0
LINE
  5
7E1
330
1F
100
AcDbEntity
  8
0
  6
Continuous
100
AcDbLine
 10
1705.733760062029
 20
780.4659469331835
 30
0.0
 11
1705.733760062029
 21
882.9354545927794
 31
0.0
  0
SPLINE
  5
7E2
330
1F
100
AcDbEntity
  8
0
  6
Continuous
100
AcDbSpline
210
0.0
220
0.0
230
1.0
 70
     8
 71
     3
 72
     8
 73
     4
 74
     0
 42
0.0000000001
 43
0.0000000001
 40
-0.1444018675898508
 40
-0.1444018675898508
 40
-0.1444018675898508
 40
-0.1444018675898508
 40
0.0
 40
0.0
 40
0.0
 40
0.0
 10
1704.422524080086
 20
780.1740086510289
 30
0.0
 10
1704.859649293402
 20
780.2710560712766
 30
0.0
 10
1705.296736345705
 20
780.3683691937425
 30
0.0
 10
1705.733760062029
 20
780.4659469331835
 30
0.0
  0
LINE
  5
7E3
330
1F
100
AcDbEntity
  8
0
  6
Continuous
100
AcDbLine
 10
1704.422524080086
 20
883.2273928749344
 30
0.0
 11
1704.422524080086
 21
780.1740086510289
 31
0.0
  0
ELLIPSE
  5
7E4
330
1F
100
AcDbEntity
  8
0
  6
Continuous
100
AcDbEllipse
 10
1736.992250341171
 20
831.7007007629598
 30
0.0
 11
-0.0000000000121125
 21
94.99999999999944
 31
0.0
210
0.0
220
0.0
230
1.0
 40
0.3907311284892725
 41
0.5696213190726036
 42
1.001175007721634
  0
SPLINE
  5
7E5
330
1F
100
AcDbEntity
  8
0
  6
Continuous
100
AcDbSpline
210
0.0
220
0.0
230
1.0
 70
     8
 71
     3
 72
     8
 73
     4
 74
     0
 42
0.0000000001
 43
0.0000000001
 40
-0.1444018675901304
 40
-0.1444018675901304
 40
-0.1444018675901304
 40
-0.1444018675901304
 40
0.0
 40
0.0
 40
0.0
 40
0.0
 10
1704.422524080086
 20
883.2273928749344
 30
0.0
 10
1704.8596492934
 20
883.1303454546873
 30
0.0
 10
1705.296736345705
 20
883.0330323322208
 30
0.0
 10
1705.733760062029
 20
882.9354545927794
 30
0.0
  0
ELLIPSE
  5
7E6
330
1F
100
AcDbEntity
  8
0
  6
Continuous
100
AcDbEllipse
 10
1736.071745487718
 20
831.7007007629594
 30
0.0
 11
0.0000000000161232
 21
-95.9999999999998
 31
0.0
210
0.0
220
0.0
230
1.0
 40
0.3907311284892727
 41
3.708156984209688
 42
4.145824649762705
  0
SPLINE
  5
7E7
330
1F
100
AcDbEntity
  8
0
  6
Continuous
100
AcDbSpline
210
0.0
220
0.0
230
1.0
 70
     8
 71
     3
 72
     8
 73
     4
 74
     0
 42
0.0000000001
 43
0.0000000001
 40
-0.0070382875394216
 40
-0.0070382875394216
 40
-0.0070382875394216
 40
-0.0070382875394216
 40
0.0
 40
0.0
 40
0.0
 40
0.0
 10
1756.244153500228
 20
912.6519548074451
 30
0.0
 10
1756.231045326413
 20
912.6682033886567
 30
0.0
 10
1756.217936840318
 20
912.6844520412308
 30
0.0
 10
1756.20482804394
 20
912.7007007629453
 30
0.0
  0
LINE
  5
7E8
330
1F
100
AcDbEntity
  8
0
  6
Continuous
100
AcDbLine
 10
1716.973237159382
 20
911.7007007629736
 30
0.0
 11
1756.101477162851
 21
911.7007007629457
 31
0.0
  0
SPLINE
  5
7E9
330
1F
100
AcDbEntity
  8
0
  6
Continuous
100
AcDbSpline
210
0.0
220
0.0
230
1.0
 70
     8
 71
     3
 72
     8
 73
     4
 74
     0
 42
0.0000000001
 43
0.0000000001
 40
-0.1444018675897372
 40
-0.1444018675897372
 40
-0.1444018675897372
 40
-0.1444018675897372
 40
0.0
 40
0.0
 40
0.0
 40
0.0
 10
1715.938662931496
 20
912.7007007629735
 30
0.0
 10
1716.283450011261
 20
912.367331926749
 30
0.0
 10
1716.628314119621
 20
912.0339921936087
 30
0.0
 10
1716.973237159384
 20
911.7007007629736
 30
0.0
  0
LINE
  5
7EA
330
1F
100
AcDbEntity
  8
0
  6
Continuous
100
AcDbLine
 10
1756.20482804394
 20
912.7007007629453
 30
0.0
 11
1715.938662931494
 21
912.7007007629735
 31
0.0
  0
SPLINE
  5
7EB
330
1F
100
AcDbEntity
  8
0
  6
Continuous
100
AcDbSpline
210
0.0
220
0.0
230
1.0
 70
     8
 71
     3
 72
     8
 73
     4
 74
     0
 42
0.0000000001
 43
0.0000000001
 40
-0.1444018675898508
 40
-0.1444018675898508
 40
-0.1444018675898508
 40
-0.1444018675898508
 40
-0.1373635799441137
 40
-0.1373635799441137
 40
-0.1373635799441137
 40
-0.1373635799441137
 10
1756.20482804394
 20
750.7007007629453
 30
0.0
 10
1756.217936840318
 20
750.7169494846597
 30
0.0
 10
1756.231045326413
 20
750.7331981372344
 30
0.0
 10
1756.244153500228
 20
750.7494467184459
 30
0.0
  0
LINE
  5
7EC
330
1F
100
AcDbEntity
  8
0
  6
Continuous
100
AcDbLine
 10
1715.171359138744
 20
710.2258819848088
 30
0.0
 11
1715.171359138744
 21
750.7007007629521
 31
0.0
  0
LINE
  5
7ED
330
1F
100
AcDbEntity
  8
0
  6
Continuous
100
AcDbLine
 10
1638.871359138745
 20
710.2258819848088
 30
0.0
 11
1638.871359138745
 21
750.7007007629521
 31
0.0
  0
LINE
  5
7EE
330
1F
100
AcDbEntity
  8
0
  6
Continuous
100
AcDbLine
 10
1638.871359138745
 20
710.2258819848088
 30
0.0
 11
1631.521359138744
 21
707.5507007629525
 31
0.0
  0
LINE
  5
7EF
330
1F
100
AcDbEntity
  8
0
  6
Continuous
100
AcDbLine
 10
1715.171359138744
 20
710.2258819848088
 30
0.0
 11
1722.521359138743
 21
707.5507007629525
 31
0.0
  0
LINE
  5
7F0
330
1F
100
AcDbEntity
  8
0
  6
Continuous
100
AcDbLine
 10
1722.521359138743
 20
704.7007007629517
 30
0.0
 11
1722.521359138743
 21
707.5507007629525
 31
0.0
  0
LINE
  5
7F1
330
1F
100
AcDbEntity
  8
0
  6
Continuous
100
AcDbLine
 10
1631.521359138744
 20
704.7007007629521
 30
0.0
 11
1631.521359138744
 21
707.5507007629525
 31
0.0
  0
LINE
  5
7F2
330
1F
100
AcDbEntity
  8
0
  6
Continuous
100
AcDbLine
 10
1715.171359138744
 20
710.2258819848088
 30
0.0
 11
1638.871359138745
 21
710.2258819848088
 31
0.0
  0
LINE
  5
7F3
330
1F
100
AcDbEntity
  8
0
  6
Continuous
100
AcDbLine
 10
1722.521359138743
 20
707.5507007629525
 30
0.0
 11
1631.521359138744
 21
707.5507007629525
 31
0.0
  0
LINE
  5
7F4
330
1F
100
AcDbEntity
  8
0
  6
Continuous
100
AcDbLine
 10
1722.521359138743
 20
704.7007007629526
 30
0.0
 11
1631.521359138744
 21
704.7007007629526
 31
0.0
  0
LINE
  5
7F5
330
1F
100
AcDbEntity
  8
0
  6
Continuous
100
AcDbLine
 10
1715.171359138744
 20
912.7007007629517
 30
0.0
 11
1715.171359138744
 21
953.175519541095
 31
0.0
  0
LINE
  5
7F6
330
1F
100
AcDbEntity
  8
0
  6
Continuous
100
AcDbLine
 10
1638.871359138745
 20
912.700700762952
 30
0.0
 11
1638.871359138745
 21
953.1755195410955
 31
0.0
  0
LINE
  5
7F7
330
1F
100
AcDbEntity
  8
0
  6
Continuous
100
AcDbLine
 10
1715.171359138744
 20
953.175519541095
 30
0.0
 11
1722.521359138743
 21
955.8507007629517
 31
0.0
  0
LINE
  5
7F8
330
1F
100
AcDbEntity
  8
0
  6
Continuous
100
AcDbLine
 10
1638.871359138745
 20
953.1755195410955
 30
0.0
 11
1631.521359138742
 21
955.8507007629517
 31
0.0
  0
LINE
  5
7F9
330
1F
100
AcDbEntity
  8
0
  6
Continuous
100
AcDbLine
 10
1722.521359138743
 20
955.8507007629513
 30
0.0
 11
1722.521359138743
 21
958.7007007629516
 31
0.0
  0
LINE
  5
7FA
330
1F
100
AcDbEntity
  8
0
  6
Continuous
100
AcDbLine
 10
1631.521359138742
 20
955.8507007629517
 30
0.0
 11
1631.521359138742
 21
958.7007007629516
 31
0.0
  0
LINE
  5
7FB
330
1F
100
AcDbEntity
  8
0
  6
Continuous
100
AcDbLine
 10
1715.171359138744
 20
953.1755195410955
 30
0.0
 11
1638.871359138745
 21
953.1755195410955
 31
0.0
  0
LINE
  5
7FC
330
1F
100
AcDbEntity
  8
0
  6
Continuous
100
AcDbLine
 10
1722.521359138743
 20
955.8507007629517
 30
0.0
 11
1631.521359138744
 21
955.8507007629517
 31
0.0
  0
LINE
  5
7FD
330
1F
100
AcDbEntity
  8
0
  6
Continuous
100
AcDbLine
 10
1722.521359138743
 20
958.7007007629516
 30
0.0
 11
1631.521359138744
 21
958.7007007629516
 31
0.0
  0
LINE
  5
7FE
330
1F
100
AcDbEntity
  8
0
  6
Continuous
100
AcDbLine
 10
1628.82269288272
 20
872.1648023780925
 30
0.0
 11
1628.82269288272
 21
912.7007007629549
 31
0.0
  0
SPLINE
  5
7FF
330
1F
100
AcDbEntity
  8
0
  6
Continuous
100
AcDbSpline
210
0.0
220
0.0
230
1.0
 70
     8
 71
     3
 72
    16
 73
    12
 74
     0
 42
0.0000000001
 43
0.0000000001
 40
-1.047197551196595
 40
-1.047197551196595
 40
-1.047197551196595
 40
-1.047197551196595
 40
-0.8377580409572766
 40
-0.8377580409572766
 40
-0.6283185307179576
 40
-0.6283185307179576
 40
-0.4188790204786384
 40
-0.4188790204786384
 40
-0.2094395102393192
 40
-0.2094395102393192
 40
0.0
 40
0.0
 40
0.0
 40
0.0
 10
1631.131787672476
 20
867.1840571998394
 30
0.0
 10
1630.809522320857
 20
867.4306087837793
 30
0.0
 10
1630.523173883543
 20
867.7092637165596
 30
0.0
 10
1630.021876757858
 20
868.3073825271366
 30
0.0
 10
1629.806682186758
 20
868.6269116078122
 30
0.0
 10
1629.442353493416
 20
869.2913996117384
 30
0.0
 10
1629.293132852016
 20
869.6364646167166
 30
0.0
 10
1629.056162147214
 20
870.3417523530404
 30
0.0
 10
1628.968399862768
 20
870.7020437485219
 30
0.0
 10
1628.85166289177
 20
871.429804639817
 30
0.0
 10
1628.82269288272
 20
871.7973094818802
 30
0.0
 10
1628.82269288272
 20
872.1648023780925
 30
0.0
  0
LINE
  5
800
330
1F
100
AcDbEntity
  8
0
  6
Continuous
100
AcDbLine
 10
1631.131787672476
 20
867.1840571998394
 30
0.0
 11
1654.590726080859
 21
849.2366160831046
 31
0.0
  0
SPLINE
  5
801
330
1F
100
AcDbEntity
  8
0
  6
Continuous
100
AcDbSpline
210
0.0
220
0.0
230
1.0
 70
     8
 71
     3
 72
    22
 73
    18
 74
     0
 42
0.0000000001
 43
0.0000000001
 40
-1.047197551196597
 40
-1.047197551196597
 40
-1.047197551196597
 40
-1.047197551196597
 40
-0.877521835866108
 40
-0.877521835866108
 40
-0.5573775351696128
 40
-0.5573775351696128
 40
-0.2621873609311136
 40
-0.2621873609311136
 40
0.0200498812110142
 40
0.0200498812110142
 40
0.298511549093772
 40
0.298511549093772
 40
0.5818603769492446
 40
0.5818603769492446
 40
0.878525660477698
 40
0.878525660477698
 40
1.047197551196597
 40
1.047197551196597
 40
1.047197551196597
 40
1.047197551196597
 10
1654.590726080859
 20
849.2366160831046
 30
0.0
 10
1655.290699015607
 20
848.7010964099207
 30
0.0
 10
1655.966970021828
 20
848.0784372922856
 30
0.0
 10
1657.81325135771
 20
846.0457130069189
 30
0.0
 10
1658.887487993251
 20
844.4243102325257
 30
0.0
 10
1660.545931814914
 20
840.898516719484
 30
0.0
 10
1661.161463464432
 20
839.0276300036688
 30
0.0
 10
1661.938305509461
 20
835.1917805503703
 30
0.0
 10
1662.118441856319
 20
833.2353584912951
 30
0.0
 10
1662.059807776068
 20
829.360686690159
 30
0.0
 10
1661.826663890634
 20
827.4428720367254
 30
0.0
 10
1660.970325021814
 20
823.7550977437116
 30
0.0
 10
1660.34040286732
 20
821.9890559245772
 30
0.0
 10
1658.719867914268
 20
818.724687868972
 30
0.0
 10
1657.714155904391
 20
817.2440850029641
 30
0.0
 10
1655.958967097524
 20
815.3155951955671
 30
0.0
 10
1655.286557880513
 20
814.6971369087754
 30
0.0
 10
1654.590726080859
 20
814.16478544282
 30
0.0
  0
LINE
  5
802
330
1F
100
AcDbEntity
  8
0
  6
Continuous
100
AcDbLine
 10
1654.590726080859
 20
814.16478544282
 30
0.0
 11
1631.131787672476
 21
796.2173443260702
 31
0.0
  0
SPLINE
  5
803
330
1F
100
AcDbEntity
  8
0
  6
Continuous
100
AcDbSpline
210
0.0
220
0.0
230
1.0
 70
     8
 71
     3
 72
    16
 73
    12
 74
     0
 42
0.0000000001
 43
0.0000000001
 40
0.0
 40
0.0
 40
0.0
 40
0.0
 40
0.2094395102393193
 40
0.2094395102393193
 40
0.4188790204786386
 40
0.4188790204786386
 40
0.6283185307179578
 40
0.6283185307179578
 40
0.837758040957277
 40
0.837758040957277
 40
1.047197551196596
 40
1.047197551196596
 40
1.047197551196596
 40
1.047197551196596
 10
1628.82269288272
 20
791.2365991478167
 30
0.0
 10
1628.82269288272
 20
791.6040920440295
 30
0.0
 10
1628.85166289177
 20
791.9715968860927
 30
0.0
 10
1628.968399862768
 20
792.6993577773872
 30
0.0
 10
1629.056162147214
 20
793.0596491728691
 30
0.0
 10
1629.293132852014
 20
793.7649369091931
 30
0.0
 10
1629.442353493416
 20
794.1100019141708
 30
0.0
 10
1629.806682186758
 20
794.7744899180969
 30
0.0
 10
1630.021876757858
 20
795.0940189987731
 30
0.0
 10
1630.523173883543
 20
795.6921378093506
 30
0.0
 10
1630.809522320857
 20
795.9707927421304
 30
0.0
 10
1631.131787672476
 20
796.2173443260702
 30
0.0
  0
LINE
  5
804
330
1F
100
AcDbEntity
  8
0
  6
Continuous
100
AcDbLine
 10
1628.82269288272
 20
750.7007007629548
 30
0.0
 11
1628.82269288272
 21
791.2365991478167
 31
0.0
  0
LINE
  5
805
330
1F
100
AcDbEntity
  8
0
  6
Continuous
100
AcDbLine
 10
1628.82269288272
 20
912.7007007629543
 30
0.0
 11
1629.664673481703
 21
912.7007007629552
 31
0.0
  0
LINE
  5
806
330
1F
100
AcDbEntity
  8
0
  6
Continuous
100
AcDbLine
 10
1629.664673481703
 20
750.7007007629558
 30
0.0
 11
1628.82269288272
 21
750.7007007629553
 31
0.0
  0
LINE
  5
807
330
1F
100
AcDbEntity
  8
0
  6
Continuous
100
AcDbLine
 10
1650.709164356906
 20
912.7007007629616
 30
0.0
 11
1629.664673481703
 21
912.7007007629552
 31
0.0
  0
LINE
  5
808
330
1F
100
AcDbEntity
  8
0
  6
Continuous
100
AcDbLine
 10
1629.664673481703
 20
750.7007007629553
 30
0.0
 11
1650.709164356906
 21
750.7007007629616
 31
0.0
  0
LINE
  5
809
330
1F
100
AcDbEntity
  8
0
  6
Continuous
100
AcDbLine
 10
1669.966617091529
 20
768.7065415493028
 30
0.0
 11
1680.151545277042
 21
768.7065415493037
 31
0.0
  0
LINE
  5
80A
330
1F
100
AcDbEntity
  8
0
  6
Continuous
100
AcDbLine
 10
1669.966617091529
 20
786.7065415493028
 30
0.0
 11
1676.807378476514
 21
786.7065415493033
 31
0.0
  0
LINE
  5
80B
330
1F
100
AcDbEntity
  8
0
  6
Continuous
100
AcDbLine
 10
1680.151545277042
 20
894.6948599766427
 30
0.0
 11
1669.966617091529
 21
894.6948599766413
 31
0.0
  0
LINE
  5
80C
330
1F
100
AcDbEntity
  8
0
  6
Continuous
100
AcDbLine
 10
1676.807378476514
 20
876.6948599766418
 30
0.0
 11
1669.966617091529
 21
876.6948599766413
 31
0.0
  0
ELLIPSE
  5
80D
330
1F
100
AcDbEntity
  8
0
  6
Continuous
100
AcDbEllipse
 10
1669.966617091529
 20
777.7065415493028
 30
0.0
 11
-0.0000000000000113
 21
-8.999999999999989
 31
0.0
210
0.0
220
0.0
230
1.0
 40
0.3907311284892727
 41
3.141592653593443
 42
6.283185307183237
  0
ELLIPSE
  5
80E
330
1F
100
AcDbEntity
  8
0
  6
Continuous
100
AcDbEllipse
 10
1669.966617091529
 20
885.6948599766413
 30
0.0
 11
-0.0000000000000581
 21
8.999999999999989
 31
0.0
210
0.0
220
0.0
230
1.0
 40
0.3907311284892727
 41
0.0000000000033196
 42
3.141592653593112
  0
LINE
  5
80F
330
1F
100
AcDbEntity
  8
0
  6
Continuous
100
AcDbLine
 10
1692.455960985203
 20
883.227392874933
 30
0.0
 11
1676.807378476514
 21
883.2273928749309
 31
0.0
  0
LINE
  5
810
330
1F
100
AcDbEntity
  8
0
  6
Continuous
100
AcDbLine
 10
1692.455960985205
 20
780.174008651027
 30
0.0
 11
1676.807378476514
 21
780.1740086510252
 31
0.0
  0
ELLIPSE
  5
811
330
1F
100
AcDbEntity
  8
0
  6
Continuous
100
AcDbEllipse
 10
1724.105182392836
 20
831.700700762958
 30
0.0
 11
0.0000000000159539
 21
-94.99999999999969
 31
0.0
210
0.0
220
0.0
230
1.0
 40
0.3907311284892726
 41
3.711213972661525
 42
4.142767661310838
  0
LINE
  5
812
330
1F
100
AcDbEntity
  8
0
  6
Continuous
100
AcDbLine
 10
1692.846692113694
 20
882.9354545927776
 30
0.0
 11
1692.846692113694
 21
780.4659469331822
 31
0.0
  0
ELLIPSE
  5
813
330
1F
100
AcDbEntity
  8
0
  6
Continuous
100
AcDbEllipse
 10
1724.105182392836
 20
831.700700762958
 30
0.0
 11
0.0000000000121098
 21
-94.99999999999985
 31
0.0
210
0.0
220
0.0
230
1.0
 40
0.3907311284892727
 41
5.282010299457303
 42
5.713563988106331
  0
ELLIPSE
  5
814
330
1F
100
AcDbEntity
  8
0
  6
Continuous
100
AcDbEllipse
 10
1724.105182392836
 20
831.700700762958
 30
0.0
 11
-0.0000000000122569
 21
95.99999999999985
 31
0.0
210
0.0
220
0.0
230
1.0
 40
0.3907311284892726
 41
0.5665643306207615
 42
1.004231996173498
  0
ELLIPSE
  5
815
330
1F
100
AcDbEntity
  8
0
  6
Continuous
100
AcDbEllipse
 10
1724.105182392836
 20
831.700700762958
 30
0.0
 11
-0.0000000000083572
 21
95.99999999999985
 31
0.0
210
0.0
220
0.0
230
1.0
 40
0.3907311284892727
 41
2.137360657416245
 42
2.575028322969266
  0
LINE
  5
816
330
1F
100
AcDbEntity
  8
0
  6
Continuous
100
AcDbLine
 10
1692.455960985205
 20
780.174008651027
 30
0.0
 11
1692.455960985203
 21
883.227392874933
 31
0.0
  0
LINE
  5
817
330
1F
100
AcDbEntity
  8
0
  6
Continuous
100
AcDbLine
 10
1703.972099836613
 20
912.7007007629716
 30
0.0
 11
1704.892604690066
 21
912.7007007629712
 31
0.0
  0
LINE
  5
818
330
1F
100
AcDbEntity
  8
0
  6
Continuous
100
AcDbLine
 10
1703.972099836613
 20
912.7007007629716
 30
0.0
 11
1688.323517327921
 21
912.7007007629698
 31
0.0
  0
LINE
  5
819
330
1F
100
AcDbEntity
  8
0
  6
Continuous
100
AcDbLine
 10
1703.972099836613
 20
750.7007007629725
 30
0.0
 11
1688.323517327921
 21
750.7007007629702
 31
0.0
  0
LINE
  5
81A
330
1F
100
AcDbEntity
  8
0
  6
Continuous
100
AcDbLine
 10
1704.892604690066
 20
750.7007007629717
 30
0.0
 11
1703.972099836613
 21
750.7007007629725
 31
0.0
  0
ELLIPSE
  5
81B
330
1F
100
AcDbEntity
  8
0
  6
Continuous
100
AcDbEllipse
 10
1708.456599884145
 20
831.7007007629557
 30
0.0
 11
0.0000000000161121
 21
-96.00000000000008
 31
0.0
210
0.0
220
0.0
230
1.0
 40
0.3907311284892727
 41
3.708156984209686
 42
4.145824649762701
  0
LINE
  5
81C
330
1F
100
AcDbEntity
  8
0
  6
Continuous
100
AcDbLine
 10
1676.807378476514
 20
883.2273928749309
 30
0.0
 11
1676.807378476514
 21
780.1740086510252
 31
0.0
  0
ELLIPSE
  5
81D
330
1F
100
AcDbEntity
  8
0
  6
Continuous
100
AcDbEllipse
 10
1708.456599884145
 20
831.7007007629563
 30
0.0
 11
0.000000000012243
 21
-96.0000000000001
 31
0.0
210
0.0
220
0.0
230
1.0
 40
0.3907311284892726
 41
5.278953311005437
 42
5.716620976558189
  0
LINE
  5
81E
330
1F
100
AcDbEntity
  8
0
  6
Continuous
100
AcDbLine
 10
1688.323517327921
 20
750.7007007629667
 30
0.0
 11
1650.709164356906
 21
750.7007007629616
 31
0.0
  0
LINE
  5
81F
330
1F
100
AcDbEntity
  8
0
  6
Continuous
100
AcDbLine
 10
1650.709164356906
 20
750.7007007629616
 30
0.0
 11
1650.709164356906
 21
777.5173084734419
 31
0.0
  0
LINE
  5
820
330
1F
100
AcDbEntity
  8
0
  6
Continuous
100
AcDbLine
 10
1650.709164356906
 20
885.8840930524815
 30
0.0
 11
1650.709164356906
 21
912.7007007629616
 31
0.0
  0
LINE
  5
821
330
1F
100
AcDbEntity
  8
0
  6
Continuous
100
AcDbLine
 10
1650.709164356906
 20
912.7007007629616
 30
0.0
 11
1688.323517327921
 21
912.7007007629662
 31
0.0
  0
ELLIPSE
  5
822
330
1F
100
AcDbEntity
  8
0
  6
Continuous
100
AcDbEllipse
 10
1578.884331062844
 20
831.7007007629397
 30
0.0
 11
-113.7819141292094
 21
-0.0000000000348754
 31
0.0
210
0.0
220
0.0
230
1.0
 40
0.5624795512520749
 41
3.675902100668364
 42
3.963150890497563
  0
ELLIPSE
  5
823
330
1F
100
AcDbEntity
  8
0
  6
Continuous
100
AcDbEllipse
 10
1578.884331062844
 20
831.7007007629397
 30
0.0
 11
-113.7819141292094
 21
-0.0000000000348754
 31
0.0
210
0.0
220
0.0
230
1.0
 40
0.5624795512520749
 41
2.320034416683426
 42
2.607283206513014
  0
ELLIPSE
  5
824
330
1F
100
AcDbEntity
  8
0
  6
Continuous
100
AcDbEllipse
 10
1668.487588439598
 20
885.884093052487
 30
0.0
 11
-17.77842408268897
 21
-0.0000000000054498
 31
0.0
210
0.0
220
0.0
230
1.0
 40
0.5624795512520749
 41
0.0000000000010639
 42
0.8215582369077488
  0
ELLIPSE
  5
825
330
1F
100
AcDbEntity
  8
0
  6
Continuous
100
AcDbEllipse
 10
1668.487588439598
 20
777.5173084734477
 30
0.0
 11
-17.77842408268897
 21
-0.0000000000054487
 31
0.0
210
0.0
220
0.0
230
1.0
 40
0.5624795512520749
 41
5.461627070273198
 42
6.28318530718065
  0
LINE
  5
826
330
1F
100
AcDbEntity
  8
0
  6
Continuous
100
AcDbLine
 10
1747.587334139932
 20
890.7007007629607
 30
0.0
 11
1736.99225034117
 21
890.7007007629594
 31
0.0
  0
LINE
  5
827
330
1F
100
AcDbEntity
  8
0
  6
Continuous
100
AcDbLine
 10
1747.587334139932
 20
772.7007007629612
 30
0.0
 11
1736.99225034117
 21
772.7007007629594
 31
0.0
  0
LINE
  5
828
330
1F
100
AcDbEntity
  8
0
  6
Continuous
100
AcDbLine
 10
1849.984221102458
 20
924.2007007629736
 30
0.0
 11
1807.803011297727
 21
924.200700762968
 31
0.0
  0
LINE
  5
829
330
1F
100
AcDbEntity
  8
0
  6
Continuous
100
AcDbLine
 10
1849.984221102458
 20
739.2007007629739
 30
0.0
 11
1807.803011297727
 21
739.2007007629689
 31
0.0
  0
LINE
  5
82A
330
1F
100
AcDbEntity
  8
0
  6
Continuous
100
AcDbLine
 10
1904.294007456151
 20
856.7007007629808
 30
0.0
 11
1899.691483188889
 21
856.7007007629799
 31
0.0
  0
LINE
  5
82B
330
1F
100
AcDbEntity
  8
0
  6
Continuous
100
AcDbLine
 10
1904.294007456151
 20
806.7007007629808
 30
0.0
 11
1899.691483188889
 21
806.7007007629799
 31
0.0
  0
LINE
  5
82C
330
1F
100
AcDbEntity
  8
0
  6
Continuous
100
AcDbLine
 10
1898.215596288551
 20
913.3765534080762
 30
0.0
 11
1853.251421354397
 21
923.8219847072153
 31
0.0
  0
LINE
  5
82D
330
1F
100
AcDbEntity
  8
0
  6
Continuous
100
AcDbLine
 10
1898.215596288551
 20
750.0248481178786
 30
0.0
 11
1853.251421354397
 21
739.5794168187275
 31
0.0
  0
LINE
  5
82E
330
1F
100
AcDbEntity
  8
0
  6
Continuous
100
AcDbLine
 10
1933.289910339902
 20
841.7007007629845
 30
0.0
 11
1904.294007456151
 21
841.7007007629802
 31
0.0
  0
LINE
  5
82F
330
1F
100
AcDbEntity
  8
0
  6
Continuous
100
AcDbLine
 10
1933.289910339902
 20
821.7007007629844
 30
0.0
 11
1904.294007456151
 21
821.7007007629803
 31
0.0
  0
ELLIPSE
  5
830
330
1F
100
AcDbEntity
  8
0
  6
Continuous
100
AcDbEllipse
 10
1736.992250341171
 20
831.7007007629594
 30
0.0
 11
0.0000000000000649
 21
-58.99999999999987
 31
0.0
210
0.0
220
0.0
230
1.0
 40
0.3907311284892727
 41
3.141592653593373
 42
6.283185307183166
  0
ELLIPSE
  5
831
330
1F
100
AcDbEntity
  8
0
  6
Continuous
100
AcDbEllipse
 10
1775.423327972809
 20
831.7007007629644
 30
0.0
 11
-0.0000000000117989
 21
92.49999999999971
 31
0.0
210
0.0
220
0.0
230
1.0
 40
0.3907311284892727
 41
1.361382301391234
 42
1.780210352197904
  0
ELLIPSE
  5
832
330
1F
100
AcDbEntity
  8
0
  6
Continuous
100
AcDbEllipse
 10
1775.423327972809
 20
831.7007007629644
 30
0.0
 11
-0.0000000000117961
 21
92.49999999999969
 31
0.0
210
0.0
220
0.0
230
1.0
 40
0.3907311284892727
 41
0.5759841379938005
 42
0.9948121888004646
  0
ELLIPSE
  5
833
330
1F
100
AcDbEntity
  8
0
  6
Continuous
100
AcDbEllipse
 10
1775.423327972809
 20
831.7007007629644
 30
0.0
 11
-0.0000000000080519
 21
92.49999999999998
 31
0.0
210
0.0
220
0.0
230
1.0
 40
0.3907311284892727
 41
2.146780464789284
 42
2.565608515596217
  0
ELLIPSE
  5
834
330
1F
100
AcDbEntity
  8
0
  6
Continuous
100
AcDbEllipse
 10
1904.294007456151
 20
831.7007007629808
 30
0.0
 11
0.0000000000031898
 21
-24.99999999999994
 31
0.0
210
0.0
220
0.0
230
1.0
 40
0.3907311284892727
 41
1.982313172862061
 42
7.442464787906676
  0
ELLIPSE
  5
835
330
1F
100
AcDbEntity
  8
0
  6
Continuous
100
AcDbEllipse
 10
1849.984221102458
 20
831.7007007629738
 30
0.0
 11
0.0000000000117996
 21
-92.49999999999976
 31
0.0
210
0.0
220
0.0
230
1.0
 40
0.3907311284892727
 41
3.051071667433075
 42
6.373706293335669
  0
ELLIPSE
  5
836
330
1F
100
AcDbEntity
  8
0
  6
Continuous
100
AcDbEllipse
 10
1899.691483188889
 20
831.7007007629799
 30
0.0
 11
-0.0000000000000289
 21
-24.99999999999994
 31
0.0
210
0.0
220
0.0
230
1.0
 40
0.3907311284892727
 41
3.141592653593442
 42
6.283185307183235
  0
ELLIPSE
  5
837
330
1F
100
AcDbEntity
  8
0
  6
Continuous
100
AcDbEllipse
 10
1904.294007456151
 20
831.7007007629808
 30
0.0
 11
0.0000000000000112
 21
-9.999999999999966
 31
0.0
210
0.0
220
0.0
230
1.0
 40
0.3907311284892726
 41
3.141592653593404
 42
6.283185307183197
  0
LINE
  5
838
330
1F
100
AcDbEntity
  8
0
  6
Continuous
100
AcDbLine
 10
1936.08043957368
 20
839.3969385888098
 30
0.0
 11
1934.948465579432
 21
840.7550982051315
 31
0.0
  0
LINE
  5
839
330
1F
100
AcDbEntity
  8
0
  6
Continuous
100
AcDbLine
 10
1936.08043957368
 20
824.0044629371572
 30
0.0
 11
1934.948465579432
 21
822.6463033208345
 31
0.0
  0
ELLIPSE
  5
83A
330
1F
100
AcDbEntity
  8
0
  6
Continuous
100
AcDbEllipse
 10
1933.289910339902
 20
831.700700762984
 30
0.0
 11
-0.0000000000012738
 21
9.999999999999966
 31
0.0
210
0.0
220
0.0
230
1.0
 40
0.3907311284892725
 41
5.8448035322253
 42
9.863159735723217
  0
ELLIPSE
  5
83B
330
1F
100
AcDbEntity
  8
0
  6
Continuous
100
AcDbEllipse
 10
1934.67066762008
 20
831.7007007629843
 30
0.0
 11
-0.0000000000000089
 21
8.499999999999964
 31
0.0
210
0.0
220
0.0
230
1.0
 40
0.3907311284892727
 41
0.0
 42
6.283185307179585
  0
LINE
  5
83C
330
1F
100
AcDbEntity
  8
0
  6
Continuous
100
AcDbLine
 10
1796.789252928119
 20
733.3127475118266
 30
0.0
 11
1826.694518804552
 21
733.3127475118303
 31
0.0
  0
LINE
  5
83D
330
1F
100
AcDbEntity
  8
0
  6
Continuous
100
AcDbLine
 10
1760.470695034592
 20
733.3127475118462
 30
0.0
 11
1796.789252928119
 21
733.3127475118511
 31
0.0
  0
LINE
  5
83E
330
1F
100
AcDbEntity
  8
0
  6
Continuous
100
AcDbLine
 10
1796.789252928119
 20
930.0886540140831
 30
0.0
 11
1826.694518804552
 21
930.0886540140872
 31
0.0
  0
LINE
  5
83F
330
1F
100
AcDbEntity
  8
0
  6
Continuous
100
AcDbLine
 10
1760.470695034592
 20
930.0886540141036
 30
0.0
 11
1796.789252928119
 21
930.088654014108
 31
0.0
  0
ELLIPSE
  5
840
330
1F
100
AcDbEntity
  8
0
  6
Continuous
100
AcDbEllipse
 10
1760.470695034594
 20
739.3127475118466
 30
0.0
 11
-0.0000000000000995
 21
-6.000000000000052
 31
0.0
210
0.0
220
0.0
230
1.0
 40
0.3907311284892727
 41
5.078908123305604
 42
6.283185307183797
  0
ELLIPSE
  5
841
330
1F
100
AcDbEntity
  8
0
  6
Continuous
100
AcDbEllipse
 10
1739.324478740182
 20
793.4323575264806
 30
0.0
 11
0.0000000000007654
 21
-6.000000000000001
 31
0.0
210
0.0
220
0.0
230
1.0
 40
0.3907311284892727
 41
4.293509959905733
 42
5.916666164260482
  0
LINE
  5
842
330
1F
100
AcDbEntity
  8
0
  6
Continuous
100
AcDbLine
 10
1788.375798242356
 20
781.3196130026384
 30
0.0
 11
1745.112070130092
 21
781.3196130026329
 31
0.0
  0
LINE
  5
843
330
1F
100
AcDbEntity
  8
0
  6
Continuous
100
AcDbLine
 10
1745.112070130092
 20
781.3196130026329
 30
0.0
 11
1738.48432566014
 21
787.8308749674983
 31
0.0
  0
LINE
  5
844
330
1F
100
AcDbEntity
  8
0
  6
Continuous
100
AcDbLine
 10
1783.334038373985
 20
850.9302263237586
 30
0.0
 11
1740.070310261721
 21
850.9302263237531
 31
0.0
  0
LINE
  5
845
330
1F
100
AcDbEntity
  8
0
  6
Continuous
100
AcDbLine
 10
1740.070310261721
 20
850.9302263237531
 30
0.0
 11
1737.182774854637
 21
867.5286241410452
 31
0.0
  0
LINE
  5
846
330
1F
100
AcDbEntity
  8
0
  6
Continuous
100
AcDbLine
 10
1799.001596809953
 20
909.2764443693685
 30
0.0
 11
1755.737868697688
 21
909.2764443693635
 31
0.0
  0
LINE
  5
847
330
1F
100
AcDbEntity
  8
0
  6
Continuous
100
AcDbLine
 10
1755.737868697688
 20
909.2764443693635
 30
0.0
 11
1758.282021433108
 21
926.2388617113769
 31
0.0
  0
ELLIPSE
  5
848
330
1F
100
AcDbEntity
  8
0
  6
Continuous
100
AcDbEllipse
 10
1760.470695034594
 20
924.0886540141032
 30
0.0
 11
-0.0000000000007652
 21
5.999999999999962
 31
0.0
210
0.0
220
0.0
230
1.0
 40
0.3907311284892727
 41
0.0
 42
1.204277183875714
  0
LINE
  5
849
330
1F
100
AcDbEntity
  8
0
  6
Continuous
100
AcDbLine
 10
1758.282021433108
 20
737.1625398145759
 30
0.0
 11
1755.737868697688
 21
754.124957156593
 31
0.0
  0
LINE
  5
84A
330
1F
100
AcDbEntity
  8
0
  6
Continuous
100
AcDbLine
 10
1755.737868697688
 20
754.124957156593
 30
0.0
 11
1799.001596809953
 21
754.1249571565985
 31
0.0
  0
LINE
  5
84B
330
1F
100
AcDbEntity
  8
0
  6
Continuous
100
AcDbLine
 10
1738.48432566014
 20
875.5705265584824
 30
0.0
 11
1745.112070130092
 21
882.0817885233381
 31
0.0
  0
LINE
  5
84C
330
1F
100
AcDbEntity
  8
0
  6
Continuous
100
AcDbLine
 10
1745.112070130092
 20
882.0817885233381
 30
0.0
 11
1788.375798242356
 21
882.0817885233436
 31
0.0
  0
ELLIPSE
  5
84D
330
1F
100
AcDbEntity
  8
0
  6
Continuous
100
AcDbEllipse
 10
1739.324478740182
 20
869.9690439994986
 30
0.0
 11
-0.0000000000005232
 21
6.000000000000011
 31
0.0
210
0.0
220
0.0
230
1.0
 40
0.3907311284892725
 41
0.3665191429193539
 42
1.989675347273339
  0
LINE
  5
84E
330
1F
100
AcDbEntity
  8
0
  6
Continuous
100
AcDbLine
 10
1737.182774854637
 20
795.8727773849371
 30
0.0
 11
1740.070310261721
 21
812.4711752022252
 31
0.0
  0
LINE
  5
84F
330
1F
100
AcDbEntity
  8
0
  6
Continuous
100
AcDbLine
 10
1740.070310261721
 20
812.4711752022252
 30
0.0
 11
1783.334038373985
 21
812.4711752022307
 31
0.0
  0
ELLIPSE
  5
850
330
1F
100
AcDbEntity
  8
0
  6
Continuous
100
AcDbEllipse
 10
1818.687056085075
 20
831.7007007629698
 30
0.0
 11
0.0000000000118003
 21
-92.5000000000001
 31
0.0
210
0.0
220
0.0
230
1.0
 40
0.3907311284892727
 41
4.9218030057877
 42
5.28837311837848
  0
SPLINE
  5
851
330
1F
100
AcDbEntity
  8
0
  6
Continuous
100
AcDbSpline
210
0.0
220
0.0
230
1.0
 70
    12
 71
     2
 72
     6
 73
     3
 74
     0
 42
0.0000000001
 43
0.0000000001
 40
0.0
 40
0.0
 40
0.0
 40
2.028228737672955
 40
2.028228737672955
 40
2.028228737672955
 10
1788.375798242358
 20
781.319613002638
 30
0.0
 41
1.0
 10
1782.590697401191
 20
784.3812668408321
 30
0.0
 41
1.006852855008617
 10
1775.518862608464
 20
787.8308749675023
 30
0.0
 41
1.005104936193821
  0
SPLINE
  5
852
330
1F
100
AcDbEntity
  8
0
  6
Continuous
100
AcDbSpline
210
0.0
220
0.0
230
1.0
 70
     8
 71
     3
 72
    14
 73
    10
 74
     0
 42
0.0000000001
 43
0.0000000001
 40
0.5302283687096684
 40
0.5302283687096684
 40
0.5302283687096684
 40
0.5302283687096684
 40
0.7705741176297878
 40
0.7705741176297878
 40
1.013400618476665
 40
1.013400618476665
 40
1.256227119323542
 40
1.256227119323542
 40
1.496572868243662
 40
1.496572868243662
 40
1.496572868243662
 40
1.496572868243662
 10
1774.217311802959
 20
795.8727773849417
 30
0.0
 10
1773.823656556792
 20
795.1927240899948
 30
0.0
 10
1773.499933467107
 20
794.388722620651
 30
0.0
 10
1773.149594218845
 20
792.7346601909475
 30
0.0
 10
1773.126620760757
 20
791.8840650459091
 30
0.0
 10
1773.36868046308
 20
790.3884488186839
 30
0.0
 10
1773.64543168574
 20
789.6710252511319
 30
0.0
 10
1774.448554191643
 20
788.5274721296099
 30
0.0
 10
1774.971967180626
 20
788.097648014047
 30
0.0
 10
1775.518862608464
 20
787.8308749675023
 30
0.0
  0
SPLINE
  5
853
330
1F
100
AcDbEntity
  8
0
  6
Continuous
100
AcDbSpline
210
0.0
220
0.0
230
1.0
 70
    12
 71
     2
 72
     6
 73
     3
 74
     0
 42
0.0000000001
 43
0.0000000001
 40
1.203842643101298
 40
1.203842643101298
 40
1.203842643101298
 40
3.232071380774219
 40
3.232071380774219
 40
3.232071380774219
 10
1774.217311802959
 20
795.8727773849417
 30
0.0
 41
1.005104936193812
 10
1779.307617416193
 20
804.6664595174078
 30
0.0
 41
1.006852855008605
 10
1783.334038373985
 20
812.4711752022307
 30
0.0
 41
1.0
  0
ELLIPSE
  5
854
330
1F
100
AcDbEntity
  8
0
  6
Continuous
100
AcDbEllipse
 10
1818.687056085074
 20
831.7007007629698
 30
0.0
 11
0.0000000000117933
 21
-92.49999999999985
 31
0.0
210
0.0
220
0.0
230
1.0
 40
0.3907311284892727
 41
5.707201169185154
 42
6.073771281775926
  0
SPLINE
  5
855
330
1F
100
AcDbEntity
  8
0
  6
Continuous
100
AcDbSpline
210
0.0
220
0.0
230
1.0
 70
    12
 71
     2
 72
     6
 73
     3
 74
     0
 42
0.0000000001
 43
0.0000000001
 40
0.0
 40
0.0
 40
0.0
 40
2.028228737672953
 40
2.028228737672953
 40
2.028228737672953
 10
1811.173481862405
 20
741.2215576044112
 30
0.0
 41
1.0
 10
1805.455260612109
 20
737.746674300852
 30
0.0
 41
1.006852855008656
 10
1798.4587799882
 20
733.8314747659945
 30
0.0
 41
1.005104936193849
  0
SPLINE
  5
856
330
1F
100
AcDbEntity
  8
0
  6
Continuous
100
AcDbSpline
210
0.0
220
0.0
230
1.0
 70
     8
 71
     3
 72
    14
 73
    10
 74
     0
 42
0.0000000001
 43
0.0000000001
 40
0.5302283687096675
 40
0.5302283687096675
 40
0.5302283687096675
 40
0.5302283687096675
 40
0.7705741176297892
 40
0.7705741176297892
 40
1.013400618476665
 40
1.013400618476665
 40
1.256227119323543
 40
1.256227119323543
 40
1.496572868243664
 40
1.496572868243664
 40
1.496572868243664
 40
1.496572868243664
 10
1795.316558381432
 20
737.1625398145805
 30
0.0
 10
1795.145444940752
 20
736.467572268274
 30
0.0
 10
1795.066304881661
 20
735.7603666017229
 30
0.0
 10
1795.177179662937
 20
734.5647222021461
 30
0.0
 10
1795.370447975869
 20
734.0792225794952
 30
0.0
 10
1795.95483179212
 20
733.4597180540725
 30
0.0
 10
1796.374237200251
 20
733.2957230599134
 30
0.0
 10
1797.356477900383
 20
733.3325571558665
 30
0.0
 10
1797.917712022623
 20
733.5286955315463
 30
0.0
 10
1798.458779988198
 20
733.8314747659945
 30
0.0
  0
SPLINE
  5
857
330
1F
100
AcDbEntity
  8
0
  6
Continuous
100
AcDbSpline
210
0.0
220
0.0
230
1.0
 70
    12
 71
     2
 72
     6
 73
     3
 74
     0
 42
0.0000000001
 43
0.0000000001
 40
1.203842643101268
 40
1.203842643101268
 40
1.203842643101268
 40
3.232071380774218
 40
3.232071380774218
 40
3.232071380774218
 10
1795.316558381432
 20
737.1625398145805
 30
0.0
 41
1.005104936193854
 10
1797.529204385971
 20
746.1490762228453
 30
0.0
 41
1.006852855008661
 10
1799.001596809953
 20
754.1249571565985
 30
0.0
 41
1.0
  0
SPLINE
  5
858
330
1F
100
AcDbEntity
  8
0
  6
Continuous
100
AcDbSpline
210
0.0
220
0.0
230
1.0
 70
     8
 71
     3
 72
    14
 73
    10
 74
     0
 42
0.0000000001
 43
0.0000000001
 40
0.5302283687096655
 40
0.5302283687096655
 40
0.5302283687096655
 40
0.5302283687096655
 40
0.7705741176297893
 40
0.7705741176297893
 40
1.013400618476665
 40
1.013400618476665
 40
1.256227119323543
 40
1.256227119323543
 40
1.496572868243664
 40
1.496572868243664
 40
1.496572868243664
 40
1.496572868243664
 10
1775.518862608464
 20
875.5705265584868
 30
0.0
 10
1774.971967180626
 20
875.3037535119432
 30
0.0
 10
1774.448554191643
 20
874.8739293963803
 30
0.0
 10
1773.64543168574
 20
873.7303762748592
 30
0.0
 10
1773.36868046308
 20
873.0129527073076
 30
0.0
 10
1773.126620760757
 20
871.5173364800829
 30
0.0
 10
1773.149594218844
 20
870.6667413350441
 30
0.0
 10
1773.499933467107
 20
869.012678905341
 30
0.0
 10
1773.823656556792
 20
868.2086774359968
 30
0.0
 10
1774.217311802959
 20
867.5286241410498
 30
0.0
  0
SPLINE
  5
859
330
1F
100
AcDbEntity
  8
0
  6
Continuous
100
AcDbSpline
210
0.0
220
0.0
230
1.0
 70
    12
 71
     2
 72
     6
 73
     3
 74
     0
 42
0.0000000001
 43
0.0000000001
 40
1.203842643101288
 40
1.203842643101288
 40
1.203842643101288
 40
3.232071380774218
 40
3.232071380774218
 40
3.232071380774218
 10
1775.518862608464
 20
875.5705265584868
 30
0.0
 41
1.005104936193822
 10
1782.590697401191
 20
879.0201346851535
 30
0.0
 41
1.006852855008618
 10
1788.375798242358
 20
882.0817885233436
 30
0.0
 41
1.0
  0
ELLIPSE
  5
85A
330
1F
100
AcDbEntity
  8
0
  6
Continuous
100
AcDbEllipse
 10
1818.687056085074
 20
831.7007007629698
 30
0.0
 11
0.0000000000155265
 21
-92.49999999999943
 31
0.0
210
0.0
220
0.0
230
1.0
 40
0.3907311284892727
 41
4.136404842389936
 42
4.502974954980886
  0
SPLINE
  5
85B
330
1F
100
AcDbEntity
  8
0
  6
Continuous
100
AcDbSpline
210
0.0
220
0.0
230
1.0
 70
    12
 71
     2
 72
     6
 73
     3
 74
     0
 42
0.0000000001
 43
0.0000000001
 40
0.0
 40
0.0
 40
0.0
 40
2.028228737672935
 40
2.028228737672935
 40
2.028228737672935
 10
1783.334038373985
 20
850.9302263237586
 30
0.0
 41
1.0
 10
1779.307617416193
 20
858.7349420085828
 30
0.0
 41
1.006852855008602
 10
1774.217311802959
 20
867.5286241410498
 30
0.0
 41
1.00510493619381
  0
SPLINE
  5
85C
330
1F
100
AcDbEntity
  8
0
  6
Continuous
100
AcDbSpline
210
0.0
220
0.0
230
1.0
 70
    12
 71
     2
 72
     6
 73
     3
 74
     0
 42
0.0000000001
 43
0.0000000001
 40
1.796906728079375
 40
1.796906728079375
 40
1.796906728079375
 40
2.028228737672964
 40
2.028228737672964
 40
2.028228737672964
 10
1830.706043138589
 20
739.2007007629571
 30
0.0
 41
1.005391764656031
 10
1830.159841147934
 20
738.189044257664
 30
0.0
 41
1.005304288508152
 10
1829.599171460834
 20
737.1625398145568
 30
0.0
 41
1.005104936193822
  0
SPLINE
  5
85D
330
1F
100
AcDbEntity
  8
0
  6
Continuous
100
AcDbSpline
210
0.0
220
0.0
230
1.0
 70
     8
 71
     3
 72
    14
 73
    10
 74
     0
 42
0.0000000001
 43
0.0000000001
 40
0.5302283687096657
 40
0.5302283687096657
 40
0.5302283687096657
 40
0.5302283687096657
 40
0.7705741176297883
 40
0.7705741176297883
 40
1.013400618476666
 40
1.013400618476666
 40
1.256227119323542
 40
1.256227119323542
 40
1.496572868243666
 40
1.496572868243666
 40
1.496572868243666
 40
1.496572868243666
 10
1826.456949854066
 20
733.831474765975
 30
0.0
 10
1826.447317871227
 20
733.5286955315258
 30
0.0
 10
1826.514380551834
 20
733.3325571558461
 30
0.0
 10
1826.824727211201
 20
733.2957230598921
 30
0.0
 10
1827.070029804888
 20
733.4597180540512
 30
0.0
 10
1827.654413621137
 20
734.0792225794724
 30
0.0
 10
1828.021784748513
 20
734.5647222021228
 30
0.0
 10
1828.804553570556
 20
735.7603666016992
 30
0.0
 10
1829.219584953101
 20
736.4675722682504
 30
0.0
 10
1829.599171460834
 20
737.1625398145568
 30
0.0
  0
SPLINE
  5
85E
330
1F
100
AcDbEntity
  8
0
  6
Continuous
100
AcDbSpline
210
0.0
220
0.0
230
1.0
 70
    12
 71
     2
 72
     6
 73
     3
 74
     0
 42
0.0000000001
 43
0.0000000001
 40
1.203842643101257
 40
1.203842643101257
 40
1.203842643101257
 40
2.654553568647173
 40
2.654553568647173
 40
2.654553568647173
 10
1826.456949854066
 20
733.831474765975
 30
0.0
 41
1.005104936193853
 10
1826.546079502866
 20
736.6332454168494
 30
0.0
 41
1.006355152638631
 10
1826.377153457647
 20
739.200700762963
 30
0.0
 41
1.003205239902001
  0
SPLINE
  5
85F
330
1F
100
AcDbEntity
  8
0
  6
Continuous
100
AcDbSpline
210
0.0
220
0.0
230
1.0
 70
     8
 71
     3
 72
    14
 73
    10
 74
     0
 42
0.0000000001
 43
0.0000000001
 40
0.5302283687096684
 40
0.5302283687096684
 40
0.5302283687096684
 40
0.5302283687096684
 40
0.7705741176297878
 40
0.7705741176297878
 40
1.013400618476665
 40
1.013400618476665
 40
1.256227119323542
 40
1.256227119323542
 40
1.496572868243663
 40
1.496572868243663
 40
1.496572868243663
 40
1.496572868243663
 10
1798.458779988198
 20
929.5699267599628
 30
0.0
 10
1797.917712022623
 20
929.8727059944116
 30
0.0
 10
1797.356477900383
 20
930.0688443700918
 30
0.0
 10
1796.374237200251
 20
930.1056784660453
 30
0.0
 10
1795.95483179212
 20
929.941683471887
 30
0.0
 10
1795.370447975869
 20
929.3221789464654
 30
0.0
 10
1795.177179662937
 20
928.836679323815
 30
0.0
 10
1795.066304881659
 20
927.6410349242386
 30
0.0
 10
1795.145444940752
 20
926.9338292576875
 30
0.0
 10
1795.316558381432
 20
926.238861711381
 30
0.0
  0
SPLINE
  5
860
330
1F
100
AcDbEntity
  8
0
  6
Continuous
100
AcDbSpline
210
0.0
220
0.0
230
1.0
 70
    12
 71
     2
 72
     6
 73
     3
 74
     0
 42
0.0000000001
 43
0.0000000001
 40
1.203842643101298
 40
1.203842643101298
 40
1.203842643101298
 40
3.232071380774219
 40
3.232071380774219
 40
3.232071380774219
 10
1798.458779988198
 20
929.5699267599628
 30
0.0
 41
1.005104936193812
 10
1805.455260612109
 20
925.6547272251017
 30
0.0
 41
1.006852855008605
 10
1811.173481862403
 20
922.1798439215389
 30
0.0
 41
1.0
  0
ELLIPSE
  5
861
330
1F
100
AcDbEntity
  8
0
  6
Continuous
100
AcDbEllipse
 10
1818.687056085074
 20
831.7007007629698
 30
0.0
 11
-0.000000000011792
 21
92.49999999999955
 31
0.0
210
0.0
220
0.0
230
1.0
 40
0.3907311284892727
 41
0.2094140254030086
 42
0.575984137993801
  0
SPLINE
  5
862
330
1F
100
AcDbEntity
  8
0
  6
Continuous
100
AcDbSpline
210
0.0
220
0.0
230
1.0
 70
    12
 71
     2
 72
     6
 73
     3
 74
     0
 42
0.0000000001
 43
0.0000000001
 40
0.0
 40
0.0
 40
0.0
 40
2.028228737672955
 40
2.028228737672955
 40
2.028228737672955
 10
1799.001596809953
 20
909.2764443693685
 30
0.0
 41
1.0
 10
1797.529204385971
 20
917.2523253031194
 30
0.0
 41
1.006852855008617
 10
1795.316558381432
 20
926.238861711381
 30
0.0
 41
1.005104936193821
  0
SPLINE
  5
863
330
1F
100
AcDbEntity
  8
0
  6
Continuous
100
AcDbSpline
210
0.0
220
0.0
230
1.0
 70
     8
 71
     3
 72
    14
 73
    10
 74
     0
 42
0.0000000001
 43
0.0000000001
 40
0.5302283687096648
 40
0.5302283687096648
 40
0.5302283687096648
 40
0.5302283687096648
 40
0.7705741176297884
 40
0.7705741176297884
 40
1.013400618476664
 40
1.013400618476664
 40
1.256227119323541
 40
1.256227119323541
 40
1.496572868243667
 40
1.496572868243667
 40
1.496572868243667
 40
1.496572868243667
 10
1829.599171460834
 20
926.2388617113574
 30
0.0
 10
1829.219584953101
 20
926.9338292576639
 30
0.0
 10
1828.804553570556
 20
927.641034924215
 30
0.0
 10
1828.021784748513
 20
928.8366793237923
 30
0.0
 10
1827.654413621137
 20
929.3221789464432
 30
0.0
 10
1827.070029804888
 20
929.9416834718654
 30
0.0
 10
1826.824727211201
 20
930.1056784660245
 30
0.0
 10
1826.514380551834
 20
930.0688443700714
 30
0.0
 10
1826.447317871227
 20
929.8727059943921
 30
0.0
 10
1826.456949854066
 20
929.5699267599433
 30
0.0
  0
SPLINE
  5
864
330
1F
100
AcDbEntity
  8
0
  6
Continuous
100
AcDbSpline
210
0.0
220
0.0
230
1.0
 70
    12
 71
     2
 72
     6
 73
     3
 74
     0
 42
0.0000000001
 43
0.0000000001
 40
1.203842643101277
 40
1.203842643101277
 40
1.203842643101277
 40
1.435164652694912
 40
1.435164652694912
 40
1.435164652694912
 10
1829.599171460834
 20
926.2388617113574
 30
0.0
 41
1.005104936193828
 10
1830.159841147932
 20
925.2123572682497
 30
0.0
 41
1.005304288508158
 10
1830.706043138589
 20
924.2007007629567
 30
0.0
 41
1.005391764656037
  0
SPLINE
  5
865
330
1F
100
AcDbEntity
  8
0
  6
Continuous
100
AcDbSpline
210
0.0
220
0.0
230
1.0
 70
    12
 71
     2
 72
     6
 73
     3
 74
     0
 42
0.0000000001
 43
0.0000000001
 40
0.5775178121269988
 40
0.5775178121269988
 40
0.5775178121269988
 40
2.028228737673
 40
2.028228737673
 40
2.028228737673
 10
1826.377153457647
 20
924.2007007629631
 30
0.0
 41
1.003205239902019
 10
1826.546079502866
 20
926.7681561090729
 30
0.0
 41
1.006355152638667
 10
1826.456949854066
 20
929.5699267599433
 30
0.0
 41
1.005104936193882
  0
LINE
  5
866
330
1F
100
AcDbEntity
  8
0
  6
Continuous
100
AcDbLine
 10
1767.720966894462
 20
112.2841021281298
 30
0.0
 11
1756.674908653033
 21
107.5953285862584
 31
0.0
  0
LINE
  5
867
330
1F
100
AcDbEntity
  8
0
  6
Continuous
100
AcDbLine
 10
1756.204828043054
 20
139.4144250863747
 30
0.0
 11
1745.158769801625
 21
134.7256515445034
 31
0.0
  0
LINE
  5
868
330
1F
100
AcDbEntity
  8
0
  6
Continuous
100
AcDbLine
 10
1715.938662930609
 20
234.2755654291787
 30
0.0
 11
1704.89260468918
 21
229.5867918873078
 31
0.0
  0
LINE
  5
869
330
1F
100
AcDbEntity
  8
0
  6
Continuous
100
AcDbLine
 10
1704.422524079201
 20
261.4058883874241
 30
0.0
 11
1693.376465837772
 21
256.7171148455528
 31
0.0
  0
LINE
  5
86A
330
1F
100
AcDbEntity
  8
0
  6
Continuous
100
AcDbLine
 10
1745.158769801625
 20
134.7256515445038
 30
0.0
 11
1756.674908653035
 21
107.5953285862589
 31
0.0
  0
LINE
  5
86B
330
1F
100
AcDbEntity
  8
0
  6
Continuous
100
AcDbLine
 10
1745.158769801625
 20
134.7256515445034
 30
0.0
 11
1704.89260468918
 21
229.5867918873078
 31
0.0
  0
SPLINE
  5
86C
330
1F
100
AcDbEntity
  8
0
  6
Continuous
100
AcDbSpline
210
0.0
220
0.0
230
1.0
 70
     8
 71
     3
 72
     8
 73
     4
 74
     0
 42
0.0000000001
 43
0.0000000001
 40
-0.1444018654065061
 40
-0.1444018654065061
 40
-0.1444018654065061
 40
-0.1444018654065061
 40
0.0
 40
0.0
 40
0.0
 40
0.0
 10
1744.124195573737
 20
134.6036510216469
 30
0.0
 10
1744.469118613501
 20
134.6440575757106
 30
0.0
 10
1744.813982721868
 20
134.6847265842767
 30
0.0
 10
1745.158769801625
 20
134.7256515445038
 30
0.0
  0
SPLINE
  5
86D
330
1F
100
AcDbEntity
  8
0
  6
Continuous
100
AcDbSpline
210
0.0
220
0.0
230
1.0
 70
     8
 71
     3
 72
     8
 73
     4
 74
     0
 42
0.0000000001
 43
0.0000000001
 40
-0.144401865407123
 40
-0.144401865407123
 40
-0.144401865407123
 40
-0.144401865407123
 40
0.0
 40
0.0
 40
0.0
 40
0.0
 10
1704.086169210163
 20
228.9273301531863
 30
0.0
 10
1704.354838929432
 20
229.1473782727404
 30
0.0
 10
1704.623656505481
 20
229.3672016843771
 30
0.0
 10
1704.89260468918
 20
229.5867918873078
 30
0.0
  0
SPLINE
  5
86E
330
1F
100
AcDbEntity
  8
0
  6
Continuous
100
AcDbSpline
210
0.0
220
0.0
230
1.0
 70
    24
 71
     3
 72
     8
 73
     4
 74
     0
 42
0.0000000001
 43
0.0000000001
 40
-0.1444018654065061
 40
-0.1444018654065061
 40
-0.1444018654065061
 40
-0.1444018654065061
 40
0.0
 40
0.0
 40
0.0
 40
0.0
 10
1692.846692112808
 20
255.4058788636112
 30
0.0
 10
1693.023261155517
 20
255.8429025799374
 30
0.0
 10
1693.199855787622
 20
256.2799896322463
 30
0.0
 10
1693.376465837772
 20
256.7171148455532
 30
0.0
  0
SPLINE
  5
86F
330
1F
100
AcDbEntity
  8
0
  6
Continuous
100
AcDbSpline
210
0.0
220
0.0
230
1.0
 70
    24
 71
     3
 72
     8
 73
     4
 74
     0
 42
0.0000000001
 43
0.0000000001
 40
-0.1444018654022225
 40
-0.1444018654022225
 40
-0.1444018654022225
 40
-0.1444018654022225
 40
0.0
 40
0.0
 40
0.0
 40
0.0
 10
1755.363672671093
 20
108.1251023112218
 30
0.0
 10
1755.800696387424
 20
107.9485332685113
 30
0.0
 10
1756.23778343974
 20
107.7719386364029
 30
0.0
 10
1756.674908653035
 20
107.5953285862584
 30
0.0
  0
LINE
  5
870
330
1F
100
AcDbEntity
  8
0
  6
Continuous
100
AcDbLine
 10
1693.376465837772
 20
256.7171148455528
 30
0.0
 11
1704.89260468918
 21
229.5867918873078
 31
0.0
  0
LINE
  5
871
330
1F
100
AcDbEntity
  8
0
  6
Continuous
100
AcDbLine
 10
1757.011263522071
 20
140.0738868204963
 30
0.0
 11
1716.973237158497
 21
234.3975659520361
 31
0.0
  0
LINE
  5
872
330
1F
100
AcDbEntity
  8
0
  6
Continuous
100
AcDbLine
 10
1715.938662930609
 20
234.2755654291787
 30
0.0
 11
1756.204828043054
 21
139.4144250863747
 31
0.0
  0
LINE
  5
873
330
1F
100
AcDbEntity
  8
0
  6
Continuous
100
AcDbLine
 10
1705.733760061141
 20
260.8761146624611
 30
0.0
 11
1716.973237158497
 21
234.3975659520361
 31
0.0
  0
SPLINE
  5
874
330
1F
100
AcDbEntity
  8
0
  6
Continuous
100
AcDbSpline
210
0.0
220
0.0
230
1.0
 70
     8
 71
     3
 72
     8
 73
     4
 74
     0
 42
0.0000000001
 43
0.0000000001
 40
-0.1444018675914813
 40
-0.1444018675914813
 40
-0.1444018675914813
 40
-0.1444018675914813
 40
0.0
 40
0.0
 40
0.0
 40
0.0
 10
1715.938662930609
 20
234.2755654291792
 30
0.0
 10
1716.283450010366
 20
234.3164903894063
 30
0.0
 10
1716.628314118733
 20
234.3571593979719
 30
0.0
 10
1716.973237158497
 20
234.3975659520361
 30
0.0
  0
LINE
  5
875
330
1F
100
AcDbEntity
  8
0
  6
Continuous
100
AcDbLine
 10
1715.938662930609
 20
234.2755654291792
 30
0.0
 11
1704.422524079201
 21
261.4058883874241
 31
0.0
  0
SPLINE
  5
876
330
1F
100
AcDbEntity
  8
0
  6
Continuous
100
AcDbSpline
210
0.0
220
0.0
230
1.0
 70
    24
 71
     3
 72
     8
 73
     4
 74
     0
 42
0.0000000001
 43
0.0000000001
 40
-0.1444018675898508
 40
-0.1444018675898508
 40
-0.1444018675898508
 40
-0.1444018675898508
 40
0.0
 40
0.0
 40
0.0
 40
0.0
 10
1704.422524079201
 20
261.4058883874241
 30
0.0
 10
1704.859649292516
 20
261.229278337271
 30
0.0
 10
1705.296736344819
 20
261.0526837051671
 30
0.0
 10
1705.733760061141
 20
260.8761146624611
 30
0.0
  0
SPLINE
  5
877
330
1F
100
AcDbEntity
  8
0
  6
Continuous
100
AcDbSpline
210
0.0
220
0.0
230
1.0
 70
     8
 71
     3
 72
     8
 73
     4
 74
     0
 42
0.0000000001
 43
0.0000000001
 40
-0.1444018675898508
 40
-0.1444018675898508
 40
-0.1444018675898508
 40
-0.1444018675898508
 40
0.0
 40
0.0
 40
0.0
 40
0.0
 10
1756.204828043056
 20
139.4144250863747
 30
0.0
 10
1756.473776226758
 20
139.634015289309
 30
0.0
 10
1756.742593802805
 20
139.853838700944
 30
0.0
 10
1757.011263522071
 20
140.0738868204967
 30
0.0
  0
LINE
  5
878
330
1F
100
AcDbEntity
  8
0
  6
Continuous
100
AcDbLine
 10
1757.011263522071
 20
140.0738868204967
 30
0.0
 11
1768.250740619426
 21
113.5953381100713
 31
0.0
  0
SPLINE
  5
879
330
1F
100
AcDbEntity
  8
0
  6
Continuous
100
AcDbSpline
210
0.0
220
0.0
230
1.0
 70
    24
 71
     3
 72
     8
 73
     4
 74
     0
 42
0.0000000001
 43
0.0000000001
 40
-0.1444018675929625
 40
-0.1444018675929625
 40
-0.1444018675929625
 40
-0.1444018675929625
 40
0.0
 40
0.0
 40
0.0
 40
0.0
 10
1767.720966894462
 20
112.2841021281298
 30
0.0
 10
1767.897576944608
 20
112.7212273414258
 30
0.0
 10
1768.074171576717
 20
113.1583143937397
 30
0.0
 10
1768.250740619426
 20
113.5953381100713
 30
0.0
  0
LINE
  5
87A
330
1F
100
AcDbEntity
  8
0
  6
Continuous
100
AcDbLine
 10
1767.720966894462
 20
112.2841021281293
 30
0.0
 11
1756.204828043056
 21
139.4144250863747
 31
0.0
  0
CIRCLE
  5
87B
330
1F
100
AcDbEntity
  8
0
  6
Continuous
100
AcDbCircle
 10
1677.021359137858
 20
161.7795933651906
 30
0.0
 40
36.14999999999983
  0
CIRCLE
  5
87C
330
1F
100
AcDbEntity
  8
0
  6
Continuous
100
AcDbCircle
 10
1677.021359137858
 20
161.7795933651906
 30
0.0
 40
45.49999999999977
  0
LINE
  5
87D
330
1F
100
AcDbEntity
  8
0
  6
Continuous
100
AcDbLine
 10
1730.08268214441
 20
124.1752043446623
 30
0.0
 11
1716.73536176935
 21
118.5096029815682
 31
0.0
  0
LINE
  5
87E
330
1F
100
AcDbEntity
  8
0
  6
Continuous
100
AcDbLine
 10
1737.115842457217
 20
107.6061169825185
 30
0.0
 11
1723.768522082157
 21
101.9405156194244
 31
0.0
  0
LINE
  5
87F
330
1F
100
AcDbEntity
  8
0
  6
Continuous
100
AcDbLine
 10
1723.768522082157
 20
101.9405156194244
 30
0.0
 11
1716.73536176935
 21
118.5096029815682
 31
0.0
  0
ARC
  5
880
330
1F
100
AcDbEntity
  8
0
  6
Continuous
100
AcDbCircle
 10
1651.985505075462
 20
123.1228964093157
 30
0.0
 40
3.000000000000016
100
AcDbArc
 50
202.9999999999857
 51
270.0
  0
ARC
  5
881
330
1F
100
AcDbEntity
  8
0
  6
Continuous
100
AcDbCircle
 10
1631.822692881834
 20
170.6235052173334
 30
0.0
 40
3.000000000000011
100
AcDbArc
 50
135.9999999999693
 51
202.9999999999857
  0
LINE
  5
882
330
1F
100
AcDbEntity
  8
0
  6
Continuous
100
AcDbLine
 10
1658.719184438482
 20
120.1228964093157
 30
0.0
 11
1651.98550507546
 21
120.1228964093157
 31
0.0
  0
LINE
  5
883
330
1F
100
AcDbEntity
  8
0
  6
Continuous
100
AcDbLine
 10
1631.556687732044
 20
163.5722600830455
 30
0.0
 11
1629.061178321476
 21
169.4513118318651
 31
0.0
  0
LINE
  5
884
330
1F
100
AcDbEntity
  8
0
  6
Continuous
100
AcDbLine
 10
1649.223990515102
 20
121.9507030238479
 30
0.0
 11
1646.728481104538
 21
127.829754772668
 31
0.0
  0
LINE
  5
885
330
1F
100
AcDbEntity
  8
0
  6
Continuous
100
AcDbLine
 10
1629.664673480817
 20
172.7074803287101
 30
0.0
 11
1634.342280214327
 21
177.5512838972509
 31
0.0
  0
LINE
  5
886
330
1F
100
AcDbEntity
  8
0
  6
Continuous
100
AcDbLine
 10
1673.483197247044
 20
220.4053170984404
 30
0.0
 11
1686.830517622106
 21
226.0709184615349
 31
0.0
  0
LINE
  5
887
330
1F
100
AcDbEntity
  8
0
  6
Continuous
100
AcDbLine
 10
1666.450036934237
 20
236.9744044605846
 30
0.0
 11
1679.797357309299
 21
242.6400058236791
 31
0.0
  0
LINE
  5
888
330
1F
100
AcDbEntity
  8
0
  6
Continuous
100
AcDbLine
 10
1666.450036934237
 20
236.9744044605846
 30
0.0
 11
1673.483197247044
 21
220.4053170984408
 31
0.0
  0
LINE
  5
889
330
1F
100
AcDbEntity
  8
0
  6
Continuous
100
AcDbLine
 10
1755.754403799582
 20
107.2045974577691
 30
0.0
 11
1740.105821290889
 21
100.5621682734514
 31
0.0
  0
LINE
  5
88A
330
1F
100
AcDbEntity
  8
0
  6
Continuous
100
AcDbLine
 10
1692.455960984319
 20
256.3263837170635
 30
0.0
 11
1676.807378475626
 21
249.6839545327458
 31
0.0
  0
LINE
  5
88B
330
1F
100
AcDbEntity
  8
0
  6
Continuous
100
AcDbLine
 10
1744.238264948172
 20
134.3349204160146
 30
0.0
 11
1755.754403799582
 21
107.2045974577691
 31
0.0
  0
LINE
  5
88C
330
1F
100
AcDbEntity
  8
0
  6
Continuous
100
AcDbLine
 10
1692.455960984319
 20
256.3263837170635
 30
0.0
 11
1703.972099835729
 21
229.1960607588185
 31
0.0
  0
LINE
  5
88D
330
1F
100
AcDbEntity
  8
0
  6
Continuous
100
AcDbLine
 10
1703.972099835727
 20
229.1960607588181
 30
0.0
 11
1688.323517327036
 21
222.5536315745003
 31
0.0
  0
LINE
  5
88E
330
1F
100
AcDbEntity
  8
0
  6
Continuous
100
AcDbLine
 10
1744.238264948172
 20
134.3349204160146
 30
0.0
 11
1703.972099835727
 21
229.1960607588185
 31
0.0
  0
LINE
  5
88F
330
1F
100
AcDbEntity
  8
0
  6
Continuous
100
AcDbLine
 10
1744.238264948172
 20
134.3349204160146
 30
0.0
 11
1728.589682439481
 21
127.6924912316968
 31
0.0
  0
LINE
  5
890
330
1F
100
AcDbEntity
  8
0
  6
Continuous
100
AcDbLine
 10
1724.242137474225
 20
137.9346653236203
 30
0.0
 11
1728.589682439481
 21
127.6924912316968
 31
0.0
  0
LINE
  5
891
330
1F
100
AcDbEntity
  8
0
  6
Continuous
100
AcDbLine
 10
1740.105821290889
 20
100.5621682734514
 30
0.0
 11
1728.589682439483
 21
127.6924912316968
 31
0.0
  0
LINE
  5
892
330
1F
100
AcDbEntity
  8
0
  6
Continuous
100
AcDbLine
 10
1688.323517327036
 20
222.5536315745008
 30
0.0
 11
1676.807378475627
 21
249.6839545327458
 31
0.0
  0
LINE
  5
893
330
1F
100
AcDbEntity
  8
0
  6
Continuous
100
AcDbLine
 10
1688.323517327036
 20
222.5536315745008
 30
0.0
 11
1692.671062292292
 21
212.3114574825773
 31
0.0
  0
LINE
  5
894
330
1F
100
AcDbEntity
  8
0
  6
Continuous
100
AcDbLine
 10
1712.073615254749
 20
132.7694340909657
 30
0.0
 11
1724.242137474225
 21
137.9346653236203
 31
0.0
  0
LINE
  5
895
330
1F
100
AcDbEntity
  8
0
  6
Continuous
100
AcDbLine
 10
1692.671062292292
 20
212.3114574825768
 30
0.0
 11
1680.502540072814
 21
207.1462262499222
 31
0.0
  0
LINE
  5
896
330
1F
100
AcDbEntity
  8
0
  6
Continuous
100
AcDbLine
 10
1695.323533837231
 20
120.1228964093162
 30
0.0
 11
1720.536042907878
 21
120.1228964093162
 31
0.0
  0
LINE
  5
897
330
1F
100
AcDbEntity
  8
0
  6
Continuous
100
AcDbLine
 10
1677.283878385572
 20
222.0186105261883
 30
0.0
 11
1659.769797919375
 21
203.8822492852733
 31
0.0
  0
LINE
  5
898
330
1F
100
AcDbEntity
  8
0
  6
Continuous
100
AcDbLine
 10
1752.370191391056
 20
257.858537354387
 30
0.0
 11
1713.939113759416
 21
241.5455127399596
 31
0.0
  0
LINE
  5
899
330
1F
100
AcDbEntity
  8
0
  6
Continuous
100
AcDbLine
 10
1798.476464552791
 20
149.2389646470002
 30
0.0
 11
1760.045386921151
 21
132.9259400325728
 31
0.0
  0
LINE
  5
89A
330
1F
100
AcDbEntity
  8
0
  6
Continuous
100
AcDbLine
 10
1813.841591716314
 20
320.3446713526742
 30
0.0
 11
1780.947452991541
 21
306.3819378631043
 31
0.0
  0
LINE
  5
89B
330
1F
100
AcDbEntity
  8
0
  6
Continuous
100
AcDbLine
 10
1886.126850486828
 20
150.0512734639738
 30
0.0
 11
1853.232711762057
 21
136.0885399744039
 31
0.0
  0
LINE
  5
89C
330
1F
100
AcDbEntity
  8
0
  6
Continuous
100
AcDbLine
 10
1894.525729243031
 20
281.263730325502
 30
0.0
 11
1889.923204975769
 21
279.310074683056
 31
0.0
  0
LINE
  5
89D
330
1F
100
AcDbEntity
  8
0
  6
Continuous
100
AcDbLine
 10
1914.062285667495
 20
235.2384876528805
 30
0.0
 11
1909.459761400233
 21
233.2848320104336
 31
0.0
  0
LINE
  5
89E
330
1F
100
AcDbEntity
  8
0
  6
Continuous
100
AcDbLine
 10
1863.27436120713
 20
329.9334841529195
 30
0.0
 11
1813.841591716314
 21
320.3446713526742
 31
0.0
  0
LINE
  5
89F
330
1F
100
AcDbEntity
  8
0
  6
Continuous
100
AcDbLine
 10
1927.363352273808
 20
178.9492829252318
 30
0.0
 11
1886.126850486828
 21
150.0512734639743
 31
0.0
  0
LINE
  5
8A0
330
1F
100
AcDbEntity
  8
0
  6
Continuous
100
AcDbLine
 10
1929.382599054123
 20
279.7641880711277
 30
0.0
 11
1900.38669617037
 21
267.4561575237154
 31
0.0
  0
LINE
  5
8A1
330
1F
100
AcDbEntity
  8
0
  6
Continuous
100
AcDbLine
 10
1937.197221623909
 20
261.3540910020789
 30
0.0
 11
1908.201318740158
 21
249.0460604546666
 31
0.0
  0
LINE
  5
8A2
330
1F
100
AcDbEntity
  8
0
  6
Continuous
100
AcDbLine
 10
1795.108787247044
 20
157.1727151950755
 30
0.0
 11
1805.73458581464
 21
132.1399025008337
 31
0.0
  0
LINE
  5
8A3
330
1F
100
AcDbEntity
  8
0
  6
Continuous
100
AcDbLine
 10
1767.909753749251
 20
221.2496226089639
 30
0.0
 11
1782.936902194593
 21
185.8478793924229
 31
0.0
  0
LINE
  5
8A4
330
1F
100
AcDbEntity
  8
0
  6
Continuous
100
AcDbLine
 10
1745.112070129204
 20
274.9575995005526
 30
0.0
 11
1755.737868696803
 21
249.9247868063113
 31
0.0
  0
LINE
  5
8A5
330
1F
100
AcDbEntity
  8
0
  6
Continuous
100
AcDbLine
 10
1894.525729243033
 20
281.263730325502
 30
0.0
 11
1914.062285667497
 21
235.2384876528809
 31
0.0
  0
LINE
  5
8A6
330
1F
100
AcDbEntity
  8
0
  6
Continuous
100
AcDbLine
 10
1813.841591716314
 20
320.3446713526742
 30
0.0
 11
1886.126850486828
 21
150.0512734639738
 31
0.0
  0
ARC
  5
8A7
330
1F
100
AcDbEntity
  8
0
  6
Continuous
100
AcDbCircle
 10
1923.919982990507
 20
183.8628567751712
 30
0.0
 40
5.999999999999973
100
AcDbArc
 50
305.0222766861774
 51
22.99999999998575
  0
ARC
  5
8A8
330
1F
100
AcDbEntity
  8
0
  6
Continuous
100
AcDbCircle
 10
1864.416925144068
 20
324.0432763764475
 30
0.0
 40
5.999999999999975
100
AcDbArc
 50
22.99999999998575
 51
100.9777233138171
  0
LINE
  5
8A9
330
1F
100
AcDbEntity
  8
0
  6
Continuous
100
AcDbLine
 10
1869.939954264783
 20
326.3876631473832
 30
0.0
 11
1929.443012111221
 21
186.2072435461069
 31
0.0
  0
LINE
  5
8AA
330
1F
100
AcDbEntity
  8
0
  6
Continuous
100
AcDbLine
 10
1931.349453027035
 20
278.9695274836827
 30
0.0
 11
1929.382599054123
 21
279.7641880711277
 31
0.0
  0
LINE
  5
8AB
330
1F
100
AcDbEntity
  8
0
  6
Continuous
100
AcDbLine
 10
1937.991882211353
 20
263.3209449749916
 30
0.0
 11
1937.197221623909
 21
261.3540910020793
 31
0.0
  0
LINE
  5
8AC
330
1F
100
AcDbEntity
  8
0
  6
Continuous
100
AcDbLine
 10
1937.197221623909
 20
261.3540910020789
 30
0.0
 11
1929.382599054125
 21
279.7641880711277
 31
0.0
  0
LINE
  5
8AD
330
1F
100
AcDbEntity
  8
0
  6
Continuous
100
AcDbLine
 10
1931.349453027035
 20
278.9695274836827
 30
0.0
 11
1937.991882211353
 21
263.3209449749916
 31
0.0
  0
LINE
  5
8AE
330
1F
100
AcDbEntity
  8
0
  6
Continuous
100
AcDbLine
 10
1813.866563975486
 20
112.982162511778
 30
0.0
 11
1850.185121869012
 21
128.3984756986306
 31
0.0
  0
LINE
  5
8AF
330
1F
100
AcDbEntity
  8
0
  6
Continuous
100
AcDbLine
 10
1736.980091968361
 20
294.1153394896083
 30
0.0
 11
1773.298649861885
 21
309.531652676461
 31
0.0
  0
LINE
  5
8B0
330
1F
100
AcDbEntity
  8
0
  6
Continuous
100
AcDbLine
 10
1812.362330284592
 20
116.5259150112239
 30
0.0
 11
1813.866563975486
 21
112.9821625117784
 31
0.0
  0
LINE
  5
8B1
330
1F
100
AcDbEntity
  8
0
  6
Continuous
100
AcDbLine
 10
1789.422412904858
 20
170.5689736420723
 30
0.0
 11
1792.564634511625
 21
163.1663634358297
 31
0.0
  0
LINE
  5
8B2
330
1F
100
AcDbEntity
  8
0
  6
Continuous
100
AcDbLine
 10
1838.372515359306
 20
175.5370782340711
 30
0.0
 11
1795.108787247044
 21
157.1727151950755
 31
0.0
  0
LINE
  5
8B3
330
1F
100
AcDbEntity
  8
0
  6
Continuous
100
AcDbLine
 10
1795.108787247042
 20
157.172715195075
 30
0.0
 11
1792.564634511625
 21
163.1663634358297
 31
0.0
  0
LINE
  5
8B4
330
1F
100
AcDbEntity
  8
0
  6
Continuous
100
AcDbLine
 10
1758.282021432223
 20
243.931138565557
 30
0.0
 11
1761.424243038988
 21
236.528528359314
 31
0.0
  0
LINE
  5
8B5
330
1F
100
AcDbEntity
  8
0
  6
Continuous
100
AcDbLine
 10
1811.173481861517
 20
239.61398564796
 30
0.0
 11
1767.909753749251
 21
221.2496226089639
 31
0.0
  0
LINE
  5
8B6
330
1F
100
AcDbEntity
  8
0
  6
Continuous
100
AcDbLine
 10
1767.909753749251
 20
221.2496226089644
 30
0.0
 11
1761.424243038988
 21
236.528528359314
 31
0.0
  0
LINE
  5
8B7
330
1F
100
AcDbEntity
  8
0
  6
Continuous
100
AcDbLine
 10
1736.980091968361
 20
294.1153394896088
 30
0.0
 11
1738.484325659254
 21
290.5715869901638
 31
0.0
  0
LINE
  5
8B8
330
1F
100
AcDbEntity
  8
0
  6
Continuous
100
AcDbLine
 10
1788.375798241471
 20
293.3219625395482
 30
0.0
 11
1745.112070129204
 21
274.9575995005526
 31
0.0
  0
LINE
  5
8B9
330
1F
100
AcDbEntity
  8
0
  6
Continuous
100
AcDbLine
 10
1745.112070129204
 20
274.9575995005526
 30
0.0
 11
1738.484325659253
 21
290.5715869901633
 31
0.0
  0
LINE
  5
8BA
330
1F
100
AcDbEntity
  8
0
  6
Continuous
100
AcDbLine
 10
1812.362330284591
 20
116.5259150112234
 30
0.0
 11
1805.734585814639
 21
132.1399025008337
 31
0.0
  0
LINE
  5
8BB
330
1F
100
AcDbEntity
  8
0
  6
Continuous
100
AcDbLine
 10
1805.734585814639
 20
132.1399025008337
 30
0.0
 11
1848.998313926905
 21
150.5042655398293
 31
0.0
  0
LINE
  5
8BC
330
1F
100
AcDbEntity
  8
0
  6
Continuous
100
AcDbLine
 10
1789.422412904858
 20
170.5689736420723
 30
0.0
 11
1782.936902194593
 21
185.8478793924229
 31
0.0
  0
LINE
  5
8BD
330
1F
100
AcDbEntity
  8
0
  6
Continuous
100
AcDbLine
 10
1782.936902194593
 20
185.8478793924229
 30
0.0
 11
1826.200630306858
 21
204.212242431418
 31
0.0
  0
LINE
  5
8BE
330
1F
100
AcDbEntity
  8
0
  6
Continuous
100
AcDbLine
 10
1758.282021432223
 20
243.9311385655565
 30
0.0
 11
1755.737868696803
 21
249.9247868063108
 31
0.0
  0
LINE
  5
8BF
330
1F
100
AcDbEntity
  8
0
  6
Continuous
100
AcDbLine
 10
1755.737868696803
 20
249.9247868063108
 30
0.0
 11
1799.001596809067
 21
268.2891498453069
 31
0.0
  0
LINE
  5
8C0
330
1F
100
AcDbEntity
  8
0
  6
Continuous
100
AcDbLine
 10
1788.375798241471
 20
293.3219625395482
 30
0.0
 11
1783.3340383731
 21
305.1996044533649
 31
0.0
  0
SPLINE
  5
8C1
330
1F
100
AcDbEntity
  8
0
  6
Continuous
100
AcDbSpline
210
0.0
220
0.0
230
1.0
 70
    12
 71
     2
 72
     6
 73
     3
 74
     0
 42
0.0000000001
 43
0.0000000001
 40
0.0
 40
0.0
 40
0.0
 40
2.028228737672955
 40
2.028228737672955
 40
2.028228737672955
 10
1788.375798241471
 20
293.3219625395482
 30
0.0
 41
1.0
 10
1782.590697400305
 20
299.5310139445706
 30
0.0
 41
1.006852855008617
 10
1775.518862607579
 20
306.2918152547109
 30
0.0
 41
1.005104936193821
  0
SPLINE
  5
8C2
330
1F
100
AcDbEntity
  8
0
  6
Continuous
100
AcDbSpline
210
0.0
220
0.0
230
1.0
 70
     8
 71
     3
 72
    14
 73
    10
 74
     0
 42
0.0000000001
 43
0.0000000001
 40
0.5302283687096684
 40
0.5302283687096684
 40
0.5302283687096684
 40
0.5302283687096684
 40
0.7705741176297878
 40
0.7705741176297878
 40
1.013400618476665
 40
1.013400618476665
 40
1.256227119323542
 40
1.256227119323542
 40
1.496572868243662
 40
1.496572868243662
 40
1.496572868243662
 40
1.496572868243662
 10
1774.217311802073
 20
309.3580767990975
 30
0.0
 10
1773.823656555906
 20
309.5199074242378
 30
0.0
 10
1773.49993346622
 20
309.5955720850676
 30
0.0
 10
1773.14959421796
 20
309.4868769994319
 30
0.0
 10
1773.126620759871
 20
309.2989676812854
 30
0.0
 10
1773.368680462195
 20
308.7287107588987
 30
0.0
 10
1773.645431684856
 20
308.318757129981
 30
0.0
 10
1774.448554190757
 20
307.3607617069002
 30
0.0
 10
1774.971967179738
 20
306.8146571243829
 30
0.0
 10
1775.518862607579
 20
306.2918152547109
 30
0.0
  0
SPLINE
  5
8C3
330
1F
100
AcDbEntity
  8
0
  6
Continuous
100
AcDbSpline
210
0.0
220
0.0
230
1.0
 70
    12
 71
     2
 72
     6
 73
     3
 74
     0
 42
0.0000000001
 43
0.0000000001
 40
1.203842643101298
 40
1.203842643101298
 40
1.203842643101298
 40
3.232071380774219
 40
3.232071380774219
 40
3.232071380774219
 10
1774.217311802073
 20
309.3580767990975
 30
0.0
 41
1.005104936193812
 10
1779.307617415305
 20
307.2654656944188
 30
0.0
 41
1.006852855008605
 10
1783.3340383731
 20
305.1996044533649
 30
0.0
 41
1.0
  0
LINE
  5
8C4
330
1F
100
AcDbEntity
  8
0
  6
Continuous
100
AcDbLine
 10
1811.173481861517
 20
239.61398564796
 30
0.0
 11
1799.001596809069
 21
268.2891498453069
 31
0.0
  0
SPLINE
  5
8C5
330
1F
100
AcDbEntity
  8
0
  6
Continuous
100
AcDbSpline
210
0.0
220
0.0
230
1.0
 70
    12
 71
     2
 72
     6
 73
     3
 74
     0
 42
0.0000000001
 43
0.0000000001
 40
0.0
 40
0.0
 40
0.0
 40
2.028228737672953
 40
2.028228737672953
 40
2.028228737672953
 10
1811.173481861517
 20
239.61398564796
 30
0.0
 41
1.0
 10
1805.455260611223
 20
245.6654786106015
 30
0.0
 41
1.006852855008656
 10
1798.458779987314
 20
252.2487566238615
 30
0.0
 41
1.005104936193849
  0
SPLINE
  5
8C6
330
1F
100
AcDbEntity
  8
0
  6
Continuous
100
AcDbSpline
210
0.0
220
0.0
230
1.0
 70
     8
 71
     3
 72
    14
 73
    10
 74
     0
 42
0.0000000001
 43
0.0000000001
 40
0.5302283687096675
 40
0.5302283687096675
 40
0.5302283687096675
 40
0.5302283687096675
 40
0.7705741176297892
 40
0.7705741176297892
 40
1.013400618476665
 40
1.013400618476665
 40
1.256227119323543
 40
1.256227119323543
 40
1.496572868243664
 40
1.496572868243664
 40
1.496572868243664
 40
1.496572868243664
 10
1795.316558380546
 20
259.6513668301041
 30
0.0
 10
1795.145444939865
 20
259.2889218162951
 30
0.0
 10
1795.066304880775
 20
258.7883849658566
 30
0.0
 10
1795.177179662051
 20
257.5931377175817
 30
0.0
 10
1795.370447974984
 20
256.8957947115888
 30
0.0
 10
1795.954831791235
 20
255.5190727155255
 30
0.0
 10
1796.374237199364
 20
254.7730468862761
 30
0.0
 10
1797.356477899498
 20
253.3930754415538
 30
0.0
 10
1797.917712021738
 20
252.7578698527714
 30
0.0
 10
1798.458779987314
 20
252.2487566238615
 30
0.0
  0
SPLINE
  5
8C7
330
1F
100
AcDbEntity
  8
0
  6
Continuous
100
AcDbSpline
210
0.0
220
0.0
230
1.0
 70
    12
 71
     2
 72
     6
 73
     3
 74
     0
 42
0.0000000001
 43
0.0000000001
 40
1.203842643101268
 40
1.203842643101268
 40
1.203842643101268
 40
3.232071380774218
 40
3.232071380774218
 40
3.232071380774218
 10
1795.316558380546
 20
259.6513668301041
 30
0.0
 41
1.005104936193854
 10
1797.529204385084
 20
264.3380969226051
 30
0.0
 41
1.006852855008661
 10
1799.001596809069
 20
268.2891498453069
 30
0.0
 41
1.0
  0
LINE
  5
8C8
330
1F
100
AcDbEntity
  8
0
  6
Continuous
100
AcDbLine
 10
1838.372515359306
 20
175.5370782340716
 30
0.0
 11
1826.200630306858
 21
204.2122424314185
 31
0.0
  0
SPLINE
  5
8C9
330
1F
100
AcDbEntity
  8
0
  6
Continuous
100
AcDbSpline
210
0.0
220
0.0
230
1.0
 70
    12
 71
     2
 72
     6
 73
     3
 74
     0
 42
0.0000000001
 43
0.0000000001
 40
0.0
 40
0.0
 40
0.0
 40
2.028228737672964
 40
2.028228737672964
 40
2.028228737672964
 10
1838.372515359306
 20
175.5370782340711
 30
0.0
 41
1.0
 10
1834.507556016843
 20
177.2225597466632
 30
0.0
 41
1.006852855008619
 10
1829.599171459946
 20
178.8865917003769
 30
0.0
 41
1.005104936193822
  0
SPLINE
  5
8CA
330
1F
100
AcDbEntity
  8
0
  6
Continuous
100
AcDbSpline
210
0.0
220
0.0
230
1.0
 70
     8
 71
     3
 72
    14
 73
    10
 74
     0
 42
0.0000000001
 43
0.0000000001
 40
0.5302283687096657
 40
0.5302283687096657
 40
0.5302283687096657
 40
0.5302283687096657
 40
0.7705741176297883
 40
0.7705741176297883
 40
1.013400618476666
 40
1.013400618476666
 40
1.256227119323542
 40
1.256227119323542
 40
1.496572868243666
 40
1.496572868243666
 40
1.496572868243666
 40
1.496572868243666
 10
1826.456949853181
 20
186.2892019066195
 30
0.0
 10
1826.447317870341
 20
185.54633041832
 30
0.0
 10
1826.514380550949
 20
184.7013614976741
 30
0.0
 10
1826.824727210315
 20
183.0361879534854
 30
0.0
 10
1827.070029804001
 20
182.2162598640731
 30
0.0
 10
1827.654413620252
 20
180.8395378680107
 30
0.0
 10
1828.021784747629
 20
180.2160971221793
 30
0.0
 10
1828.804553569672
 20
179.3060519733713
 30
0.0
 10
1829.219584952213
 20
179.0152784547964
 30
0.0
 10
1829.599171459946
 20
178.8865917003769
 30
0.0
  0
SPLINE
  5
8CB
330
1F
100
AcDbEntity
  8
0
  6
Continuous
100
AcDbSpline
210
0.0
220
0.0
230
1.0
 70
    12
 71
     2
 72
     6
 73
     3
 74
     0
 42
0.0000000001
 43
0.0000000001
 40
1.203842643101257
 40
1.203842643101257
 40
1.203842643101257
 40
3.232071380774217
 40
3.232071380774217
 40
3.232071380774217
 10
1826.456949853181
 20
186.2892019066195
 30
0.0
 41
1.005104936193853
 10
1826.581499790703
 20
195.8951780586663
 30
0.0
 41
1.006852855008661
 10
1826.200630306858
 20
204.212242431418
 30
0.0
 41
1.0
  0
LINE
  5
8CC
330
1F
100
AcDbEntity
  8
0
  6
Continuous
100
AcDbLine
 10
1854.040073795276
 20
138.6266236260131
 30
0.0
 11
1848.998313926905
 21
150.5042655398298
 31
0.0
  0
SPLINE
  5
8CD
330
1F
100
AcDbEntity
  8
0
  6
Continuous
100
AcDbSpline
210
0.0
220
0.0
230
1.0
 70
    12
 71
     2
 72
     6
 73
     3
 74
     0
 42
0.0000000001
 43
0.0000000001
 40
0.0
 40
0.0
 40
0.0
 40
2.028228737672953
 40
2.028228737672953
 40
2.028228737672953
 10
1854.040073795276
 20
138.6266236260131
 30
0.0
 41
1.0
 10
1852.729142986619
 20
134.2951909748495
 30
0.0
 41
1.006852855008656
 10
1850.698418038419
 20
129.1798817313834
 30
0.0
 41
1.005104936193849
  0
SPLINE
  5
8CE
330
1F
100
AcDbEntity
  8
0
  6
Continuous
100
AcDbSpline
210
0.0
220
0.0
230
1.0
 70
     8
 71
     3
 72
    14
 73
    10
 74
     0
 42
0.0000000001
 43
0.0000000001
 40
0.5302283687096675
 40
0.5302283687096675
 40
0.5302283687096675
 40
0.5302283687096675
 40
0.7705741176297892
 40
0.7705741176297892
 40
1.013400618476665
 40
1.013400618476665
 40
1.256227119323543
 40
1.256227119323543
 40
1.496572868243664
 40
1.496572868243664
 40
1.496572868243664
 40
1.496572868243664
 10
1849.396867232916
 20
132.2461432757705
 30
0.0
 10
1849.39306271234
 20
131.4895431467085
 30
0.0
 10
1849.422304259688
 20
130.7336752323277
 30
0.0
 10
1849.553532724824
 20
129.4904777097809
 30
0.0
 10
1849.656181133042
 20
129.0066218206999
 30
0.0
 10
1849.898240835365
 20
128.4363648983136
 30
0.0
 10
1850.049370191721
 20
128.3223578403295
 30
0.0
 10
1850.370924984224
 20
128.4988648541603
 30
0.0
 10
1850.541373336174
 20
128.7842928468536
 30
0.0
 10
1850.698418038419
 20
129.1798817313834
 30
0.0
  0
SPLINE
  5
8CF
330
1F
100
AcDbEntity
  8
0
  6
Continuous
100
AcDbSpline
210
0.0
220
0.0
230
1.0
 70
    12
 71
     2
 72
     6
 73
     3
 74
     0
 42
0.0000000001
 43
0.0000000001
 40
1.203842643101268
 40
1.203842643101268
 40
1.203842643101268
 40
3.232071380774218
 40
3.232071380774218
 40
3.232071380774218
 10
1849.396867232916
 20
132.2461432757705
 30
0.0
 41
1.005104936193854
 10
1849.446063001621
 20
142.0296427246972
 30
0.0
 41
1.006852855008661
 10
1848.998313926905
 20
150.5042655398298
 30
0.0
 41
1.0
  0
VIEWPORT
  5
71
330
55
100
AcDbEntity
 67
     1
  8
0
100
AcDbViewport
 10
133.3499908447265
 20
101.5999970436096
 30
0.0
 40
381.3957395593834
 41
218.2856291881582
 68
     1
 69
     1
 12
133.3499908447265
 22
101.5999970436096
 13
0.0
 23
0.0
 14
10.0
 24
10.0
 15
10.0
 25
10.0
 16
0.0
 26
0.0
 36
1.0
 17
0.0
 27
0.0
 37
0.0
 42
50.0
 43
0.0
 44
0.0
 45
218.2856291881582
 50
0.0
 51
0.0
 72
   100
 90
    32800
  1

281
     0
 71
     1
 74
     0
110
0.0
120
0.0
130
0.0
111
1.0
121
0.0
131
0.0
112
0.0
122
1.0
132
0.0
 79
     0
146
0.0
  0
VIEWPORT
  5
73
330
55
100
AcDbEntity
 67
     1
  8
0
100
AcDbViewport
 10
133.349993944168
 20
101.599993944168
 30
0.0
 40
213.3599903106689
 41
162.5599903106689
 68
     2
 69
     2
 12
210.0
 22
148.5
 13
0.0
 23
0.0
 14
10.0
 24
10.0
 15
10.0
 25
10.0
 16
0.0
 26
0.0
 36
1.0
 17
0.0
 27
0.0
 37
0.0
 42
50.0
 43
0.0
 44
0.0
 45
324.0677920111345
 50
0.0
 51
0.0
 72
   100
 90
    32864
  1

281
     0
 71
     1
 74
     0
110
0.0
120
0.0
130
0.0
111
1.0
121
0.0
131
0.0
112
0.0
122
1.0
132
0.0
 79
     0
146
0.0
  0
ENDSEC
  0
SECTION
  2
OBJECTS
  0
DICTIONARY
  5
C
330
0
100
AcDbDictionary
281
     1
  3
ACAD_GROUP
350
D
  3
ACAD_LAYOUT
350
1A
  3
ACAD_MLINESTYLE
350
17
  3
ACAD_PLOTSETTINGS
350
19
  3
ACAD_PLOTSTYLENAME
350
E
  3
AcDbVariableDictionary
350
5E
  0
DICTIONARY
  5
492
330
2
100
AcDbDictionary
280
     1
281
     1
  3
ACAD_LAYERSTATES
360
493
  0
DICTIONARY
  5
44A
330
1F
100
AcDbDictionary
280
     1
281
     1
  3
ACAD_LAYOUTSELFREF
360
481
  0
DICTIONARY
  5
44C
330
55
100
AcDbDictionary
280
     1
281
     1
  3
ACAD_LAYOUTSELFREF
360
485
  0
DICTIONARY
  5
44E
330
50
100
AcDbDictionary
280
     1
281
     1
  3
ACAD_LAYOUTSELFREF
360
484
  0
DICTIONARY
  5
D
102
{ACAD_REACTORS
330
C
102
}
330
C
100
AcDbDictionary
281
     1
  0
DICTIONARY
  5
1A
102
{ACAD_REACTORS
330
C
102
}
330
C
100
AcDbDictionary
281
     1
  3
Model
350
22
  3
ﾚｲｱｳﾄ1
350
51
  3
ﾚｲｱｳﾄ2
350
56
  0
DICTIONARY
  5
17
102
{ACAD_REACTORS
330
C
102
}
330
C
100
AcDbDictionary
281
     1
  3
Standard
350
18
  0
DICTIONARY
  5
19
102
{ACAD_REACTORS
330
C
102
}
330
C
100
AcDbDictionary
281
     1
  0
ACDBDICTIONARYWDFLT
  5
E
102
{ACAD_REACTORS
330
C
102
}
330
C
100
AcDbDictionary
281
     1
  3
Normal
350
F
100
AcDbDictionaryWithDefault
340
F
  0
DICTIONARY
  5
5E
102
{ACAD_REACTORS
330
C
102
}
330
C
100
AcDbDictionary
281
     1
  3
DIMASSOC
350
5F
  3
HIDETEXT
350
63
  0
DICTIONARY
  5
493
102
{ACAD_REACTORS
330
492
102
}
330
492
100
AcDbDictionary
281
     1
  0
XRECORD
  5
481
102
{ACAD_REACTORS
330
44A
102
}
330
44A
100
AcDbXrecord
280
     1
340
1F
  0
XRECORD
  5
485
102
{ACAD_REACTORS
330
44C
102
}
330
44C
100
AcDbXrecord
280
     1
340
55
  0
XRECORD
  5
484
102
{ACAD_REACTORS
330
44E
102
}
330
44E
100
AcDbXrecord
280
     1
340
50
  0
LAYOUT
  5
22
102
{ACAD_REACTORS
330
1A
102
}
330
1A
100
AcDbPlotSettings
  1

  2
none_device
  4
ANSI_A_(8.50_x_11.00_Inches)
  6

 40
6.349999904632568
 41
19.04999923706054
 42
6.350006103515625
 43
19.04998779296875
 44
215.8999938964843
 45
279.3999938964843
 46
0.0
 47
0.0
 48
0.0
 49
0.0
140
0.0
141
0.0
142
1.0
143
78.436453180766
 70
 11952
 72
     0
 73
     1
 74
     0
  7

 75
     0
147
0.0127491741332998
148
0.0
149
0.0
100
AcDbLayout
  1
Model
 70
     1
 71
     0
 10
0.0
 20
0.0
 11
12.0
 21
9.0
 12
0.0
 22
0.0
 32
0.0
 14
0.0
 24
0.0
 34
0.0
 15
0.0
 25
0.0
 35
0.0
146
0.0
 13
0.0
 23
0.0
 33
0.0
 16
1.0
 26
0.0
 36
0.0
 17
0.0
 27
1.0
 37
0.0
 76
     0
330
1F
  0
LAYOUT
  5
51
102
{ACAD_REACTORS
330
1A
102
}
330
1A
100
AcDbPlotSettings
  1

  2
none_device
  4
Letter_(8.50_x_11.00_Inches)
  6

 40
6.349999904632568
 41
6.349999904632568
 42
6.350006103515625
 43
6.350006103515625
 44
215.8999938964843
 45
279.3999938964843
 46
0.0
 47
0.0
 48
0.0
 49
0.0
140
0.0
141
0.0
142
1.0
143
1.0
 70
   688
 72
     1
 73
     1
 74
     5
  7

 75
    16
147
1.0
148
0.0
149
0.0
100
AcDbLayout
  1
ﾚｲｱｳﾄ1
 70
     1
 71
     1
 10
-6.350006103515625
 20
-6.349999904632568
 11
273.0499877929687
 21
209.5499939918517
 12
0.0
 22
0.0
 32
0.0
 14
26.66076962115562
 24
20.31135699206657
 34
-0.0015258207003583
 15
240.039213369355
 25
182.8886381005154
 35
0.0000000349246037
146
0.0
 13
0.0
 23
0.0
 33
0.0
 16
1.0
 26
0.0
 36
0.0
 17
0.0
 27
1.0
 37
0.0
 76
     0
330
50
331
6B
  0
LAYOUT
  5
56
102
{ACAD_REACTORS
330
1A
102
}
330
1A
100
AcDbPlotSettings
  1

  2
none_device
  4
Letter_(8.50_x_11.00_Inches)
  6

 40
6.349999904632568
 41
6.349999904632568
 42
6.350006103515625
 43
6.350006103515625
 44
215.8999938964843
 45
279.3999938964843
 46
0.0
 47
0.0
 48
0.0
 49
0.0
140
0.0
141
0.0
142
1.0
143
1.0
 70
   688
 72
     1
 73
     1
 74
     5
  7

 75
    16
147
1.0
148
0.0
149
0.0
100
AcDbLayout
  1
ﾚｲｱｳﾄ2
 70
     1
 71
     2
 10
-6.350006103515625
 20
-6.349999904632568
 11
273.0499877929687
 21
209.5499939918517
 12
0.0
 22
0.0
 32
0.0
 14
26.66076962115562
 24
20.31135699206657
 34
-0.0015258207003583
 15
240.039213369355
 25
182.8886381005154
 35
0.0000000349246037
146
0.0
 13
0.0
 23
0.0
 33
0.0
 16
1.0
 26
0.0
 36
0.0
 17
0.0
 27
1.0
 37
0.0
 76
     0
330
55
331
71
  0
MLINESTYLE
  5
18
102
{ACAD_REACTORS
330
17
102
}
330
17
100
AcDbMlineStyle
  2
STANDARD
 70
     0
  3

 62
   256
 51
90.0
 52
90.0
 71
     2
 49
0.5
 62
   256
  6
BYLAYER
 49
-0.5
 62
   256
  6
BYLAYER
  0
ACDBPLACEHOLDER
  5
F
102
{ACAD_REACTORS
330
E
102
}
330
E
  0
DICTIONARYVAR
  5
5F
102
{ACAD_REACTORS
330
5E
102
}
330
5E
100
DictionaryVariables
280
     0
  1
2
  0
DICTIONARYVAR
  5
63
102
{ACAD_REACTORS
330
5E
102
}
330
5E
100
DictionaryVariables
280
     0
  1
1
  0
ENDSEC
  0
EOF
