  0
SECTION
  2
HEADER
  9
$ACADVER
  1
AC1015
  9
$ACADMAINTVER
 70
    14
  9
$DWGCODEPAGE
  3
ANSI_932
  9
$INSBASE
 10
0.0
 20
0.0
 30
0.0
  9
$EXTMIN
 10
32.82960048751374
 20
17.42967856350833
 30
-0.0000000000112498
  9
$EXTMAX
 10
2092.822852055971
 20
879.9838153754258
 30
0.0000000000002956
  9
$LIMMIN
 10
0.0
 20
0.0
  9
$LIMMAX
 10
420.0
 20
297.0
  9
$ORTHOMODE
 70
     0
  9
$REGENMODE
 70
     1
  9
$FILLMODE
 70
     1
  9
$QTEXTMODE
 70
     0
  9
$MIRRTEXT
 70
     1
  9
$LTSCALE
 40
1.0
  9
$ATTMODE
 70
     1
  9
$TEXTSIZE
 40
2.5
  9
$TRACEWID
 40
1.0
  9
$TEXTSTYLE
  7
Standard
  9
$CLAYER
  8
0
  9
$CELTYPE
  6
ByLayer
  9
$CECOLOR
 62
   256
  9
$CELTSCALE
 40
1.0
  9
$DISPSILH
 70
     0
  9
$DIMSCALE
 40
1.0
  9
$DIMASZ
 40
2.5
  9
$DIMEXO
 40
0.625
  9
$DIMDLI
 40
3.75
  9
$DIMRND
 40
0.0
  9
$DIMDLE
 40
0.0
  9
$DIMEXE
 40
1.25
  9
$DIMTP
 40
0.0
  9
$DIMTM
 40
0.0
  9
$DIMTXT
 40
2.5
  9
$DIMCEN
 40
2.5
  9
$DIMTSZ
 40
0.0
  9
$DIMTOL
 70
     0
  9
$DIMLIM
 70
     0
  9
$DIMTIH
 70
     0
  9
$DIMTOH
 70
     0
  9
$DIMSE1
 70
     0
  9
$DIMSE2
 70
     0
  9
$DIMTAD
 70
     1
  9
$DIMZIN
 70
     8
  9
$DIMBLK
  1

  9
$DIMASO
 70
     1
  9
$DIMSHO
 70
     1
  9
$DIMPOST
  1

  9
$DIMAPOST
  1

  9
$DIMALT
 70
     0
  9
$DIMALTD
 70
     3
  9
$DIMALTF
 40
0.03937007874016
  9
$DIMLFAC
 40
1.0
  9
$DIMTOFL
 70
     1
  9
$DIMTVP
 40
0.0
  9
$DIMTIX
 70
     0
  9
$DIMSOXD
 70
     0
  9
$DIMSAH
 70
     0
  9
$DIMBLK1
  1

  9
$DIMBLK2
  1

  9
$DIMSTYLE
  2
ISO-25
  9
$DIMCLRD
 70
     0
  9
$DIMCLRE
 70
     0
  9
$DIMCLRT
 70
     0
  9
$DIMTFAC
 40
1.0
  9
$DIMGAP
 40
0.625
  9
$DIMJUST
 70
     0
  9
$DIMSD1
 70
     0
  9
$DIMSD2
 70
     0
  9
$DIMTOLJ
 70
     0
  9
$DIMTZIN
 70
     8
  9
$DIMALTZ
 70
     0
  9
$DIMALTTZ
 70
     0
  9
$DIMUPT
 70
     0
  9
$DIMDEC
 70
     2
  9
$DIMTDEC
 70
     2
  9
$DIMALTU
 70
     2
  9
$DIMALTTD
 70
     3
  9
$DIMTXSTY
  7
Standard
  9
$DIMAUNIT
 70
     0
  9
$DIMADEC
 70
     0
  9
$DIMALTRND
 40
0.0
  9
$DIMAZIN
 70
     0
  9
$DIMDSEP
 70
    44
  9
$DIMATFIT
 70
     3
  9
$DIMFRAC
 70
     0
  9
$DIMLDRBLK
  1

  9
$DIMLUNIT
 70
     2
  9
$DIMLWD
 70
    -2
  9
$DIMLWE
 70
    -2
  9
$DIMTMOVE
 70
     0
  9
$LUNITS
 70
     2
  9
$LUPREC
 70
     4
  9
$SKETCHINC
 40
1.0
  9
$FILLETRAD
 40
10.0
  9
$AUNITS
 70
     0
  9
$AUPREC
 70
     0
  9
$MENU
  1
.
  9
$ELEVATION
 40
0.0
  9
$PELEVATION
 40
0.0
  9
$THICKNESS
 40
0.0
  9
$LIMCHECK
 70
     0
  9
$CHAMFERA
 40
10.0
  9
$CHAMFERB
 40
10.0
  9
$CHAMFERC
 40
20.0
  9
$CHAMFERD
 40
0.0
  9
$SKPOLY
 70
     0
  9
$TDCREATE
 40
2454284.643180509
  9
$TDUCREATE
 40
2454284.268180509
  9
$TDUPDATE
 40
2456899.672540914
  9
$TDUUPDATE
 40
2456899.297540914
  9
$TDINDWG
 40
0.0014136806
  9
$TDUSRTIMER
 40
0.0014136806
  9
$USRTIMER
 70
     1
  9
$ANGBASE
 50
0.0
  9
$ANGDIR
 70
     0
  9
$PDMODE
 70
     0
  9
$PDSIZE
 40
0.0
  9
$PLINEWID
 40
0.0
  9
$SPLFRAME
 70
     0
  9
$SPLINETYPE
 70
     6
  9
$SPLINESEGS
 70
     8
  9
$HANDSEED
  5
5D9
  9
$SURFTAB1
 70
     6
  9
$SURFTAB2
 70
     6
  9
$SURFTYPE
 70
     6
  9
$SURFU
 70
     6
  9
$SURFV
 70
     6
  9
$UCSBASE
  2

  9
$UCSNAME
  2

  9
$UCSORG
 10
0.0
 20
0.0
 30
0.0
  9
$UCSXDIR
 10
1.0
 20
0.0
 30
0.0
  9
$UCSYDIR
 10
0.0
 20
1.0
 30
0.0
  9
$UCSORTHOREF
  2

  9
$UCSORTHOVIEW
 70
     0
  9
$UCSORGTOP
 10
0.0
 20
0.0
 30
0.0
  9
$UCSORGBOTTOM
 10
0.0
 20
0.0
 30
0.0
  9
$UCSORGLEFT
 10
0.0
 20
0.0
 30
0.0
  9
$UCSORGRIGHT
 10
0.0
 20
0.0
 30
0.0
  9
$UCSORGFRONT
 10
0.0
 20
0.0
 30
0.0
  9
$UCSORGBACK
 10
0.0
 20
0.0
 30
0.0
  9
$PUCSBASE
  2

  9
$PUCSNAME
  2

  9
$PUCSORG
 10
0.0
 20
0.0
 30
0.0
  9
$PUCSXDIR
 10
1.0
 20
0.0
 30
0.0
  9
$PUCSYDIR
 10
0.0
 20
1.0
 30
0.0
  9
$PUCSORTHOREF
  2

  9
$PUCSORTHOVIEW
 70
     0
  9
$PUCSORGTOP
 10
0.0
 20
0.0
 30
0.0
  9
$PUCSORGBOTTOM
 10
0.0
 20
0.0
 30
0.0
  9
$PUCSORGLEFT
 10
0.0
 20
0.0
 30
0.0
  9
$PUCSORGRIGHT
 10
0.0
 20
0.0
 30
0.0
  9
$PUCSORGFRONT
 10
0.0
 20
0.0
 30
0.0
  9
$PUCSORGBACK
 10
0.0
 20
0.0
 30
0.0
  9
$USERI1
 70
     0
  9
$USERI2
 70
     0
  9
$USERI3
 70
     0
  9
$USERI4
 70
     0
  9
$USERI5
 70
     0
  9
$USERR1
 40
0.0
  9
$USERR2
 40
0.0
  9
$USERR3
 40
0.0
  9
$USERR4
 40
0.0
  9
$USERR5
 40
0.0
  9
$WORLDVIEW
 70
     1
  9
$SHADEDGE
 70
     3
  9
$SHADEDIF
 70
    70
  9
$TILEMODE
 70
     1
  9
$MAXACTVP
 70
    48
  9
$PINSBASE
 10
0.0
 20
0.0
 30
0.0
  9
$PLIMCHECK
 70
     0
  9
$PEXTMIN
 10
26.66076962115562
 20
20.31135699206657
 30
-0.0015258207003583
  9
$PEXTMAX
 10
240.039213369355
 20
182.8886381005154
 30
0.0000000349246037
  9
$PLIMMIN
 10
-6.350006103515625
 20
-6.349999904632568
  9
$PLIMMAX
 10
273.0499877929687
 20
209.5499939918517
  9
$UNITMODE
 70
     0
  9
$VISRETAIN
 70
     1
  9
$PLINEGEN
 70
     0
  9
$PSLTSCALE
 70
     1
  9
$TREEDEPTH
 70
  3020
  9
$CMLSTYLE
  2
Standard
  9
$CMLJUST
 70
     0
  9
$CMLSCALE
 40
20.0
  9
$PROXYGRAPHICS
 70
     1
  9
$MEASUREMENT
 70
     1
  9
$CELWEIGHT
370
    -1
  9
$ENDCAPS
280
     0
  9
$JOINSTYLE
280
     0
  9
$LWDISPLAY
290
     0
  9
$INSUNITS
 70
     4
  9
$HYPERLINKBASE
  1

  9
$STYLESHEET
  1

  9
$XEDIT
290
     1
  9
$CEPSNTYPE
380
     0
  9
$PSTYLEMODE
290
     1
  9
$FINGERPRINTGUID
  2
{FDEAD578-A652-11D2-9A35-0060089B3A3F}
  9
$VERSIONGUID
  2
{E25B782D-69B4-4287-BA6F-B1C31D068F72}
  9
$EXTNAMES
290
     1
  9
$PSVPSCALE
 40
0.0
  9
$OLESTARTUP
290
     0
  0
ENDSEC
  0
SECTION
  2
CLASSES
  0
CLASS
  1
ACDBDICTIONARYWDFLT
  2
AcDbDictionaryWithDefault
  3
AutoCAD 2000
 90
        0
280
     0
281
     0
  0
CLASS
  1
ACDBPLACEHOLDER
  2
AcDbPlaceHolder
  3
AutoCAD 2000
 90
        0
280
     0
281
     0
  0
CLASS
  1
LAYOUT
  2
AcDbLayout
  3
AutoCAD 2000
 90
        0
280
     0
281
     0
  0
CLASS
  1
DICTIONARYVAR
  2
AcDbDictionaryVar
  3
AutoCAD 2000
 90
        0
280
     0
281
     0
  0
CLASS
  1
LONG_TRANSACTION
  2
AcDbLongTransaction
  3
AutoCAD 2000
 90
    32768
280
     0
281
     0
  0
CLASS
  1
LWPOLYLINE
  2
AcDbPolyline
  3
AutoCAD 2000
 90
    32768
280
     0
281
     1
  0
CLASS
  1
HATCH
  2
AcDbHatch
  3
AutoCAD 2000
 90
    32768
280
     0
281
     1
  0
CLASS
  1
XRECORD
  2
AcDbXrecord
  3
AutoCAD 2000
 90
    32768
280
     0
281
     0
  0
ENDSEC
  0
SECTION
  2
TABLES
  0
TABLE
  2
VPORT
  5
8
330
0
100
AcDbSymbolTable
 70
     2
  0
VPORT
  5
5D8
330
8
100
AcDbSymbolTableRecord
100
AcDbViewportTableRecord
  2
*Active
 70
     0
 10
0.0
 20
0.0
 11
1.0
 21
1.0
 12
1062.826226271742
 22
448.7067469694671
 13
0.0
 23
0.0
 14
10.0
 24
10.0
 15
10.0
 25
10.0
 16
0.0
 26
0.0
 36
1.0
 17
0.0
 27
0.0
 37
0.0
 40
1298.99429351812
 41
1.592161016949152
 42
50.0
 43
0.0
 44
0.0
 50
0.0
 51
0.0
 71
     0
 72
   100
 73
     1
 74
     3
 75
     0
 76
     0
 77
     0
 78
     0
281
     0
 65
     1
110
0.0
120
0.0
130
0.0
111
1.0
121
0.0
131
0.0
112
0.0
122
1.0
132
0.0
 79
     0
146
0.0
  0
ENDTAB
  0
TABLE
  2
LTYPE
  5
5
330
0
100
AcDbSymbolTable
 70
     3
  0
LTYPE
  5
14
330
5
100
AcDbSymbolTableRecord
100
AcDbLinetypeTableRecord
  2
ByBlock
 70
     0
  3

 72
    65
 73
     0
 40
0.0
  0
LTYPE
  5
15
330
5
100
AcDbSymbolTableRecord
100
AcDbLinetypeTableRecord
  2
ByLayer
 70
     0
  3

 72
    65
 73
     0
 40
0.0
  0
LTYPE
  5
16
330
5
100
AcDbSymbolTableRecord
100
AcDbLinetypeTableRecord
  2
Continuous
 70
     0
  3
Solid line
 72
    65
 73
     0
 40
0.0
  0
LTYPE
  5
86
330
5
100
AcDbSymbolTableRecord
100
AcDbLinetypeTableRecord
  2
HIDDEN
 70
     0
  3
Hidden __ __ __ __ __ __ __ __ __ __ __ __ __ _
 72
    65
 73
     2
 40
0.375
 49
0.25
 74
     0
 49
-0.125
 74
     0
  0
LTYPE
  5
303
330
5
100
AcDbSymbolTableRecord
100
AcDbLinetypeTableRecord
  2
CENTER
 70
     0
  3
Center ____ _ ____ _ ____ _ ____ _ ____ _ ____
 72
    65
 73
     4
 40
50.8
 49
31.75
 74
     0
 49
-6.349999999999999
 74
     0
 49
6.349999999999999
 74
     0
 49
-6.349999999999999
 74
     0
  0
ENDTAB
  0
TABLE
  2
LAYER
  5
2
102
{ACAD_XDICTIONARY
360
304
102
}
330
0
100
AcDbSymbolTable
 70
     2
  0
LAYER
  5
10
330
2
100
AcDbSymbolTableRecord
100
AcDbLayerTableRecord
  2
0
 70
     0
 62
     7
  6
Continuous
370
    -3
390
F
  0
LAYER
  5
316
330
2
100
AcDbSymbolTableRecord
100
AcDbLayerTableRecord
  2
Visible (ISO)
 70
     0
 62
     7
  6
Continuous
370
    35
390
F
  0
ENDTAB
  0
TABLE
  2
STYLE
  5
3
330
0
100
AcDbSymbolTable
 70
     1
  0
STYLE
  5
11
330
3
100
AcDbSymbolTableRecord
100
AcDbTextStyleTableRecord
  2
Standard
 70
     0
 40
0.0
 41
1.0
 50
0.0
 71
     0
 42
2.5
  3
txt
  4

  0
ENDTAB
  0
TABLE
  2
VIEW
  5
6
330
0
100
AcDbSymbolTable
 70
     0
  0
ENDTAB
  0
TABLE
  2
UCS
  5
7
330
0
100
AcDbSymbolTable
 70
     0
  0
ENDTAB
  0
TABLE
  2
APPID
  5
9
330
0
100
AcDbSymbolTable
 70
     1
  0
APPID
  5
12
330
9
100
AcDbSymbolTableRecord
100
AcDbRegAppTableRecord
  2
ACAD
 70
     0
  0
ENDTAB
  0
TABLE
  2
DIMSTYLE
  5
A
330
0
100
AcDbSymbolTable
 70
     1
100
AcDbDimStyleTable
 71
     0
  0
DIMSTYLE
105
27
330
A
100
AcDbSymbolTableRecord
100
AcDbDimStyleTableRecord
  2
ISO-25
 70
     0
 41
2.5
 42
0.625
 43
3.75
 44
1.25
 73
     0
 74
     0
 77
     1
 78
     8
140
2.5
141
2.5
143
0.03937007874016
147
0.625
171
     3
172
     1
271
     2
272
     2
274
     3
278
    44
283
     0
284
     8
340
11
  0
ENDTAB
  0
TABLE
  2
BLOCK_RECORD
  5
1
330
0
100
AcDbSymbolTable
 70
     1
  0
BLOCK_RECORD
  5
1F
102
{ACAD_XDICTIONARY
360
2BC
102
}
330
1
100
AcDbSymbolTableRecord
100
AcDbBlockTableRecord
  2
*Model_Space
340
22
  0
BLOCK_RECORD
  5
55
102
{ACAD_XDICTIONARY
360
2BE
102
}
330
1
100
AcDbSymbolTableRecord
100
AcDbBlockTableRecord
  2
*Paper_Space
340
56
  0
BLOCK_RECORD
  5
50
102
{ACAD_XDICTIONARY
360
2C0
102
}
330
1
100
AcDbSymbolTableRecord
100
AcDbBlockTableRecord
  2
*Paper_Space0
340
51
  0
ENDTAB
  0
ENDSEC
  0
SECTION
  2
BLOCKS
  0
BLOCK
  5
20
330
1F
100
AcDbEntity
  8
0
100
AcDbBlockBegin
  2
*Model_Space
 70
     0
 10
0.0
 20
0.0
 30
0.0
  3
*Model_Space
  1

  0
ENDBLK
  5
21
330
1F
100
AcDbEntity
  8
0
100
AcDbBlockEnd
  0
BLOCK
  5
57
330
55
100
AcDbEntity
 67
     1
  8
0
100
AcDbBlockBegin
  2
*Paper_Space
 70
     0
 10
0.0
 20
0.0
 30
0.0
  3
*Paper_Space
  1

  0
ENDBLK
  5
58
330
55
100
AcDbEntity
 67
     1
  8
0
100
AcDbBlockEnd
  0
BLOCK
  5
52
330
50
100
AcDbEntity
  8
0
100
AcDbBlockBegin
  2
*Paper_Space0
 70
     0
 10
0.0
 20
0.0
 30
0.0
  3
*Paper_Space0
  1

  0
VIEWPORT
  5
6B
330
50
100
AcDbEntity
  8
0
100
AcDbViewport
 10
133.3499908447265
 20
101.5999970436096
 30
0.0
 40
381.3957395593834
 41
218.2856291881582
 69
     0
 12
133.3499908447265
 22
101.5999970436096
 13
0.0
 23
0.0
 14
10.0
 24
10.0
 15
10.0
 25
10.0
 16
0.0
 26
0.0
 36
1.0
 17
0.0
 27
0.0
 37
0.0
 42
50.0
 43
0.0
 44
0.0
 45
218.2856291881582
 50
0.0
 51
0.0
 72
   100
 90
    32800
  1

281
     0
 71
     1
 74
     0
110
0.0
120
0.0
130
0.0
111
1.0
121
0.0
131
0.0
112
0.0
122
1.0
132
0.0
 79
     0
146
0.0
  0
VIEWPORT
  5
6D
330
50
100
AcDbEntity
  8
0
100
AcDbViewport
 10
133.349993944168
 20
101.599993944168
 30
0.0
 40
213.3599903106689
 41
162.5599903106689
 69
     0
 12
210.0
 22
148.5
 13
0.0
 23
0.0
 14
10.0
 24
10.0
 15
10.0
 25
10.0
 16
0.0
 26
0.0
 36
1.0
 17
0.0
 27
0.0
 37
0.0
 42
50.0
 43
0.0
 44
0.0
 45
324.0677920111345
 50
0.0
 51
0.0
 72
   100
 90
    32864
  1

281
     0
 71
     1
 74
     0
110
0.0
120
0.0
130
0.0
111
1.0
121
0.0
131
0.0
112
0.0
122
1.0
132
0.0
 79
     0
146
0.0
  0
ENDBLK
  5
53
330
50
100
AcDbEntity
  8
0
100
AcDbBlockEnd
  0
ENDSEC
  0
SECTION
  2
ENTITIES
  0
LINE
  5
19F
330
1F
100
AcDbEntity
  8
0
100
AcDbLine
 10
285.9551886898547
 20
665.4499671524177
 30
0.0
 11
285.9551916821635
 21
656.0164320095228
 31
0.0
  0
LINE
  5
1A0
330
1F
100
AcDbEntity
  8
0
100
AcDbLine
 10
301.5190972649583
 20
665.7331450655291
 30
0.0
 11
289.0191259443221
 21
665.7331318519172
 31
0.0
  0
LINE
  5
1A1
330
1F
100
AcDbEntity
  8
0
100
AcDbLine
 10
289.0191137387623
 20
665.4831511247899
 30
0.0
 11
287.0191242064367
 21
665.4831693595098
 31
0.0
  0
LINE
  5
1A2
330
1F
100
AcDbEntity
  8
0
100
AcDbLine
 10
289.0191218208314
 20
655.983126782215
 30
0.0
 11
287.019123208696
 21
655.9831271968042
 31
0.0
  0
LINE
  5
1A3
330
1F
100
AcDbEntity
  8
0
100
AcDbLine
 10
287.0190721885687
 20
665.4831509708877
 30
0.0
 11
283.8089263390792
 21
665.3828491485064
 31
0.0
  0
LINE
  5
1A4
330
1F
100
AcDbEntity
  8
0
100
AcDbLine
 10
287.0205079186275
 20
655.983139940646
 30
0.0
 11
283.8089289472508
 21
656.0835062789974
 31
0.0
  0
LINE
  5
1A5
330
1F
100
AcDbEntity
  8
0
100
AcDbLine
 10
289.0191259443221
 20
665.7331318519172
 30
0.0
 11
289.0191295569042
 21
655.7331807873678
 31
0.0
  0
LINE
  5
1A6
330
1F
100
AcDbEntity
  8
0
100
AcDbLine
 10
301.5190972649583
 20
665.7331450655291
 30
0.0
 11
301.5190989257825
 21
655.7331725489254
 31
0.0
  0
LINE
  5
1A7
330
1F
100
AcDbEntity
  8
0
100
AcDbLine
 10
301.5190989257825
 20
655.7331725489254
 30
0.0
 11
289.0191295569042
 21
655.7331807873678
 31
0.0
  0
ARC
  5
1A8
330
1F
100
AcDbEntity
  8
0
100
AcDbCircle
 10
209.9551560634562
 20
660.7331570001043
 30
0.0
 40
83.5000230239847
100
AcDbArc
 50
3.432923517410881
 51
356.5670767197839
  0
CIRCLE
  5
1A9
330
1F
100
AcDbEntity
  8
0
100
AcDbCircle
 10
209.9551560634562
 20
660.7331570001043
 30
0.0
 40
73.9999933851308
  0
CIRCLE
  5
1AA
330
1F
100
AcDbEntity
  8
0
100
AcDbCircle
 10
209.9551865810354
 20
660.7331570001043
 30
0.0
 40
25.000029274094
  0
CIRCLE
  5
1AB
330
1F
100
AcDbEntity
  8
0
100
AcDbCircle
 10
209.9551865810354
 20
660.7331570001043
 30
0.0
 40
10.00002760754864
  0
LINE
  5
1AC
330
1F
100
AcDbEntity
  8
0
  6
HIDDEN
 48
10.0
100
AcDbLine
 10
265.9551245810355
 20
631.8714656769571
 30
0.0
 11
265.9551245810355
 21
689.5948483232515
 31
0.0
  0
LINE
  5
1AD
330
1F
100
AcDbEntity
  8
0
  6
HIDDEN
 48
10.0
100
AcDbLine
 10
153.9552265810355
 20
631.8713899376668
 30
0.0
 11
153.9552265810355
 21
689.5949240625415
 31
0.0
  0
ARC
  5
1AE
330
1F
100
AcDbEntity
  8
0
  6
HIDDEN
 48
10.0
100
AcDbCircle
 10
209.9551560634563
 20
660.7331570001043
 30
0.0
 40
62.99995
100
AcDbArc
 50
117.2660600000046
 51
152.7339037893771
  0
ARC
  5
1AF
330
1F
100
AcDbEntity
  8
0
  6
HIDDEN
 48
10.0
100
AcDbCircle
 10
209.9551560634563
 20
660.7331570001043
 30
0.0
 40
62.99995
100
AcDbArc
 50
297.2660600000046
 51
332.7339812812633
  0
ARC
  5
1B0
330
1F
100
AcDbEntity
  8
0
  6
HIDDEN
 48
10.0
100
AcDbCircle
 10
209.9551560634563
 20
660.7331570001043
 30
0.0
 40
62.99995
100
AcDbArc
 50
27.26601871873661
 51
62.73394199999678
  0
ARC
  5
1B1
330
1F
100
AcDbEntity
  8
0
  6
HIDDEN
 48
10.0
100
AcDbCircle
 10
209.9551560634563
 20
660.7331570001043
 30
0.0
 40
62.99995
100
AcDbArc
 50
207.2660962106228
 51
242.7339399999953
  0
LINE
  5
1B2
330
1F
100
AcDbEntity
  8
0
  6
HIDDEN
 48
10.0
100
AcDbLine
 10
181.0934320634562
 20
604.7331970001042
 30
0.0
 11
238.8168500634562
 21
604.7331970001042
 31
0.0
  0
LINE
  5
1B3
330
1F
100
AcDbEntity
  8
0
  6
HIDDEN
 48
10.0
100
AcDbLine
 10
181.0934320634562
 20
716.7330970001042
 30
0.0
 11
238.8169120634563
 21
716.7330970001042
 31
0.0
  0
LINE
  5
1B4
330
1F
100
AcDbEntity
  8
0
100
AcDbLine
 10
220.955311249291
 20
257.8825139367901
 30
0.0
 11
219.9551560407237
 21
261.6150290528246
 31
0.0
  0
ARC
  5
1B5
330
1F
100
AcDbEntity
  8
0
100
AcDbCircle
 10
202.9551770464036
 20
287.8823343962145
 30
0.0
 40
3.0
100
AcDbArc
 50
90.00009099999092
 51
179.9999599999959
  0
ARC
  5
1B6
330
1F
100
AcDbEntity
  8
0
100
AcDbCircle
 10
216.9551906672661
 20
287.8823420503716
 30
0.0
 40
3.0
100
AcDbArc
 50
359.9999599999959
 51
89.99982599999031
  0
ARC
  5
1B7
330
1F
100
AcDbEntity
  8
0
100
AcDbCircle
 10
257.4552834095477
 20
132.8822678709269
 30
0.0
 40
3.0
100
AcDbArc
 50
89.99982599999031
 51
180.0004799999961
  0
ARC
  5
1B8
330
1F
100
AcDbEntity
  8
0
100
AcDbCircle
 10
185.9551591787308
 20
216.4432913985707
 30
0.0
 40
50.000004
100
AcDbArc
 50
164.9999800000059
 51
179.9999899999989
  0
ARC
  5
1B9
330
1F
100
AcDbEntity
  8
0
100
AcDbCircle
 10
151.6284556947998
 20
242.8823539975113
 30
0.0
 40
9.999999
100
AcDbArc
 50
89.99990499999043
 51
164.9999100000011
  0
ARC
  5
1BA
330
1F
100
AcDbEntity
  8
0
100
AcDbCircle
 10
233.9551565036933
 20
216.443310732821
 30
0.0
 40
50.000004
100
AcDbArc
 50
0.0
 51
15.00001000000459
  0
ARC
  5
1BB
330
1F
100
AcDbEntity
  8
0
100
AcDbCircle
 10
288.9556290306288
 20
177.2538647966963
 30
0.0
 40
4.999999599999999
100
AcDbArc
 50
180.0000599999929
 51
240.0000000000009
  0
ARC
  5
1BC
330
1F
100
AcDbEntity
  8
0
100
AcDbCircle
 10
130.95472776068
 20
177.2538739176651
 30
0.0
 40
4.999999599999999
100
AcDbArc
 50
299.9999400000028
 51
0.000059999993011
  0
ARC
  5
1BD
330
1F
100
AcDbEntity
  8
0
100
AcDbCircle
 10
134.4547379282539
 20
164.2634961248494
 30
0.0
 40
8.0
100
AcDbArc
 50
119.9999789999947
 51
179.9998299999959
  0
ARC
  5
1BE
330
1F
100
AcDbEntity
  8
0
100
AcDbCircle
 10
268.2819037149392
 20
242.8823347350215
 30
0.0
 40
9.999999
100
AcDbArc
 50
15.00005999999024
 51
89.99998499999849
  0
ARC
  5
1BF
330
1F
100
AcDbEntity
  8
0
100
AcDbCircle
 10
285.4556093913468
 20
164.2635173405902
 30
0.0
 40
8.0
100
AcDbArc
 50
359.9998299999959
 51
60.00000000000097
  0
ARC
  5
1C0
330
1F
100
AcDbEntity
  8
0
100
AcDbCircle
 10
185.9551640538038
 20
256.8822969598203
 30
0.0
 40
1.0
100
AcDbArc
 50
90.00061499999677
 51
179.9994400000087
  0
ARC
  5
1C1
330
1F
100
AcDbEntity
  8
0
100
AcDbCircle
 10
233.9551597664983
 20
256.8823395620873
 30
0.0
 40
1.0
100
AcDbArc
 50
359.9994399999957
 51
89.99982199999772
  0
ARC
  5
1C2
330
1F
100
AcDbEntity
  8
0
100
AcDbCircle
 10
162.4550761332925
 20
132.8822359707199
 30
0.0
 40
3.0
100
AcDbArc
 50
0.000479999996204
 51
89.99982599999031
  0
LINE
  5
1C3
330
1F
100
AcDbEntity
  8
0
100
AcDbLine
 10
202.9551696662031
 20
290.8823386363357
 30
0.0
 11
216.955174207256
 21
290.8823284703627
 31
0.0
  0
LINE
  5
1C4
330
1F
100
AcDbEntity
  8
0
100
AcDbLine
 10
219.9551560407237
 20
261.6150290528246
 30
0.0
 11
219.9551680074469
 21
287.8823406902516
 31
0.0
  0
LINE
  5
1C5
330
1F
100
AcDbEntity
  8
0
100
AcDbLine
 10
219.9551560404841
 20
261.614503214614
 30
0.0
 11
199.9551538810119
 21
261.6145155323362
 31
0.0
  0
LINE
  5
1C6
330
1F
100
AcDbEntity
  8
0
100
AcDbLine
 10
199.9551538810119
 20
261.6145155323362
 30
0.0
 11
199.9551640659617
 21
287.8823539159546
 31
0.0
  0
LINE
  5
1C7
330
1F
100
AcDbEntity
  8
0
100
AcDbLine
 10
198.9549898862039
 20
257.8824272053685
 30
0.0
 11
199.9550019006687
 21
261.6145256306148
 31
0.0
  0
LINE
  5
1C8
330
1F
100
AcDbEntity
  8
0
100
AcDbLine
 10
285.9551973929949
 20
220.0991486663941
 30
0.0
 11
285.9552003853036
 21
210.6656135234992
 31
0.0
  0
LINE
  5
1C9
330
1F
100
AcDbEntity
  8
0
100
AcDbLine
 10
148.9049215408563
 20
134.8823127452327
 30
0.0
 11
149.770931975134
 21
135.3822636188452
 31
0.0
  0
LINE
  5
1CA
330
1F
100
AcDbEntity
  8
0
100
AcDbLine
 10
136.7709491001844
 20
135.382273407779
 30
0.0
 11
149.7709716886552
 21
135.3823107233696
 31
0.0
  0
LINE
  5
1CB
330
1F
100
AcDbEntity
  8
0
100
AcDbLine
 10
149.7709716886552
 20
135.3823107233696
 30
0.0
 11
149.7709554868122
 21
142.8822640616125
 31
0.0
  0
LINE
  5
1CC
330
1F
100
AcDbEntity
  8
0
100
AcDbLine
 10
137.636946691972
 20
134.8823279333338
 30
0.0
 11
136.7709134599235
 21
135.3822915673989
 31
0.0
  0
LINE
  5
1CD
330
1F
100
AcDbEntity
  8
0
100
AcDbLine
 10
136.7709491001844
 20
135.382273407779
 30
0.0
 11
136.7709619197844
 21
142.8822792984323
 31
0.0
  0
LINE
  5
1CE
330
1F
100
AcDbEntity
  8
0
100
AcDbLine
 10
137.6369823322329
 20
134.8823097737139
 30
0.0
 11
148.9049625271563
 21
134.8822918616696
 31
0.0
  0
LINE
  5
1CF
330
1F
100
AcDbEntity
  8
0
100
AcDbLine
 10
136.7709625834615
 20
141.6322544433197
 30
0.0
 11
149.7709744798539
 21
141.6322972067965
 31
0.0
  0
LINE
  5
1D0
330
1F
100
AcDbEntity
  8
0
100
AcDbLine
 10
149.7709554868122
 20
142.8822640616125
 30
0.0
 11
149.770981087227
 21
144.8822812660636
 31
0.0
  0
LINE
  5
1D1
330
1F
100
AcDbEntity
  8
0
100
AcDbLine
 10
136.7709619197844
 20
142.8822792984323
 30
0.0
 11
136.7709478066778
 21
144.8822493983592
 31
0.0
  0
LINE
  5
1D2
330
1F
100
AcDbEntity
  8
0
100
AcDbLine
 10
149.7709554868122
 20
142.8822640616125
 30
0.0
 11
136.7709619197844
 21
142.8822792984323
 31
0.0
  0
LINE
  5
1D3
330
1F
100
AcDbEntity
  8
0
100
AcDbLine
 10
301.5191059680985
 20
220.3823265795055
 30
0.0
 11
289.0191346474623
 21
220.3823133658935
 31
0.0
  0
LINE
  5
1D4
330
1F
100
AcDbEntity
  8
0
100
AcDbLine
 10
289.0191224419024
 20
220.1323326387663
 30
0.0
 11
287.0191329095769
 21
220.1323508734862
 31
0.0
  0
LINE
  5
1D5
330
1F
100
AcDbEntity
  8
0
100
AcDbLine
 10
289.0191305239716
 20
210.6323082961913
 30
0.0
 11
287.0191319118362
 21
210.6323087107806
 31
0.0
  0
LINE
  5
1D6
330
1F
100
AcDbEntity
  8
0
100
AcDbLine
 10
287.0190808917088
 20
220.1323324848641
 30
0.0
 11
283.9551801155605
 21
220.0366001269427
 31
0.0
  0
LINE
  5
1D7
330
1F
100
AcDbEntity
  8
0
100
AcDbLine
 10
287.0205166217676
 20
210.6323214546224
 30
0.0
 11
283.9551771609196
 21
210.728117603567
 31
0.0
  0
LINE
  5
1D8
330
1F
100
AcDbEntity
  8
0
100
AcDbLine
 10
289.0191346474623
 20
220.3823133658935
 30
0.0
 11
289.0191382600444
 21
210.3823623013441
 31
0.0
  0
LINE
  5
1D9
330
1F
100
AcDbEntity
  8
0
100
AcDbLine
 10
254.4552789996817
 20
132.8822381306909
 30
0.0
 11
254.4552795107117
 21
113.082195467493
 31
0.0
  0
LINE
  5
1DA
330
1F
100
AcDbEntity
  8
0
100
AcDbLine
 10
283.1395450029526
 20
135.3822599397818
 30
0.0
 11
270.139533785539
 21
135.3823066164471
 31
0.0
  0
LINE
  5
1DB
330
1F
100
AcDbEntity
  8
0
100
AcDbLine
 10
209.9551647810931
 20
168.8825683435176
 30
0.0
 11
130.4547378077043
 21
168.8825218468392
 31
0.0
  0
LINE
  5
1DC
330
1F
100
AcDbEntity
  8
0
100
AcDbLine
 10
209.9551718000541
 20
223.0259618022834
 30
0.0
 11
137.6618895770307
 21
223.025987979693
 31
0.0
  0
LINE
  5
1DD
330
1F
100
AcDbEntity
  8
0
100
AcDbLine
 10
162.4550742688761
 20
135.8822598469336
 30
0.0
 11
203.4552632658348
 21
135.8822640083566
 31
0.0
  0
LINE
  5
1DE
330
1F
100
AcDbEntity
  8
0
100
AcDbLine
 10
257.455293849478
 20
135.8822630312382
 30
0.0
 11
216.4552283206537
 21
135.8822632992326
 31
0.0
  0
LINE
  5
1DF
330
1F
100
AcDbEntity
  8
0
100
AcDbLine
 10
270.1395376950738
 20
142.8823170470053
 30
0.0
 11
270.1395360560584
 21
144.882280791065
 31
0.0
  0
LINE
  5
1E0
330
1F
100
AcDbEntity
  8
0
100
AcDbLine
 10
126.4551250214242
 20
144.8822399132398
 30
0.0
 11
126.4551410575188
 21
164.3432048353155
 31
0.0
  0
LINE
  5
1E1
330
1F
100
AcDbEntity
  8
0
100
AcDbLine
 10
270.139533785539
 20
135.3823066164471
 30
0.0
 11
270.1395376950738
 21
142.8823170470053
 31
0.0
  0
LINE
  5
1E2
330
1F
100
AcDbEntity
  8
0
100
AcDbLine
 10
209.9551603814704
 20
174.3674013550811
 30
0.0
 11
135.9551598843349
 21
174.3674206662993
 31
0.0
  0
LINE
  5
1E3
330
1F
100
AcDbEntity
  8
0
100
AcDbLine
 10
141.9691743111436
 20
245.4705078660723
 30
0.0
 11
137.6588699584885
 21
229.3842476830003
 31
0.0
  0
LINE
  5
1E4
330
1F
100
AcDbEntity
  8
0
100
AcDbLine
 10
283.1395471304742
 20
142.8822712783208
 30
0.0
 11
270.1395376950738
 21
142.8823170470053
 31
0.0
  0
LINE
  5
1E5
330
1F
100
AcDbEntity
  8
0
100
AcDbLine
 10
293.4556331887492
 20
144.8822669515463
 30
0.0
 11
293.4556107981959
 21
164.2634896902733
 31
0.0
  0
LINE
  5
1E6
330
1F
100
AcDbEntity
  8
0
100
AcDbLine
 10
277.9411679080781
 20
245.4705153591097
 30
0.0
 11
282.2514653347868
 21
229.3842649291999
 31
0.0
  0
LINE
  5
1E7
330
1F
100
AcDbEntity
  8
0
100
AcDbLine
 10
135.9551673148928
 20
216.4433377430542
 30
0.0
 11
135.955158041758
 21
177.2538651161363
 31
0.0
  0
LINE
  5
1E8
330
1F
100
AcDbEntity
  8
0
100
AcDbLine
 10
282.2735546800524
 20
134.8823661584843
 30
0.0
 11
283.1395943055181
 21
135.3823919445432
 31
0.0
  0
LINE
  5
1E9
330
1F
100
AcDbEntity
  8
0
100
AcDbLine
 10
209.9551505683098
 20
257.8823279409051
 30
0.0
 11
233.9551752397251
 21
257.8823468023411
 31
0.0
  0
LINE
  5
1EA
330
1F
100
AcDbEntity
  8
0
100
AcDbLine
 10
271.0055503004912
 20
134.8822617140691
 30
0.0
 11
270.1395350583179
 21
135.3822386283596
 31
0.0
  0
LINE
  5
1EB
330
1F
100
AcDbEntity
  8
0
100
AcDbLine
 10
184.9551578003331
 20
252.8823187728022
 30
0.0
 11
184.9551568135498
 21
256.882312433047
 31
0.0
  0
LINE
  5
1EC
330
1F
100
AcDbEntity
  8
0
100
AcDbLine
 10
209.9551718000541
 20
223.0259618022834
 30
0.0
 11
282.2484399367179
 21
223.0259652487576
 31
0.0
  0
LINE
  5
1ED
330
1F
100
AcDbEntity
  8
0
100
AcDbLine
 10
209.9551505683098
 20
257.8823279409051
 30
0.0
 11
185.9551620463898
 21
257.8823579999554
 31
0.0
  0
LINE
  5
1EE
330
1F
100
AcDbEntity
  8
0
100
AcDbLine
 10
209.9551702796038
 20
252.8823545088379
 30
0.0
 11
151.6284486879367
 21
252.8823292380583
 31
0.0
  0
LINE
  5
1EF
330
1F
100
AcDbEntity
  8
0
100
AcDbLine
 10
283.9551576170858
 20
216.4433045685037
 30
0.0
 11
283.9551773653943
 21
177.2538844939966
 31
0.0
  0
LINE
  5
1F0
330
1F
100
AcDbEntity
  8
0
100
AcDbLine
 10
234.9551681632803
 20
252.8823527886507
 30
0.0
 11
234.9551636124711
 21
256.8823482648578
 31
0.0
  0
LINE
  5
1F1
330
1F
100
AcDbEntity
  8
0
100
AcDbLine
 10
301.5191059680985
 20
220.3823265795055
 30
0.0
 11
301.5191076289227
 21
210.3823540629017
 31
0.0
  0
LINE
  5
1F2
330
1F
100
AcDbEntity
  8
0
100
AcDbLine
 10
283.1395471304742
 20
142.8822712783208
 30
0.0
 11
283.139545491459
 21
144.8822350223807
 31
0.0
  0
LINE
  5
1F3
330
1F
100
AcDbEntity
  8
0
100
AcDbLine
 10
282.2735612988706
 20
134.8822954464543
 30
0.0
 11
271.005543172439
 21
134.8822653459932
 31
0.0
  0
LINE
  5
1F4
330
1F
100
AcDbEntity
  8
0
100
AcDbLine
 10
209.9551702796038
 20
252.8823545088379
 30
0.0
 11
268.2818915317811
 21
252.8823350595467
 31
0.0
  0
LINE
  5
1F5
330
1F
100
AcDbEntity
  8
0
100
AcDbLine
 10
286.4556485273719
 20
172.9237589026885
 30
0.0
 11
289.4556135144878
 21
171.191767540327
 31
0.0
  0
LINE
  5
1F6
330
1F
100
AcDbEntity
  8
0
100
AcDbLine
 10
133.4546784896683
 20
172.9237665884376
 30
0.0
 11
130.4547098410898
 21
171.1917223304736
 31
0.0
  0
LINE
  5
1F7
330
1F
100
AcDbEntity
  8
0
100
AcDbLine
 10
301.5191076289227
 20
210.3823540629017
 30
0.0
 11
289.0191382600444
 21
210.3823623013441
 31
0.0
  0
LINE
  5
1F8
330
1F
100
AcDbEntity
  8
0
100
AcDbLine
 10
165.4550751971191
 20
132.8822684348987
 30
0.0
 11
165.455077783672
 21
113.0821956772817
 31
0.0
  0
LINE
  5
1F9
330
1F
100
AcDbEntity
  8
0
100
AcDbLine
 10
126.4551250214242
 20
144.8822399132398
 30
0.0
 11
209.9551589060672
 21
144.8822308013503
 31
0.0
  0
LINE
  5
1FA
330
1F
100
AcDbEntity
  8
0
100
AcDbLine
 10
283.1395479638961
 20
141.632268783244
 30
0.0
 11
270.1395294486856
 21
141.6322967317977
 31
0.0
  0
LINE
  5
1FB
330
1F
100
AcDbEntity
  8
0
100
AcDbLine
 10
283.1395450029526
 20
135.3822599397818
 30
0.0
 11
283.1395471304742
 21
142.8822712783208
 31
0.0
  0
LINE
  5
1FC
330
1F
100
AcDbEntity
  8
0
100
AcDbLine
 10
209.95515908075
 20
150.8823214578866
 30
0.0
 11
126.4551299655874
 21
150.8823408676381
 31
0.0
  0
LINE
  5
1FD
330
1F
100
AcDbEntity
  8
0
100
AcDbLine
 10
149.770952822228
 20
135.8822268890615
 30
0.0
 11
162.4550742688761
 21
135.8822598469336
 31
0.0
  0
LINE
  5
1FE
330
1F
100
AcDbEntity
  8
0
100
AcDbLine
 10
209.9551647810931
 20
168.8825683435176
 30
0.0
 11
289.4555786014113
 21
168.8825317559211
 31
0.0
  0
LINE
  5
1FF
330
1F
100
AcDbEntity
  8
0
100
AcDbLine
 10
270.1395077910597
 20
135.8822264140632
 30
0.0
 11
257.455293849478
 21
135.8822630312382
 31
0.0
  0
LINE
  5
200
330
1F
100
AcDbEntity
  8
0
100
AcDbLine
 10
209.95515908075
 20
150.8823214578866
 30
0.0
 11
293.4556262570333
 21
150.8823476094113
 31
0.0
  0
LINE
  5
201
330
1F
100
AcDbEntity
  8
0
100
AcDbLine
 10
216.455221905428
 20
142.8822826516535
 30
0.0
 11
203.4552568506092
 21
142.8822833607772
 31
0.0
  0
LINE
  5
202
330
1F
100
AcDbEntity
  8
0
100
AcDbLine
 10
203.4552568506092
 20
142.8822833607772
 30
0.0
 11
203.4552480835413
 21
144.8822507367609
 31
0.0
  0
LINE
  5
203
330
1F
100
AcDbEntity
  8
0
100
AcDbLine
 10
216.455221905428
 20
142.8822826516535
 30
0.0
 11
216.4552256124518
 21
144.8822436717702
 31
0.0
  0
LINE
  5
204
330
1F
100
AcDbEntity
  8
0
100
AcDbLine
 10
216.4552233419322
 20
135.3822694971519
 30
0.0
 11
216.455221905428
 21
142.8822826516535
 31
0.0
  0
LINE
  5
205
330
1F
100
AcDbEntity
  8
0
100
AcDbLine
 10
203.4552458130219
 20
135.3822765621429
 30
0.0
 11
216.4552233419322
 21
135.3822694971519
 31
0.0
  0
LINE
  5
206
330
1F
100
AcDbEntity
  8
0
100
AcDbLine
 10
204.3212434048096
 20
134.8823310876979
 30
0.0
 11
203.4552048267219
 21
135.3822974457058
 31
0.0
  0
LINE
  5
207
330
1F
100
AcDbEntity
  8
0
100
AcDbLine
 10
215.5892271637589
 20
134.882311359691
 30
0.0
 11
216.4552233419322
 21
135.3822694971519
 31
0.0
  0
LINE
  5
208
330
1F
100
AcDbEntity
  8
0
100
AcDbLine
 10
203.4552576840308
 20
141.6322808656997
 30
0.0
 11
216.4552118770266
 21
141.6322632444267
 31
0.0
  0
LINE
  5
209
330
1F
100
AcDbEntity
  8
0
100
AcDbLine
 10
204.3212446775882
 20
134.8822630996102
 30
0.0
 11
215.5892414198633
 21
134.882304095843
 31
0.0
  0
LINE
  5
20A
330
1F
100
AcDbEntity
  8
0
100
AcDbLine
 10
203.4552458130219
 20
135.3822765621429
 30
0.0
 11
203.4552568506092
 21
142.8822833607772
 31
0.0
  0
LINE
  5
20B
330
1F
100
AcDbEntity
  8
0
100
AcDbLine
 10
293.4556331887492
 20
144.8822669515463
 30
0.0
 11
209.9551589060672
 21
144.8822308013503
 31
0.0
  0
LINE
  5
20C
330
1F
100
AcDbEntity
  8
0
100
AcDbLine
 10
209.9551603814704
 20
174.3674013550811
 30
0.0
 11
283.9551774259577
 21
174.3674409521403
 31
0.0
  0
LINE
  5
20D
330
1F
100
AcDbEntity
  8
0
100
AcDbLine
 10
283.9551656897112
 20
220.0365850307552
 30
0.0
 11
283.9551576170858
 21
216.4433045685037
 31
0.0
  0
LINE
  5
20E
330
1F
100
AcDbEntity
  8
0
100
AcDbLine
 10
679.9171181462739
 20
142.8822937264738
 30
0.0
 11
679.9171181462739
 21
144.882253726474
 31
0.0
  0
ARC
  5
20F
330
1F
100
AcDbEntity
  8
0
100
AcDbCircle
 10
589.416718146274
 20
287.8823137264738
 30
0.0
 40
3.0
100
AcDbArc
 50
90.0
 51
180.0
  0
ARC
  5
210
330
1F
100
AcDbEntity
  8
0
100
AcDbCircle
 10
603.416718146274
 20
287.8823137264738
 30
0.0
 40
3.0
100
AcDbArc
 50
0.0
 51
90.0
  0
ARC
  5
211
330
1F
100
AcDbEntity
  8
0
100
AcDbCircle
 10
572.4167181462739
 20
216.4433337264739
 30
0.0
 40
50.000004
100
AcDbArc
 50
165.0000099999996
 51
180.0
  0
ARC
  5
212
330
1F
100
AcDbEntity
  8
0
100
AcDbCircle
 10
538.089958146274
 20
242.8823137264738
 30
0.0
 40
9.999999
100
AcDbArc
 50
90.0
 51
164.9999899999844
  0
ARC
  5
213
330
1F
100
AcDbEntity
  8
0
100
AcDbCircle
 10
620.416678146274
 20
216.4433337264739
 30
0.0
 40
50.000004
100
AcDbArc
 50
0.0
 51
14.99999000000044
  0
ARC
  5
214
330
1F
100
AcDbEntity
  8
0
100
AcDbCircle
 10
675.4171381462738
 20
177.2538737264738
 30
0.0
 40
4.999999599999999
100
AcDbArc
 50
180.0
 51
240.0000699999987
  0
ARC
  5
215
330
1F
100
AcDbEntity
  8
0
100
AcDbCircle
 10
517.416258146274
 20
177.2538737264738
 30
0.0
 40
4.999999599999999
100
AcDbArc
 50
299.9999300000012
 51
0.0
  0
ARC
  5
216
330
1F
100
AcDbEntity
  8
0
100
AcDbCircle
 10
520.9162981462738
 20
164.2635137264738
 30
0.0
 40
8.0
100
AcDbArc
 50
120.0000400000081
 51
180.0
  0
ARC
  5
217
330
1F
100
AcDbEntity
  8
0
100
AcDbCircle
 10
654.743438146274
 20
242.8823137264738
 30
0.0
 40
9.999999
100
AcDbArc
 50
15.00001000001555
 51
90.0
  0
ARC
  5
218
330
1F
100
AcDbEntity
  8
0
100
AcDbCircle
 10
671.9171381462738
 20
164.2635137264738
 30
0.0
 40
8.0
100
AcDbArc
 50
0.0
 51
59.99995999999181
  0
ARC
  5
219
330
1F
100
AcDbEntity
  8
0
100
AcDbCircle
 10
572.4167181462739
 20
256.8823137264738
 30
0.0
 40
1.0
100
AcDbArc
 50
90.0
 51
180.0
  0
ARC
  5
21A
330
1F
100
AcDbEntity
  8
0
100
AcDbCircle
 10
620.416678146274
 20
256.8823137264738
 30
0.0
 40
1.0
100
AcDbArc
 50
0.0
 51
90.0
  0
ARC
  5
21B
330
1F
100
AcDbEntity
  8
0
100
AcDbCircle
 10
660.9166581462741
 20
140.8822937264739
 30
0.0
 40
4.999994799999999
100
AcDbArc
 50
270.0
 51
0.0
  0
ARC
  5
21C
330
1F
100
AcDbEntity
  8
0
100
AcDbCircle
 10
531.916778146274
 20
140.8822937264739
 30
0.0
 40
4.999994799999999
100
AcDbArc
 50
180.0
 51
270.0
  0
ARC
  5
21D
330
1F
100
AcDbEntity
  8
0
100
AcDbCircle
 10
548.9166181462739
 20
132.8822537264739
 30
0.0
 40
3.0
100
AcDbArc
 50
0.0
 51
90.0
  0
ARC
  5
21E
330
1F
100
AcDbEntity
  8
0
100
AcDbCircle
 10
666.4166181462739
 20
144.3822937264739
 30
0.0
 40
0.5
100
AcDbArc
 50
90.0
 51
180.0
  0
ARC
  5
21F
330
1F
100
AcDbEntity
  8
0
100
AcDbCircle
 10
643.9167781462738
 20
132.8822537264739
 30
0.0
 40
3.0
100
AcDbArc
 50
90.0
 51
180.0
  0
CIRCLE
  5
220
330
1F
100
AcDbEntity
  8
0
100
AcDbCircle
 10
596.4167181462739
 20
160.3823537264737
 30
0.0
 40
4.793628199999999
  0
CIRCLE
  5
221
330
1F
100
AcDbEntity
  8
0
100
AcDbCircle
 10
596.4167181462739
 20
160.3823537264737
 30
0.0
 40
4.193894799999999
  0
CIRCLE
  5
222
330
1F
100
AcDbEntity
  8
0
100
AcDbCircle
 10
596.4167181462739
 20
215.3823537264737
 30
0.0
 40
4.9999694
  0
LINE
  5
223
330
1F
100
AcDbEntity
  8
0
100
AcDbLine
 10
589.416718146274
 20
290.8823137264738
 30
0.0
 11
603.416718146274
 21
290.8823137264738
 31
0.0
  0
LINE
  5
224
330
1F
100
AcDbEntity
  8
0
100
AcDbLine
 10
606.416718146274
 20
261.6144937264738
 30
0.0
 11
606.416718146274
 21
287.8823137264738
 31
0.0
  0
LINE
  5
225
330
1F
100
AcDbEntity
  8
0
100
AcDbLine
 10
607.416749582738
 20
257.8823137264737
 30
0.0
 11
606.4166581462741
 21
261.6146137264739
 31
0.0
  0
LINE
  5
226
330
1F
100
AcDbEntity
  8
0
100
AcDbLine
 10
606.416718146274
 20
261.6144937264738
 30
0.0
 11
586.416718146274
 21
261.6144937264738
 31
0.0
  0
LINE
  5
227
330
1F
100
AcDbEntity
  8
0
100
AcDbLine
 10
586.416718146274
 20
261.6144937264738
 30
0.0
 11
586.416718146274
 21
287.8823137264738
 31
0.0
  0
LINE
  5
228
330
1F
100
AcDbEntity
  8
0
100
AcDbLine
 10
585.4165101718685
 20
257.8823137264737
 30
0.0
 11
586.4165381462739
 21
261.6145537264738
 31
0.0
  0
LINE
  5
229
330
1F
100
AcDbEntity
  8
0
100
AcDbLine
 10
641.4169981462739
 20
135.3822937264739
 30
0.0
 11
628.4169581462738
 21
135.3822937264739
 31
0.0
  0
LINE
  5
22A
330
1F
100
AcDbEntity
  8
0
100
AcDbLine
 10
596.4167181462739
 20
168.8825737264738
 30
0.0
 11
516.9162981462739
 21
168.8825737264738
 31
0.0
  0
LINE
  5
22B
330
1F
100
AcDbEntity
  8
0
100
AcDbLine
 10
596.4167181462739
 20
223.0259737264737
 30
0.0
 11
524.123438146274
 21
223.0259737264737
 31
0.0
  0
LINE
  5
22C
330
1F
100
AcDbEntity
  8
0
100
AcDbLine
 10
667.783058146274
 20
134.8822937264739
 30
0.0
 11
679.051058146274
 21
134.8822937264739
 31
0.0
  0
LINE
  5
22D
330
1F
100
AcDbEntity
  8
0
100
AcDbLine
 10
666.917058146274
 20
142.8822937264738
 30
0.0
 11
679.917078146274
 21
142.8822937264738
 31
0.0
  0
LINE
  5
22E
330
1F
100
AcDbEntity
  8
0
100
AcDbLine
 10
679.917078146274
 20
135.3822937264739
 30
0.0
 11
679.917078146274
 21
142.8822937264738
 31
0.0
  0
LINE
  5
22F
330
1F
100
AcDbEntity
  8
0
100
AcDbLine
 10
666.917058146274
 20
135.3822937264739
 30
0.0
 11
666.917058146274
 21
142.8822937264738
 31
0.0
  0
LINE
  5
230
330
1F
100
AcDbEntity
  8
0
100
AcDbLine
 10
666.917058146274
 20
135.3822937264739
 30
0.0
 11
679.917078146274
 21
135.3822937264739
 31
0.0
  0
LINE
  5
231
330
1F
100
AcDbEntity
  8
0
100
AcDbLine
 10
679.051078146274
 20
134.8822937264739
 30
0.0
 11
679.917078146274
 21
135.3822937264739
 31
0.0
  0
LINE
  5
232
330
1F
100
AcDbEntity
  8
0
100
AcDbLine
 10
551.416438146274
 20
135.3822937264739
 30
0.0
 11
564.4164781462741
 21
135.3822937264739
 31
0.0
  0
LINE
  5
233
330
1F
100
AcDbEntity
  8
0
100
AcDbLine
 10
552.2824381462739
 20
134.8823537264737
 30
0.0
 11
551.416418146274
 21
135.3823537264737
 31
0.0
  0
LINE
  5
234
330
1F
100
AcDbEntity
  8
0
100
AcDbLine
 10
563.550438146274
 20
134.8822537264739
 30
0.0
 11
564.4164781462741
 21
135.382253726474
 31
0.0
  0
LINE
  5
235
330
1F
100
AcDbEntity
  8
0
100
AcDbLine
 10
551.416438146274
 20
141.6322937264738
 30
0.0
 11
564.4164781462741
 21
141.6322937264738
 31
0.0
  0
LINE
  5
236
330
1F
100
AcDbEntity
  8
0
100
AcDbLine
 10
551.416438146274
 20
142.8822937264738
 30
0.0
 11
564.4164781462741
 21
142.8822937264738
 31
0.0
  0
LINE
  5
237
330
1F
100
AcDbEntity
  8
0
100
AcDbLine
 10
552.2824381462739
 20
134.8822937264739
 30
0.0
 11
563.5504181462738
 21
134.8822937264739
 31
0.0
  0
LINE
  5
238
330
1F
100
AcDbEntity
  8
0
100
AcDbLine
 10
551.416438146274
 20
135.3822937264739
 30
0.0
 11
551.416438146274
 21
142.8822937264738
 31
0.0
  0
LINE
  5
239
330
1F
100
AcDbEntity
  8
0
100
AcDbLine
 10
666.917058146274
 20
142.8822937264738
 30
0.0
 11
666.917058146274
 21
144.882253726474
 31
0.0
  0
LINE
  5
23A
330
1F
100
AcDbEntity
  8
0
100
AcDbLine
 10
564.4164781462741
 20
135.882253726474
 30
0.0
 11
596.4167181462739
 21
135.882253726474
 31
0.0
  0
LINE
  5
23B
330
1F
100
AcDbEntity
  8
0
100
AcDbLine
 10
666.917058146274
 20
141.6322937264738
 30
0.0
 11
679.917078146274
 21
141.6322937264738
 31
0.0
  0
LINE
  5
23C
330
1F
100
AcDbEntity
  8
0
100
AcDbLine
 10
628.4169581462738
 20
135.882253726474
 30
0.0
 11
596.4167181462739
 21
135.882253726474
 31
0.0
  0
LINE
  5
23D
330
1F
100
AcDbEntity
  8
0
100
AcDbLine
 10
628.4169581462738
 20
142.8822937264738
 30
0.0
 11
628.4169581462738
 21
144.882253726474
 31
0.0
  0
LINE
  5
23E
330
1F
100
AcDbEntity
  8
0
100
AcDbLine
 10
512.9166781462741
 20
144.8822537264741
 30
0.0
 11
512.9166781462741
 21
164.3431937264739
 31
0.0
  0
LINE
  5
23F
330
1F
100
AcDbEntity
  8
0
100
AcDbLine
 10
628.4169581462738
 20
135.3822937264739
 30
0.0
 11
628.4169581462738
 21
142.8822937264738
 31
0.0
  0
LINE
  5
240
330
1F
100
AcDbEntity
  8
0
100
AcDbLine
 10
564.4164781462741
 20
142.8822937264738
 30
0.0
 11
564.4164781462741
 21
144.882253726474
 31
0.0
  0
LINE
  5
241
330
1F
100
AcDbEntity
  8
0
100
AcDbLine
 10
596.4167181462739
 20
174.3674337264739
 30
0.0
 11
522.4166781462741
 21
174.3674337264739
 31
0.0
  0
LINE
  5
242
330
1F
100
AcDbEntity
  8
0
100
AcDbLine
 10
528.430718146274
 20
245.4705737264738
 30
0.0
 11
524.120418146274
 21
229.3842737264739
 31
0.0
  0
LINE
  5
243
330
1F
100
AcDbEntity
  8
0
100
AcDbLine
 10
641.4169981462739
 20
142.8822937264738
 30
0.0
 11
628.4169581462738
 21
142.8822937264738
 31
0.0
  0
LINE
  5
244
330
1F
100
AcDbEntity
  8
0
100
AcDbLine
 10
679.9171381462738
 20
144.882253726474
 30
0.0
 11
679.9171381462738
 21
164.2635137264738
 31
0.0
  0
LINE
  5
245
330
1F
100
AcDbEntity
  8
0
100
AcDbLine
 10
664.4027381462738
 20
245.4705737264738
 30
0.0
 11
668.7130381462739
 21
229.3842737264739
 31
0.0
  0
LINE
  5
246
330
1F
100
AcDbEntity
  8
0
100
AcDbLine
 10
522.4166781462741
 20
216.4433337264739
 30
0.0
 11
522.4166781462741
 21
177.2538737264738
 31
0.0
  0
LINE
  5
247
330
1F
100
AcDbEntity
  8
0
100
AcDbLine
 10
640.5509581462738
 20
134.8823537264737
 30
0.0
 11
641.4169981462739
 21
135.3823537264737
 31
0.0
  0
LINE
  5
248
330
1F
100
AcDbEntity
  8
0
100
AcDbLine
 10
596.4167181462739
 20
257.8823137264738
 30
0.0
 11
620.416678146274
 21
257.8823137264738
 31
0.0
  0
LINE
  5
249
330
1F
100
AcDbEntity
  8
0
100
AcDbLine
 10
629.2829981462739
 20
134.8822537264739
 30
0.0
 11
628.4169581462738
 21
135.382253726474
 31
0.0
  0
LINE
  5
24A
330
1F
100
AcDbEntity
  8
0
100
AcDbLine
 10
571.4167181462739
 20
252.8823737264739
 30
0.0
 11
571.4167181462739
 21
256.8823137264738
 31
0.0
  0
LINE
  5
24B
330
1F
100
AcDbEntity
  8
0
100
AcDbLine
 10
596.4167181462739
 20
223.0259737264737
 30
0.0
 11
668.7099981462738
 21
223.0259737264737
 31
0.0
  0
LINE
  5
24C
330
1F
100
AcDbEntity
  8
0
100
AcDbLine
 10
596.4167181462739
 20
257.8823137264738
 30
0.0
 11
572.4167181462739
 21
257.8823137264738
 31
0.0
  0
LINE
  5
24D
330
1F
100
AcDbEntity
  8
0
100
AcDbLine
 10
596.4167181462739
 20
252.8823737264739
 30
0.0
 11
538.089958146274
 21
252.8823737264739
 31
0.0
  0
LINE
  5
24E
330
1F
100
AcDbEntity
  8
0
100
AcDbLine
 10
670.4167181462739
 20
216.4433337264739
 30
0.0
 11
670.4167181462739
 21
177.2538737264738
 31
0.0
  0
LINE
  5
24F
330
1F
100
AcDbEntity
  8
0
100
AcDbLine
 10
621.4166781462741
 20
252.8823737264739
 30
0.0
 11
621.4166781462741
 21
256.8823137264738
 31
0.0
  0
LINE
  5
250
330
1F
100
AcDbEntity
  8
0
100
AcDbLine
 10
641.4169981462739
 20
142.8822937264738
 30
0.0
 11
641.4169981462739
 21
144.882253726474
 31
0.0
  0
LINE
  5
251
330
1F
100
AcDbEntity
  8
0
100
AcDbLine
 10
640.5509981462739
 20
134.8822937264739
 30
0.0
 11
629.2829981462739
 21
134.8822937264739
 31
0.0
  0
LINE
  5
252
330
1F
100
AcDbEntity
  8
0
100
AcDbLine
 10
596.4167181462739
 20
252.8823737264739
 30
0.0
 11
654.743438146274
 21
252.8823737264739
 31
0.0
  0
LINE
  5
253
330
1F
100
AcDbEntity
  8
0
100
AcDbLine
 10
672.9171781462739
 20
172.9237537264738
 30
0.0
 11
675.9171381462738
 21
171.1917337264738
 31
0.0
  0
LINE
  5
254
330
1F
100
AcDbEntity
  8
0
100
AcDbLine
 10
519.916238146274
 20
172.9237537264738
 30
0.0
 11
516.916258146274
 21
171.1917137264739
 31
0.0
  0
LINE
  5
255
330
1F
100
AcDbEntity
  8
0
100
AcDbLine
 10
540.4167486638528
 20
113.8821937264739
 30
0.0
 11
652.4166876286969
 21
113.8821937264739
 31
0.0
  0
LINE
  5
256
330
1F
100
AcDbEntity
  8
0
100
AcDbLine
 10
551.916618146274
 20
132.8822537264739
 30
0.0
 11
551.916618146274
 21
113.8821937264739
 31
0.0
  0
LINE
  5
257
330
1F
100
AcDbEntity
  8
0
100
AcDbLine
 10
512.9166781462741
 20
144.8822537264741
 30
0.0
 11
596.4167181462739
 21
144.882253726474
 31
0.0
  0
LINE
  5
258
330
1F
100
AcDbEntity
  8
0
100
AcDbLine
 10
641.4169981462739
 20
141.6322937264738
 30
0.0
 11
628.4169581462738
 21
141.6322937264738
 31
0.0
  0
LINE
  5
259
330
1F
100
AcDbEntity
  8
0
100
AcDbLine
 10
641.4169981462739
 20
135.3822937264739
 30
0.0
 11
641.4169981462739
 21
142.8822937264738
 31
0.0
  0
LINE
  5
25A
330
1F
100
AcDbEntity
  8
0
100
AcDbLine
 10
596.4167181462739
 20
150.8823537264737
 30
0.0
 11
512.9166781462741
 21
150.8823537264737
 31
0.0
  0
LINE
  5
25B
330
1F
100
AcDbEntity
  8
0
100
AcDbLine
 10
526.916778146274
 20
144.882253726474
 30
0.0
 11
526.916778146274
 21
140.8822937264739
 31
0.0
  0
LINE
  5
25C
330
1F
100
AcDbEntity
  8
0
100
AcDbLine
 10
531.916778146274
 20
135.882253726474
 30
0.0
 11
551.416438146274
 21
135.882253726474
 31
0.0
  0
LINE
  5
25D
330
1F
100
AcDbEntity
  8
0
100
AcDbLine
 10
640.9167781462738
 20
132.8822537264739
 30
0.0
 11
640.9167781462737
 21
113.8821937264739
 31
0.0
  0
LINE
  5
25E
330
1F
100
AcDbEntity
  8
0
100
AcDbLine
 10
596.4167181462739
 20
168.8825737264738
 30
0.0
 11
675.9171381462738
 21
168.8825737264738
 31
0.0
  0
LINE
  5
25F
330
1F
100
AcDbEntity
  8
0
100
AcDbLine
 10
665.9166181462739
 20
144.3822937264739
 30
0.0
 11
665.9166181462739
 21
140.8822937264739
 31
0.0
  0
LINE
  5
260
330
1F
100
AcDbEntity
  8
0
100
AcDbLine
 10
660.9166581462741
 20
135.882253726474
 30
0.0
 11
641.4169981462739
 21
135.882253726474
 31
0.0
  0
LINE
  5
261
330
1F
100
AcDbEntity
  8
0
100
AcDbLine
 10
596.4167181462739
 20
150.8823537264737
 30
0.0
 11
679.9171381462738
 21
150.8823537264737
 31
0.0
  0
LINE
  5
262
330
1F
100
AcDbEntity
  8
0
100
AcDbLine
 10
525.9162981462739
 20
142.8822937264738
 30
0.0
 11
512.916318146274
 21
142.8822937264738
 31
0.0
  0
LINE
  5
263
330
1F
100
AcDbEntity
  8
0
100
AcDbLine
 10
512.916318146274
 20
142.8822937264738
 30
0.0
 11
512.916318146274
 21
144.882253726474
 31
0.0
  0
LINE
  5
264
330
1F
100
AcDbEntity
  8
0
100
AcDbLine
 10
525.9162981462739
 20
142.8822937264738
 30
0.0
 11
525.9162981462739
 21
144.882253726474
 31
0.0
  0
LINE
  5
265
330
1F
100
AcDbEntity
  8
0
100
AcDbLine
 10
525.9162981462739
 20
135.3822937264739
 30
0.0
 11
525.9162981462739
 21
142.8822937264738
 31
0.0
  0
LINE
  5
266
330
1F
100
AcDbEntity
  8
0
100
AcDbLine
 10
512.916318146274
 20
135.3822937264739
 30
0.0
 11
525.9162981462739
 21
135.3822937264739
 31
0.0
  0
LINE
  5
267
330
1F
100
AcDbEntity
  8
0
100
AcDbLine
 10
513.782318146274
 20
134.8823537264737
 30
0.0
 11
512.9162981462739
 21
135.3823537264737
 31
0.0
  0
LINE
  5
268
330
1F
100
AcDbEntity
  8
0
100
AcDbLine
 10
525.050258146274
 20
134.8822537264739
 30
0.0
 11
525.916318146274
 21
135.3822937264739
 31
0.0
  0
LINE
  5
269
330
1F
100
AcDbEntity
  8
0
100
AcDbLine
 10
512.916318146274
 20
141.6322937264738
 30
0.0
 11
525.9162981462739
 21
141.6322937264738
 31
0.0
  0
LINE
  5
26A
330
1F
100
AcDbEntity
  8
0
100
AcDbLine
 10
513.782318146274
 20
134.8822937264739
 30
0.0
 11
525.0502981462739
 21
134.8822937264739
 31
0.0
  0
LINE
  5
26B
330
1F
100
AcDbEntity
  8
0
100
AcDbLine
 10
512.916318146274
 20
135.3822937264739
 30
0.0
 11
512.916318146274
 21
142.8822937264738
 31
0.0
  0
LINE
  5
26C
330
1F
100
AcDbEntity
  8
0
100
AcDbLine
 10
679.9171381462738
 20
144.882253726474
 30
0.0
 11
596.4167181462739
 21
144.882253726474
 31
0.0
  0
LINE
  5
26D
330
1F
100
AcDbEntity
  8
0
100
AcDbLine
 10
596.4167181462739
 20
174.3674337264739
 30
0.0
 11
670.4167181462739
 21
174.3674337264739
 31
0.0
  0
LINE
  5
26E
330
1F
100
AcDbEntity
  8
0
100
AcDbLine
 10
551.416438146274
 20
142.8822937264738
 30
0.0
 11
551.416438146274
 21
144.882253726474
 31
0.0
  0
LINE
  5
26F
330
1F
100
AcDbEntity
  8
0
100
AcDbLine
 10
564.4164781462741
 20
135.3822937264739
 30
0.0
 11
564.4164781462741
 21
142.8822937264738
 31
0.0
  0
LINE
  5
270
330
1F
100
AcDbEntity
  8
0
100
AcDbLine
 10
667.783058146274
 20
134.8822937264739
 30
0.0
 11
666.9169981462739
 21
135.3822937264739
 31
0.0
  0
TEXT
  5
271
330
1F
100
AcDbEntity
  8
0
100
AcDbText
 10
32.85499999999911
 20
831.970381585471
 30
0.0
 40
48.000002
  1
DHC2S14RD000 2S
 41
1.32095
100
AcDbText
  0
LINE
  5
272
330
1F
100
AcDbEntity
  8
0
100
AcDbLine
 10
625.2785040368327
 20
113.8821937264739
 30
0.0
 11
625.2785039814392
 21
90.38224398087313
 31
0.0
  0
LINE
  5
273
330
1F
100
AcDbEntity
  8
0
100
AcDbLine
 10
567.5549932946449
 20
113.8821937264739
 30
0.0
 11
567.5549932392524
 21
90.38224411693692
 31
0.0
  0
LINE
  5
274
330
1F
100
AcDbEntity
  8
0
100
AcDbLine
 10
273.9551557539903
 20
106.3821981405365
 30
0.0
 11
265.9551404952011
 21
106.3821988478865
 31
0.0
  0
LINE
  5
275
330
1F
100
AcDbEntity
  8
0
100
AcDbLine
 10
273.9551557539903
 20
106.3821981405365
 30
0.0
 11
273.9551563729223
 21
113.3822286581142
 31
0.0
  0
LINE
  5
276
330
1F
100
AcDbEntity
  8
0
100
AcDbLine
 10
273.9551563729223
 20
113.3822286581142
 30
0.0
 11
265.9551411141332
 21
113.3822293654632
 31
0.0
  0
CIRCLE
  5
277
330
1F
100
AcDbEntity
  8
0
100
AcDbCircle
 10
596.4167181462747
 20
109.8822133993252
 30
0.0
 40
3.500015258788379
  0
LINE
  5
278
330
1F
100
AcDbEntity
  8
0
100
AcDbLine
 10
241.9551865810352
 20
752.8830864840803
 30
0.0
 11
235.3551499599414
 21
750.4808695229153
 31
0.0
  0
LINE
  5
279
330
1F
100
AcDbEntity
  8
0
100
AcDbLine
 10
241.9551865810344
 20
755.7331264825262
 30
0.0
 11
241.9551865810352
 21
752.8830864840803
 31
0.0
  0
LINE
  5
27A
330
1F
100
AcDbEntity
  8
0
  6
HIDDEN
 48
10.0
100
AcDbLine
 10
235.3551499599414
 20
740.2761903535319
 30
0.0
 11
235.3551499599414
 21
716.7330970001044
 31
0.0
  0
LINE
  5
27B
330
1F
100
AcDbEntity
  8
0
100
AcDbLine
 10
235.3551499599414
 20
750.4808695229153
 30
0.0
 11
235.3551499599414
 21
740.2761903535319
 31
0.0
  0
LINE
  5
27C
330
1F
100
AcDbEntity
  8
0
100
AcDbLine
 10
177.9551865810343
 20
752.883120539053
 30
0.0
 11
184.5552232021281
 21
750.4809035778882
 31
0.0
  0
LINE
  5
27D
330
1F
100
AcDbEntity
  8
0
100
AcDbLine
 10
177.9551865810343
 20
755.7331264825262
 30
0.0
 11
177.9551865810343
 21
752.883120539053
 31
0.0
  0
LINE
  5
27E
330
1F
100
AcDbEntity
  8
0
  6
HIDDEN
 48
10.0
100
AcDbLine
 10
184.5552232021281
 20
740.2762098434922
 30
0.0
 11
184.5552232021281
 21
716.7330970001042
 31
0.0
  0
LINE
  5
27F
330
1F
100
AcDbEntity
  8
0
100
AcDbLine
 10
184.5552232021281
 20
750.4809035778882
 30
0.0
 11
184.5552232021281
 21
740.2762098434922
 31
0.0
  0
LINE
  5
280
330
1F
100
AcDbEntity
  8
0
100
AcDbLine
 10
177.9551865810343
 20
755.7331264825262
 30
0.0
 11
241.9551865810344
 21
755.7331264825262
 31
0.0
  0
LINE
  5
281
330
1F
100
AcDbEntity
  8
0
100
AcDbLine
 10
688.5666814794183
 20
99.98215846768481
 30
0.0
 11
686.164486733235
 21
93.38218288174729
 31
0.0
  0
LINE
  5
282
330
1F
100
AcDbEntity
  8
0
100
AcDbLine
 10
691.4166876286968
 20
99.98215846768481
 30
0.0
 11
688.5666814794183
 21
99.98215846768481
 31
0.0
  0
LINE
  5
283
330
1F
100
AcDbEntity
  8
0
100
AcDbLine
 10
686.164486733235
 20
93.38218288174729
 30
0.0
 11
686.1644906965737
 21
42.58216457120044
 31
0.0
  0
LINE
  5
284
330
1F
100
AcDbEntity
  8
0
100
AcDbLine
 10
686.1644906965737
 20
42.58216457120044
 30
0.0
 11
652.4166876286963
 21
42.58216457120044
 31
0.0
  0
LINE
  5
285
330
1F
100
AcDbEntity
  8
0
100
AcDbLine
 10
686.164486733235
 20
93.38218288174729
 30
0.0
 11
652.416687628697
 21
93.38218288174729
 31
0.0
  0
LINE
  5
286
330
1F
100
AcDbEntity
  8
0
100
AcDbLine
 10
691.4166876286968
 20
35.98218898526295
 30
0.0
 11
688.5666854427569
 21
35.98218898526295
 31
0.0
  0
LINE
  5
287
330
1F
100
AcDbEntity
  8
0
100
AcDbLine
 10
691.4166876286968
 20
99.98215846768481
 30
0.0
 11
691.4166876286968
 21
35.98218898526295
 31
0.0
  0
LINE
  5
288
330
1F
100
AcDbEntity
  8
0
100
AcDbLine
 10
688.5666854427569
 20
35.98218898526295
 30
0.0
 11
686.1644906965737
 21
42.58216457120044
 31
0.0
  0
LINE
  5
289
330
1F
100
AcDbEntity
  8
0
100
AcDbLine
 10
607.5758741848201
 20
61.98217852653225
 30
0.0
 11
617.333095538087
 21
45.08217570530211
 31
0.0
  0
ARC
  5
28A
330
1F
100
AcDbEntity
  8
0
100
AcDbCircle
 10
624.261292120884
 20
49.08219508877857
 30
0.0
 40
8.0
100
AcDbArc
 50
210.0000051605344
 51
269.9999974955215
  0
LINE
  5
28B
330
1F
100
AcDbEntity
  8
0
100
AcDbLine
 10
585.257585989513
 20
61.98221592460811
 30
0.0
 11
575.500353192153
 21
45.08219328162964
 31
0.0
  0
ARC
  5
28C
330
1F
100
AcDbEntity
  8
0
100
AcDbCircle
 10
595.6498724431504
 20
55.98218898526296
 30
0.0
 40
12.0
100
AcDbArc
 50
90.00000865142139
 51
149.999996660697
  0
LINE
  5
28D
330
1F
100
AcDbEntity
  8
0
100
AcDbLine
 10
595.6498724431504
 20
67.98218898526295
 30
0.0
 11
597.1835638494004
 21
67.98218898526295
 31
0.0
  0
ARC
  5
28E
330
1F
100
AcDbEntity
  8
0
100
AcDbCircle
 10
568.5721441716663
 20
49.08219508877857
 30
0.0
 40
8.0
100
AcDbArc
 50
269.9999974955215
 51
330.0000016696579
  0
ARC
  5
28F
330
1F
100
AcDbEntity
  8
0
100
AcDbCircle
 10
597.1835638494004
 20
55.98218898526296
 30
0.0
 40
12.0
100
AcDbArc
 50
30.00000333930298
 51
90.00000500895694
  0
LINE
  5
290
330
1F
100
AcDbEntity
  8
0
100
AcDbLine
 10
652.4166876286963
 20
41.08216457120045
 30
0.0
 11
624.261292120884
 21
41.08216457120045
 31
0.0
  0
LINE
  5
291
330
1F
100
AcDbEntity
  8
0
100
AcDbLine
 10
504.2667054840668
 20
99.98215846768481
 30
0.0
 11
506.6689002302508
 21
93.38218288174729
 31
0.0
  0
LINE
  5
292
330
1F
100
AcDbEntity
  8
0
100
AcDbLine
 10
501.4167181462739
 20
99.98215846768481
 30
0.0
 11
504.2667054840668
 21
99.98215846768481
 31
0.0
  0
LINE
  5
293
330
1F
100
AcDbEntity
  8
0
100
AcDbLine
 10
506.6689002302508
 20
93.38218288174729
 30
0.0
 11
506.668977457233
 21
42.58216457120044
 31
0.0
  0
LINE
  5
294
330
1F
100
AcDbEntity
  8
0
100
AcDbLine
 10
506.6689002302508
 20
93.38218288174729
 30
0.0
 11
540.4167486638528
 21
93.38218288174729
 31
0.0
  0
LINE
  5
295
330
1F
100
AcDbEntity
  8
0
100
AcDbLine
 10
506.668977457233
 20
42.58216457120044
 30
0.0
 11
540.4167486638528
 21
42.58216457120044
 31
0.0
  0
LINE
  5
296
330
1F
100
AcDbEntity
  8
0
100
AcDbLine
 10
501.4167181462739
 20
35.98218898526295
 30
0.0
 11
504.266782711049
 21
35.98218898526295
 31
0.0
  0
LINE
  5
297
330
1F
100
AcDbEntity
  8
0
100
AcDbLine
 10
501.4167181462739
 20
99.98215846768481
 30
0.0
 11
501.4167181462739
 21
35.98218898526295
 31
0.0
  0
LINE
  5
298
330
1F
100
AcDbEntity
  8
0
100
AcDbLine
 10
504.266782711049
 20
35.98218898526295
 30
0.0
 11
506.668977457233
 21
42.58216457120044
 31
0.0
  0
LINE
  5
299
330
1F
100
AcDbEntity
  8
0
100
AcDbLine
 10
540.4167486638528
 20
90.3821523641692
 30
0.0
 11
652.4166876286963
 21
90.3821523641692
 31
0.0
  0
LINE
  5
29A
330
1F
100
AcDbEntity
  8
0
100
AcDbLine
 10
540.4166876286963
 20
105.8821828817472
 30
0.0
 11
652.416687628697
 21
105.8821828817472
 31
0.0
  0
LINE
  5
29B
330
1F
100
AcDbEntity
  8
0
100
AcDbLine
 10
540.4167486638528
 20
41.08216457120045
 30
0.0
 11
568.5721441716663
 21
41.08216457120045
 31
0.0
  0
LINE
  5
29C
330
1F
100
AcDbEntity
  8
0
100
AcDbLine
 10
540.4167486638528
 20
113.8821937264739
 30
0.0
 11
540.4167486638528
 21
41.08216457120045
 31
0.0
  0
LINE
  5
29D
330
1F
100
AcDbEntity
  8
0
100
AcDbLine
 10
652.4166876286969
 20
113.8821937264739
 30
0.0
 11
652.4166876286963
 21
41.08216457120045
 31
0.0
  0
LINE
  5
29E
330
1F
100
AcDbEntity
  8
0
100
AcDbLine
 10
241.9551865810344
 20
568.5831619490008
 30
0.0
 11
235.35514995994
 21
570.9853789101647
 31
0.0
  0
LINE
  5
29F
330
1F
100
AcDbEntity
  8
0
  6
HIDDEN
 48
10.0
100
AcDbLine
 10
235.3551499599404
 20
581.1901236466764
 30
0.0
 11
235.3551499599414
 21
604.7331970001043
 31
0.0
  0
LINE
  5
2A0
330
1F
100
AcDbEntity
  8
0
100
AcDbLine
 10
235.35514995994
 20
570.9853789101647
 30
0.0
 11
235.3551499599404
 21
581.1901236466764
 31
0.0
  0
LINE
  5
2A1
330
1F
100
AcDbEntity
  8
0
100
AcDbLine
 10
241.9551865810344
 20
565.7331570001042
 30
0.0
 11
241.9551865810344
 21
568.5831619490008
 31
0.0
  0
LINE
  5
2A2
330
1F
100
AcDbEntity
  8
0
  6
HIDDEN
 48
10.0
100
AcDbLine
 10
184.5552232021281
 20
581.1901041567164
 30
0.0
 11
184.5552232021281
 21
604.7331970001041
 31
0.0
  0
LINE
  5
2A3
330
1F
100
AcDbEntity
  8
0
100
AcDbLine
 10
184.5552232021281
 20
570.9853773313207
 30
0.0
 11
184.5552232021281
 21
581.1901041567164
 31
0.0
  0
LINE
  5
2A4
330
1F
100
AcDbEntity
  8
0
100
AcDbLine
 10
177.9551865810343
 20
568.5831603701561
 30
0.0
 11
184.5552232021281
 21
570.9853773313207
 31
0.0
  0
LINE
  5
2A5
330
1F
100
AcDbEntity
  8
0
100
AcDbLine
 10
177.9551865810352
 20
565.7331570001042
 30
0.0
 11
177.9551865810343
 21
568.5831603701561
 31
0.0
  0
LINE
  5
2A6
330
1F
100
AcDbEntity
  8
0
100
AcDbLine
 10
177.9551865810352
 20
565.7331570001042
 30
0.0
 11
241.9551865810344
 21
565.7331570001042
 31
0.0
  0
LINE
  5
2A7
330
1F
100
AcDbEntity
  8
0
100
AcDbLine
 10
153.9552323574025
 20
113.0821957043887
 30
0.0
 11
265.9551408046672
 21
113.0821954403859
 31
0.0
  0
LINE
  5
2A8
330
1F
100
AcDbEntity
  8
0
100
AcDbLine
 10
265.9551407511603
 20
90.38221375093336
 30
0.0
 11
232.8077182439002
 21
90.38221382906716
 31
0.0
  0
LINE
  5
2A9
330
1F
100
AcDbEntity
  8
0
100
AcDbLine
 10
251.2397700031454
 20
90.38221378561987
 30
0.0
 11
241.7719218931932
 21
71.40229721670687
 31
0.0
  0
LINE
  5
2AA
330
1F
100
AcDbEntity
  8
0
100
AcDbLine
 10
181.0934464687301
 20
113.0821956404192
 30
0.0
 11
181.0934464152223
 21
90.38224446854441
 31
0.0
  0
LINE
  5
2AB
330
1F
100
AcDbEntity
  8
0
100
AcDbLine
 10
168.6706471673037
 20
90.38221398024907
 30
0.0
 11
178.1384943933711
 21
71.40229903977719
 31
0.0
  0
LINE
  5
2AC
330
1F
100
AcDbEntity
  8
0
100
AcDbLine
 10
153.9552323038947
 20
90.38221401493579
 30
0.0
 11
187.1026550237722
 21
90.3822139368018
 31
0.0
  0
LINE
  5
2AD
330
1F
100
AcDbEntity
  8
0
100
AcDbLine
 10
153.9552323404309
 20
105.8822445325138
 30
0.0
 11
265.9551407876962
 21
105.8822442685112
 31
0.0
  0
CIRCLE
  5
2AE
330
1F
100
AcDbEntity
  8
0
100
AcDbCircle
 10
209.9551865810354
 20
67.98217372647389
 30
0.0
 40
23.89996337890647
  0
CIRCLE
  5
2AF
330
1F
100
AcDbEntity
  8
0
100
AcDbCircle
 10
209.9551865810354
 20
67.98217372647389
 30
0.0
 40
32.0
  0
LINE
  5
2B0
330
1F
100
AcDbEntity
  8
0
100
AcDbLine
 10
265.9551408046672
 20
113.0821954403859
 30
0.0
 11
265.9551407511603
 21
90.38224426851149
 31
0.0
  0
LINE
  5
2B1
330
1F
100
AcDbEntity
  8
0
100
AcDbLine
 10
238.8169572109172
 20
113.082195504356
 30
0.0
 11
238.8169571574102
 21
90.38224433248059
 31
0.0
  0
LINE
  5
2B2
330
1F
100
AcDbEntity
  8
0
100
AcDbLine
 10
153.9552323574025
 20
113.0821957043887
 30
0.0
 11
153.9552323038947
 21
90.38224453251414
 31
0.0
  0
LINE
  5
310
330
1F
100
AcDbEntity
  8
0
  6
CENTER
100
AcDbLine
 10
256.6683203271696
 20
67.982173726474
 30
0.0
 11
163.2420528349012
 21
67.98217372647378
 31
0.0
  0
LINE
  5
311
330
1F
100
AcDbEntity
  8
0
  6
CENTER
100
AcDbLine
 10
209.9551865810354
 20
17.44939433090303
 30
0.0
 11
209.9551865810354
 21
308.7802217958967
 31
0.0
  0
LINE
  5
312
330
1F
100
AcDbEntity
  8
0
  6
CENTER
100
AcDbLine
 10
720.9232189813364
 20
67.98218898526307
 30
0.0
 11
471.9102173112145
 21
67.98218898526285
 31
0.0
  0
LINE
  5
313
330
1F
100
AcDbEntity
  8
0
  6
CENTER
100
AcDbLine
 10
596.4167181462739
 20
46.38808110410423
 30
0.0
 11
596.4167181462739
 21
308.7801871250036
 31
0.0
  0
LINE
  5
314
330
1F
100
AcDbEntity
  8
0
  6
CENTER
100
AcDbLine
 10
325.6486691809086
 20
660.7331570001043
 30
0.0
 11
118.8388891720551
 21
660.7331570001041
 31
0.0
  0
LINE
  5
315
330
1F
100
AcDbEntity
  8
0
  6
CENTER
100
AcDbLine
 10
209.9551865810354
 20
546.767000109867
 30
0.0
 11
209.9551865810354
 21
774.6993138903414
 31
0.0
  0
LINE
  5
475
330
1F
100
AcDbEntity
  8
Visible (ISO)
100
AcDbLine
 10
1724.820255988244
 20
176.7502268328087
 30
0.0
 11
1732.538094483816
 21
161.6031159216065
 31
0.0
  0
LINE
  5
476
330
1F
100
AcDbEntity
  8
Visible (ISO)
100
AcDbLine
 10
1731.882570447143
 20
159.5856203857149
 30
0.0
 11
1722.802760452352
 21
177.405750869482
 31
0.0
  0
LINE
  5
477
330
1F
100
AcDbEntity
  8
Visible (ISO)
100
AcDbLine
 10
1732.538094483816
 20
161.6031159216065
 30
0.0
 11
1731.882570447143
 21
159.5856203857149
 31
0.0
  0
LINE
  5
478
330
1F
100
AcDbEntity
  8
Visible (ISO)
100
AcDbLine
 10
1724.820255988244
 20
176.7502268328087
 30
0.0
 11
1722.802760452352
 21
177.405750869482
 31
0.0
  0
LINE
  5
479
330
1F
100
AcDbEntity
  8
Visible (ISO)
100
AcDbLine
 10
1668.090126613649
 20
204.387182667813
 30
0.0
 11
1721.551728020094
 21
99.46288210639728
 31
0.0
  0
ARC
  5
47A
330
1F
100
AcDbEntity
  8
Visible (ISO)
100
AcDbCircle
 10
1662.744087468519
 20
201.6632396693755
 30
0.0
 40
5.999999999999965
100
AcDbArc
 50
27.00000000001161
 51
96.99999999997976
  0
ARC
  5
47B
330
1F
100
AcDbEntity
  8
Visible (ISO)
100
AcDbCircle
 10
1716.205688874965
 20
96.73893910795982
 30
0.0
 40
5.999999999999957
100
AcDbArc
 50
316.9999999999812
 51
27.00000000001161
  0
LINE
  5
47C
330
1F
100
AcDbEntity
  8
Visible (ISO)
100
AcDbLine
 10
1634.495434610497
 20
204.2398001848575
 30
0.0
 11
1701.686028571948
 21
72.37083460498002
 31
0.0
  0
LINE
  5
47D
330
1F
100
AcDbEntity
  8
Visible (ISO)
100
AcDbLine
 10
1687.926197444325
 20
176.4701479905113
 30
0.0
 11
1710.625722431303
 21
131.9198217810937
 31
0.0
  0
LINE
  5
47E
330
1F
100
AcDbEntity
  8
Visible (ISO)
100
AcDbLine
 10
1594.845644284114
 20
184.037222946448
 30
0.0
 11
1662.036238245566
 21
52.16825736657006
 31
0.0
  0
LINE
  5
47F
330
1F
100
AcDbEntity
  8
Visible (ISO)
100
AcDbLine
 10
1582.068172556799
 20
188.1888751787116
 30
0.0
 11
1657.884586013302
 21
39.390785639255
 31
0.0
  0
LINE
  5
480
330
1F
100
AcDbEntity
  8
Visible (ISO)
100
AcDbLine
 10
1560.684015976278
 20
177.2931031849623
 30
0.0
 11
1636.500429432781
 21
28.4950136455061
 31
0.0
  0
LINE
  5
481
330
1F
100
AcDbEntity
  8
Visible (ISO)
100
AcDbLine
 10
1731.882570447141
 20
159.5856203857149
 30
0.0
 11
1703.81586493521
 21
145.284919643919
 31
0.0
  0
LINE
  5
482
330
1F
100
AcDbEntity
  8
Visible (ISO)
100
AcDbLine
 10
1722.802760452352
 20
177.405750869482
 30
0.0
 11
1694.736054940418
 21
163.1050501276861
 31
0.0
  0
LINE
  5
483
330
1F
100
AcDbEntity
  8
Visible (ISO)
100
AcDbLine
 10
1720.59381108468
 20
92.64694894758463
 30
0.0
 11
1701.686028571948
 21
72.37083460497956
 31
0.0
  0
LINE
  5
484
330
1F
100
AcDbEntity
  8
Visible (ISO)
100
AcDbLine
 10
1662.012871408089
 20
207.6185165792233
 30
0.0
 11
1634.495434610497
 21
204.2398001848575
 31
0.0
  0
LINE
  5
485
330
1F
100
AcDbEntity
  8
Visible (ISO)
100
AcDbLine
 10
1710.625722431303
 20
131.9198217810937
 30
0.0
 11
1706.170689810362
 21
129.6498692823959
 31
0.0
  0
LINE
  5
486
330
1F
100
AcDbEntity
  8
Visible (ISO)
100
AcDbLine
 10
1687.926197444325
 20
176.4701479905118
 30
0.0
 11
1683.471164823384
 21
174.2001954918139
 31
0.0
  0
LINE
  5
487
330
1F
100
AcDbEntity
  8
Visible (ISO)
100
AcDbLine
 10
1701.686028571948
 20
72.37083460498002
 30
0.0
 11
1662.036238245566
 21
52.16825736657006
 31
0.0
  0
LINE
  5
488
330
1F
100
AcDbEntity
  8
Visible (ISO)
100
AcDbLine
 10
1634.495434610497
 20
204.2398001848575
 30
0.0
 11
1594.845644284114
 21
184.0372229464476
 31
0.0
  0
LINE
  5
489
330
1F
100
AcDbEntity
  8
Visible (ISO)
100
AcDbLine
 10
1662.036238245566
 20
52.16825736657006
 30
0.0
 11
1657.884586013302
 21
39.390785639255
 31
0.0
  0
LINE
  5
48A
330
1F
100
AcDbEntity
  8
Visible (ISO)
100
AcDbLine
 10
1594.845644284112
 20
184.037222946448
 30
0.0
 11
1582.068172556799
 21
188.1888751787116
 31
0.0
  0
LINE
  5
48B
330
1F
100
AcDbEntity
  8
Visible (ISO)
100
AcDbLine
 10
1657.884586013302
 20
39.390785639255
 30
0.0
 11
1636.500429432781
 21
28.49501364550565
 31
0.0
  0
LINE
  5
48C
330
1F
100
AcDbEntity
  8
Visible (ISO)
100
AcDbLine
 10
1582.068172556799
 20
188.1888751787116
 30
0.0
 11
1560.684015976278
 21
177.2931031849623
 31
0.0
  0
LINE
  5
48D
330
1F
100
AcDbEntity
  8
Visible (ISO)
100
AcDbLine
 10
1618.794799942939
 20
63.24426808885232
 30
0.0
 11
1590.46079247375
 21
48.80737019713456
 31
0.0
  0
LINE
  5
48E
330
1F
100
AcDbEntity
  8
Visible (ISO)
100
AcDbLine
 10
1578.389645466121
 20
142.5438487416165
 30
0.0
 11
1550.055637996931
 21
128.1069508498988
 31
0.0
  0
LINE
  5
48F
330
1F
100
AcDbEntity
  8
Visible (ISO)
100
AcDbLine
 10
1525.023967392097
 20
106.2601390655825
 30
0.0
 11
1519.035867910692
 21
98.01822720139377
 31
0.0
  0
LINE
  5
490
330
1F
100
AcDbEntity
  8
Visible (ISO)
100
AcDbLine
 10
1547.885540316863
 20
41.39755705665925
 30
0.0
 11
1558.073103645563
 21
41.39755705665925
 31
0.0
  0
LINE
  5
491
330
1F
100
AcDbEntity
  8
Visible (ISO)
100
AcDbLine
 10
1538.069717468126
 20
101.6295980917923
 30
0.0
 11
1534.289197666264
 21
99.70332704042561
 31
0.0
  0
LINE
  5
492
330
1F
100
AcDbEntity
  8
Visible (ISO)
100
AcDbLine
 10
1558.214497002538
 20
52.74728321569887
 30
0.0
 11
1561.995016804401
 21
54.67355426706603
 31
0.0
  0
LINE
  5
493
330
1F
100
AcDbEntity
  8
Visible (ISO)
100
AcDbLine
 10
1536.929411652092
 20
103.8675742658303
 30
0.0
 11
1538.069717468126
 21
101.6295980917923
 31
0.0
  0
LINE
  5
494
330
1F
100
AcDbEntity
  8
Visible (ISO)
100
AcDbLine
 10
1536.929411652092
 20
103.8675742658303
 30
0.0
 11
1524.608899150849
 21
128.0479415339775
 31
0.0
  0
LINE
  5
495
330
1F
100
AcDbEntity
  8
Visible (ISO)
100
AcDbLine
 10
1575.455835121678
 20
28.2552108248808
 30
0.0
 11
1563.135322620435
 21
52.43557809302751
 31
0.0
  0
LINE
  5
496
330
1F
100
AcDbEntity
  8
Visible (ISO)
100
AcDbLine
 10
1561.995016804401
 20
54.67355426706603
 30
0.0
 11
1563.135322620435
 21
52.43557809302751
 31
0.0
  0
LINE
  5
497
330
1F
100
AcDbEntity
  8
Visible (ISO)
100
AcDbLine
 10
1576.945923745355
 20
59.47243083899071
 30
0.0
 11
1563.135322620435
 21
52.43557809302751
 31
0.0
  0
LINE
  5
498
330
1F
100
AcDbEntity
  8
Visible (ISO)
100
AcDbLine
 10
1576.945923745355
 20
59.47243083899071
 30
0.0
 11
1550.740012777012
 21
110.9044270117931
 31
0.0
  0
LINE
  5
499
330
1F
100
AcDbEntity
  8
Visible (ISO)
100
AcDbLine
 10
1550.740012777012
 20
110.9044270117935
 30
0.0
 11
1536.929411652092
 21
103.8675742658303
 31
0.0
  0
LINE
  5
49A
330
1F
100
AcDbEntity
  8
Visible (ISO)
100
AcDbLine
 10
1538.419500275769
 20
135.0847942799402
 30
0.0
 11
1550.740012777012
 21
110.9044270117935
 31
0.0
  0
LINE
  5
49B
330
1F
100
AcDbEntity
  8
Visible (ISO)
100
AcDbLine
 10
1576.945923745355
 20
59.47243083899071
 30
0.0
 11
1589.266436246598
 21
35.29206357084399
 31
0.0
  0
LINE
  5
49C
330
1F
100
AcDbEntity
  8
Visible (ISO)
100
AcDbLine
 10
1538.419500275769
 20
135.0847942799402
 30
0.0
 11
1524.608899150849
 21
128.0479415339775
 31
0.0
  0
LINE
  5
49D
330
1F
100
AcDbEntity
  8
Visible (ISO)
100
AcDbLine
 10
1589.266436246598
 20
35.29206357084399
 30
0.0
 11
1575.455835121678
 21
28.2552108248808
 31
0.0
  0
LINE
  5
49E
330
1F
100
AcDbEntity
  8
Visible (ISO)
100
AcDbLine
 10
1518.695857271033
 20
117.6260470009444
 30
0.0
 11
1524.597733767648
 21
106.0429621864952
 31
0.0
  0
LINE
  5
49F
330
1F
100
AcDbEntity
  8
Visible (ISO)
100
AcDbLine
 10
1518.695857271033
 20
117.626047000944
 30
0.0
 11
1527.605922512917
 21
122.1659519983397
 31
0.0
  0
LINE
  5
4A0
330
1F
100
AcDbEntity
  8
Visible (ISO)
100
AcDbLine
 10
1524.597733767648
 20
106.0429621864952
 30
0.0
 11
1533.50779900953
 21
110.582867183891
 31
0.0
  0
LINE
  5
4A1
330
1F
100
AcDbEntity
  8
Visible (ISO)
100
AcDbLine
 10
1563.548746517728
 20
29.59729536312284
 30
0.0
 11
1557.646870021113
 21
41.18038017757203
 31
0.0
  0
LINE
  5
4A2
330
1F
100
AcDbEntity
  8
Visible (ISO)
100
AcDbLine
 10
1572.45881175961
 20
34.13720036051859
 30
0.0
 11
1563.548746517728
 21
29.59729536312329
 31
0.0
  0
LINE
  5
4A3
330
1F
100
AcDbEntity
  8
Visible (ISO)
100
AcDbLine
 10
1566.556935262997
 20
45.72028517496733
 30
0.0
 11
1557.646870021113
 21
41.18038017757157
 31
0.0
  0
CIRCLE
  5
4A4
330
1F
100
AcDbEntity
  8
Visible (ISO)
100
AcDbCircle
 10
1530.073820994444
 20
67.98218898526352
 30
0.0
 40
31.99999999999976
  0
CIRCLE
  5
4A5
330
1F
100
AcDbEntity
  8
Visible (ISO)
100
AcDbCircle
 10
1530.073820994444
 20
67.98218898526352
 30
0.0
 40
23.89999999999982
  0
LINE
  5
4A6
330
1F
100
AcDbEntity
  8
Visible (ISO)
100
AcDbLine
 10
1594.790676696566
 20
38.10680466922917
 30
0.0
 11
1582.470164195323
 21
62.28717193737589
 31
0.0
  0
SPLINE
  5
4A7
330
1F
100
AcDbEntity
  8
Visible (ISO)
100
AcDbSpline
210
0.0
220
0.0
230
1.0
 70
    24
 71
     3
 72
     8
 73
     4
 74
     0
 42
0.0000000001
 43
0.0000000001
 40
-0.1435004186553554
 40
-0.1435004186553554
 40
-0.1435004186553554
 40
-0.1435004186553554
 40
0.0
 40
0.0
 40
0.0
 40
0.0
 10
1594.790676696566
 20
38.10680466922917
 30
0.0
 10
1594.936363324493
 20
38.55518200558822
 30
0.0
 10
1595.082041649187
 20
39.0035337872257
 30
0.0
 10
1595.227692721015
 20
39.45180169315676
 30
0.0
  0
LINE
  5
4A8
330
1F
100
AcDbEntity
  8
Visible (ISO)
100
AcDbLine
 10
1583.250595278512
 20
62.95817895927052
 30
0.0
 11
1595.227692721015
 21
39.45180169315676
 31
0.0
  0
SPLINE
  5
4A9
330
1F
100
AcDbEntity
  8
Visible (ISO)
100
AcDbSpline
210
0.0
220
0.0
230
1.0
 70
     8
 71
     3
 72
     8
 73
     4
 74
     0
 42
0.0000000001
 43
0.0000000001
 40
-0.1435004186553247
 40
-0.1435004186553247
 40
-0.1435004186553247
 40
-0.1435004186553247
 40
0.0
 40
0.0
 40
0.0
 40
0.0
 10
1582.470164195323
 20
62.28717193737589
 30
0.0
 10
1582.730489537385
 20
62.51055812903655
 30
0.0
 10
1582.990645797461
 20
62.7342343120456
 30
0.0
 10
1583.250595278512
 20
62.95817895927098
 30
0.0
  0
SPLINE
  5
4AA
330
1F
100
AcDbEntity
  8
Visible (ISO)
100
AcDbSpline
210
0.0
220
0.0
230
1.0
 70
    24
 71
     3
 72
     8
 73
     4
 74
     0
 42
0.0000000001
 43
0.0000000001
 40
-0.1435004186551945
 40
-0.1435004186551945
 40
-0.1435004186551945
 40
-0.1435004186551945
 40
0.0
 40
0.0
 40
0.0
 40
0.0
 10
1543.943740725737
 20
137.8995353783254
 30
0.0
 10
1544.392118062096
 20
137.7538487503973
 30
0.0
 10
1544.840469843733
 20
137.6081704257028
 30
0.0
 10
1545.288737749664
 20
137.4625193538765
 30
0.0
  0
LINE
  5
4AB
330
1F
100
AcDbEntity
  8
Visible (ISO)
100
AcDbLine
 10
1556.26425322698
 20
113.7191681101787
 30
0.0
 11
1543.943740725737
 21
137.8995353783259
 31
0.0
  0
SPLINE
  5
4AC
330
1F
100
AcDbEntity
  8
Visible (ISO)
100
AcDbSpline
210
0.0
220
0.0
230
1.0
 70
     8
 71
     3
 72
     8
 73
     4
 74
     0
 42
0.0000000001
 43
0.0000000001
 40
-0.1435004186547853
 40
-0.1435004186547853
 40
-0.1435004186547853
 40
-0.1435004186547853
 40
0.0
 40
0.0
 40
0.0
 40
0.0
 10
1556.26425322698
 20
113.7191681101787
 30
0.0
 10
1556.597991849208
 20
113.7984726269503
 30
0.0
 10
1556.931865695462
 20
113.8774699008838
 30
0.0
 10
1557.265835192167
 20
113.9561420877628
 30
0.0
  0
LINE
  5
4AD
330
1F
100
AcDbEntity
  8
Visible (ISO)
100
AcDbLine
 10
1545.288737749664
 20
137.4625193538765
 30
0.0
 11
1557.265835192167
 21
113.9561420877628
 31
0.0
  0
LINE
  5
4AE
330
1F
100
AcDbEntity
  8
Visible (ISO)
100
AcDbLine
 10
1556.26425322698
 20
113.7191681101787
 30
0.0
 11
1582.470164195323
 21
62.28717193737589
 31
0.0
  0
LINE
  5
4AF
330
1F
100
AcDbEntity
  8
Visible (ISO)
100
AcDbLine
 10
1583.250595278512
 20
62.95817895927098
 30
0.0
 11
1557.265835192167
 21
113.9561420877628
 31
0.0
  0
LINE
  5
4B0
330
1F
100
AcDbEntity
  8
Visible (ISO)
100
AcDbLine
 10
1539.310506799957
 20
135.5387847796798
 30
0.0
 11
1551.631019301199
 21
111.3584175115331
 31
0.0
  0
SPLINE
  5
4B1
330
1F
100
AcDbEntity
  8
Visible (ISO)
100
AcDbSpline
210
0.0
220
0.0
230
1.0
 70
    24
 71
     3
 72
     8
 73
     4
 74
     0
 42
0.0000000001
 43
0.0000000001
 40
-0.1435004111855773
 40
-0.1435004111855773
 40
-0.1435004111855773
 40
-0.1435004111855773
 40
0.0
 40
0.0
 40
0.0
 40
0.0
 10
1588.812445746858
 20
36.18307009503246
 30
0.0
 10
1589.260713652789
 20
36.03741902320621
 30
0.0
 10
1589.709065434426
 20
35.89174069851128
 30
0.0
 10
1590.157442770785
 20
35.74605407058311
 30
0.0
  0
SPLINE
  5
4B2
330
1F
100
AcDbEntity
  8
Visible (ISO)
100
AcDbSpline
210
0.0
220
0.0
230
1.0
 70
    24
 71
     3
 72
     8
 73
     4
 74
     0
 42
0.0000000001
 43
0.0000000001
 40
-0.143500411184481
 40
-0.143500411184481
 40
-0.143500411184481
 40
-0.143500411184481
 40
0.0
 40
0.0
 40
0.0
 40
0.0
 10
1538.873490775509
 20
134.1937877557522
 30
0.0
 10
1539.019141847335
 20
134.6420556616842
 30
0.0
 10
1539.164820172031
 20
135.0904074433226
 30
0.0
 10
1539.310506799957
 20
135.5387847796798
 30
0.0
  0
SPLINE
  5
4B3
330
1F
100
AcDbEntity
  8
Visible (ISO)
100
AcDbSpline
210
0.0
220
0.0
230
1.0
 70
     8
 71
     3
 72
     8
 73
     4
 74
     0
 42
0.0000000001
 43
0.0000000001
 40
-0.14350041118628
 40
-0.14350041118628
 40
-0.14350041118628
 40
-0.14350041118628
 40
0.0
 40
0.0
 40
0.0
 40
0.0
 10
1550.85058821801
 20
110.6874104896385
 30
0.0
 10
1551.110537699059
 20
110.9113551368629
 30
0.0
 10
1551.370693959135
 20
111.1350313198706
 30
0.0
 10
1551.631019301201
 20
111.3584175115331
 30
0.0
  0
SPLINE
  5
4B4
330
1F
100
AcDbEntity
  8
Visible (ISO)
100
AcDbSpline
210
0.0
220
0.0
230
1.0
 70
     8
 71
     3
 72
     8
 73
     4
 74
     0
 42
0.0000000001
 43
0.0000000001
 40
-0.1435004111851744
 40
-0.1435004111851744
 40
-0.1435004111851744
 40
-0.1435004111851744
 40
0.0
 40
0.0
 40
0.0
 40
0.0
 10
1576.835348304355
 20
59.68944736114622
 30
0.0
 10
1577.169317801064
 20
59.76811954802565
 30
0.0
 10
1577.50319164732
 20
59.84711682195916
 30
0.0
 10
1577.836930269542
 20
59.92642133873028
 30
0.0
  0
LINE
  5
4B5
330
1F
100
AcDbEntity
  8
Visible (ISO)
100
AcDbLine
 10
1577.836930269542
 20
59.92642133872982
 30
0.0
 11
1551.631019301199
 21
111.3584175115331
 31
0.0
  0
LINE
  5
4B6
330
1F
100
AcDbEntity
  8
Visible (ISO)
100
AcDbLine
 10
1577.836930269542
 20
59.92642133872982
 30
0.0
 11
1590.157442770785
 21
35.74605407058311
 31
0.0
  0
LINE
  5
4B7
330
1F
100
AcDbEntity
  8
Visible (ISO)
100
AcDbLine
 10
1543.943740725737
 20
137.8995353783254
 30
0.0
 11
1539.310506799957
 21
135.5387847796798
 31
0.0
  0
LINE
  5
4B8
330
1F
100
AcDbEntity
  8
Visible (ISO)
100
AcDbLine
 10
1556.26425322698
 20
113.7191681101787
 30
0.0
 11
1551.631019301201
 21
111.3584175115331
 31
0.0
  0
LINE
  5
4B9
330
1F
100
AcDbEntity
  8
Visible (ISO)
100
AcDbLine
 10
1582.470164195323
 20
62.28717193737589
 30
0.0
 11
1577.836930269542
 21
59.92642133872982
 31
0.0
  0
LINE
  5
4BA
330
1F
100
AcDbEntity
  8
Visible (ISO)
100
AcDbLine
 10
1594.790676696566
 20
38.10680466922917
 30
0.0
 11
1590.157442770785
 21
35.74605407058311
 31
0.0
  0
ELLIPSE
  5
4BB
330
1F
100
AcDbEntity
  8
Visible (ISO)
100
AcDbEllipse
 10
1728.679175236029
 20
660.7331570001357
 30
0.0
 11
-0.0000000000000132
 21
8.499999999999957
 31
0.0
210
0.0
220
0.0
230
1.0
 40
0.4539904997395436
 41
0.0
 42
6.283185307179585
  0
ELLIPSE
  5
4BC
330
1F
100
AcDbEntity
  8
Visible (ISO)
100
AcDbEllipse
 10
1727.342665449747
 20
660.7331570001348
 30
0.0
 11
-0.0000000000015349
 21
9.999999999999957
 31
0.0
210
0.0
220
0.0
230
1.0
 40
0.4539904997395434
 41
5.748552117767345
 42
9.959411150180939
  0
LINE
  5
4BD
330
1F
100
AcDbEntity
  8
Visible (ISO)
100
AcDbLine
 10
1730.645392800321
 20
653.419284514991
 30
0.0
 11
1729.655862584208
 21
652.1286011352587
 31
0.0
  0
LINE
  5
4BE
330
1F
100
AcDbEntity
  8
Visible (ISO)
100
AcDbLine
 10
1730.645392800321
 20
668.0470294852781
 30
0.0
 11
1729.655862584208
 21
669.3377128650086
 31
0.0
  0
ELLIPSE
  5
4BF
330
1F
100
AcDbEntity
  8
Visible (ISO)
100
AcDbEllipse
 10
1699.275959937815
 20
660.7331570001307
 30
0.0
 11
0.0000000000000486
 21
-9.999999999999959
 31
0.0
210
0.0
220
0.0
230
1.0
 40
0.4539904997395435
 41
3.141592653592296
 42
6.28318530718209
  0
ELLIPSE
  5
4C0
330
1F
100
AcDbEntity
  8
Visible (ISO)
100
AcDbEllipse
 10
1694.820927316872
 20
660.7331570001303
 30
0.0
 11
0.0000000000000411
 21
-24.9999999999999
 31
0.0
210
0.0
220
0.0
230
1.0
 40
0.4539904997395436
 41
3.141592653592393
 42
6.283185307182186
  0
ELLIPSE
  5
4C1
330
1F
100
AcDbEntity
  8
Visible (ISO)
100
AcDbEllipse
 10
1668.090731591223
 20
660.7331570001266
 30
0.0
 11
0.0000000000113694
 21
-73.9999999999997
 31
0.0
210
0.0
220
0.0
230
1.0
 40
0.4539904997395435
 41
2.955060733164276
 42
6.469717227604424
  0
ELLIPSE
  5
4C2
330
1F
100
AcDbEntity
  8
Visible (ISO)
100
AcDbEllipse
 10
1699.275959937815
 20
660.7331570001307
 30
0.0
 11
0.0000000000038379
 21
-24.9999999999999
 31
0.0
210
0.0
220
0.0
230
1.0
 40
0.4539904997395436
 41
1.982313172862047
 42
7.442464787906664
  0
ELLIPSE
  5
4C3
330
1F
100
AcDbEntity
  8
Visible (ISO)
100
AcDbEllipse
 10
1628.440941264838
 20
660.7331570001202
 30
0.0
 11
0.0000000000001466
 21
-73.9999999999997
 31
0.0
210
0.0
220
0.0
230
1.0
 40
0.4539904997395435
 41
3.141592653592365
 42
6.283185307182158
  0
ELLIPSE
  5
4C4
330
1F
100
AcDbEntity
  8
Visible (ISO)
100
AcDbEllipse
 10
1619.97637928505
 20
660.7331570001194
 30
0.0
 11
0.0000000000128259
 21
-83.49999999999967
 31
0.0
210
0.0
220
0.0
230
1.0
 40
0.4539904997395436
 41
2.659933511249631
 42
6.764844449519072
  0
ELLIPSE
  5
4C5
330
1F
100
AcDbEntity
  8
Visible (ISO)
100
AcDbEllipse
 10
1598.59222270453
 20
660.7331570001157
 30
0.0
 11
0.000000000000134
 21
-83.49999999999967
 31
0.0
210
0.0
220
0.0
230
1.0
 40
0.4539904997395436
 41
3.141592653592372
 42
6.283185307182165
  0
ELLIPSE
  5
4C6
330
1F
100
AcDbEntity
  8
Visible (ISO)
100
AcDbEllipse
 10
1570.258215235338
 20
660.7331570001116
 30
0.0
 11
0.0000000000068376
 21
-44.49999999999984
 31
0.0
210
0.0
220
0.0
230
1.0
 40
0.4539904997395434
 41
3.340369514567637
 42
6.084408446201064
  0
LINE
  5
4C7
330
1F
100
AcDbEntity
  8
Visible (ISO)
100
AcDbLine
 10
1727.342665449747
 20
650.7331570001357
 30
0.0
 11
1699.275959937815
 21
650.7331570001312
 31
0.0
  0
LINE
  5
4C8
330
1F
100
AcDbEntity
  8
Visible (ISO)
100
AcDbLine
 10
1727.342665449747
 20
670.7331570001352
 30
0.0
 11
1699.275959937815
 21
670.7331570001307
 31
0.0
  0
LINE
  5
4C9
330
1F
100
AcDbEntity
  8
Visible (ISO)
100
AcDbLine
 10
1696.735320306368
 20
597.3345241320445
 30
0.0
 11
1674.321049872927
 21
588.0168123619569
 31
0.0
  0
LINE
  5
4CA
330
1F
100
AcDbEntity
  8
Visible (ISO)
100
AcDbLine
 10
1696.735320306368
 20
724.1317898682083
 30
0.0
 11
1674.321049872927
 21
733.4495016382881
 31
0.0
  0
LINE
  5
4CB
330
1F
100
AcDbEntity
  8
Visible (ISO)
100
AcDbLine
 10
1699.275959937815
 20
635.7331570001316
 30
0.0
 11
1694.820927316872
 21
635.7331570001307
 31
0.0
  0
LINE
  5
4CC
330
1F
100
AcDbEntity
  8
Visible (ISO)
100
AcDbLine
 10
1699.275959937815
 20
685.7331570001307
 30
0.0
 11
1694.820927316872
 21
685.7331570001303
 31
0.0
  0
LINE
  5
4CD
330
1F
100
AcDbEntity
  8
Visible (ISO)
100
AcDbLine
 10
1668.090731591223
 20
586.7331570001262
 30
0.0
 11
1628.440941264838
 21
586.7331570001207
 31
0.0
  0
LINE
  5
4CE
330
1F
100
AcDbEntity
  8
Visible (ISO)
100
AcDbLine
 10
1668.09073159122
 20
734.7331570001261
 30
0.0
 11
1628.440941264838
 21
734.7331570001203
 31
0.0
  0
LINE
  5
4CF
330
1F
100
AcDbEntity
  8
Visible (ISO)
100
AcDbLine
 10
1619.97637928505
 20
577.2331570001194
 30
0.0
 11
1598.59222270453
 21
577.2331570001166
 31
0.0
  0
LINE
  5
4D0
330
1F
100
AcDbEntity
  8
Visible (ISO)
100
AcDbLine
 10
1619.97637928505
 20
744.2331570001189
 30
0.0
 11
1598.592222704528
 21
744.2331570001153
 31
0.0
  0
ELLIPSE
  5
4D1
330
1F
100
AcDbEntity
  8
Visible (ISO)
100
AcDbEllipse
 10
1524.961188522987
 20
620.7997436724286
 30
0.0
 11
-12.94708265106165
 21
-0.0000000000052902
 31
0.0
210
0.0
220
0.0
230
1.0
 40
0.772374771175186
 41
5.450846650753559
 42
6.283185307180579
  0
ELLIPSE
  5
4D2
330
1F
100
AcDbEntity
  8
Visible (ISO)
100
AcDbEllipse
 10
1524.961188522987
 20
700.6665703278055
 30
0.0
 11
-12.94708265106165
 21
-0.0000000000052902
 31
0.0
210
0.0
220
0.0
230
1.0
 40
0.772374771175186
 41
0.0000000000009928
 42
0.8323386564271157
  0
ELLIPSE
  5
4D3
330
1F
100
AcDbEntity
  8
Visible (ISO)
100
AcDbEllipse
 10
1477.898543086379
 20
660.7331570000975
 30
0.0
 11
-56.96716366467126
 21
-0.0000000000232769
 31
0.0
210
0.0
220
0.0
230
1.0
 40
0.7723747711751862
 41
2.309253997163828
 42
2.532123987147071
  0
ELLIPSE
  5
4D4
330
1F
100
AcDbEntity
  8
Visible (ISO)
100
AcDbEllipse
 10
1477.898543086379
 20
660.7331570000975
 30
0.0
 11
-56.96716366467126
 21
-0.0000000000232769
 31
0.0
210
0.0
220
0.0
230
1.0
 40
0.7723747711751862
 41
3.751061320034078
 42
3.973931310016947
  0
LINE
  5
4D5
330
1F
100
AcDbEntity
  8
Visible (ISO)
100
AcDbLine
 10
1512.014105871925
 20
716.7331570001111
 30
0.0
 11
1536.929411652092
 21
716.7331570001152
 31
0.0
  0
LINE
  5
4D6
330
1F
100
AcDbEntity
  8
Visible (ISO)
100
AcDbLine
 10
1512.014105871925
 20
700.6665703277995
 30
0.0
 11
1512.014105871925
 21
716.7331570001111
 31
0.0
  0
LINE
  5
4D7
330
1F
100
AcDbEntity
  8
Visible (ISO)
100
AcDbLine
 10
1512.014105871925
 20
604.7331570001111
 30
0.0
 11
1512.014105871925
 21
620.7997436724236
 31
0.0
  0
LINE
  5
4D8
330
1F
100
AcDbEntity
  8
Visible (ISO)
100
AcDbLine
 10
1536.929411652092
 20
604.7331570001157
 30
0.0
 11
1512.014105871925
 21
604.7331570001111
 31
0.0
  0
ELLIPSE
  5
4D9
330
1F
100
AcDbEntity
  8
Visible (ISO)
100
AcDbEllipse
 10
1550.032367136264
 20
660.7331570001089
 30
0.0
 11
0.0000000000096714
 21
-62.99999999999982
 31
0.0
210
0.0
220
0.0
230
1.0
 40
0.4539904997395436
 41
5.188271230044765
 42
5.807303057518828
  0
LINE
  5
4DA
330
1F
100
AcDbEntity
  8
Visible (ISO)
100
AcDbLine
 10
1524.608899150847
 20
689.5948963794467
 30
0.0
 11
1524.608899150849
 21
631.8714176207996
 31
0.0
  0
ELLIPSE
  5
4DB
330
1F
100
AcDbEntity
  8
Visible (ISO)
100
AcDbEllipse
 10
1550.032367136264
 20
660.7331570001089
 30
0.0
 11
0.000000000012626
 21
-62.99999999999968
 31
0.0
210
0.0
220
0.0
230
1.0
 40
0.4539904997395436
 41
3.617474903249195
 42
4.236506730723531
  0
LINE
  5
4DC
330
1F
100
AcDbEntity
  8
Visible (ISO)
100
AcDbLine
 10
1551.631019301199
 20
604.7331570001175
 30
0.0
 11
1550.740012777012
 21
604.7331570001184
 31
0.0
  0
LINE
  5
4DD
330
1F
100
AcDbEntity
  8
Visible (ISO)
100
AcDbLine
 10
1550.74001277701
 20
604.7331570001184
 30
0.0
 11
1536.929411652092
 21
604.7331570001162
 31
0.0
  0
LINE
  5
4DE
330
1F
100
AcDbEntity
  8
Visible (ISO)
100
AcDbLine
 10
1550.74001277701
 20
716.733157000118
 30
0.0
 11
1536.929411652092
 21
716.7331570001161
 31
0.0
  0
LINE
  5
4DF
330
1F
100
AcDbEntity
  8
Visible (ISO)
100
AcDbLine
 10
1550.74001277701
 20
716.733157000118
 30
0.0
 11
1551.631019301199
 21
716.7331570001175
 31
0.0
  0
LINE
  5
4E0
330
1F
100
AcDbEntity
  8
Visible (ISO)
100
AcDbLine
 10
1538.419500275769
 20
631.8714176208019
 30
0.0
 11
1538.419500275769
 21
689.5948963794491
 31
0.0
  0
ELLIPSE
  5
4E1
330
1F
100
AcDbEntity
  8
Visible (ISO)
100
AcDbEllipse
 10
1563.842968261182
 20
660.7331570001107
 30
0.0
 11
-0.0000000000067141
 21
62.99999999999982
 31
0.0
210
0.0
220
0.0
230
1.0
 40
0.4539904997395436
 41
2.046678576455381
 42
2.66571040392972
  0
ELLIPSE
  5
4E2
330
1F
100
AcDbEntity
  8
Visible (ISO)
100
AcDbEllipse
 10
1563.842968261182
 20
660.7331570001107
 30
0.0
 11
-0.0000000000096811
 21
62.99999999999967
 31
0.0
210
0.0
220
0.0
230
1.0
 40
0.4539904997395435
 41
0.4758822496600859
 42
1.094914077134138
  0
ELLIPSE
  5
4E3
330
1F
100
AcDbEntity
  8
Visible (ISO)
100
AcDbEllipse
 10
1563.842968261182
 20
660.7331570001107
 30
0.0
 11
0.0000000000095229
 21
-61.99999999999988
 31
0.0
210
0.0
220
0.0
230
1.0
 40
0.4539904997395435
 41
5.19216837061041
 42
5.748552117767323
  0
LINE
  5
4E4
330
1F
100
AcDbEntity
  8
Visible (ISO)
100
AcDbLine
 10
1538.873490775507
 20
689.3513330426332
 30
0.0
 11
1538.873490775507
 21
632.1149809576169
 31
0.0
  0
ELLIPSE
  5
4E5
330
1F
100
AcDbEntity
  8
Visible (ISO)
100
AcDbEllipse
 10
1563.842968261182
 20
660.7331570001107
 30
0.0
 11
0.0000000000124262
 21
-61.99999999999974
 31
0.0
210
0.0
220
0.0
230
1.0
 40
0.4539904997395436
 41
3.676225843000764
 42
4.232609590157892
  0
LINE
  5
4E6
330
1F
100
AcDbEntity
  8
Visible (ISO)
100
AcDbLine
 10
1538.419500275769
 20
631.8714176208019
 30
0.0
 11
1524.608899150849
 21
631.8714176207996
 31
0.0
  0
LINE
  5
4E7
330
1F
100
AcDbEntity
  8
Visible (ISO)
100
AcDbLine
 10
1538.419500275769
 20
689.5948963794491
 30
0.0
 11
1524.608899150849
 21
689.5948963794467
 31
0.0
  0
ELLIPSE
  5
4E8
330
1F
100
AcDbEntity
  8
Visible (ISO)
100
AcDbEllipse
 10
1521.64679551934
 20
696.7292631425644
 30
0.0
 11
0.0000000000000222
 21
6.499999999999977
 31
0.0
210
0.0
220
0.0
230
1.0
 40
0.4539904997395436
 41
0.0000000000027846
 42
3.141592653592577
  0
ELLIPSE
  5
4E9
330
1F
100
AcDbEntity
  8
Visible (ISO)
100
AcDbEllipse
 10
1521.64679551934
 20
624.7370508576724
 30
0.0
 11
0.0000000000000746
 21
-6.499999999999977
 31
0.0
210
0.0
220
0.0
230
1.0
 40
0.4539904997395436
 41
3.141592653592177
 42
6.28318530718197
  0
LINE
  5
4EA
330
1F
100
AcDbEntity
  8
Visible (ISO)
100
AcDbLine
 10
1524.75940584921
 20
690.2292631425654
 30
0.0
 11
1521.64679551934
 21
690.2292631425645
 31
0.0
  0
LINE
  5
4EB
330
1F
100
AcDbEntity
  8
Visible (ISO)
100
AcDbLine
 10
1528.917752845176
 20
703.2292631425653
 30
0.0
 11
1521.64679551934
 21
703.2292631425649
 31
0.0
  0
LINE
  5
4EC
330
1F
100
AcDbEntity
  8
Visible (ISO)
100
AcDbLine
 10
1521.64679551934
 20
631.2370508576728
 30
0.0
 11
1524.75940584921
 21
631.2370508576728
 31
0.0
  0
LINE
  5
4ED
330
1F
100
AcDbEntity
  8
Visible (ISO)
100
AcDbLine
 10
1521.64679551934
 20
618.2370508576724
 30
0.0
 11
1528.917752845176
 21
618.2370508576733
 31
0.0
  0
LINE
  5
4EE
330
1F
100
AcDbEntity
  8
Visible (ISO)
100
AcDbLine
 10
1499.863285049994
 20
604.7331570001062
 30
0.0
 11
1512.014105871925
 21
604.7331570001111
 31
0.0
  0
LINE
  5
4EF
330
1F
100
AcDbEntity
  8
Visible (ISO)
100
AcDbLine
 10
1512.014105871925
 20
716.7331570001111
 30
0.0
 11
1499.863285049994
 21
716.7331570001062
 31
0.0
  0
LINE
  5
4F0
330
1F
100
AcDbEntity
  8
Visible (ISO)
100
AcDbLine
 10
1499.863285049994
 20
604.7331570001071
 30
0.0
 11
1499.290336033118
 21
604.7331570001062
 31
0.0
  0
LINE
  5
4F1
330
1F
100
AcDbEntity
  8
Visible (ISO)
100
AcDbLine
 10
1499.290336033118
 20
716.7331570001062
 30
0.0
 11
1499.863285049994
 21
716.7331570001066
 31
0.0
  0
LINE
  5
4F2
330
1F
100
AcDbEntity
  8
Visible (ISO)
100
AcDbLine
 10
1499.290336033118
 20
604.7331570001062
 30
0.0
 11
1499.290336033118
 21
634.0690553849682
 31
0.0
  0
SPLINE
  5
4F3
330
1F
100
AcDbEntity
  8
Visible (ISO)
100
AcDbSpline
210
0.0
220
0.0
230
1.0
 70
     8
 71
     3
 72
    16
 73
    12
 74
     0
 42
0.0000000001
 43
0.0000000001
 40
0.0
 40
0.0
 40
0.0
 40
0.0
 40
0.2094395102393196
 40
0.2094395102393196
 40
0.4188790204786393
 40
0.4188790204786393
 40
0.6283185307179588
 40
0.6283185307179588
 40
0.8377580409572784
 40
0.8377580409572784
 40
1.047197551196598
 40
1.047197551196598
 40
1.047197551196598
 40
1.047197551196598
 10
1499.290336033118
 20
634.0690553849682
 30
0.0
 10
1499.290336033118
 20
634.4166593777609
 30
0.0
 10
1499.314256142244
 20
634.7642643241116
 30
0.0
 10
1499.411040132541
 20
635.4544901516598
 30
0.0
 10
1499.483876520571
 20
635.7971273714476
 30
0.0
 10
1499.682167523171
 20
636.4722490754476
 30
0.0
 10
1499.807580033977
 20
636.8048036548827
 30
0.0
 10
1500.118390856389
 20
637.4532847063279
 30
0.0
 10
1500.303800528676
 20
637.7693955213709
 30
0.0
 10
1500.746500724095
 20
638.3736353513569
 30
0.0
 10
1501.004076805991
 20
638.6620639527501
 30
0.0
 10
1501.304111501525
 20
638.9246508491552
 30
0.0
  0
LINE
  5
4F4
330
1F
100
AcDbEntity
  8
Visible (ISO)
100
AcDbLine
 10
1513.959265376237
 20
650.0002951961784
 30
0.0
 11
1501.304111501525
 21
638.9246508491552
 31
0.0
  0
SPLINE
  5
4F5
330
1F
100
AcDbEntity
  8
Visible (ISO)
100
AcDbSpline
210
0.0
220
0.0
230
1.0
 70
     8
 71
     3
 72
    22
 73
    18
 74
     0
 42
0.0000000001
 43
0.0000000001
 40
-1.047197551196598
 40
-1.047197551196598
 40
-1.047197551196598
 40
-1.047197551196598
 40
-0.7158328791367575
 40
-0.7158328791367575
 40
-0.4269217456179119
 40
-0.4269217456179119
 40
-0.1568767888073889
 40
-0.1568767888073889
 40
0.1034864067079637
 40
0.1034864067079637
 40
0.3629508483846708
 40
0.3629508483846708
 40
0.6299829463116473
 40
0.6299829463116473
 40
0.9123047497578429
 40
0.9123047497578429
 40
1.047197551196597
 40
1.047197551196597
 40
1.047197551196597
 40
1.047197551196597
 10
1513.959265376237
 20
671.4660188040449
 30
0.0
 10
1514.620428383765
 20
670.8873765844965
 30
0.0
 10
1515.278193874921
 20
670.0834923884155
 30
0.0
 10
1516.351746960956
 20
668.2123568376483
 30
0.0
 10
1516.787173517223
 20
667.1947105013806
 30
0.0
 10
1517.433238126228
 20
665.0418212588648
 30
0.0
 10
1517.65694293267
 20
663.9193023944714
 30
0.0
 10
1517.893455241168
 20
661.652707302651
 30
0.0
 10
1517.913651584962
 20
660.5111453245314
 30
0.0
 10
1517.760110583776
 20
658.2701083398521
 30
0.0
 10
1517.587024479629
 20
657.1707528353109
 30
0.0
 10
1517.061343820096
 20
655.0725028923312
 30
0.0
 10
1516.703527519488
 20
654.0779183764835
 30
0.0
 10
1515.831398617023
 20
652.2646480086197
 30
0.0
 10
1515.30937380105
 20
651.4605153222929
 30
0.0
 10
1514.497090755878
 20
650.5078574033328
 30
0.0
 10
1514.228413350698
 20
650.2358503914275
 30
0.0
 10
1513.959265376237
 20
650.0002951961784
 30
0.0
  0
LINE
  5
4F6
330
1F
100
AcDbEntity
  8
Visible (ISO)
100
AcDbLine
 10
1501.304111501525
 20
682.5416631510571
 30
0.0
 11
1513.959265376237
 21
671.4660188040449
 31
0.0
  0
SPLINE
  5
4F7
330
1F
100
AcDbEntity
  8
Visible (ISO)
100
AcDbSpline
210
0.0
220
0.0
230
1.0
 70
     8
 71
     3
 72
    16
 73
    12
 74
     0
 42
0.0000000001
 43
0.0000000001
 40
-1.047197551196596
 40
-1.047197551196596
 40
-1.047197551196596
 40
-1.047197551196596
 40
-0.8377580409572773
 40
-0.8377580409572773
 40
-0.628318530717958
 40
-0.628318530717958
 40
-0.4188790204786386
 40
-0.4188790204786386
 40
-0.2094395102393193
 40
-0.2094395102393193
 40
0.0
 40
0.0
 40
0.0
 40
0.0
 10
1501.304111501525
 20
682.5416631510571
 30
0.0
 10
1501.004076805991
 20
682.8042500474622
 30
0.0
 10
1500.746500724095
 20
683.0926786488563
 30
0.0
 10
1500.303800528676
 20
683.6969184788414
 30
0.0
 10
1500.118390856389
 20
684.0130292938844
 30
0.0
 10
1499.807580033977
 20
684.6615103453288
 30
0.0
 10
1499.682167523171
 20
684.9940649247643
 30
0.0
 10
1499.483876520571
 20
685.6691866287643
 30
0.0
 10
1499.411040132541
 20
686.0118238485526
 30
0.0
 10
1499.314256142244
 20
686.7020496761003
 30
0.0
 10
1499.290336033118
 20
687.0496546224509
 30
0.0
 10
1499.290336033118
 20
687.3972586152432
 30
0.0
  0
LINE
  5
4F8
330
1F
100
AcDbEntity
  8
Visible (ISO)
100
AcDbLine
 10
1499.290336033118
 20
687.3972586152432
 30
0.0
 11
1499.290336033118
 21
716.7331570001062
 31
0.0
  0
LINE
  5
4F9
330
1F
100
AcDbEntity
  8
Visible (ISO)
100
AcDbLine
 10
1562.073820994444
 20
755.7331570001048
 30
0.0
 11
1498.073820994444
 21
755.7331570001048
 31
0.0
  0
LINE
  5
4FA
330
1F
100
AcDbEntity
  8
Visible (ISO)
100
AcDbLine
 10
1562.073820994444
 20
752.8831570001053
 30
0.0
 11
1498.073820994444
 21
752.8831570001053
 31
0.0
  0
LINE
  5
4FB
330
1F
100
AcDbEntity
  8
Visible (ISO)
100
AcDbLine
 10
1555.473820994444
 20
750.4809534539482
 30
0.0
 11
1504.673820994445
 21
750.4809534539482
 31
0.0
  0
LINE
  5
4FC
330
1F
100
AcDbEntity
  8
Visible (ISO)
100
AcDbLine
 10
1498.073820994444
 20
752.8831570001053
 30
0.0
 11
1498.073820994444
 21
755.7331570001048
 31
0.0
  0
LINE
  5
4FD
330
1F
100
AcDbEntity
  8
Visible (ISO)
100
AcDbLine
 10
1562.073820994442
 20
752.8831570001053
 30
0.0
 11
1562.073820994442
 21
755.7331570001048
 31
0.0
  0
LINE
  5
4FE
330
1F
100
AcDbEntity
  8
Visible (ISO)
100
AcDbLine
 10
1504.673820994445
 20
750.4809534539482
 30
0.0
 11
1498.073820994444
 21
752.8831570001053
 31
0.0
  0
LINE
  5
4FF
330
1F
100
AcDbEntity
  8
Visible (ISO)
100
AcDbLine
 10
1555.473820994442
 20
750.4809534539482
 30
0.0
 11
1562.073820994442
 21
752.8831570001053
 31
0.0
  0
LINE
  5
500
330
1F
100
AcDbEntity
  8
Visible (ISO)
100
AcDbLine
 10
1504.673820994445
 20
716.7331570001053
 30
0.0
 11
1504.673820994445
 21
750.4809534539482
 31
0.0
  0
LINE
  5
501
330
1F
100
AcDbEntity
  8
Visible (ISO)
100
AcDbLine
 10
1555.473820994444
 20
716.7331570001053
 30
0.0
 11
1555.473820994444
 21
750.4809534539482
 31
0.0
  0
LINE
  5
502
330
1F
100
AcDbEntity
  8
Visible (ISO)
100
AcDbLine
 10
1562.073820994444
 20
565.7331570001057
 30
0.0
 11
1498.073820994444
 21
565.7331570001057
 31
0.0
  0
LINE
  5
503
330
1F
100
AcDbEntity
  8
Visible (ISO)
100
AcDbLine
 10
1562.073820994444
 20
568.5831570001056
 30
0.0
 11
1498.073820994444
 21
568.5831570001056
 31
0.0
  0
LINE
  5
504
330
1F
100
AcDbEntity
  8
Visible (ISO)
100
AcDbLine
 10
1555.473820994444
 20
570.9853605462627
 30
0.0
 11
1504.673820994445
 21
570.9853605462627
 31
0.0
  0
LINE
  5
505
330
1F
100
AcDbEntity
  8
Visible (ISO)
100
AcDbLine
 10
1498.073820994444
 20
565.7331570001057
 30
0.0
 11
1498.073820994444
 21
568.5831570001065
 31
0.0
  0
LINE
  5
506
330
1F
100
AcDbEntity
  8
Visible (ISO)
100
AcDbLine
 10
1562.073820994444
 20
565.7331570001057
 30
0.0
 11
1562.073820994444
 21
568.5831570001065
 31
0.0
  0
LINE
  5
507
330
1F
100
AcDbEntity
  8
Visible (ISO)
100
AcDbLine
 10
1555.473820994444
 20
570.9853605462627
 30
0.0
 11
1562.073820994444
 21
568.5831570001056
 31
0.0
  0
LINE
  5
508
330
1F
100
AcDbEntity
  8
Visible (ISO)
100
AcDbLine
 10
1504.673820994445
 20
570.9853605462627
 30
0.0
 11
1498.073820994444
 21
568.5831570001056
 31
0.0
  0
LINE
  5
509
330
1F
100
AcDbEntity
  8
Visible (ISO)
100
AcDbLine
 10
1504.673820994445
 20
570.9853605462637
 30
0.0
 11
1504.673820994445
 21
604.7331570001057
 31
0.0
  0
LINE
  5
50A
330
1F
100
AcDbEntity
  8
Visible (ISO)
100
AcDbLine
 10
1555.473820994444
 20
570.9853605462637
 30
0.0
 11
1555.473820994444
 21
604.7331570001057
 31
0.0
  0
LINE
  5
50B
330
1F
100
AcDbEntity
  8
Visible (ISO)
100
AcDbLine
 10
1570.473200442962
 20
716.7331570001103
 30
0.0
 11
1556.264253226978
 21
716.7331570001189
 31
0.0
  0
SPLINE
  5
50C
330
1F
100
AcDbEntity
  8
Visible (ISO)
100
AcDbSpline
210
0.0
220
0.0
230
1.0
 70
     8
 71
     3
 72
     8
 73
     4
 74
     0
 42
0.0000000001
 43
0.0000000001
 40
-0.1435004186552454
 40
-0.1435004186552454
 40
-0.1435004186552454
 40
-0.1435004186552454
 40
0.0
 40
0.0
 40
0.0
 40
0.0
 10
1556.264253226978
 20
716.7331570001189
 30
0.0
 10
1556.597991849204
 20
716.3997902131419
 30
0.0
 10
1556.93186569546
 20
716.0664424260013
 30
0.0
 10
1557.265835192167
 20
715.7331570001189
 30
0.0
  0
LINE
  5
50D
330
1F
100
AcDbEntity
  8
Visible (ISO)
100
AcDbLine
 10
1557.265835192167
 20
715.7331570001189
 30
0.0
 11
1570.06929628657
 21
715.7331570001112
 31
0.0
  0
ELLIPSE
  5
50E
330
1F
100
AcDbEntity
  8
Visible (ISO)
100
AcDbEllipse
 10
1569.367208711151
 20
660.7331570001116
 30
0.0
 11
0.0000000000126427
 21
-62.99999999999979
 31
0.0
210
0.0
220
0.0
230
1.0
 40
0.4539904997395436
 41
3.617474903249194
 42
4.236506730723531
  0
SPLINE
  5
50F
330
1F
100
AcDbEntity
  8
Visible (ISO)
100
AcDbSpline
210
0.0
220
0.0
230
1.0
 70
     8
 71
     3
 72
     8
 73
     4
 74
     0
 42
0.0000000001
 43
0.0000000001
 40
-0.143500418656114
 40
-0.143500418656114
 40
-0.143500418656114
 40
-0.143500418656114
 40
0.0
 40
0.0
 40
0.0
 40
0.0
 10
1543.943740725735
 20
689.5948963794495
 30
0.0
 10
1544.39211806209
 20
689.5140430574052
 30
0.0
 10
1544.840469843729
 20
689.4328545895606
 30
0.0
 10
1545.288737749664
 20
689.3513330426345
 30
0.0
  0
ELLIPSE
  5
510
330
1F
100
AcDbEntity
  8
Visible (ISO)
100
AcDbEllipse
 10
1570.258215235338
 20
660.7331570001116
 30
0.0
 11
-0.0000000000095188
 21
61.99999999999988
 31
0.0
210
0.0
220
0.0
230
1.0
 40
0.4539904997395435
 41
0.4797793902257297
 42
1.091016936568494
  0
LINE
  5
511
330
1F
100
AcDbEntity
  8
Visible (ISO)
100
AcDbLine
 10
1543.943740725735
 20
689.5948963794495
 30
0.0
 11
1543.943740725735
 21
631.8714176208028
 31
0.0
  0
SPLINE
  5
512
330
1F
100
AcDbEntity
  8
Visible (ISO)
100
AcDbSpline
210
0.0
220
0.0
230
1.0
 70
     8
 71
     3
 72
     8
 73
     4
 74
     0
 42
0.0000000001
 43
0.0000000001
 40
-0.1435004186551945
 40
-0.1435004186551945
 40
-0.1435004186551945
 40
-0.1435004186551945
 40
0.0
 40
0.0
 40
0.0
 40
0.0
 10
1543.943740725735
 20
631.8714176208028
 30
0.0
 10
1544.392118062096
 20
631.9522709428484
 30
0.0
 10
1544.840469843733
 20
632.0334594106927
 30
0.0
 10
1545.288737749664
 20
632.1149809576178
 30
0.0
  0
LINE
  5
513
330
1F
100
AcDbEntity
  8
Visible (ISO)
100
AcDbLine
 10
1545.288737749664
 20
632.1149809576178
 30
0.0
 11
1545.288737749664
 21
689.3513330426345
 31
0.0
  0
ELLIPSE
  5
514
330
1F
100
AcDbEntity
  8
Visible (ISO)
100
AcDbEllipse
 10
1569.367208711151
 20
660.7331570001116
 30
0.0
 11
0.0000000000096742
 21
-62.99999999999974
 31
0.0
210
0.0
220
0.0
230
1.0
 40
0.4539904997395436
 41
5.188271230044765
 42
5.807303057518828
  0
SPLINE
  5
515
330
1F
100
AcDbEntity
  8
Visible (ISO)
100
AcDbSpline
210
0.0
220
0.0
230
1.0
 70
     8
 71
     3
 72
     8
 73
     4
 74
     0
 42
0.0000000001
 43
0.0000000001
 40
-0.1435004186547853
 40
-0.1435004186547853
 40
-0.1435004186547853
 40
-0.1435004186547853
 40
0.0
 40
0.0
 40
0.0
 40
0.0
 10
1556.26425322698
 20
604.7331570001193
 30
0.0
 10
1556.597991849206
 20
605.0665237870981
 30
0.0
 10
1556.931865695462
 20
605.3998715742373
 30
0.0
 10
1557.265835192167
 20
605.7331570001198
 30
0.0
  0
ELLIPSE
  5
516
330
1F
100
AcDbEntity
  8
Visible (ISO)
100
AcDbEllipse
 10
1570.258215235338
 20
660.7331570001116
 30
0.0
 11
-0.0000000000066211
 21
61.99999999999974
 31
0.0
210
0.0
220
0.0
230
1.0
 40
0.4539904997395436
 41
2.050575717021033
 42
2.66181326336407
  0
LINE
  5
517
330
1F
100
AcDbEntity
  8
Visible (ISO)
100
AcDbLine
 10
1556.26425322698
 20
604.7331570001193
 30
0.0
 11
1570.473200442962
 21
604.7331570001111
 31
0.0
  0
LINE
  5
518
330
1F
100
AcDbEntity
  8
Visible (ISO)
100
AcDbLine
 10
1570.06929628657
 20
605.7331570001121
 30
0.0
 11
1557.265835192167
 21
605.7331570001198
 31
0.0
  0
ELLIPSE
  5
519
330
1F
100
AcDbEntity
  8
Visible (ISO)
100
AcDbEllipse
 10
1564.733974785371
 20
660.7331570001107
 30
0.0
 11
-0.0000000000067238
 21
62.99999999999988
 31
0.0
210
0.0
220
0.0
230
1.0
 40
0.4539904997395435
 41
2.046678576455381
 42
2.665710403929718
  0
LINE
  5
51A
330
1F
100
AcDbEntity
  8
Visible (ISO)
100
AcDbLine
 10
1539.310506799957
 20
631.8714176208019
 30
0.0
 11
1539.310506799957
 21
689.5948963794491
 31
0.0
  0
ELLIPSE
  5
51B
330
1F
100
AcDbEntity
  8
Visible (ISO)
100
AcDbEllipse
 10
1564.733974785371
 20
660.7331570001107
 30
0.0
 11
-0.0000000000096825
 21
62.99999999999982
 31
0.0
210
0.0
220
0.0
230
1.0
 40
0.4539904997395438
 41
0.475882249660085
 42
1.094914077134138
  0
SPLINE
  5
51C
330
1F
100
AcDbEntity
  8
Visible (ISO)
100
AcDbSpline
210
0.0
220
0.0
230
1.0
 70
     8
 71
     3
 72
     8
 73
     4
 74
     0
 42
0.0000000001
 43
0.0000000001
 40
-0.1435004111854021
 40
-0.1435004111854021
 40
-0.1435004111854021
 40
-0.1435004111854021
 40
0.0
 40
0.0
 40
0.0
 40
0.0
 10
1538.873490775509
 20
689.3513330426336
 30
0.0
 10
1539.019141847333
 20
689.4328545895592
 30
0.0
 10
1539.164820172029
 20
689.514043057403
 30
0.0
 10
1539.310506799957
 20
689.5948963794491
 30
0.0
  0
SPLINE
  5
51D
330
1F
100
AcDbEntity
  8
Visible (ISO)
100
AcDbSpline
210
0.0
220
0.0
230
1.0
 70
     8
 71
     3
 72
     8
 73
     4
 74
     0
 42
0.0000000001
 43
0.0000000001
 40
-0.143500411184481
 40
-0.143500411184481
 40
-0.143500411184481
 40
-0.143500411184481
 40
0.0
 40
0.0
 40
0.0
 40
0.0
 10
1538.873490775509
 20
632.1149809576169
 30
0.0
 10
1539.019141847335
 20
632.0334594106912
 30
0.0
 10
1539.164820172031
 20
631.9522709428471
 30
0.0
 10
1539.310506799957
 20
631.8714176208019
 30
0.0
  0
LINE
  5
51E
330
1F
100
AcDbEntity
  8
Visible (ISO)
100
AcDbLine
 10
1549.50114602753
 20
714.081403362342
 30
0.0
 11
1550.160832838273
 21
714.9418589488301
 31
0.0
  0
LINE
  5
51F
330
1F
100
AcDbEntity
  8
Visible (ISO)
100
AcDbLine
 10
1549.501146027532
 20
607.3849106378953
 30
0.0
 11
1550.160832838275
 21
606.5244550514081
 31
0.0
  0
LINE
  5
520
330
1F
100
AcDbEntity
  8
Visible (ISO)
100
AcDbLine
 10
1543.943740725735
 20
631.8714176208028
 30
0.0
 11
1539.310506799957
 21
631.8714176208019
 31
0.0
  0
LINE
  5
521
330
1F
100
AcDbEntity
  8
Visible (ISO)
100
AcDbLine
 10
1556.26425322698
 20
604.7331570001193
 30
0.0
 11
1551.631019301199
 21
604.7331570001184
 31
0.0
  0
LINE
  5
522
330
1F
100
AcDbEntity
  8
Visible (ISO)
100
AcDbLine
 10
1543.943740725735
 20
689.5948963794495
 30
0.0
 11
1539.310506799957
 21
689.5948963794491
 31
0.0
  0
LINE
  5
523
330
1F
100
AcDbEntity
  8
Visible (ISO)
100
AcDbLine
 10
1556.264253226978
 20
716.7331570001189
 30
0.0
 11
1551.631019301199
 21
716.733157000118
 31
0.0
  0
SPLINE
  5
524
330
1F
100
AcDbEntity
  8
Visible (ISO)
100
AcDbSpline
210
0.0
220
0.0
230
1.0
 70
     8
 71
     3
 72
    14
 73
    10
 74
     0
 42
0.0000000001
 43
0.0000000001
 40
3.328124574014959
 40
3.328124574014959
 40
3.328124574014959
 40
3.328124574014959
 40
3.594451948436786
 40
3.594451948436786
 40
3.927256191025542
 40
3.927256191025542
 40
4.270839270474919
 40
4.270839270474919
 40
4.549416479053291
 40
4.549416479053291
 40
4.549416479053291
 40
4.549416479053291
 10
1696.735320306368
 20
724.1317898682092
 30
0.0
 10
1700.023861977704
 20
722.7647284896804
 30
0.0
 10
1702.963144440069
 20
720.5516904002148
 30
0.0
 10
1708.799819513366
 20
714.2959494602343
 30
0.0
 10
1711.542013410591
 20
709.9115696920463
 30
0.0
 10
1716.223123638178
 20
699.5950644346118
 30
0.0
 10
1718.123576652476
 20
693.6070719228052
 30
0.0
 10
1720.631214074412
 20
681.9213576808053
 30
0.0
 10
1721.412866733986
 20
676.3858435282074
 30
0.0
 10
1721.834840027204
 20
670.7331570001139
 30
0.0
  0
SPLINE
  5
525
330
1F
100
AcDbEntity
  8
Visible (ISO)
100
AcDbSpline
210
0.0
220
0.0
230
1.0
 70
     8
 71
     3
 72
    16
 73
    12
 74
     0
 42
0.0000000001
 43
0.0000000001
 40
4.875361481716091
 40
4.875361481716091
 40
4.875361481716091
 40
4.875361481716091
 40
4.93796215040324
 40
4.93796215040324
 40
5.270481542122336
 40
5.270481542122336
 40
5.60821475556176
 40
5.60821475556176
 40
5.953627488189909
 40
5.953627488189909
 40
6.096653386754419
 40
6.096653386754419
 40
6.096653386754419
 40
6.096653386754419
 10
1721.834840027204
 20
650.7331570001143
 30
0.0
 10
1721.740016008907
 20
649.4629096660148
 30
0.0
 10
1721.627085397598
 20
648.1984972179595
 30
0.0
 10
1720.80093213743
 20
640.2685265561673
 30
0.0
 10
1719.597296455885
 20
633.8258521341082
 30
0.0
 10
1716.221162890806
 20
621.9139082945381
 30
0.0
 10
1714.039758078732
 20
616.4628890702853
 30
0.0
 10
1708.694495275267
 20
607.03929226805
 30
0.0
 10
1705.514112590219
 20
603.0762610329972
 30
0.0
 10
1700.171611231595
 20
599.0512859308534
 30
0.0
 10
1698.501367182063
 20
598.0686776620033
 30
0.0
 10
1696.735320306368
 20
597.3345241320445
 30
0.0
  0
ELLIPSE
  5
526
330
1F
100
AcDbEntity
  8
Visible (ISO)
100
AcDbEllipse
 10
1966.131264715048
 20
169.1766713772078
 30
0.0
 11
8.499999999999957
 21
0.0
 31
0.0
210
0.0
220
0.0
230
1.0
 40
0.8910065241883661
 41
0.0
 42
6.283185307179586
  0
ELLIPSE
  5
527
330
1F
100
AcDbEntity
  8
Visible (ISO)
100
AcDbEllipse
 10
1966.131264715048
 20
168.4956856275982
 30
0.0
 11
-9.999999999999953
 21
0.0
 31
0.0
210
0.0
220
0.0
230
1.0
 40
0.8910065241883659
 41
0.0
 42
6.283185307179586
  0
ELLIPSE
  5
528
330
1F
100
AcDbEntity
  8
Visible (ISO)
100
AcDbEllipse
 10
1966.131264715039
 20
154.1949848858028
 30
0.0
 11
9.999999999999959
 21
0.0000000000000005
 31
0.0
210
0.0
220
0.0
230
1.0
 40
0.8910065241883661
 41
3.141592653589466
 42
6.283185307179258
  0
ELLIPSE
  5
529
330
1F
100
AcDbEntity
  8
Visible (ISO)
100
AcDbEllipse
 10
1966.131264715037
 20
151.9250323871053
 30
0.0
 11
24.9999999999999
 21
0.000000000000002
 31
0.0
210
0.0
220
0.0
230
1.0
 40
0.8910065241883661
 41
3.141592653589448
 42
6.283185307179242
  0
ELLIPSE
  5
52A
330
1F
100
AcDbEntity
  8
Visible (ISO)
100
AcDbEllipse
 10
1966.13126471503
 20
138.305317394919
 30
0.0
 11
73.9999999999997
 21
-0.0000000000427547
 31
0.0
210
0.0
220
0.0
230
1.0
 40
0.8910065241883659
 41
2.34592383963858
 42
7.078854121132113
  0
ELLIPSE
  5
52B
330
1F
100
AcDbEntity
  8
Visible (ISO)
100
AcDbEllipse
 10
1966.131264715039
 20
154.1949848858028
 30
0.0
 11
24.9999999999999
 21
-0.0000000000144412
 31
0.0
210
0.0
220
0.0
230
1.0
 40
0.8910065241883662
 41
1.793949266059307
 42
7.630828694711337
  0
ELLIPSE
  5
52C
330
1F
100
AcDbEntity
  8
Visible (ISO)
100
AcDbEllipse
 10
1966.131264715017
 20
118.102740156509
 30
0.0
 11
73.9999999999997
 21
0.000000000000004
 31
0.0
210
0.0
220
0.0
230
1.0
 40
0.8910065241883659
 41
3.141592653589457
 42
6.28318530717925
  0
ELLIPSE
  5
52D
330
1F
100
AcDbEntity
  8
Visible (ISO)
100
AcDbEllipse
 10
1966.131264715015
 20
113.7898304089833
 30
0.0
 11
83.49999999999971
 21
-0.0000000000483003
 31
0.0
210
0.0
220
0.0
230
1.0
 40
0.8910065241883661
 41
2.629056070146617
 42
6.795721890624045
  0
ELLIPSE
  5
52E
330
1F
100
AcDbEntity
  8
Visible (ISO)
100
AcDbEllipse
 10
1966.131264715007
 20
102.8940584152344
 30
0.0
 11
83.49999999999967
 21
0.0
 31
0.0
210
0.0
220
0.0
230
1.0
 40
0.8910065241883661
 41
3.141592653589457
 42
6.28318530717925
  0
LINE
  5
52F
330
1F
100
AcDbEntity
  8
Visible (ISO)
100
AcDbLine
 10
1976.131264715047
 20
168.4956856275982
 30
0.0
 11
1976.131264715037
 21
154.1949848858028
 31
0.0
  0
LINE
  5
530
330
1F
100
AcDbEntity
  8
Visible (ISO)
100
AcDbLine
 10
1956.131264715046
 20
168.4956856275982
 30
0.0
 11
1956.131264715041
 21
154.1949848858028
 31
0.0
  0
LINE
  5
531
330
1F
100
AcDbEntity
  8
Visible (ISO)
100
AcDbLine
 10
2011.281286013891
 20
191.1966565049576
 30
0.0
 11
2017.916995111132
 21
185.4044155284602
 31
0.0
  0
LINE
  5
532
330
1F
100
AcDbEntity
  8
Visible (ISO)
100
AcDbLine
 10
1920.981243416168
 20
191.1966565049581
 30
0.0
 11
1914.345534318912
 21
185.4044155284602
 31
0.0
  0
LINE
  5
533
330
1F
100
AcDbEntity
  8
Visible (ISO)
100
AcDbLine
 10
1991.131264715038
 20
154.1949848858028
 30
0.0
 11
1991.131264715037
 21
151.9250323871049
 31
0.0
  0
LINE
  5
534
330
1F
100
AcDbEntity
  8
Visible (ISO)
100
AcDbLine
 10
1941.131264715038
 20
154.1949848858028
 30
0.0
 11
1941.131264715037
 21
151.9250323871053
 31
0.0
  0
LINE
  5
535
330
1F
100
AcDbEntity
  8
Visible (ISO)
100
AcDbLine
 10
2040.13126471503
 20
138.3053173949185
 30
0.0
 11
2040.131264715017
 21
118.102740156509
 31
0.0
  0
LINE
  5
536
330
1F
100
AcDbEntity
  8
Visible (ISO)
100
AcDbLine
 10
1892.131264715029
 20
138.305317394919
 30
0.0
 11
1892.131264715018
 21
118.102740156509
 31
0.0
  0
LINE
  5
537
330
1F
100
AcDbEntity
  8
Visible (ISO)
100
AcDbLine
 10
2049.631264715015
 20
113.7898304089828
 30
0.0
 11
2049.631264715008
 21
102.8940584152339
 31
0.0
  0
LINE
  5
538
330
1F
100
AcDbEntity
  8
Visible (ISO)
100
AcDbLine
 10
1882.631264715015
 20
113.7898304089837
 30
0.0
 11
1882.63126471501
 21
102.8940584152344
 31
0.0
  0
ELLIPSE
  5
539
330
1F
100
AcDbEntity
  8
Visible (ISO)
100
AcDbEllipse
 10
1966.131264714995
 20
78.15157617942919
 30
0.0
 11
62.99999999999968
 21
-0.0000000000363876
 31
0.0
210
0.0
220
0.0
230
1.0
 40
0.8910065241883661
 41
5.188271230045765
 42
5.591354062754503
  0
LINE
  5
53A
330
1F
100
AcDbEntity
  8
Visible (ISO)
100
AcDbLine
 10
1937.269525335679
 20
28.2552108248808
 30
0.0
 11
1994.993004094325
 21
28.2552108248808
 31
0.0
  0
ELLIPSE
  5
53B
330
1F
100
AcDbEntity
  8
Visible (ISO)
100
AcDbEllipse
 10
1966.131264714995
 20
78.15157617942873
 30
0.0
 11
62.99999999999936
 21
-0.0000000000306255
 31
0.0
210
0.0
220
0.0
230
1.0
 40
0.8910065241883662
 41
3.833423898016034
 42
4.236506730724827
  0
LINE
  5
53C
330
1F
100
AcDbEntity
  8
Visible (ISO)
100
AcDbLine
 10
1937.269525335681
 20
33.08069790975355
 30
0.0
 11
1937.269525335679
 21
28.2552108248808
 31
0.0
  0
LINE
  5
53D
330
1F
100
AcDbEntity
  8
Visible (ISO)
100
AcDbLine
 10
1994.993004094329
 20
33.08069790975355
 30
0.0
 11
1994.993004094325
 21
28.2552108248808
 31
0.0
  0
LINE
  5
53E
330
1F
100
AcDbEntity
  8
Visible (ISO)
100
AcDbLine
 10
1910.13126471499
 20
41.39755705665925
 30
0.0
 11
1910.131264714993
 21
47.70736992014986
 31
0.0
  0
LINE
  5
53F
330
1F
100
AcDbEntity
  8
Visible (ISO)
100
AcDbLine
 10
2022.131264714989
 20
41.39755705665925
 30
0.0
 11
2013.748882253039
 21
41.39755705665925
 31
0.0
  0
LINE
  5
540
330
1F
100
AcDbEntity
  8
Visible (ISO)
100
AcDbLine
 10
2022.131264714993
 20
47.70736992014986
 30
0.0
 11
2022.131264714989
 21
41.39755705665925
 31
0.0
  0
LINE
  5
541
330
1F
100
AcDbEntity
  8
Visible (ISO)
100
AcDbLine
 10
1918.51364717694
 20
41.39755705665925
 30
0.0
 11
1910.13126471499
 21
41.39755705665925
 31
0.0
  0
ELLIPSE
  5
542
330
1F
100
AcDbEntity
  8
Visible (ISO)
100
AcDbEllipse
 10
2002.127370857444
 20
35.38883777034811
 30
0.0
 11
6.499999999999983
 21
-0.0000000000001978
 31
0.0
210
0.0
220
0.0
230
1.0
 40
0.8910065241883659
 41
4.218650092312364
 42
6.283185307179215
  0
LINE
  5
543
330
1F
100
AcDbEntity
  8
Visible (ISO)
100
AcDbLine
 10
2008.627370857442
 20
35.38883777034766
 30
0.0
 11
2008.627370857444
 21
36.71181235205426
 31
0.0
  0
ELLIPSE
  5
544
330
1F
100
AcDbEntity
  8
Visible (ISO)
100
AcDbEllipse
 10
1930.135158572551
 20
35.38883777034811
 30
0.0
 11
-6.499999999999983
 21
-0.0000000000000079
 31
0.0
210
0.0
220
0.0
230
1.0
 40
0.8910065241883659
 41
0.0
 42
2.064535214867088
  0
LINE
  5
545
330
1F
100
AcDbEntity
  8
Visible (ISO)
100
AcDbLine
 10
1923.635158572553
 20
36.71181235205472
 30
0.0
 11
1923.635158572549
 21
35.38883777034766
 31
0.0
  0
LINE
  5
546
330
1F
100
AcDbEntity
  8
Visible (ISO)
100
AcDbLine
 10
2061.131264714988
 20
35.98218898526397
 30
0.0
 11
2061.131264714988
 21
99.98218898526307
 31
0.0
  0
LINE
  5
547
330
1F
100
AcDbEntity
  8
Visible (ISO)
100
AcDbLine
 10
2058.281264714987
 20
35.98218898526397
 30
0.0
 11
2058.281264714987
 21
99.98218898526307
 31
0.0
  0
LINE
  5
548
330
1F
100
AcDbEntity
  8
Visible (ISO)
100
AcDbLine
 10
2055.87906116883
 20
42.58218898526388
 30
0.0
 11
2055.87906116883
 21
93.38218898526362
 31
0.0
  0
LINE
  5
549
330
1F
100
AcDbEntity
  8
Visible (ISO)
100
AcDbLine
 10
2058.281264714987
 20
99.98218898526307
 30
0.0
 11
2061.131264714988
 21
99.98218898526307
 31
0.0
  0
LINE
  5
54A
330
1F
100
AcDbEntity
  8
Visible (ISO)
100
AcDbLine
 10
2058.281264714987
 20
35.98218898526352
 30
0.0
 11
2061.131264714988
 21
35.98218898526352
 31
0.0
  0
LINE
  5
54B
330
1F
100
AcDbEntity
  8
Visible (ISO)
100
AcDbLine
 10
2055.87906116883
 20
93.38218898526362
 30
0.0
 11
2058.281264714987
 21
99.98218898526307
 31
0.0
  0
LINE
  5
54C
330
1F
100
AcDbEntity
  8
Visible (ISO)
100
AcDbLine
 10
2055.87906116883
 20
42.58218898526343
 30
0.0
 11
2058.281264714987
 21
35.98218898526352
 31
0.0
  0
LINE
  5
54D
330
1F
100
AcDbEntity
  8
Visible (ISO)
100
AcDbLine
 10
2048.946030272636
 20
93.38218898526315
 30
0.0
 11
2055.87906116883
 21
93.38218898526315
 31
0.0
  0
LINE
  5
54E
330
1F
100
AcDbEntity
  8
Visible (ISO)
100
AcDbLine
 10
2022.131264714988
 20
42.58218898526343
 30
0.0
 11
2055.87906116883
 21
42.58218898526343
 31
0.0
  0
LINE
  5
54F
330
1F
100
AcDbEntity
  8
Visible (ISO)
100
AcDbLine
 10
1871.131264714989
 20
35.98218898526397
 30
0.0
 11
1871.131264714989
 21
99.98218898526307
 31
0.0
  0
LINE
  5
550
330
1F
100
AcDbEntity
  8
Visible (ISO)
100
AcDbLine
 10
1873.981264714988
 20
35.98218898526397
 30
0.0
 11
1873.981264714988
 21
99.98218898526307
 31
0.0
  0
LINE
  5
551
330
1F
100
AcDbEntity
  8
Visible (ISO)
100
AcDbLine
 10
1876.383468261145
 20
42.58218898526388
 30
0.0
 11
1876.383468261145
 21
93.38218898526362
 31
0.0
  0
LINE
  5
552
330
1F
100
AcDbEntity
  8
Visible (ISO)
100
AcDbLine
 10
1871.131264714989
 20
99.98218898526307
 30
0.0
 11
1873.981264714988
 21
99.98218898526307
 31
0.0
  0
LINE
  5
553
330
1F
100
AcDbEntity
  8
Visible (ISO)
100
AcDbLine
 10
1871.131264714989
 20
35.98218898526352
 30
0.0
 11
1873.981264714988
 21
35.98218898526352
 31
0.0
  0
LINE
  5
554
330
1F
100
AcDbEntity
  8
Visible (ISO)
100
AcDbLine
 10
1876.383468261145
 20
42.58218898526388
 30
0.0
 11
1873.981264714988
 21
35.98218898526352
 31
0.0
  0
LINE
  5
555
330
1F
100
AcDbEntity
  8
Visible (ISO)
100
AcDbLine
 10
1876.383468261145
 20
93.38218898526315
 30
0.0
 11
1873.981264714988
 21
99.98218898526307
 31
0.0
  0
LINE
  5
556
330
1F
100
AcDbEntity
  8
Visible (ISO)
100
AcDbLine
 10
1876.383468261147
 20
93.38218898526362
 30
0.0
 11
1883.316499157342
 21
93.38218898526362
 31
0.0
  0
LINE
  5
557
330
1F
100
AcDbEntity
  8
Visible (ISO)
100
AcDbLine
 10
1876.383468261147
 20
42.58218898526343
 30
0.0
 11
1910.13126471499
 21
42.58218898526343
 31
0.0
  0
SPLINE
  5
558
330
1F
100
AcDbEntity
  8
Visible (ISO)
100
AcDbSpline
210
0.0
220
0.0
230
1.0
 70
     8
 71
     3
 72
    16
 73
    12
 74
     0
 42
0.0000000001
 43
0.0000000001
 40
0.7956688139518034
 40
0.7956688139518034
 40
0.7956688139518034
 40
0.7956688139518034
 40
1.105719819089041
 40
1.105719819089041
 40
1.41577082422628
 40
1.41577082422628
 40
1.725821829363518
 40
1.725821829363518
 40
2.035872834500757
 40
2.035872834500757
 40
2.345923839637995
 40
2.345923839637995
 40
2.345923839637995
 40
2.345923839637995
 10
1920.981243416166
 20
191.1966565049554
 30
0.0
 10
1925.791094043994
 20
195.3951247453553
 30
0.0
 10
1931.310194980886
 20
198.9015786630664
 30
0.0
 10
1943.240424008756
 20
204.2355345341109
 30
0.0
 10
1949.650250793718
 20
206.0629971703208
 30
0.0
 10
1962.774635094261
 20
207.8905154632614
 30
0.0
 10
1969.487894335794
 20
207.8905154632614
 30
0.0
 10
1982.612278636339
 20
206.0629971703208
 30
0.0
 10
1989.022105421299
 20
204.2355345341109
 30
0.0
 10
2000.952334449173
 20
198.9015786630664
 30
0.0
 10
2006.471435386065
 20
195.3951247453553
 30
0.0
 10
2011.281286013895
 20
191.1966565049549
 30
0.0
  0
ELLIPSE
  5
559
330
1F
100
AcDbEntity
  8
Visible (ISO)
100
AcDbEllipse
 10
1266.536572121652
 20
138.3053173949185
 30
0.0
 11
73.9999999999997
 21
-0.0000000000433792
 31
0.0
210
0.0
220
0.0
230
1.0
 40
0.8910065241883661
 41
0.182541060175385
 42
2.959051593415746
  0
ELLIPSE
  5
55A
330
1F
100
AcDbEntity
  8
Visible (ISO)
100
AcDbEllipse
 10
1266.536572121637
 20
113.7898304089828
 30
0.0
 11
83.49999999999971
 21
0.0000000000001151
 31
0.0
210
0.0
220
0.0
230
1.0
 40
0.8910065241883661
 41
0.0
 42
3.141592653589448
  0
ELLIPSE
  5
55B
330
1F
100
AcDbEntity
  8
Visible (ISO)
100
AcDbEllipse
 10
1266.536572121631
 20
102.8940584152339
 30
0.0
 11
83.49999999999965
 21
-0.0000000000489442
 31
0.0
210
0.0
220
0.0
230
1.0
 40
0.8910065241883662
 41
6.154985078607257
 42
9.552978189343013
  0
ELLIPSE
  5
55C
330
1F
100
AcDbEntity
  8
Visible (ISO)
100
AcDbEllipse
 10
1266.536572121631
 20
102.8940584152339
 30
0.0
 11
-44.4999999999998
 21
0.0000000000219574
 31
0.0
210
0.0
220
0.0
230
1.0
 40
0.8910065241883662
 41
4.223524373087631
 42
5.201253587682892
  0
LINE
  5
55D
330
1F
100
AcDbEntity
  8
Visible (ISO)
100
AcDbLine
 10
1311.686593420512
 20
191.1966565049576
 30
0.0
 11
1318.322302517754
 21
185.4044155284598
 31
0.0
  0
LINE
  5
55E
330
1F
100
AcDbEntity
  8
Visible (ISO)
100
AcDbLine
 10
1221.386550822791
 20
191.1966565049572
 30
0.0
 11
1214.750841725535
 21
185.4044155284598
 31
0.0
  0
LINE
  5
55F
330
1F
100
AcDbEntity
  8
Visible (ISO)
100
AcDbLine
 10
1350.036572121637
 20
113.7898304089833
 30
0.0
 11
1350.036572121631
 21
102.8940584152339
 31
0.0
  0
LINE
  5
560
330
1F
100
AcDbEntity
  8
Visible (ISO)
100
AcDbLine
 10
1183.036572121638
 20
113.7898304089824
 30
0.0
 11
1183.036572121632
 21
102.8940584152335
 31
0.0
  0
ELLIPSE
  5
561
330
1F
100
AcDbEntity
  8
Visible (ISO)
100
AcDbEllipse
 10
1306.4699854493
 20
110.5396633336756
 30
0.0
 11
10.0
 21
-0.0000000000049398
 31
0.0
210
0.0
220
0.0
230
1.0
 40
0.8910065241883661
 41
3.880050323958659
 42
4.712388980385236
  0
ELLIPSE
  5
562
330
1F
100
AcDbEntity
  8
Visible (ISO)
100
AcDbEllipse
 10
1306.469985449297
 20
106.1737313651531
 30
0.0
 11
-0.0000000000038362
 21
-17.82013048376725
 31
0.0
210
0.0
220
0.0
230
1.0
 40
0.5611631188171815
 41
5.45084665075252
 42
6.283185307178804
  0
ELLIPSE
  5
563
330
1F
100
AcDbEntity
  8
Visible (ISO)
100
AcDbEllipse
 10
1226.603158793924
 20
110.5396633336756
 30
0.0
 11
10.0
 21
0.0000000000000158
 31
0.0
210
0.0
220
0.0
230
1.0
 40
0.8910065241883661
 41
4.712388980384972
 42
5.544727636811351
  0
ELLIPSE
  5
564
330
1F
100
AcDbEntity
  8
Visible (ISO)
100
AcDbEllipse
 10
1226.603158793921
 20
106.1737313651531
 30
0.0
 11
-0.0000000000038362
 21
-17.82013048376725
 31
0.0
210
0.0
220
0.0
230
1.0
 40
0.5611631188171815
 41
0.0
 42
0.8323386564260646
  0
ELLIPSE
  5
565
330
1F
100
AcDbEntity
  8
Visible (ISO)
100
AcDbEllipse
 10
1266.536572121616
 20
78.15157617942873
 30
0.0
 11
-43.9999999999999
 21
0.0000000000217465
 31
0.0
210
0.0
220
0.0
230
1.0
 40
0.8910065241883659
 41
3.880050323958672
 42
4.35696777869503
  0
ELLIPSE
  5
566
330
1F
100
AcDbEntity
  8
Visible (ISO)
100
AcDbEllipse
 10
1266.536572121595
 20
41.39755705665879
 30
0.0
 11
-0.0000000000168793
 21
-78.40857412857591
 31
0.0
210
0.0
220
0.0
230
1.0
 40
0.5611631188171816
 41
2.309253997162741
 42
2.786171451898863
  0
LINE
  5
567
330
1F
100
AcDbEntity
  8
Visible (ISO)
100
AcDbLine
 10
1322.536572121613
 20
101.6295980917918
 30
0.0
 11
1306.469985449302
 21
101.6295980917918
 31
0.0
  0
LINE
  5
568
330
1F
100
AcDbEntity
  8
Visible (ISO)
100
AcDbLine
 10
1210.536572121614
 20
101.6295980917918
 30
0.0
 11
1226.603158793925
 21
101.6295980917918
 31
0.0
  0
ELLIPSE
  5
569
330
1F
100
AcDbEntity
  8
Visible (ISO)
100
AcDbEllipse
 10
1266.536572121616
 20
78.15157617942873
 30
0.0
 11
43.9999999999999
 21
-0.0000000000298234
 31
0.0
210
0.0
220
0.0
230
1.0
 40
0.8910065241883659
 41
1.926217528485874
 42
2.403134983222228
  0
ELLIPSE
  5
56A
330
1F
100
AcDbEntity
  8
Visible (ISO)
100
AcDbEllipse
 10
1266.536572121595
 20
41.39755705665879
 30
0.0
 11
-0.0000000000168793
 21
-78.40857412857591
 31
0.0
210
0.0
220
0.0
230
1.0
 40
0.5611631188171816
 41
3.497013855279307
 42
3.973931310015862
  0
LINE
  5
56B
330
1F
100
AcDbEntity
  8
Visible (ISO)
100
AcDbLine
 10
1210.536572121605
 20
88.35360088138555
 30
0.0
 11
1210.536572121614
 21
101.6295980917918
 31
0.0
  0
LINE
  5
56C
330
1F
100
AcDbEntity
  8
Visible (ISO)
100
AcDbLine
 10
1226.603158793917
 20
88.35360088138555
 30
0.0
 11
1210.536572121605
 21
88.35360088138555
 31
0.0
  0
LINE
  5
56D
330
1F
100
AcDbEntity
  8
Visible (ISO)
100
AcDbLine
 10
1322.536572121605
 20
88.35360088138555
 30
0.0
 11
1306.469985449293
 21
88.35360088138555
 31
0.0
  0
LINE
  5
56E
330
1F
100
AcDbEntity
  8
Visible (ISO)
100
AcDbLine
 10
1322.536572121613
 20
101.6295980917918
 30
0.0
 11
1322.536572121605
 21
88.35360088138555
 31
0.0
  0
LINE
  5
56F
330
1F
100
AcDbEntity
  8
Visible (ISO)
100
AcDbLine
 10
1322.536572121613
 20
103.8675742658299
 30
0.0
 11
1322.536572121613
 21
101.6295980917918
 31
0.0
  0
ELLIPSE
  5
570
330
1F
100
AcDbEntity
  8
Visible (ISO)
100
AcDbEllipse
 10
1266.536572121616
 20
78.15157617942873
 30
0.0
 11
62.99999999999982
 21
-0.0000000000368733
 31
0.0
210
0.0
220
0.0
230
1.0
 40
0.8910065241883661
 41
0.4758822496610762
 42
1.094914077135136
  0
LINE
  5
571
330
1F
100
AcDbEntity
  8
Visible (ISO)
100
AcDbLine
 10
1237.674832742286
 20
128.0479415339766
 30
0.0
 11
1295.398311500933
 21
128.0479415339766
 31
0.0
  0
ELLIPSE
  5
572
330
1F
100
AcDbEntity
  8
Visible (ISO)
100
AcDbEllipse
 10
1266.536572121616
 20
78.15157617942873
 30
0.0
 11
62.99999999999968
 21
-0.0000000000427408
 31
0.0
210
0.0
220
0.0
230
1.0
 40
0.8910065241883661
 41
2.046678576456081
 42
2.665710403930171
  0
LINE
  5
573
330
1F
100
AcDbEntity
  8
Visible (ISO)
100
AcDbLine
 10
1210.536572121614
 20
101.6295980917918
 30
0.0
 11
1210.536572121613
 21
103.8675742658299
 31
0.0
  0
ELLIPSE
  5
574
330
1F
100
AcDbEntity
  8
Visible (ISO)
100
AcDbEllipse
 10
1266.536572121618
 20
78.151576179431
 30
0.0
 11
-63.00000000000276
 21
0.000000000036951
 31
0.0
210
0.0
220
0.0
230
1.0
 40
0.8910065241883659
 41
1.021050998771029
 42
1.094914077135134
  0
ELLIPSE
  5
575
330
1F
100
AcDbEntity
  8
Visible (ISO)
100
AcDbEllipse
 10
1266.536572121619
 20
78.151576179431
 30
0.0
 11
-63.00000000000325
 21
0.0000000000369316
 31
0.0
210
0.0
220
0.0
230
1.0
 40
0.8910065241883659
 41
0.713867568019067
 42
0.8304530549774193
  0
LINE
  5
576
330
1F
100
AcDbEntity
  8
Visible (ISO)
100
AcDbLine
 10
1295.398311500948
 20
28.25521082488035
 30
0.0
 11
1237.674832742301
 21
28.25521082488035
 31
0.0
  0
ELLIPSE
  5
577
330
1F
100
AcDbEntity
  8
Visible (ISO)
100
AcDbEllipse
 10
1266.536572121615
 20
78.15157617943055
 30
0.0
 11
-63.00000000000236
 21
0.0000000000427103
 31
0.0
210
0.0
220
0.0
230
1.0
 40
0.8910065241883661
 41
2.311139598613802
 42
2.427725085572166
  0
ELLIPSE
  5
578
330
1F
100
AcDbEntity
  8
Visible (ISO)
100
AcDbEllipse
 10
1266.536572121618
 20
78.151576179426
 30
0.0
 11
-62.99999999999593
 21
0.000000000042738
 31
0.0
210
0.0
220
0.0
230
1.0
 40
0.8910065241883661
 41
2.046678576456052
 42
2.120541654820176
  0
LINE
  5
579
330
1F
100
AcDbEntity
  8
Visible (ISO)
100
AcDbLine
 10
1322.536572121616
 20
110.9044270117931
 30
0.0
 11
1322.536572121613
 21
103.8675742658299
 31
0.0
  0
LINE
  5
57A
330
1F
100
AcDbEntity
  8
Visible (ISO)
100
AcDbLine
 10
1210.536572121617
 20
110.9044270117931
 30
0.0
 11
1210.536572121613
 21
103.8675742658299
 31
0.0
  0
LINE
  5
57B
330
1F
100
AcDbEntity
  8
Visible (ISO)
100
AcDbLine
 10
1295.398311500936
 20
135.0847942799398
 30
0.0
 11
1237.67483274229
 21
135.0847942799398
 31
0.0
  0
ELLIPSE
  5
57C
330
1F
100
AcDbEntity
  8
Visible (ISO)
100
AcDbEllipse
 10
1266.536572121621
 20
85.18842892539145
 30
0.0
 11
-62.99999999999982
 21
0.0000000000311334
 31
0.0
210
0.0
220
0.0
230
1.0
 40
0.8910065241883661
 41
3.61747490325073
 42
4.236506730724824
  0
ELLIPSE
  5
57D
330
1F
100
AcDbEntity
  8
Visible (ISO)
100
AcDbEllipse
 10
1266.536572121621
 20
85.18842892539192
 30
0.0
 11
-62.99999999999966
 21
0.0000000000369205
 31
0.0
210
0.0
220
0.0
230
1.0
 40
0.8910065241883662
 41
5.18827123004576
 42
5.807303057519829
  0
LINE
  5
57E
330
1F
100
AcDbEntity
  8
Visible (ISO)
100
AcDbLine
 10
1295.398311500936
 20
135.0847942799398
 30
0.0
 11
1295.398311500933
 21
128.0479415339771
 31
0.0
  0
LINE
  5
57F
330
1F
100
AcDbEntity
  8
Visible (ISO)
100
AcDbLine
 10
1237.67483274229
 20
135.0847942799398
 30
0.0
 11
1237.674832742286
 21
128.0479415339771
 31
0.0
  0
LINE
  5
580
330
1F
100
AcDbEntity
  8
Visible (ISO)
100
AcDbLine
 10
1251.225220123828
 20
114.9055953021986
 30
0.0
 11
1281.847924119394
 21
114.9055953021986
 31
0.0
  0
LINE
  5
581
330
1F
100
AcDbEntity
  8
Visible (ISO)
100
AcDbLine
 10
1322.536572121602
 20
71.62943078319426
 30
0.0
 11
1322.536572121605
 21
88.35360088138555
 31
0.0
  0
LINE
  5
582
330
1F
100
AcDbEntity
  8
Visible (ISO)
100
AcDbLine
 10
1322.536572121605
 20
43.03558555744007
 30
0.0
 11
1322.536572121602
 21
68.50410352709809
 31
0.0
  0
LINE
  5
583
330
1F
100
AcDbEntity
  8
Visible (ISO)
100
AcDbLine
 10
1210.536572121605
 20
88.35360088138555
 30
0.0
 11
1210.536572121602
 21
71.62943078319426
 31
0.0
  0
LINE
  5
584
330
1F
100
AcDbEntity
  8
Visible (ISO)
100
AcDbLine
 10
1210.536572121602
 20
68.50410352709809
 30
0.0
 11
1210.536572121606
 21
43.03558555744007
 31
0.0
  0
ELLIPSE
  5
585
330
1F
100
AcDbEntity
  8
Visible (ISO)
100
AcDbEllipse
 10
1302.532678264057
 20
116.3744095911149
 30
0.0
 11
-6.499999999999977
 21
0.0
 31
0.0
210
0.0
220
0.0
230
1.0
 40
0.8910065241883659
 41
3.141592653589437
 42
6.283185307179231
  0
ELLIPSE
  5
586
330
1F
100
AcDbEntity
  8
Visible (ISO)
100
AcDbEllipse
 10
1230.540465979165
 20
116.3744095911149
 30
0.0
 11
-6.499999999999977
 21
-0.0000000000000633
 31
0.0
210
0.0
220
0.0
230
1.0
 40
0.8910065241883659
 41
3.141592653589423
 42
6.283185307179217
  0
ELLIPSE
  5
587
330
1F
100
AcDbEntity
  8
Visible (ISO)
100
AcDbEllipse
 10
1230.540465979162
 20
111.8345045937196
 30
0.0
 11
6.499999999999975
 21
0.0
 31
0.0
210
0.0
220
0.0
230
1.0
 40
0.8910065241883661
 41
0.0
 42
6.283185307179586
  0
ELLIPSE
  5
588
330
1F
100
AcDbEntity
  8
Visible (ISO)
100
AcDbEllipse
 10
1302.532678264054
 20
111.8345045937196
 30
0.0
 11
-6.499999999999975
 21
0.0
 31
0.0
210
0.0
220
0.0
230
1.0
 40
0.8910065241883661
 41
0.0
 42
6.283185307179586
  0
LINE
  5
589
330
1F
100
AcDbEntity
  8
Visible (ISO)
100
AcDbLine
 10
1237.040465979165
 20
116.3744095911149
 30
0.0
 11
1237.040465979163
 21
111.8345045937191
 31
0.0
  0
LINE
  5
58A
330
1F
100
AcDbEntity
  8
Visible (ISO)
100
AcDbLine
 10
1224.040465979165
 20
116.3744095911149
 30
0.0
 11
1224.040465979162
 21
111.8345045937191
 31
0.0
  0
LINE
  5
58B
330
1F
100
AcDbEntity
  8
Visible (ISO)
100
AcDbLine
 10
1296.032678264054
 20
111.8345045937191
 30
0.0
 11
1296.032678264056
 21
116.3744095911149
 31
0.0
  0
LINE
  5
58C
330
1F
100
AcDbEntity
  8
Visible (ISO)
100
AcDbLine
 10
1309.032678264055
 20
111.8345045937196
 30
0.0
 11
1309.032678264057
 21
116.3744095911149
 31
0.0
  0
ELLIPSE
  5
58D
330
1F
100
AcDbEntity
  8
Visible (ISO)
100
AcDbEllipse
 10
1302.532678264069
 20
39.9287427677425
 30
0.0
 11
-6.49999999999996
 21
-0.0000000000000079
 31
0.0
210
0.0
220
0.0
230
1.0
 40
0.8910065241883661
 41
6.026771067456749
 42
6.28318530717923
  0
ELLIPSE
  5
58E
330
1F
100
AcDbEntity
  8
Visible (ISO)
100
AcDbEllipse
 10
1302.532678264069
 20
39.9287427677425
 30
0.0
 11
6.499999999999987
 21
-0.0000000000038088
 31
0.0
210
0.0
220
0.0
230
1.0
 40
0.8910065241883661
 41
0.0
 42
0.2564142397232132
  0
ELLIPSE
  5
58F
330
1F
100
AcDbEntity
  8
Visible (ISO)
100
AcDbEllipse
 10
1302.532678264066
 20
35.38883777034721
 30
0.0
 11
6.499999999999975
 21
0.0
 31
0.0
210
0.0
220
0.0
230
1.0
 40
0.8910065241883661
 41
0.0
 42
6.283185307179586
  0
LINE
  5
590
330
1F
100
AcDbEntity
  8
Visible (ISO)
100
AcDbLine
 10
1309.032678264069
 20
39.9287427677425
 30
0.0
 11
1309.032678264065
 21
35.38883777034721
 31
0.0
  0
LINE
  5
591
330
1F
100
AcDbEntity
  8
Visible (ISO)
100
AcDbLine
 10
1296.032678264069
 20
39.9287427677425
 30
0.0
 11
1296.032678264066
 21
35.38883777034721
 31
0.0
  0
ELLIPSE
  5
592
330
1F
100
AcDbEntity
  8
Visible (ISO)
100
AcDbEllipse
 10
1230.540465979176
 20
39.9287427677425
 30
0.0
 11
-6.500000000000147
 21
-0.0000000000000396
 31
0.0
210
0.0
220
0.0
230
1.0
 40
0.8910065241883661
 41
6.026771067456749
 42
6.283185307179222
  0
ELLIPSE
  5
593
330
1F
100
AcDbEntity
  8
Visible (ISO)
100
AcDbEllipse
 10
1230.540465979176
 20
39.9287427677425
 30
0.0
 11
6.499999999999715
 21
-0.0000000000038084
 31
0.0
210
0.0
220
0.0
230
1.0
 40
0.8910065241883657
 41
0.0
 42
0.2564142397231608
  0
ELLIPSE
  5
594
330
1F
100
AcDbEntity
  8
Visible (ISO)
100
AcDbEllipse
 10
1230.540465979174
 20
35.38883777034721
 30
0.0
 11
-6.499999999999975
 21
0.0
 31
0.0
210
0.0
220
0.0
230
1.0
 40
0.8910065241883661
 41
0.0
 42
6.283185307179586
  0
LINE
  5
595
330
1F
100
AcDbEntity
  8
Visible (ISO)
100
AcDbLine
 10
1224.040465979173
 20
35.38883777034721
 30
0.0
 11
1224.040465979176
 21
39.9287427677425
 31
0.0
  0
LINE
  5
596
330
1F
100
AcDbEntity
  8
Visible (ISO)
100
AcDbLine
 10
1237.040465979173
 20
35.38883777034721
 30
0.0
 11
1237.040465979176
 21
39.9287427677425
 31
0.0
  0
LINE
  5
597
330
1F
100
AcDbEntity
  8
Visible (ISO)
100
AcDbLine
 10
1322.536572121602
 20
71.62943078319472
 30
0.0
 11
1322.536572121602
 21
68.50410352709855
 31
0.0
  0
LINE
  5
598
330
1F
100
AcDbEntity
  8
Visible (ISO)
100
AcDbLine
 10
1322.536572121605
 20
43.03558555744053
 30
0.0
 11
1322.536572121606
 21
41.39755705665879
 31
0.0
  0
LINE
  5
599
330
1F
100
AcDbEntity
  8
Visible (ISO)
100
AcDbLine
 10
1210.536572121607
 20
41.39755705665925
 30
0.0
 11
1210.536572121606
 21
43.03558555744053
 31
0.0
  0
LINE
  5
59A
330
1F
100
AcDbEntity
  8
Visible (ISO)
100
AcDbLine
 10
1210.536572121602
 20
68.50410352709809
 30
0.0
 11
1210.536572121602
 21
71.62943078319472
 31
0.0
  0
LINE
  5
59B
330
1F
100
AcDbEntity
  8
Visible (ISO)
100
AcDbLine
 10
1293.200673736744
 20
41.39755705665879
 30
0.0
 11
1322.536572121606
 21
41.39755705665879
 31
0.0
  0
LINE
  5
59C
330
1F
100
AcDbEntity
  8
Visible (ISO)
100
AcDbLine
 10
1293.200673736744
 20
41.39755705665879
 30
0.0
 11
1290.602597525391
 21
41.39755705665879
 31
0.0
  0
LINE
  5
59D
330
1F
100
AcDbEntity
  8
Visible (ISO)
100
AcDbLine
 10
1279.526953178379
 20
41.39755705665879
 30
0.0
 11
1290.602597525391
 21
41.39755705665879
 31
0.0
  0
LINE
  5
59E
330
1F
100
AcDbEntity
  8
Visible (ISO)
100
AcDbLine
 10
1253.546191064847
 20
41.39755705665879
 30
0.0
 11
1279.526953178379
 21
41.39755705665879
 31
0.0
  0
LINE
  5
59F
330
1F
100
AcDbEntity
  8
Visible (ISO)
100
AcDbLine
 10
1242.470546717822
 20
41.39755705665879
 30
0.0
 11
1253.546191064847
 21
41.39755705665879
 31
0.0
  0
LINE
  5
5A0
330
1F
100
AcDbEntity
  8
Visible (ISO)
100
AcDbLine
 10
1242.470546717822
 20
41.39755705665879
 30
0.0
 11
1239.872470506468
 21
41.39755705665879
 31
0.0
  0
LINE
  5
5A1
330
1F
100
AcDbEntity
  8
Visible (ISO)
100
AcDbLine
 10
1210.536572121607
 20
41.39755705665879
 30
0.0
 11
1239.872470506468
 21
41.39755705665879
 31
0.0
  0
LINE
  5
5A2
330
1F
100
AcDbEntity
  8
Visible (ISO)
100
AcDbLine
 10
1171.536572121611
 20
99.98218898526261
 30
0.0
 11
1171.536572121611
 21
35.98218898526352
 31
0.0
  0
LINE
  5
5A3
330
1F
100
AcDbEntity
  8
Visible (ISO)
100
AcDbLine
 10
1174.386572121611
 20
99.98218898526261
 30
0.0
 11
1174.386572121611
 21
35.98218898526352
 31
0.0
  0
LINE
  5
5A4
330
1F
100
AcDbEntity
  8
Visible (ISO)
100
AcDbLine
 10
1176.788775667768
 20
93.38218898526315
 30
0.0
 11
1176.788775667768
 21
42.58218898526343
 31
0.0
  0
LINE
  5
5A5
330
1F
100
AcDbEntity
  8
Visible (ISO)
100
AcDbLine
 10
1174.386572121611
 20
35.98218898526306
 30
0.0
 11
1171.536572121612
 21
35.98218898526306
 31
0.0
  0
LINE
  5
5A6
330
1F
100
AcDbEntity
  8
Visible (ISO)
100
AcDbLine
 10
1174.386572121611
 20
99.98218898526261
 30
0.0
 11
1171.536572121612
 21
99.98218898526261
 31
0.0
  0
LINE
  5
5A7
330
1F
100
AcDbEntity
  8
Visible (ISO)
100
AcDbLine
 10
1176.788775667768
 20
42.58218898526297
 30
0.0
 11
1174.386572121611
 21
35.98218898526306
 31
0.0
  0
LINE
  5
5A8
330
1F
100
AcDbEntity
  8
Visible (ISO)
100
AcDbLine
 10
1176.788775667768
 20
93.38218898526315
 30
0.0
 11
1174.386572121611
 21
99.98218898526261
 31
0.0
  0
LINE
  5
5A9
330
1F
100
AcDbEntity
  8
Visible (ISO)
100
AcDbLine
 10
1210.536572121611
 20
42.58218898526297
 30
0.0
 11
1176.788775667768
 21
42.58218898526297
 31
0.0
  0
LINE
  5
5AA
330
1F
100
AcDbEntity
  8
Visible (ISO)
100
AcDbLine
 10
1210.536572121611
 20
93.38218898526269
 30
0.0
 11
1176.788775667768
 21
93.38218898526269
 31
0.0
  0
LINE
  5
5AB
330
1F
100
AcDbEntity
  8
Visible (ISO)
100
AcDbLine
 10
1361.536572121611
 20
99.98218898526261
 30
0.0
 11
1361.536572121611
 21
35.98218898526352
 31
0.0
  0
LINE
  5
5AC
330
1F
100
AcDbEntity
  8
Visible (ISO)
100
AcDbLine
 10
1358.686572121611
 20
99.98218898526261
 30
0.0
 11
1358.686572121611
 21
35.98218898526352
 31
0.0
  0
LINE
  5
5AD
330
1F
100
AcDbEntity
  8
Visible (ISO)
100
AcDbLine
 10
1356.284368575454
 20
93.38218898526315
 30
0.0
 11
1356.284368575454
 21
42.58218898526343
 31
0.0
  0
LINE
  5
5AE
330
1F
100
AcDbEntity
  8
Visible (ISO)
100
AcDbLine
 10
1361.536572121611
 20
35.98218898526306
 30
0.0
 11
1358.686572121611
 21
35.98218898526306
 31
0.0
  0
LINE
  5
5AF
330
1F
100
AcDbEntity
  8
Visible (ISO)
100
AcDbLine
 10
1361.536572121611
 20
99.98218898526261
 30
0.0
 11
1358.686572121611
 21
99.98218898526261
 31
0.0
  0
LINE
  5
5B0
330
1F
100
AcDbEntity
  8
Visible (ISO)
100
AcDbLine
 10
1356.284368575454
 20
93.38218898526269
 30
0.0
 11
1358.686572121611
 21
99.98218898526261
 31
0.0
  0
LINE
  5
5B1
330
1F
100
AcDbEntity
  8
Visible (ISO)
100
AcDbLine
 10
1356.284368575454
 20
42.58218898526343
 30
0.0
 11
1358.686572121611
 21
35.98218898526306
 31
0.0
  0
LINE
  5
5B2
330
1F
100
AcDbEntity
  8
Visible (ISO)
100
AcDbLine
 10
1356.284368575454
 20
42.58218898526297
 30
0.0
 11
1322.536572121611
 21
42.58218898526297
 31
0.0
  0
LINE
  5
5B3
330
1F
100
AcDbEntity
  8
Visible (ISO)
100
AcDbLine
 10
1356.284368575453
 20
93.38218898526315
 30
0.0
 11
1322.536572121611
 21
93.38218898526315
 31
0.0
  0
ELLIPSE
  5
5B4
330
1F
100
AcDbEntity
  8
Visible (ISO)
100
AcDbEllipse
 10
1266.536572121623
 20
88.0031700237771
 30
0.0
 11
62.99999999999979
 21
-0.0000000000427408
 31
0.0
210
0.0
220
0.0
230
1.0
 40
0.8910065241883661
 41
2.046678576456077
 42
2.665710403930166
  0
LINE
  5
5B5
330
1F
100
AcDbEntity
  8
Visible (ISO)
100
AcDbLine
 10
1237.674832742292
 20
137.899535378325
 30
0.0
 11
1295.398311500938
 21
137.899535378325
 31
0.0
  0
ELLIPSE
  5
5B6
330
1F
100
AcDbEntity
  8
Visible (ISO)
100
AcDbEllipse
 10
1266.536572121623
 20
88.0031700237771
 30
0.0
 11
62.99999999999974
 21
-0.000000000036951
 31
0.0
210
0.0
220
0.0
230
1.0
 40
0.8910065241883661
 41
0.4758822496610789
 42
1.094914077135137
  0
ELLIPSE
  5
5B7
330
1F
100
AcDbEntity
  8
Visible (ISO)
100
AcDbEllipse
 10
1266.536572121621
 20
85.64241942513149
 30
0.0
 11
-62.99999999999988
 21
0.0000000000311279
 31
0.0
210
0.0
220
0.0
230
1.0
 40
0.8910065241883661
 41
3.61747490325073
 42
4.236506730724824
  0
LINE
  5
5B8
330
1F
100
AcDbEntity
  8
Visible (ISO)
100
AcDbLine
 10
1295.398311500937
 20
135.5387847796794
 30
0.0
 11
1237.67483274229
 21
135.5387847796794
 31
0.0
  0
ELLIPSE
  5
5B9
330
1F
100
AcDbEntity
  8
Visible (ISO)
100
AcDbEllipse
 10
1266.536572121621
 20
85.64241942513149
 30
0.0
 11
-62.99999999999982
 21
0.0000000000369205
 31
0.0
210
0.0
220
0.0
230
1.0
 40
0.8910065241883661
 41
5.18827123004576
 42
5.80730305751983
  0
LINE
  5
5BA
330
1F
100
AcDbEntity
  8
Visible (ISO)
100
AcDbLine
 10
1210.536572121617
 20
111.3584175115327
 30
0.0
 11
1210.536572121617
 21
110.9044270117931
 31
0.0
  0
SPLINE
  5
5BB
330
1F
100
AcDbEntity
  8
Visible (ISO)
100
AcDbSpline
210
0.0
220
0.0
230
1.0
 70
     8
 71
     3
 72
     8
 73
     4
 74
     0
 42
0.0000000001
 43
0.0000000001
 40
-0.0273103982859171
 40
-0.0273103982859171
 40
-0.0273103982859171
 40
-0.0273103982859171
 40
0.0
 40
0.0
 40
0.0
 40
0.0
 10
1210.726904677491
 20
111.2308443712902
 30
0.0
 10
1210.663461379643
 20
111.2733791559619
 30
0.0
 10
1210.600017094719
 20
111.3159035855067
 30
0.0
 10
1210.536572121617
 20
111.3584175115331
 30
0.0
  0
SPLINE
  5
5BC
330
1F
100
AcDbEntity
  8
Visible (ISO)
100
AcDbSpline
210
0.0
220
0.0
230
1.0
 70
     8
 71
     3
 72
     8
 73
     4
 74
     0
 42
0.0000000001
 43
0.0000000001
 40
-0.048433460770191
 40
-0.048433460770191
 40
-0.048433460770191
 40
-0.048433460770191
 40
0.0
 40
0.0
 40
0.0
 40
0.0
 10
1237.756814689113
 20
135.0847942799398
 30
0.0
 10
1237.729449248012
 20
135.2361200405332
 30
0.0
 10
1237.702121905917
 20
135.3874509545605
 30
0.0
 10
1237.67483274229
 20
135.5387847796798
 30
0.0
  0
SPLINE
  5
5BD
330
1F
100
AcDbEntity
  8
Visible (ISO)
100
AcDbSpline
210
0.0
220
0.0
230
1.0
 70
     8
 71
     3
 72
     8
 73
     4
 74
     0
 42
0.0000000001
 43
0.0000000001
 40
-0.0484334607700501
 40
-0.0484334607700501
 40
-0.0484334607700501
 40
-0.0484334607700501
 40
0.0
 40
0.0
 40
0.0
 40
0.0
 10
1295.316329554114
 20
135.0847942799398
 30
0.0
 10
1295.343694995215
 20
135.2361200405337
 30
0.0
 10
1295.37102233731
 20
135.387450954561
 30
0.0
 10
1295.398311500937
 20
135.5387847796798
 30
0.0
  0
SPLINE
  5
5BE
330
1F
100
AcDbEntity
  8
Visible (ISO)
100
AcDbSpline
210
0.0
220
0.0
230
1.0
 70
     8
 71
     3
 72
     8
 73
     4
 74
     0
 42
0.0000000001
 43
0.0000000001
 40
-0.0273103982859751
 40
-0.0273103982859751
 40
-0.0273103982859751
 40
-0.0273103982859751
 40
0.0
 40
0.0
 40
0.0
 40
0.0
 10
1322.346239565744
 20
111.2308443712902
 30
0.0
 10
1322.409682863592
 20
111.2733791559619
 30
0.0
 10
1322.473127148516
 20
111.3159035855067
 30
0.0
 10
1322.536572121617
 20
111.3584175115331
 30
0.0
  0
LINE
  5
5BF
330
1F
100
AcDbEntity
  8
Visible (ISO)
100
AcDbLine
 10
1322.536572121617
 20
110.9044270117931
 30
0.0
 11
1322.536572121617
 21
111.3584175115327
 31
0.0
  0
LINE
  5
5C0
330
1F
100
AcDbEntity
  8
Visible (ISO)
100
AcDbLine
 10
1295.398311500938
 20
137.899535378325
 30
0.0
 11
1295.398311500937
 21
135.5387847796794
 31
0.0
  0
LINE
  5
5C1
330
1F
100
AcDbEntity
  8
Visible (ISO)
100
AcDbLine
 10
1322.536572121618
 20
113.7191681101783
 30
0.0
 11
1322.536572121617
 21
111.3584175115327
 31
0.0
  0
LINE
  5
5C2
330
1F
100
AcDbEntity
  8
Visible (ISO)
100
AcDbLine
 10
1237.674832742292
 20
137.899535378325
 30
0.0
 11
1237.67483274229
 21
135.5387847796794
 31
0.0
  0
LINE
  5
5C3
330
1F
100
AcDbEntity
  8
Visible (ISO)
100
AcDbLine
 10
1210.536572121619
 20
113.7191681101783
 30
0.0
 11
1210.536572121617
 21
111.3584175115327
 31
0.0
  0
SPLINE
  5
5C4
330
1F
100
AcDbEntity
  8
Visible (ISO)
100
AcDbSpline
210
0.0
220
0.0
230
1.0
 70
     8
 71
     3
 72
    16
 73
    12
 74
     0
 42
0.0000000001
 43
0.0000000001
 40
0.7956688139518034
 40
0.7956688139518034
 40
0.7956688139518034
 40
0.7956688139518034
 40
1.105719819089041
 40
1.105719819089041
 40
1.41577082422628
 40
1.41577082422628
 40
1.725821829363518
 40
1.725821829363518
 40
2.035872834500757
 40
2.035872834500757
 40
2.345923839637995
 40
2.345923839637995
 40
2.345923839637995
 40
2.345923839637995
 10
1311.686593420516
 20
191.1966565049549
 30
0.0
 10
1306.876742792687
 20
195.3951247453549
 30
0.0
 10
1301.357641855795
 20
198.9015786630659
 30
0.0
 10
1289.427412827922
 20
204.2355345341104
 30
0.0
 10
1283.01758604296
 20
206.0629971703203
 30
0.0
 10
1269.893201742417
 20
207.8905154632609
 30
0.0
 10
1263.179942500884
 20
207.8905154632609
 30
0.0
 10
1250.055558200339
 20
206.0629971703203
 30
0.0
 10
1243.645731415379
 20
204.2355345341104
 30
0.0
 10
1231.715502387508
 20
198.9015786630659
 30
0.0
 10
1226.196401450615
 20
195.3951247453549
 30
0.0
 10
1221.386550822789
 20
191.1966565049544
 30
0.0
  0
LINE
  5
5C5
330
1F
100
AcDbEntity
  8
0
  6
CENTER
100
AcDbLine
 10
1839.456005552778
 20
67.98218898526352
 30
0.0
 11
2092.806523877274
 21
67.98218898526352
 31
0.0
  0
LINE
  5
5C6
330
1F
100
AcDbEntity
  8
0
  6
CENTER
100
AcDbLine
 10
1966.131264715027
 20
19.11678316774373
 30
0.0
 11
1966.131264715027
 21
217.7851475650175
 31
0.0
  0
LINE
  5
5C7
330
1F
100
AcDbEntity
  8
0
  6
CENTER
100
AcDbLine
 10
1495.04164599495
 20
50.13240427187861
 30
0.0
 11
1743.884011943066
 21
176.9239226348483
 31
0.0
  0
LINE
  5
5C8
330
1F
100
AcDbEntity
  8
0
  6
CENTER
 62
     0
370
    25
100
AcDbLine
 10
1530.073820994423
 20
30.3871979323901
 30
0.0
 11
1530.073820994423
 21
105.5771800381369
 31
0.0
  0
LINE
  5
5C9
330
1F
100
AcDbEntity
  8
0
  6
CENTER
 62
     0
370
    25
100
AcDbLine
 10
1492.47882994155
 20
67.98218898526352
 30
0.0
 11
1567.668812047295
 21
67.98218898526352
 31
0.0
  0
LINE
  5
5CA
330
1F
100
AcDbEntity
  8
0
  6
CENTER
100
AcDbLine
 10
1508.628782196127
 20
660.733157000102
 30
0.0
 11
1742.139769242212
 21
660.7331570001357
 31
0.0
  0
LINE
  5
5CB
330
1F
100
AcDbEntity
  8
0
  6
CENTER
100
AcDbLine
 10
1530.073820994442
 20
539.3596007343363
 30
0.0
 11
1530.073820994448
 21
782.1067132658724
 31
0.0
  0
LINE
  5
5CC
330
1F
100
AcDbEntity
  8
0
  6
CENTER
100
AcDbLine
 10
1266.536572121607
 20
41.3975570566638
 30
0.0
 11
1266.536572121571
 21
219.290442914377
 31
0.0
  0
LINE
  5
5CD
330
1F
100
AcDbEntity
  8
0
  6
CENTER
100
AcDbLine
 10
1381.494178156852
 20
67.98218898526307
 30
0.0
 11
1151.578966086349
 21
67.98218898526307
 31
0.0
  0
VIEWPORT
  5
71
330
55
100
AcDbEntity
 67
     1
  8
0
100
AcDbViewport
 10
133.3499908447265
 20
101.5999970436096
 30
0.0
 40
381.3957395593834
 41
218.2856291881582
 68
     1
 69
     1
 12
133.3499908447265
 22
101.5999970436096
 13
0.0
 23
0.0
 14
10.0
 24
10.0
 15
10.0
 25
10.0
 16
0.0
 26
0.0
 36
1.0
 17
0.0
 27
0.0
 37
0.0
 42
50.0
 43
0.0
 44
0.0
 45
218.2856291881582
 50
0.0
 51
0.0
 72
   100
 90
    32800
  1

281
     0
 71
     1
 74
     0
110
0.0
120
0.0
130
0.0
111
1.0
121
0.0
131
0.0
112
0.0
122
1.0
132
0.0
 79
     0
146
0.0
  0
VIEWPORT
  5
73
330
55
100
AcDbEntity
 67
     1
  8
0
100
AcDbViewport
 10
133.349993944168
 20
101.599993944168
 30
0.0
 40
213.3599903106689
 41
162.5599903106689
 68
     2
 69
     2
 12
210.0
 22
148.5
 13
0.0
 23
0.0
 14
10.0
 24
10.0
 15
10.0
 25
10.0
 16
0.0
 26
0.0
 36
1.0
 17
0.0
 27
0.0
 37
0.0
 42
50.0
 43
0.0
 44
0.0
 45
324.0677920111345
 50
0.0
 51
0.0
 72
   100
 90
    32864
  1

281
     0
 71
     1
 74
     0
110
0.0
120
0.0
130
0.0
111
1.0
121
0.0
131
0.0
112
0.0
122
1.0
132
0.0
 79
     0
146
0.0
  0
ENDSEC
  0
SECTION
  2
OBJECTS
  0
DICTIONARY
  5
C
330
0
100
AcDbDictionary
281
     1
  3
ACAD_GROUP
350
D
  3
ACAD_LAYOUT
350
1A
  3
ACAD_MLINESTYLE
350
17
  3
ACAD_PLOTSETTINGS
350
19
  3
ACAD_PLOTSTYLENAME
350
E
  3
AcDbVariableDictionary
350
5E
  0
DICTIONARY
  5
304
330
2
100
AcDbDictionary
280
     1
281
     1
  3
ACAD_LAYERSTATES
360
305
  0
DICTIONARY
  5
2BC
330
1F
100
AcDbDictionary
280
     1
281
     1
  3
ACAD_LAYOUTSELFREF
360
2F3
  0
DICTIONARY
  5
2BE
330
55
100
AcDbDictionary
280
     1
281
     1
  3
ACAD_LAYOUTSELFREF
360
2F7
  0
DICTIONARY
  5
2C0
330
50
100
AcDbDictionary
280
     1
281
     1
  3
ACAD_LAYOUTSELFREF
360
2F6
  0
DICTIONARY
  5
D
102
{ACAD_REACTORS
330
C
102
}
330
C
100
AcDbDictionary
281
     1
  0
DICTIONARY
  5
1A
102
{ACAD_REACTORS
330
C
102
}
330
C
100
AcDbDictionary
281
     1
  3
Model
350
22
  3
ﾚｲｱｳﾄ1
350
51
  3
ﾚｲｱｳﾄ2
350
56
  0
DICTIONARY
  5
17
102
{ACAD_REACTORS
330
C
102
}
330
C
100
AcDbDictionary
281
     1
  3
Standard
350
18
  0
DICTIONARY
  5
19
102
{ACAD_REACTORS
330
C
102
}
330
C
100
AcDbDictionary
281
     1
  0
ACDBDICTIONARYWDFLT
  5
E
102
{ACAD_REACTORS
330
C
102
}
330
C
100
AcDbDictionary
281
     1
  3
Normal
350
F
100
AcDbDictionaryWithDefault
340
F
  0
DICTIONARY
  5
5E
102
{ACAD_REACTORS
330
C
102
}
330
C
100
AcDbDictionary
281
     1
  3
DIMASSOC
350
5F
  3
HIDETEXT
350
63
  0
DICTIONARY
  5
305
102
{ACAD_REACTORS
330
304
102
}
330
304
100
AcDbDictionary
281
     1
  0
XRECORD
  5
2F3
102
{ACAD_REACTORS
330
2BC
102
}
330
2BC
100
AcDbXrecord
280
     1
340
1F
  0
XRECORD
  5
2F7
102
{ACAD_REACTORS
330
2BE
102
}
330
2BE
100
AcDbXrecord
280
     1
340
55
  0
XRECORD
  5
2F6
102
{ACAD_REACTORS
330
2C0
102
}
330
2C0
100
AcDbXrecord
280
     1
340
50
  0
LAYOUT
  5
22
102
{ACAD_REACTORS
330
1A
102
}
330
1A
100
AcDbPlotSettings
  1

  2
none_device
  4
ANSI_A_(8.50_x_11.00_Inches)
  6

 40
6.349999904632568
 41
19.04999923706054
 42
6.350006103515625
 43
19.04998779296875
 44
215.8999938964843
 45
279.3999938964843
 46
0.0
 47
0.0
 48
0.0
 49
0.0
140
0.0
141
0.0
142
1.0
143
78.436453180766
 70
 11952
 72
     0
 73
     1
 74
     0
  7

 75
     0
147
0.0127491741332998
148
0.0
149
0.0
100
AcDbLayout
  1
Model
 70
     1
 71
     0
 10
0.0
 20
0.0
 11
12.0
 21
9.0
 12
0.0
 22
0.0
 32
0.0
 14
0.0
 24
0.0
 34
0.0
 15
0.0
 25
0.0
 35
0.0
146
0.0
 13
0.0
 23
0.0
 33
0.0
 16
1.0
 26
0.0
 36
0.0
 17
0.0
 27
1.0
 37
0.0
 76
     0
330
1F
  0
LAYOUT
  5
51
102
{ACAD_REACTORS
330
1A
102
}
330
1A
100
AcDbPlotSettings
  1

  2
none_device
  4
Letter_(8.50_x_11.00_Inches)
  6

 40
6.349999904632568
 41
6.349999904632568
 42
6.350006103515625
 43
6.350006103515625
 44
215.8999938964843
 45
279.3999938964843
 46
0.0
 47
0.0
 48
0.0
 49
0.0
140
0.0
141
0.0
142
1.0
143
1.0
 70
   688
 72
     1
 73
     1
 74
     5
  7

 75
    16
147
1.0
148
0.0
149
0.0
100
AcDbLayout
  1
ﾚｲｱｳﾄ1
 70
     1
 71
     1
 10
-6.350006103515625
 20
-6.349999904632568
 11
273.0499877929687
 21
209.5499939918517
 12
0.0
 22
0.0
 32
0.0
 14
26.66076962115562
 24
20.31135699206657
 34
-0.0015258207003583
 15
240.039213369355
 25
182.8886381005154
 35
0.0000000349246037
146
0.0
 13
0.0
 23
0.0
 33
0.0
 16
1.0
 26
0.0
 36
0.0
 17
0.0
 27
1.0
 37
0.0
 76
     0
330
50
331
6B
  0
LAYOUT
  5
56
102
{ACAD_REACTORS
330
1A
102
}
330
1A
100
AcDbPlotSettings
  1

  2
none_device
  4
Letter_(8.50_x_11.00_Inches)
  6

 40
6.349999904632568
 41
6.349999904632568
 42
6.350006103515625
 43
6.350006103515625
 44
215.8999938964843
 45
279.3999938964843
 46
0.0
 47
0.0
 48
0.0
 49
0.0
140
0.0
141
0.0
142
1.0
143
1.0
 70
   688
 72
     1
 73
     1
 74
     5
  7

 75
    16
147
1.0
148
0.0
149
0.0
100
AcDbLayout
  1
ﾚｲｱｳﾄ2
 70
     1
 71
     2
 10
-6.350006103515625
 20
-6.349999904632568
 11
273.0499877929687
 21
209.5499939918517
 12
0.0
 22
0.0
 32
0.0
 14
26.66076962115562
 24
20.31135699206657
 34
-0.0015258207003583
 15
240.039213369355
 25
182.8886381005154
 35
0.0000000349246037
146
0.0
 13
0.0
 23
0.0
 33
0.0
 16
1.0
 26
0.0
 36
0.0
 17
0.0
 27
1.0
 37
0.0
 76
     0
330
55
331
71
  0
MLINESTYLE
  5
18
102
{ACAD_REACTORS
330
17
102
}
330
17
100
AcDbMlineStyle
  2
STANDARD
 70
     0
  3

 62
   256
 51
90.0
 52
90.0
 71
     2
 49
0.5
 62
   256
  6
BYLAYER
 49
-0.5
 62
   256
  6
BYLAYER
  0
ACDBPLACEHOLDER
  5
F
102
{ACAD_REACTORS
330
E
102
}
330
E
  0
DICTIONARYVAR
  5
5F
102
{ACAD_REACTORS
330
5E
102
}
330
5E
100
DictionaryVariables
280
     0
  1
2
  0
DICTIONARYVAR
  5
63
102
{ACAD_REACTORS
330
5E
102
}
330
5E
100
DictionaryVariables
280
     0
  1
1
  0
ENDSEC
  0
EOF
