  0
SECTION
  2
HEADER
  9
$ACADVER
  1
AC1015
  9
$ACADMAINTVER
 70
    14
  9
$DWGCODEPAGE
  3
ANSI_932
  9
$INSBASE
 10
0.0
 20
0.0
 30
0.0
  9
$EXTMIN
 10
32.7798358502273
 20
72.08485828808671
 30
-0.0000000000112498
  9
$EXTMAX
 10
1735.318755787126
 20
873.5090403857084
 30
0.0000000000002956
  9
$LIMMIN
 10
0.0
 20
0.0
  9
$LIMMAX
 10
420.0
 20
297.0
  9
$ORTHOMODE
 70
     0
  9
$REGENMODE
 70
     1
  9
$FILLMODE
 70
     1
  9
$QTEXTMODE
 70
     0
  9
$MIRRTEXT
 70
     1
  9
$LTSCALE
 40
1.0
  9
$ATTMODE
 70
     1
  9
$TEXTSIZE
 40
2.5
  9
$TRACEWID
 40
1.0
  9
$TEXTSTYLE
  7
Standard
  9
$CLAYER
  8
0
  9
$CELTYPE
  6
ByLayer
  9
$CECOLOR
 62
   256
  9
$CELTSCALE
 40
1.0
  9
$DISPSILH
 70
     0
  9
$DIMSCALE
 40
1.0
  9
$DIMASZ
 40
2.5
  9
$DIMEXO
 40
0.625
  9
$DIMDLI
 40
3.75
  9
$DIMRND
 40
0.0
  9
$DIMDLE
 40
0.0
  9
$DIMEXE
 40
1.25
  9
$DIMTP
 40
0.0
  9
$DIMTM
 40
0.0
  9
$DIMTXT
 40
2.5
  9
$DIMCEN
 40
2.5
  9
$DIMTSZ
 40
0.0
  9
$DIMTOL
 70
     0
  9
$DIMLIM
 70
     0
  9
$DIMTIH
 70
     0
  9
$DIMTOH
 70
     0
  9
$DIMSE1
 70
     0
  9
$DIMSE2
 70
     0
  9
$DIMTAD
 70
     1
  9
$DIMZIN
 70
     8
  9
$DIMBLK
  1

  9
$DIMASO
 70
     1
  9
$DIMSHO
 70
     1
  9
$DIMPOST
  1

  9
$DIMAPOST
  1

  9
$DIMALT
 70
     0
  9
$DIMALTD
 70
     3
  9
$DIMALTF
 40
0.03937007874016
  9
$DIMLFAC
 40
1.0
  9
$DIMTOFL
 70
     1
  9
$DIMTVP
 40
0.0
  9
$DIMTIX
 70
     0
  9
$DIMSOXD
 70
     0
  9
$DIMSAH
 70
     0
  9
$DIMBLK1
  1

  9
$DIMBLK2
  1

  9
$DIMSTYLE
  2
ISO-25
  9
$DIMCLRD
 70
     0
  9
$DIMCLRE
 70
     0
  9
$DIMCLRT
 70
     0
  9
$DIMTFAC
 40
1.0
  9
$DIMGAP
 40
0.625
  9
$DIMJUST
 70
     0
  9
$DIMSD1
 70
     0
  9
$DIMSD2
 70
     0
  9
$DIMTOLJ
 70
     0
  9
$DIMTZIN
 70
     8
  9
$DIMALTZ
 70
     0
  9
$DIMALTTZ
 70
     0
  9
$DIMUPT
 70
     0
  9
$DIMDEC
 70
     2
  9
$DIMTDEC
 70
     2
  9
$DIMALTU
 70
     2
  9
$DIMALTTD
 70
     3
  9
$DIMTXSTY
  7
Standard
  9
$DIMAUNIT
 70
     0
  9
$DIMADEC
 70
     0
  9
$DIMALTRND
 40
0.0
  9
$DIMAZIN
 70
     0
  9
$DIMDSEP
 70
    44
  9
$DIMATFIT
 70
     3
  9
$DIMFRAC
 70
     0
  9
$DIMLDRBLK
  1

  9
$DIMLUNIT
 70
     2
  9
$DIMLWD
 70
    -2
  9
$DIMLWE
 70
    -2
  9
$DIMTMOVE
 70
     0
  9
$LUNITS
 70
     2
  9
$LUPREC
 70
     4
  9
$SKETCHINC
 40
1.0
  9
$FILLETRAD
 40
10.0
  9
$AUNITS
 70
     0
  9
$AUPREC
 70
     0
  9
$MENU
  1
.
  9
$ELEVATION
 40
0.0
  9
$PELEVATION
 40
0.0
  9
$THICKNESS
 40
0.0
  9
$LIMCHECK
 70
     0
  9
$CHAMFERA
 40
10.0
  9
$CHAMFERB
 40
10.0
  9
$CHAMFERC
 40
20.0
  9
$CHAMFERD
 40
0.0
  9
$SKPOLY
 70
     0
  9
$TDCREATE
 40
2454278.666386898
  9
$TDUCREATE
 40
2454278.291386898
  9
$TDUPDATE
 40
2456899.672569329
  9
$TDUUPDATE
 40
2456899.297569329
  9
$TDINDWG
 40
0.0028744560
  9
$TDUSRTIMER
 40
0.0028744560
  9
$USRTIMER
 70
     1
  9
$ANGBASE
 50
0.0
  9
$ANGDIR
 70
     0
  9
$PDMODE
 70
     0
  9
$PDSIZE
 40
0.0
  9
$PLINEWID
 40
0.0
  9
$SPLFRAME
 70
     0
  9
$SPLINETYPE
 70
     6
  9
$SPLINESEGS
 70
     8
  9
$HANDSEED
  5
798
  9
$SURFTAB1
 70
     6
  9
$SURFTAB2
 70
     6
  9
$SURFTYPE
 70
     6
  9
$SURFU
 70
     6
  9
$SURFV
 70
     6
  9
$UCSBASE
  2

  9
$UCSNAME
  2

  9
$UCSORG
 10
0.0
 20
0.0
 30
0.0
  9
$UCSXDIR
 10
1.0
 20
0.0
 30
0.0
  9
$UCSYDIR
 10
0.0
 20
1.0
 30
0.0
  9
$UCSORTHOREF
  2

  9
$UCSORTHOVIEW
 70
     0
  9
$UCSORGTOP
 10
0.0
 20
0.0
 30
0.0
  9
$UCSORGBOTTOM
 10
0.0
 20
0.0
 30
0.0
  9
$UCSORGLEFT
 10
0.0
 20
0.0
 30
0.0
  9
$UCSORGRIGHT
 10
0.0
 20
0.0
 30
0.0
  9
$UCSORGFRONT
 10
0.0
 20
0.0
 30
0.0
  9
$UCSORGBACK
 10
0.0
 20
0.0
 30
0.0
  9
$PUCSBASE
  2

  9
$PUCSNAME
  2

  9
$PUCSORG
 10
0.0
 20
0.0
 30
0.0
  9
$PUCSXDIR
 10
1.0
 20
0.0
 30
0.0
  9
$PUCSYDIR
 10
0.0
 20
1.0
 30
0.0
  9
$PUCSORTHOREF
  2

  9
$PUCSORTHOVIEW
 70
     0
  9
$PUCSORGTOP
 10
0.0
 20
0.0
 30
0.0
  9
$PUCSORGBOTTOM
 10
0.0
 20
0.0
 30
0.0
  9
$PUCSORGLEFT
 10
0.0
 20
0.0
 30
0.0
  9
$PUCSORGRIGHT
 10
0.0
 20
0.0
 30
0.0
  9
$PUCSORGFRONT
 10
0.0
 20
0.0
 30
0.0
  9
$PUCSORGBACK
 10
0.0
 20
0.0
 30
0.0
  9
$USERI1
 70
     0
  9
$USERI2
 70
     0
  9
$USERI3
 70
     0
  9
$USERI4
 70
     0
  9
$USERI5
 70
     0
  9
$USERR1
 40
0.0
  9
$USERR2
 40
0.0
  9
$USERR3
 40
0.0
  9
$USERR4
 40
0.0
  9
$USERR5
 40
0.0
  9
$WORLDVIEW
 70
     1
  9
$SHADEDGE
 70
     3
  9
$SHADEDIF
 70
    70
  9
$TILEMODE
 70
     1
  9
$MAXACTVP
 70
    48
  9
$PINSBASE
 10
0.0
 20
0.0
 30
0.0
  9
$PLIMCHECK
 70
     0
  9
$PEXTMIN
 10
26.66076962115562
 20
20.31135699206657
 30
-0.0015258207003583
  9
$PEXTMAX
 10
240.039213369355
 20
182.8886381005154
 30
0.0000000349246037
  9
$PLIMMIN
 10
-6.350006103515625
 20
-6.349999904632568
  9
$PLIMMAX
 10
273.0499877929687
 20
209.5499939918517
  9
$UNITMODE
 70
     0
  9
$VISRETAIN
 70
     1
  9
$PLINEGEN
 70
     0
  9
$PSLTSCALE
 70
     1
  9
$TREEDEPTH
 70
  3020
  9
$CMLSTYLE
  2
Standard
  9
$CMLJUST
 70
     0
  9
$CMLSCALE
 40
20.0
  9
$PROXYGRAPHICS
 70
     1
  9
$MEASUREMENT
 70
     1
  9
$CELWEIGHT
370
    -1
  9
$ENDCAPS
280
     0
  9
$JOINSTYLE
280
     0
  9
$LWDISPLAY
290
     0
  9
$INSUNITS
 70
     4
  9
$HYPERLINKBASE
  1

  9
$STYLESHEET
  1

  9
$XEDIT
290
     1
  9
$CEPSNTYPE
380
     0
  9
$PSTYLEMODE
290
     1
  9
$FINGERPRINTGUID
  2
{FDEAD578-A652-11D2-9A35-0060089B3A3F}
  9
$VERSIONGUID
  2
{7E6F0954-A93F-409B-8273-12D3FAF17A02}
  9
$EXTNAMES
290
     1
  9
$PSVPSCALE
 40
0.0
  9
$OLESTARTUP
290
     0
  0
ENDSEC
  0
SECTION
  2
CLASSES
  0
CLASS
  1
ACDBDICTIONARYWDFLT
  2
AcDbDictionaryWithDefault
  3
AutoCAD 2000
 90
        0
280
     0
281
     0
  0
CLASS
  1
ACDBPLACEHOLDER
  2
AcDbPlaceHolder
  3
AutoCAD 2000
 90
        0
280
     0
281
     0
  0
CLASS
  1
LAYOUT
  2
AcDbLayout
  3
AutoCAD 2000
 90
        0
280
     0
281
     0
  0
CLASS
  1
DICTIONARYVAR
  2
AcDbDictionaryVar
  3
AutoCAD 2000
 90
        0
280
     0
281
     0
  0
CLASS
  1
LONG_TRANSACTION
  2
AcDbLongTransaction
  3
AutoCAD 2000
 90
    32768
280
     0
281
     0
  0
CLASS
  1
LWPOLYLINE
  2
AcDbPolyline
  3
AutoCAD 2000
 90
    32768
280
     0
281
     1
  0
CLASS
  1
HATCH
  2
AcDbHatch
  3
AutoCAD 2000
 90
    32768
280
     0
281
     1
  0
CLASS
  1
XRECORD
  2
AcDbXrecord
  3
AutoCAD 2000
 90
    32768
280
     0
281
     0
  0
ENDSEC
  0
SECTION
  2
TABLES
  0
TABLE
  2
VPORT
  5
8
330
0
100
AcDbSymbolTable
 70
     2
  0
VPORT
  5
797
330
8
100
AcDbSymbolTableRecord
100
AcDbViewportTableRecord
  2
*Active
 70
     0
 10
0.0
 20
0.0
 11
1.0
 21
1.0
 12
884.0492958186766
 22
472.7969493368975
 13
0.0
 23
0.0
 14
10.0
 24
10.0
 15
10.0
 25
10.0
 16
0.0
 26
0.0
 36
1.0
 17
0.0
 27
0.0
 37
0.0
 40
1073.590090553284
 41
1.592161016949152
 42
50.0
 43
0.0
 44
0.0
 50
0.0
 51
0.0
 71
     0
 72
   100
 73
     1
 74
     3
 75
     0
 76
     0
 77
     0
 78
     0
281
     0
 65
     1
110
0.0
120
0.0
130
0.0
111
1.0
121
0.0
131
0.0
112
0.0
122
1.0
132
0.0
 79
     0
146
0.0
  0
ENDTAB
  0
TABLE
  2
LTYPE
  5
5
330
0
100
AcDbSymbolTable
 70
     3
  0
LTYPE
  5
14
330
5
100
AcDbSymbolTableRecord
100
AcDbLinetypeTableRecord
  2
ByBlock
 70
     0
  3

 72
    65
 73
     0
 40
0.0
  0
LTYPE
  5
15
330
5
100
AcDbSymbolTableRecord
100
AcDbLinetypeTableRecord
  2
ByLayer
 70
     0
  3

 72
    65
 73
     0
 40
0.0
  0
LTYPE
  5
16
330
5
100
AcDbSymbolTableRecord
100
AcDbLinetypeTableRecord
  2
Continuous
 70
     0
  3
Solid line
 72
    65
 73
     0
 40
0.0
  0
LTYPE
  5
86
330
5
100
AcDbSymbolTableRecord
100
AcDbLinetypeTableRecord
  2
HIDDEN
 70
     0
  3
Hidden __ __ __ __ __ __ __ __ __ __ __ __ __ _
 72
    65
 73
     2
 40
0.375
 49
0.25
 74
     0
 49
-0.125
 74
     0
  0
LTYPE
  5
3B6
330
5
100
AcDbSymbolTableRecord
100
AcDbLinetypeTableRecord
  2
CENTER
 70
     0
  3
Center ____ _ ____ _ ____ _ ____ _ ____ _ ____
 72
    65
 73
     4
 40
50.8
 49
31.75
 74
     0
 49
-6.349999999999999
 74
     0
 49
6.349999999999999
 74
     0
 49
-6.349999999999999
 74
     0
  0
ENDTAB
  0
TABLE
  2
LAYER
  5
2
102
{ACAD_XDICTIONARY
360
3B7
102
}
330
0
100
AcDbSymbolTable
 70
     1
  0
LAYER
  5
10
330
2
100
AcDbSymbolTableRecord
100
AcDbLayerTableRecord
  2
0
 70
     0
 62
     7
  6
Continuous
370
    -3
390
F
  0
ENDTAB
  0
TABLE
  2
STYLE
  5
3
330
0
100
AcDbSymbolTable
 70
     1
  0
STYLE
  5
11
330
3
100
AcDbSymbolTableRecord
100
AcDbTextStyleTableRecord
  2
Standard
 70
     0
 40
0.0
 41
1.0
 50
0.0
 71
     0
 42
2.5
  3
txt
  4

  0
ENDTAB
  0
TABLE
  2
VIEW
  5
6
330
0
100
AcDbSymbolTable
 70
     0
  0
ENDTAB
  0
TABLE
  2
UCS
  5
7
330
0
100
AcDbSymbolTable
 70
     0
  0
ENDTAB
  0
TABLE
  2
APPID
  5
9
330
0
100
AcDbSymbolTable
 70
     1
  0
APPID
  5
12
330
9
100
AcDbSymbolTableRecord
100
AcDbRegAppTableRecord
  2
ACAD
 70
     0
  0
ENDTAB
  0
TABLE
  2
DIMSTYLE
  5
A
330
0
100
AcDbSymbolTable
 70
     1
100
AcDbDimStyleTable
 71
     0
  0
DIMSTYLE
105
27
330
A
100
AcDbSymbolTableRecord
100
AcDbDimStyleTableRecord
  2
ISO-25
 70
     0
 41
2.5
 42
0.625
 43
3.75
 44
1.25
 73
     0
 74
     0
 77
     1
 78
     8
140
2.5
141
2.5
143
0.03937007874016
147
0.625
171
     3
172
     1
271
     2
272
     2
274
     3
278
    44
283
     0
284
     8
340
11
  0
ENDTAB
  0
TABLE
  2
BLOCK_RECORD
  5
1
330
0
100
AcDbSymbolTable
 70
     1
  0
BLOCK_RECORD
  5
1F
102
{ACAD_XDICTIONARY
360
36F
102
}
330
1
100
AcDbSymbolTableRecord
100
AcDbBlockTableRecord
  2
*Model_Space
340
22
  0
BLOCK_RECORD
  5
55
102
{ACAD_XDICTIONARY
360
371
102
}
330
1
100
AcDbSymbolTableRecord
100
AcDbBlockTableRecord
  2
*Paper_Space
340
56
  0
BLOCK_RECORD
  5
50
102
{ACAD_XDICTIONARY
360
373
102
}
330
1
100
AcDbSymbolTableRecord
100
AcDbBlockTableRecord
  2
*Paper_Space0
340
51
  0
ENDTAB
  0
ENDSEC
  0
SECTION
  2
BLOCKS
  0
BLOCK
  5
20
330
1F
100
AcDbEntity
  8
0
100
AcDbBlockBegin
  2
*Model_Space
 70
     0
 10
0.0
 20
0.0
 30
0.0
  3
*Model_Space
  1

  0
ENDBLK
  5
21
330
1F
100
AcDbEntity
  8
0
100
AcDbBlockEnd
  0
BLOCK
  5
57
330
55
100
AcDbEntity
 67
     1
  8
0
100
AcDbBlockBegin
  2
*Paper_Space
 70
     0
 10
0.0
 20
0.0
 30
0.0
  3
*Paper_Space
  1

  0
ENDBLK
  5
58
330
55
100
AcDbEntity
 67
     1
  8
0
100
AcDbBlockEnd
  0
BLOCK
  5
52
330
50
100
AcDbEntity
  8
0
100
AcDbBlockBegin
  2
*Paper_Space0
 70
     0
 10
0.0
 20
0.0
 30
0.0
  3
*Paper_Space0
  1

  0
VIEWPORT
  5
6B
330
50
100
AcDbEntity
  8
0
100
AcDbViewport
 10
133.3499908447265
 20
101.5999970436096
 30
0.0
 40
381.3957395593834
 41
218.2856291881582
 69
     0
 12
133.3499908447265
 22
101.5999970436096
 13
0.0
 23
0.0
 14
10.0
 24
10.0
 15
10.0
 25
10.0
 16
0.0
 26
0.0
 36
1.0
 17
0.0
 27
0.0
 37
0.0
 42
50.0
 43
0.0
 44
0.0
 45
218.2856291881582
 50
0.0
 51
0.0
 72
   100
 90
    32800
  1

281
     0
 71
     1
 74
     0
110
0.0
120
0.0
130
0.0
111
1.0
121
0.0
131
0.0
112
0.0
122
1.0
132
0.0
 79
     0
146
0.0
  0
VIEWPORT
  5
6D
330
50
100
AcDbEntity
  8
0
100
AcDbViewport
 10
133.349993944168
 20
101.599993944168
 30
0.0
 40
213.3599903106689
 41
162.5599903106689
 69
     0
 12
210.0
 22
148.5
 13
0.0
 23
0.0
 14
10.0
 24
10.0
 15
10.0
 25
10.0
 16
0.0
 26
0.0
 36
1.0
 17
0.0
 27
0.0
 37
0.0
 42
50.0
 43
0.0
 44
0.0
 45
324.0677920111345
 50
0.0
 51
0.0
 72
   100
 90
    32864
  1

281
     0
 71
     1
 74
     0
110
0.0
120
0.0
130
0.0
111
1.0
121
0.0
131
0.0
112
0.0
122
1.0
132
0.0
 79
     0
146
0.0
  0
ENDBLK
  5
53
330
50
100
AcDbEntity
  8
0
100
AcDbBlockEnd
  0
ENDSEC
  0
SECTION
  2
ENTITIES
  0
LINE
  5
1FB
330
1F
100
AcDbEntity
  8
0
100
AcDbLine
 10
494.4302452816566
 20
92.42772200109195
 30
0.0
 11
517.8136049158731
 21
92.42772200109195
 31
0.0
  0
LINE
  5
1FC
330
1F
100
AcDbEntity
  8
0
100
AcDbLine
 10
494.4301825360934
 20
130.5276823282403
 30
0.0
 11
517.8236146814988
 21
130.5276823282403
 31
0.0
  0
CIRCLE
  5
1FD
330
1F
100
AcDbEntity
  8
0
  6
Continuous
100
AcDbCircle
 10
277.4285109543998
 20
111.4777021646661
 30
0.0
 40
25.25
  0
LINE
  5
1FE
330
1F
100
AcDbEntity
  8
0
100
AcDbLine
 10
492.1736253054039
 20
86.2277097940607
 30
0.0
 11
494.4302452816566
 21
92.42772200109195
 31
0.0
  0
LINE
  5
1FF
330
1F
100
AcDbEntity
  8
0
100
AcDbLine
 10
489.3236146814984
 20
136.7276945352714
 30
0.0
 11
489.3236146814984
 21
86.2277097940607
 31
0.0
  0
LINE
  5
200
330
1F
100
AcDbEntity
  8
0
100
AcDbLine
 10
489.3236146814984
 20
86.2277097940607
 30
0.0
 11
492.1736253054039
 21
86.2277097940607
 31
0.0
  0
LINE
  5
201
330
1F
100
AcDbEntity
  8
0
  6
Continuous
100
AcDbLine
 10
252.1785109544009
 20
491.730885320738
 30
0.0
 11
302.6785109544011
 21
491.730885320738
 31
0.0
  0
CIRCLE
  5
202
330
1F
100
AcDbEntity
  8
0
  6
Continuous
100
AcDbCircle
 10
277.4285109543998
 20
111.4777021646661
 30
0.0
 40
17.85003662109351
  0
LINE
  5
203
330
1F
100
AcDbEntity
  8
0
  6
Continuous
100
AcDbLine
 10
328.428510954401
 20
142.8277311563654
 30
0.0
 11
226.4284499192448
 21
142.8277311563648
 31
0.0
  0
LINE
  5
204
330
1F
100
AcDbEntity
  8
0
  6
Continuous
100
AcDbLine
 10
241.7972112200402
 20
127.8277311563644
 30
0.0
 11
252.1832593337732
 21
111.9690145758309
 31
0.0
  0
LINE
  5
205
330
1F
100
AcDbEntity
  8
0
  6
Continuous
100
AcDbLine
 10
226.4285109544009
 20
127.8277311563637
 30
0.0
 11
258.1869140359882
 21
127.8277311563644
 31
0.0
  0
LINE
  5
206
330
1F
100
AcDbEntity
  8
0
  6
Continuous
100
AcDbLine
 10
226.4285109544009
 20
153.8277012904182
 30
0.0
 11
226.4285109544009
 21
127.8277311563637
 31
0.0
  0
LINE
  5
207
330
1F
100
AcDbEntity
  8
0
  6
Continuous
100
AcDbLine
 10
249.806043913385
 20
153.8277117082895
 30
0.0
 11
249.8060439133853
 21
127.827792191521
 31
0.0
  0
LINE
  5
208
330
1F
100
AcDbEntity
  8
0
  6
Continuous
100
AcDbLine
 10
258.3785231614326
 20
496.837486983048
 30
0.0
 11
258.3785231614326
 21
505.4331104897352
 31
0.0
  0
LINE
  5
209
330
1F
100
AcDbEntity
  8
0
  6
HIDDEN
 48
10.0
100
AcDbLine
 10
258.3785231614326
 20
505.4331104897352
 30
0.0
 11
258.3785231614325
 21
520.230885320738
 31
0.0
  0
LINE
  5
20A
330
1F
100
AcDbEntity
  8
0
  6
Continuous
100
AcDbLine
 10
252.1785109544009
 20
491.730885320738
 30
0.0
 11
252.1785109544009
 21
494.5808670067959
 31
0.0
  0
LINE
  5
20B
330
1F
100
AcDbEntity
  8
0
  6
Continuous
100
AcDbLine
 10
252.1785109544009
 20
494.5808670067959
 30
0.0
 11
258.3785231614326
 21
496.837486983048
 31
0.0
  0
LINE
  5
20C
330
1F
100
AcDbEntity
  8
0
  6
Continuous
100
AcDbLine
 10
296.6701078728107
 20
127.8277311563644
 30
0.0
 11
328.4284499192448
 21
127.8277311563654
 31
0.0
  0
LINE
  5
20D
330
1F
100
AcDbEntity
  8
0
  6
Continuous
100
AcDbLine
 10
313.0597221666011
 20
127.8277311563652
 30
0.0
 11
302.6737167181276
 21
111.9690767004607
 31
0.0
  0
LINE
  5
20E
330
1F
100
AcDbEntity
  8
0
  6
Continuous
100
AcDbLine
 10
305.050977995416
 20
153.8277024828395
 30
0.0
 11
305.0509779954169
 21
127.8277921915214
 31
0.0
  0
LINE
  5
20F
330
1F
100
AcDbEntity
  8
0
  6
Continuous
100
AcDbLine
 10
328.428510954401
 20
153.8277011998016
 30
0.0
 11
328.4285109544008
 21
127.827792191522
 31
0.0
  0
LINE
  5
210
330
1F
100
AcDbEntity
  8
0
100
AcDbLine
 10
489.3236146814984
 20
136.7276945352714
 30
0.0
 11
492.1735625598419
 21
136.7276945352714
 31
0.0
  0
LINE
  5
211
330
1F
100
AcDbEntity
  8
0
100
AcDbLine
 10
492.1735625598419
 20
136.7276945352714
 30
0.0
 11
494.4301825360934
 21
130.5276823282403
 31
0.0
  0
LINE
  5
212
330
1F
100
AcDbEntity
  8
0
  6
Continuous
100
AcDbLine
 10
296.47849874737
 20
496.8375090355658
 30
0.0
 11
296.47849874737
 21
505.433110489736
 31
0.0
  0
LINE
  5
213
330
1F
100
AcDbEntity
  8
0
  6
HIDDEN
 48
10.0
100
AcDbLine
 10
296.47849874737
 20
505.433110489736
 30
0.0
 11
296.47849874737
 21
520.2308853207378
 31
0.0
  0
LINE
  5
214
330
1F
100
AcDbEntity
  8
0
  6
Continuous
100
AcDbLine
 10
302.6785109544011
 20
491.730885320738
 30
0.0
 11
302.6785109544011
 21
494.580889059314
 31
0.0
  0
LINE
  5
215
330
1F
100
AcDbEntity
  8
0
  6
Continuous
100
AcDbLine
 10
302.6785109544011
 20
494.580889059314
 30
0.0
 11
296.47849874737
 21
496.8375090355658
 31
0.0
  0
LINE
  5
216
330
1F
100
AcDbEntity
  8
0
100
AcDbLine
 10
645.4735645113751
 20
86.2277097940607
 30
0.0
 11
643.2169445351226
 21
92.4277220010914
 31
0.0
  0
LINE
  5
217
330
1F
100
AcDbEntity
  8
0
100
AcDbLine
 10
648.3236146814983
 20
136.7276945352714
 30
0.0
 11
648.3236146814983
 21
86.2277097940607
 31
0.0
  0
LINE
  5
218
330
1F
100
AcDbEntity
  8
0
100
AcDbLine
 10
648.3236146814983
 20
86.2277097940607
 30
0.0
 11
645.4735645113751
 21
86.2277097940607
 31
0.0
  0
ARC
  5
219
330
1F
100
AcDbEntity
  8
0
100
AcDbCircle
 10
568.9553895838423
 20
99.52769758702885
 30
0.0
 40
12.0
100
AcDbArc
 50
30.0000033393057
 51
90.00000500895042
  0
LINE
  5
21A
330
1F
100
AcDbEntity
  8
0
100
AcDbLine
 10
579.3476705116652
 20
105.5276926974492
 30
0.0
 11
585.6407919342689
 21
94.62768685093536
 31
0.0
  0
LINE
  5
21B
330
1F
100
AcDbEntity
  8
0
100
AcDbLine
 10
619.8236146814986
 20
127.8277006387871
 30
0.0
 11
517.8236146814981
 21
127.8277006387871
 31
0.0
  0
LINE
  5
21C
330
1F
100
AcDbEntity
  8
0
100
AcDbLine
 10
619.8236146814983
 20
142.8277006387871
 30
0.0
 11
517.8236146814988
 21
142.8277006387871
 31
0.0
  0
LINE
  5
21D
330
1F
100
AcDbEntity
  8
0
100
AcDbLine
 10
517.8136049158731
 20
90.62770369054518
 30
0.0
 11
545.0782228357952
 21
90.62770369054518
 31
0.0
  0
LINE
  5
21E
330
1F
100
AcDbEntity
  8
0
100
AcDbLine
 10
517.8236146814988
 20
153.8276821646659
 30
0.0
 11
517.8236146814981
 21
90.62770369054518
 31
0.0
  0
LINE
  5
21F
330
1F
100
AcDbEntity
  8
0
100
AcDbLine
 10
541.2011476404825
 20
153.8276821646659
 30
0.0
 11
541.2011476404825
 21
127.8277006387871
 31
0.0
  0
LINE
  5
220
330
1F
100
AcDbEntity
  8
0
100
AcDbLine
 10
568.6918702967327
 20
111.5276823282402
 30
0.0
 11
568.9553895838419
 21
111.5276823282402
 31
0.0
  0
ARC
  5
221
330
1F
100
AcDbEntity
  8
0
100
AcDbCircle
 10
568.6918702967327
 20
99.52769758702885
 30
0.0
 40
12.0
100
AcDbArc
 50
90.00000865142791
 51
149.9999966606941
  0
ARC
  5
222
330
1F
100
AcDbEntity
  8
0
100
AcDbCircle
 10
545.0782228357952
 20
98.62770369054446
 30
0.0
 40
8.0
100
AcDbArc
 50
269.9999974955178
 51
330.0000016696561
  0
LINE
  5
223
330
1F
100
AcDbEntity
  8
0
100
AcDbLine
 10
558.299582407819
 20
105.5277282155972
 30
0.0
 11
552.0064609852154
 21
94.62772236908355
 31
0.0
  0
LINE
  5
224
330
1F
100
AcDbEntity
  8
0
100
AcDbLine
 10
619.8236146814986
 20
90.62770369054518
 30
0.0
 11
592.5690065272013
 21
90.62770369054518
 31
0.0
  0
LINE
  5
225
330
1F
100
AcDbEntity
  8
0
100
AcDbLine
 10
596.4460817225138
 20
153.8276821646659
 30
0.0
 11
596.4460817225138
 21
127.8277006387871
 31
0.0
  0
ARC
  5
226
330
1F
100
AcDbEntity
  8
0
100
AcDbCircle
 10
592.5690065272014
 20
98.62770369054446
 30
0.0
 40
8.0
100
AcDbArc
 50
210.0000051605363
 51
269.9999974955178
  0
LINE
  5
227
330
1F
100
AcDbEntity
  8
0
100
AcDbLine
 10
648.3236146814983
 20
136.7276945352714
 30
0.0
 11
645.4735785427458
 21
136.727694535271
 31
0.0
  0
LINE
  5
228
330
1F
100
AcDbEntity
  8
0
100
AcDbLine
 10
645.4735785427458
 20
136.727694535271
 30
0.0
 11
643.2169585664926
 21
130.5276823282397
 31
0.0
  0
LINE
  5
229
330
1F
100
AcDbEntity
  8
0
100
AcDbLine
 10
619.8236146814983
 20
153.8276821646659
 30
0.0
 11
619.8236146814986
 21
90.62770369054518
 31
0.0
  0
LINE
  5
22A
330
1F
100
AcDbEntity
  8
0
100
AcDbLine
 10
643.2169585664926
 20
130.5276823282397
 30
0.0
 11
619.8236146814983
 21
130.5276823282403
 31
0.0
  0
LINE
  5
22B
330
1F
100
AcDbEntity
  8
0
100
AcDbLine
 10
643.2169445351226
 20
92.4277220010914
 30
0.0
 11
619.8236146814977
 21
92.42772200109195
 31
0.0
  0
LINE
  5
22C
330
1F
100
AcDbEntity
  8
0
  6
Continuous
100
AcDbLine
 10
252.1785109544009
 20
650.7308853207381
 30
0.0
 11
302.6785109544011
 21
650.7308853207381
 31
0.0
  0
LINE
  5
22D
330
1F
100
AcDbEntity
  8
0
  6
Continuous
100
AcDbLine
 10
252.1785109544009
 20
650.7308853207381
 30
0.0
 11
252.1785109544011
 21
647.8809128026568
 31
0.0
  0
LINE
  5
22E
330
1F
100
AcDbEntity
  8
0
  6
Continuous
100
AcDbLine
 10
252.1785109544011
 20
647.8809128026568
 30
0.0
 11
258.3785231614326
 21
645.624292826404
 31
0.0
  0
LINE
  5
22F
330
1F
100
AcDbEntity
  8
0
  6
Continuous
100
AcDbLine
 10
258.3785231614326
 20
645.624292826404
 30
0.0
 11
258.3785231614326
 21
637.0286601517411
 31
0.0
  0
LINE
  5
230
330
1F
100
AcDbEntity
  8
0
  6
HIDDEN
 48
10.0
100
AcDbLine
 10
258.3785231614326
 20
637.0286601517411
 30
0.0
 11
258.3785231614326
 21
622.2308853207381
 31
0.0
  0
LINE
  5
231
330
1F
100
AcDbEntity
  8
0
  6
Continuous
100
AcDbLine
 10
302.6785109544011
 20
650.7308853207381
 30
0.0
 11
302.6785109544011
 21
647.880906988204
 31
0.0
  0
LINE
  5
232
330
1F
100
AcDbEntity
  8
0
  6
Continuous
100
AcDbLine
 10
302.6785109544011
 20
647.880906988204
 30
0.0
 11
296.47849874737
 21
645.6242870119512
 31
0.0
  0
LINE
  5
233
330
1F
100
AcDbEntity
  8
0
  6
HIDDEN
 48
10.0
100
AcDbLine
 10
296.47849874737
 20
622.2308853207381
 30
0.0
 11
296.47849874737
 21
637.0286601517403
 31
0.0
  0
LINE
  5
234
330
1F
100
AcDbEntity
  8
0
  6
Continuous
100
AcDbLine
 10
296.47849874737
 20
637.0286601517403
 30
0.0
 11
296.47849874737
 21
645.6242870119512
 31
0.0
  0
TEXT
  5
235
330
1F
100
AcDbEntity
  8
0
100
AcDbText
 10
32.85499999999899
 20
825.4957054246359
 30
0.0
 40
48.000002
  1
DHC2S11AD000 1.5S
 41
1.32095
100
AcDbText
  0
LINE
  5
236
330
1F
100
AcDbEntity
  8
0
  6
HIDDEN
 48
10.0
100
AcDbLine
 10
249.8061039182262
 20
622.2308853207381
 30
0.0
 11
305.0509929182262
 21
622.2308853207381
 31
0.0
  0
LINE
  5
237
330
1F
100
AcDbEntity
  8
0
  6
HIDDEN
 48
10.0
100
AcDbLine
 10
249.8061039182262
 20
520.230885320738
 30
0.0
 11
305.0509929182262
 21
520.230885320738
 31
0.0
  0
LINE
  5
238
330
1F
100
AcDbEntity
  8
0
  6
HIDDEN
 48
10.0
100
AcDbLine
 10
328.4285544182262
 20
543.608459721242
 30
0.0
 11
328.4285544182262
 21
598.8533109202343
 31
0.0
  0
LINE
  5
239
330
1F
100
AcDbEntity
  8
0
  6
HIDDEN
 48
10.0
100
AcDbLine
 10
226.4285334182261
 20
543.6084320263618
 30
0.0
 11
226.4285334182261
 21
598.8533386151145
 31
0.0
  0
ARC
  5
23A
330
1F
100
AcDbEntity
  8
0
  6
HIDDEN
 48
10.0
100
AcDbCircle
 10
277.4285364182262
 20
571.2308853207381
 30
0.0
 40
58.000002
100
AcDbArc
 50
298.4407099999933
 51
331.5593160096172
  0
ARC
  5
23B
330
1F
100
AcDbEntity
  8
0
  6
HIDDEN
 48
10.0
100
AcDbCircle
 10
277.4285364182262
 20
571.2308853207381
 30
0.0
 40
58.000002
100
AcDbArc
 50
118.4407200000062
 51
151.5592848959029
  0
ARC
  5
23C
330
1F
100
AcDbEntity
  8
0
  6
HIDDEN
 48
10.0
100
AcDbCircle
 10
277.4285364182262
 20
571.2308853207381
 30
0.0
 40
58.000002
100
AcDbArc
 50
208.440715104097
 51
241.5592799999938
  0
ARC
  5
23D
330
1F
100
AcDbEntity
  8
0
  6
HIDDEN
 48
10.0
100
AcDbCircle
 10
277.4285364182262
 20
571.2308853207381
 30
0.0
 40
58.000002
100
AcDbArc
 50
28.44068399038273
 51
61.55928100000478
  0
CIRCLE
  5
23E
330
1F
100
AcDbEntity
  8
0
  6
Continuous
100
AcDbCircle
 10
277.4285364182262
 20
571.2308853207381
 30
0.0
 40
7.500036780200503
  0
CIRCLE
  5
23F
330
1F
100
AcDbEntity
  8
0
  6
Continuous
100
AcDbCircle
 10
277.4285109543998
 20
571.2308853207381
 30
0.0
 40
7.999999514751436
  0
CIRCLE
  5
240
330
1F
100
AcDbEntity
  8
0
  6
Continuous
100
AcDbCircle
 10
277.428510954401
 20
571.2308853207381
 30
0.0
 40
24.9999937135928
  0
LINE
  5
241
330
1F
100
AcDbEntity
  8
0
100
AcDbLine
 10
562.8236146814983
 20
293.327667164666
 30
0.0
 11
574.8236146814983
 21
293.327667164666
 31
0.0
  0
LINE
  5
242
330
1F
100
AcDbEntity
  8
0
100
AcDbLine
 10
560.8236196814984
 20
268.327677164666
 30
0.0
 11
576.8236096814985
 21
268.327677164666
 31
0.0
  0
LINE
  5
243
330
1F
100
AcDbEntity
  8
0
100
AcDbLine
 10
560.8236196814984
 20
269.327667164666
 30
0.0
 11
576.8236096814985
 21
269.327667164666
 31
0.0
  0
LINE
  5
244
330
1F
100
AcDbEntity
  8
0
100
AcDbLine
 10
576.8236096814985
 20
269.327667164666
 30
0.0
 11
576.8236096814985
 21
268.327677164666
 31
0.0
  0
LINE
  5
245
330
1F
100
AcDbEntity
  8
0
100
AcDbLine
 10
560.8236196814984
 20
269.327667164666
 30
0.0
 11
560.8236196814984
 21
268.327677164666
 31
0.0
  0
LINE
  5
246
330
1F
100
AcDbEntity
  8
0
100
AcDbLine
 10
560.8236196814984
 20
269.327667164666
 30
0.0
 11
561.3236146814983
 21
271.193697164666
 31
0.0
  0
LINE
  5
247
330
1F
100
AcDbEntity
  8
0
100
AcDbLine
 10
576.3235846814985
 20
271.193697164666
 30
0.0
 11
576.8236096814985
 21
269.327667164666
 31
0.0
  0
LINE
  5
248
330
1F
100
AcDbEntity
  8
0
100
AcDbLine
 10
561.3236146814983
 20
291.827667164666
 30
0.0
 11
561.3236146814983
 21
271.193697164666
 31
0.0
  0
LINE
  5
249
330
1F
100
AcDbEntity
  8
0
100
AcDbLine
 10
576.3236146814984
 20
291.827667164666
 30
0.0
 11
576.3236146814984
 21
271.193697164666
 31
0.0
  0
LINE
  5
24A
330
1F
100
AcDbEntity
  8
0
100
AcDbLine
 10
562.8236146814983
 20
293.327667164666
 30
0.0
 11
561.3236146814983
 21
291.827667164666
 31
0.0
  0
LINE
  5
24B
330
1F
100
AcDbEntity
  8
0
100
AcDbLine
 10
574.8236146814983
 20
293.327667164666
 30
0.0
 11
576.3236146814984
 21
291.827667164666
 31
0.0
  0
LINE
  5
24C
330
1F
100
AcDbEntity
  8
0
100
AcDbLine
 10
561.3236146814983
 20
271.193697164666
 30
0.0
 11
576.3236146814984
 21
271.193697164666
 31
0.0
  0
LINE
  5
24D
330
1F
100
AcDbEntity
  8
0
100
AcDbLine
 10
561.3236146814983
 20
291.827667164666
 30
0.0
 11
576.3236146814984
 21
291.827667164666
 31
0.0
  0
LINE
  5
24E
330
1F
100
AcDbEntity
  8
0
100
AcDbLine
 10
609.6009496814984
 20
198.4552471646659
 30
0.0
 11
606.4537996814983
 21
195.928662164666
 31
0.0
  0
LINE
  5
24F
330
1F
100
AcDbEntity
  8
0
100
AcDbLine
 10
591.9846646814983
 20
199.2286921646659
 30
0.0
 11
601.3617496814983
 21
195.228582164666
 31
0.0
  0
LINE
  5
250
330
1F
100
AcDbEntity
  8
0
100
AcDbLine
 10
632.8499596814983
 20
203.963172164666
 30
0.0
 11
633.3236146814983
 21
176.827632164666
 31
0.0
  0
LINE
  5
251
330
1F
100
AcDbEntity
  8
0
100
AcDbLine
 10
635.3491996814985
 20
199.720317164666
 30
0.0
 11
641.3235796814985
 21
196.2710071646661
 31
0.0
  0
LINE
  5
252
330
1F
100
AcDbEntity
  8
0
100
AcDbLine
 10
577.8235846814984
 20
231.3276271646659
 30
0.0
 11
578.8232296814983
 21
194.3546671646661
 31
0.0
  0
LINE
  5
253
330
1F
100
AcDbEntity
  8
0
100
AcDbLine
 10
524.7086746814984
 20
196.134732164666
 30
0.0
 11
524.7086746814984
 21
167.827632164666
 31
0.0
  0
LINE
  5
254
330
1F
100
AcDbEntity
  8
0
100
AcDbLine
 10
625.3096396814985
 20
255.915822164666
 30
0.0
 11
627.6385396814985
 21
247.2242221646661
 31
0.0
  0
LINE
  5
255
330
1F
100
AcDbEntity
  8
0
100
AcDbLine
 10
643.8235696814984
 20
191.9408821646659
 30
0.0
 11
643.8235696814984
 21
177.2276221646659
 31
0.0
  0
LINE
  5
256
330
1F
100
AcDbEntity
  8
0
100
AcDbLine
 10
559.8236146814984
 20
231.3276271646659
 30
0.0
 11
558.8239696814985
 21
194.354652164666
 31
0.0
  0
LINE
  5
257
330
1F
100
AcDbEntity
  8
0
100
AcDbLine
 10
643.4213746814984
 20
176.827632164666
 30
0.0
 11
494.2214296814984
 21
176.827632164666
 31
0.0
  0
LINE
  5
258
330
1F
100
AcDbEntity
  8
0
100
AcDbLine
 10
592.8236146814984
 20
268.327632164666
 30
0.0
 11
544.8236146814983
 21
268.327632164666
 31
0.0
  0
LINE
  5
259
330
1F
100
AcDbEntity
  8
0
100
AcDbLine
 10
593.8236196814984
 20
263.327622164666
 30
0.0
 11
593.8236196814984
 21
267.327642164666
 31
0.0
  0
LINE
  5
25A
330
1F
100
AcDbEntity
  8
0
100
AcDbLine
 10
504.7972696814984
 20
203.9632021646659
 30
0.0
 11
504.3236146814983
 21
176.827632164666
 31
0.0
  0
LINE
  5
25B
330
1F
100
AcDbEntity
  8
0
100
AcDbLine
 10
512.3376196814984
 20
255.915822164666
 30
0.0
 11
510.0086896814985
 21
247.2241771646661
 31
0.0
  0
LINE
  5
25C
330
1F
100
AcDbEntity
  8
0
100
AcDbLine
 10
612.9385546814985
 20
196.134732164666
 30
0.0
 11
612.9385546814985
 21
167.827632164666
 31
0.0
  0
LINE
  5
25D
330
1F
100
AcDbEntity
  8
0
100
AcDbLine
 10
578.8236196814985
 20
194.3276371646659
 30
0.0
 11
578.8236196814985
 21
178.327632164666
 31
0.0
  0
LINE
  5
25E
330
1F
100
AcDbEntity
  8
0
100
AcDbLine
 10
493.8236146814984
 20
176.827632164666
 30
0.0
 11
493.8236146814984
 21
168.8276371646659
 31
0.0
  0
LINE
  5
25F
330
1F
100
AcDbEntity
  8
0
100
AcDbLine
 10
577.8236146814983
 20
177.3276271646659
 30
0.0
 11
559.8236146814984
 21
177.3276271646659
 31
0.0
  0
LINE
  5
260
330
1F
100
AcDbEntity
  8
0
100
AcDbLine
 10
545.6625346814985
 20
199.2286921646659
 30
0.0
 11
536.2854796814984
 21
195.228582164666
 31
0.0
  0
LINE
  5
261
330
1F
100
AcDbEntity
  8
0
100
AcDbLine
 10
528.0462946814984
 20
198.455277164666
 30
0.0
 11
531.1934746814984
 21
195.928662164666
 31
0.0
  0
LINE
  5
262
330
1F
100
AcDbEntity
  8
0
100
AcDbLine
 10
543.8236246814983
 20
263.327622164666
 30
0.0
 11
543.8236246814983
 21
267.327642164666
 31
0.0
  0
LINE
  5
263
330
1F
100
AcDbEntity
  8
0
100
AcDbLine
 10
558.8236096814985
 20
194.3276371646659
 30
0.0
 11
558.8236096814985
 21
178.327632164666
 31
0.0
  0
LINE
  5
264
330
1F
100
AcDbEntity
  8
0
100
AcDbLine
 10
632.7268096814984
 20
211.019217164666
 30
0.0
 11
632.8499596814983
 21
203.963172164666
 31
0.0
  0
LINE
  5
265
330
1F
100
AcDbEntity
  8
0
100
AcDbLine
 10
615.6503446814983
 20
263.327622164666
 30
0.0
 11
521.9968846814984
 21
263.327622164666
 31
0.0
  0
LINE
  5
266
330
1F
100
AcDbEntity
  8
0
100
AcDbLine
 10
545.1307546814985
 20
201.134742164666
 30
0.0
 11
529.7086696814983
 21
201.134742164666
 31
0.0
  0
LINE
  5
267
330
1F
100
AcDbEntity
  8
0
100
AcDbLine
 10
550.1307496814984
 20
196.134732164666
 30
0.0
 11
550.1307496814984
 21
167.827632164666
 31
0.0
  0
LINE
  5
268
330
1F
100
AcDbEntity
  8
0
100
AcDbLine
 10
592.5164746814984
 20
201.134742164666
 30
0.0
 11
607.9385596814984
 21
201.134742164666
 31
0.0
  0
LINE
  5
269
330
1F
100
AcDbEntity
  8
0
100
AcDbLine
 10
504.9204196814982
 20
211.019217164666
 30
0.0
 11
504.7972696814984
 21
203.9632021646659
 31
0.0
  0
LINE
  5
26A
330
1F
100
AcDbEntity
  8
0
100
AcDbLine
 10
493.8236596814983
 20
191.9408821646659
 30
0.0
 11
493.8236596814983
 21
177.2276221646659
 31
0.0
  0
LINE
  5
26B
330
1F
100
AcDbEntity
  8
0
100
AcDbLine
 10
587.5164796814986
 20
196.134732164666
 30
0.0
 11
587.5164796814986
 21
167.827632164666
 31
0.0
  0
LINE
  5
26C
330
1F
100
AcDbEntity
  8
0
100
AcDbLine
 10
577.8236146814983
 20
195.3276271646659
 30
0.0
 11
559.8236146814984
 21
195.3276271646659
 31
0.0
  0
LINE
  5
26D
330
1F
100
AcDbEntity
  8
0
100
AcDbLine
 10
502.2980296814985
 20
199.720302164666
 30
0.0
 11
496.3236496814984
 21
196.2710071646661
 31
0.0
  0
LINE
  5
26E
330
1F
100
AcDbEntity
  8
0
100
AcDbLine
 10
633.3236146814983
 20
176.827632164666
 30
0.0
 11
633.3236146814983
 21
168.8276371646659
 31
0.0
  0
LINE
  5
26F
330
1F
100
AcDbEntity
  8
0
100
AcDbLine
 10
619.8236146814983
 20
161.827632164666
 30
0.0
 11
619.8236146814983
 21
153.8276821646659
 31
0.0
  0
LINE
  5
270
330
1F
100
AcDbEntity
  8
0
100
AcDbLine
 10
628.0307296814985
 20
167.534727164666
 30
0.0
 11
625.6164796814985
 21
165.1205071646661
 31
0.0
  0
LINE
  5
271
330
1F
100
AcDbEntity
  8
0
100
AcDbLine
 10
509.6165296814984
 20
167.5347571646659
 30
0.0
 11
512.0307346814984
 21
165.120537164666
 31
0.0
  0
LINE
  5
272
330
1F
100
AcDbEntity
  8
0
100
AcDbLine
 10
568.8236146814984
 20
176.827632164666
 30
0.0
 11
504.3236146814983
 21
176.827632164666
 31
0.0
  0
LINE
  5
273
330
1F
100
AcDbEntity
  8
0
100
AcDbLine
 10
512.7378346814984
 20
164.827632164666
 30
0.0
 11
529.6473796814985
 21
164.827632164666
 31
0.0
  0
LINE
  5
274
330
1F
100
AcDbEntity
  8
0
100
AcDbLine
 10
609.8235196814985
 20
159.8276371646659
 30
0.0
 11
609.8235196814985
 21
155.8277071646659
 31
0.0
  0
LINE
  5
275
330
1F
100
AcDbEntity
  8
0
100
AcDbLine
 10
527.8237096814985
 20
159.8276371646659
 30
0.0
 11
527.8237096814985
 21
155.8277071646659
 31
0.0
  0
LINE
  5
276
330
1F
100
AcDbEntity
  8
0
100
AcDbLine
 10
517.8236146814984
 20
153.8276821646659
 30
0.0
 11
619.8236146814983
 21
153.8276821646659
 31
0.0
  0
LINE
  5
277
330
1F
100
AcDbEntity
  8
0
100
AcDbLine
 10
504.3236146814983
 20
176.827632164666
 30
0.0
 11
504.3236146814983
 21
168.8276371646659
 31
0.0
  0
LINE
  5
278
330
1F
100
AcDbEntity
  8
0
100
AcDbLine
 10
643.8236146814984
 20
176.827632164666
 30
0.0
 11
643.8236146814984
 21
168.8276371646659
 31
0.0
  0
LINE
  5
279
330
1F
100
AcDbEntity
  8
0
100
AcDbLine
 10
628.8236146814983
 20
176.827632164666
 30
0.0
 11
643.8236146814984
 21
176.827632164666
 31
0.0
  0
LINE
  5
27A
330
1F
100
AcDbEntity
  8
0
100
AcDbLine
 10
643.8236146814984
 20
167.827632164666
 30
0.0
 11
493.8236146814984
 21
167.827632164666
 31
0.0
  0
LINE
  5
27B
330
1F
100
AcDbEntity
  8
0
100
AcDbLine
 10
517.8236146814984
 20
161.827632164666
 30
0.0
 11
517.8236146814984
 21
153.8276821646659
 31
0.0
  0
LINE
  5
27C
330
1F
100
AcDbEntity
  8
0
100
AcDbLine
 10
505.8236146814984
 20
167.827632164666
 30
0.0
 11
505.8236146814984
 21
166.2276571646659
 31
0.0
  0
LINE
  5
27D
330
1F
100
AcDbEntity
  8
0
100
AcDbLine
 10
493.8236146814984
 20
167.827632164666
 30
0.0
 11
493.8236146814984
 21
166.2276571646659
 31
0.0
  0
LINE
  5
27E
330
1F
100
AcDbEntity
  8
0
100
AcDbLine
 10
505.8236146814984
 20
166.2276571646659
 30
0.0
 11
493.8236146814984
 21
166.2276571646659
 31
0.0
  0
LINE
  5
27F
330
1F
100
AcDbEntity
  8
0
100
AcDbLine
 10
502.6286146814984
 20
162.927612164666
 30
0.0
 11
497.0186146814983
 21
162.927612164666
 31
0.0
  0
LINE
  5
280
330
1F
100
AcDbEntity
  8
0
100
AcDbLine
 10
540.3236146814983
 20
167.827632164666
 30
0.0
 11
540.3236146814983
 21
166.2276571646659
 31
0.0
  0
LINE
  5
281
330
1F
100
AcDbEntity
  8
0
100
AcDbLine
 10
528.3236146814983
 20
167.827632164666
 30
0.0
 11
528.3236146814983
 21
166.2276571646659
 31
0.0
  0
LINE
  5
282
330
1F
100
AcDbEntity
  8
0
100
AcDbLine
 10
540.3236146814983
 20
166.2276571646659
 30
0.0
 11
528.3236146814983
 21
166.2276571646659
 31
0.0
  0
LINE
  5
283
330
1F
100
AcDbEntity
  8
0
100
AcDbLine
 10
537.1286146814984
 20
162.927612164666
 30
0.0
 11
531.5186146814983
 21
162.927612164666
 31
0.0
  0
LINE
  5
284
330
1F
100
AcDbEntity
  8
0
100
AcDbLine
 10
609.3236146814984
 20
167.827632164666
 30
0.0
 11
609.3236146814984
 21
166.2276571646659
 31
0.0
  0
LINE
  5
285
330
1F
100
AcDbEntity
  8
0
100
AcDbLine
 10
597.3236146814984
 20
167.827632164666
 30
0.0
 11
597.3236146814984
 21
166.2276571646659
 31
0.0
  0
LINE
  5
286
330
1F
100
AcDbEntity
  8
0
100
AcDbLine
 10
609.3236146814984
 20
166.2276571646659
 30
0.0
 11
597.3236146814984
 21
166.2276571646659
 31
0.0
  0
LINE
  5
287
330
1F
100
AcDbEntity
  8
0
100
AcDbLine
 10
606.1286146814985
 20
162.927612164666
 30
0.0
 11
600.5186146814985
 21
162.927612164666
 31
0.0
  0
LINE
  5
288
330
1F
100
AcDbEntity
  8
0
100
AcDbLine
 10
643.8236146814984
 20
167.827632164666
 30
0.0
 11
643.8236146814984
 21
166.2276571646659
 31
0.0
  0
LINE
  5
289
330
1F
100
AcDbEntity
  8
0
100
AcDbLine
 10
631.8236146814983
 20
167.827632164666
 30
0.0
 11
631.8236146814983
 21
166.2276571646659
 31
0.0
  0
LINE
  5
28A
330
1F
100
AcDbEntity
  8
0
100
AcDbLine
 10
643.8236146814984
 20
166.2276571646659
 30
0.0
 11
631.8236146814983
 21
166.2276571646659
 31
0.0
  0
LINE
  5
28B
330
1F
100
AcDbEntity
  8
0
100
AcDbLine
 10
640.6286146814984
 20
162.927612164666
 30
0.0
 11
635.0186146814985
 21
162.927612164666
 31
0.0
  0
LINE
  5
28C
330
1F
100
AcDbEntity
  8
0
100
AcDbLine
 10
607.9998496814985
 20
164.827632164666
 30
0.0
 11
624.9093946814984
 21
164.827632164666
 31
0.0
  0
LINE
  5
28D
330
1F
100
AcDbEntity
  8
0
100
AcDbLine
 10
538.9998796814984
 20
164.827632164666
 30
0.0
 11
598.6473496814985
 21
164.827632164666
 31
0.0
  0
ARC
  5
28E
330
1F
100
AcDbEntity
  8
0
100
AcDbCircle
 10
559.8236146814984
 20
194.3276371646659
 30
0.0
 40
1.000000035
100
AcDbArc
 50
90.0
 51
180.0
  0
ARC
  5
28F
330
1F
100
AcDbEntity
  8
0
100
AcDbCircle
 10
544.8236146814983
 20
267.327642164666
 30
0.0
 40
1.000000035
100
AcDbArc
 50
90.0
 51
180.0
  0
ARC
  5
290
330
1F
100
AcDbEntity
  8
0
100
AcDbCircle
 10
577.8236146814983
 20
194.3276371646659
 30
0.0
 40
1.000000035
100
AcDbArc
 50
0.0
 51
90.0
  0
CIRCLE
  5
291
330
1F
100
AcDbEntity
  8
0
100
AcDbCircle
 10
568.8236146814984
 20
231.3276271646659
 30
0.0
 40
4.999969499999998
  0
ARC
  5
292
330
1F
100
AcDbEntity
  8
0
100
AcDbCircle
 10
498.8236546814984
 20
191.9408821646659
 30
0.0
 40
5.000000249999999
100
AcDbArc
 50
120.000089999995
 51
180.0
  0
ARC
  5
293
330
1F
100
AcDbEntity
  8
0
100
AcDbCircle
 10
577.8236146814983
 20
178.327632164666
 30
0.0
 40
1.000000035
100
AcDbArc
 50
270.0
 51
0.0
  0
ARC
  5
294
330
1F
100
AcDbEntity
  8
0
100
AcDbCircle
 10
559.8236146814984
 20
178.327632164666
 30
0.0
 40
1.000000035
100
AcDbArc
 50
180.0
 51
270.0
  0
ARC
  5
295
330
1F
100
AcDbEntity
  8
0
100
AcDbCircle
 10
521.9968846814984
 20
253.327632164666
 30
0.0
 40
10.00000049999999
100
AcDbArc
 50
90.0
 51
164.9999600000001
  0
ARC
  5
296
330
1F
100
AcDbEntity
  8
0
100
AcDbCircle
 10
654.8975746814983
 20
208.401357164666
 30
0.0
 40
150.0
100
AcDbArc
 50
165.0000000000055
 51
178.9999999999982
  0
ARC
  5
297
330
1F
100
AcDbEntity
  8
0
100
AcDbCircle
 10
494.2236496814985
 20
177.2276221646659
 30
0.0
 40
0.4000000200000001
100
AcDbArc
 50
180.0
 51
270.0
  0
CIRCLE
  5
298
330
1F
100
AcDbEntity
  8
0
100
AcDbCircle
 10
568.8236146814984
 20
186.3276271646659
 30
0.0
 40
4.793668949999999
  0
CIRCLE
  5
299
330
1F
100
AcDbEntity
  8
0
100
AcDbCircle
 10
568.8236146814984
 20
186.3276271646659
 30
0.0
 40
0.60000006
  0
ARC
  5
29A
330
1F
100
AcDbEntity
  8
0
100
AcDbCircle
 10
494.8236196814985
 20
168.8276371646659
 30
0.0
 40
1.000000035
100
AcDbArc
 50
180.0
 51
270.0
  0
ARC
  5
29B
330
1F
100
AcDbEntity
  8
0
100
AcDbCircle
 10
529.7086696814983
 20
196.134732164666
 30
0.0
 40
5.000000249999999
100
AcDbArc
 50
90.0
 51
180.0
  0
ARC
  5
29C
330
1F
100
AcDbEntity
  8
0
100
AcDbCircle
 10
637.8492046814986
 20
204.050442164666
 30
0.0
 40
5.000000249999999
100
AcDbArc
 50
181.0001200000019
 51
239.999910000005
  0
ARC
  5
29D
330
1F
100
AcDbEntity
  8
0
100
AcDbCircle
 10
545.1307546814985
 20
196.134732164666
 30
0.0
 40
5.000000249999999
100
AcDbArc
 50
0.0
 51
90.0
  0
ARC
  5
29E
330
1F
100
AcDbEntity
  8
0
100
AcDbCircle
 10
607.9385596814984
 20
196.134732164666
 30
0.0
 40
5.000000249999999
100
AcDbArc
 50
0.0
 51
90.0
  0
ARC
  5
29F
330
1F
100
AcDbEntity
  8
0
100
AcDbCircle
 10
592.8236146814984
 20
267.327642164666
 30
0.0
 40
1.000000035
100
AcDbArc
 50
0.0
 51
90.0
  0
ARC
  5
2A0
330
1F
100
AcDbEntity
  8
0
100
AcDbCircle
 10
499.7980246814984
 20
204.050442164666
 30
0.0
 40
5.000000249999999
100
AcDbArc
 50
300.0000940000022
 51
358.9998779999902
  0
ARC
  5
2A1
330
1F
100
AcDbEntity
  8
0
100
AcDbCircle
 10
568.8236146814984
 20
231.3276271646659
 30
0.0
 40
9.0
100
AcDbArc
 50
0.0
 51
180.0
  0
CIRCLE
  5
2A2
330
1F
100
AcDbEntity
  8
0
100
AcDbCircle
 10
568.8236146814984
 20
186.3276271646659
 30
0.0
 40
4.1940036
  0
ARC
  5
2A3
330
1F
100
AcDbEntity
  8
0
100
AcDbCircle
 10
615.6503446814983
 20
253.327632164666
 30
0.0
 40
10.00000049999999
100
AcDbArc
 50
15.00003999999992
 51
90.0
  0
ARC
  5
2A4
330
1F
100
AcDbEntity
  8
0
100
AcDbCircle
 10
534.3236146814984
 20
199.8276271646659
 30
0.0
 40
5.000000249999999
100
AcDbArc
 50
231.2419299999981
 51
293.1021610000025
  0
ARC
  5
2A5
330
1F
100
AcDbEntity
  8
0
100
AcDbCircle
 10
592.5164746814984
 20
196.134732164666
 30
0.0
 40
5.000000249999999
100
AcDbArc
 50
90.0
 51
180.0
  0
ARC
  5
2A6
330
1F
100
AcDbEntity
  8
0
100
AcDbCircle
 10
603.3236146814983
 20
199.8276271646659
 30
0.0
 40
5.000000249999999
100
AcDbArc
 50
246.8978400000061
 51
308.7580740000046
  0
ARC
  5
2A7
330
1F
100
AcDbEntity
  8
0
100
AcDbCircle
 10
643.4235796814984
 20
177.2276221646659
 30
0.0
 40
0.4000000200000001
100
AcDbArc
 50
270.0
 51
0.0
  0
ARC
  5
2A8
330
1F
100
AcDbEntity
  8
0
100
AcDbCircle
 10
482.7496546814984
 20
208.401357164666
 30
0.0
 40
150.0
100
AcDbArc
 50
0.99999900001091
 51
14.99999999999445
  0
ARC
  5
2A9
330
1F
100
AcDbEntity
  8
0
100
AcDbCircle
 10
638.8235746814984
 20
191.9408821646659
 30
0.0
 40
5.000000249999999
100
AcDbArc
 50
0.0
 51
59.99991000000499
  0
ARC
  5
2AA
330
1F
100
AcDbEntity
  8
0
100
AcDbCircle
 10
624.9093946814984
 20
165.8276371646659
 30
0.0
 40
1.000000035
100
AcDbArc
 50
270.0
 51
314.9999999999997
  0
ARC
  5
2AB
330
1F
100
AcDbEntity
  8
0
100
AcDbCircle
 10
622.8236146814984
 20
161.827632164666
 30
0.0
 40
3.0
100
AcDbArc
 50
90.0
 51
180.0
  0
ARC
  5
2AC
330
1F
100
AcDbEntity
  8
0
100
AcDbCircle
 10
611.8235296814985
 20
155.8277071646659
 30
0.0
 40
2.000000099999999
100
AcDbArc
 50
180.0
 51
270.0
  0
ARC
  5
2AD
330
1F
100
AcDbEntity
  8
0
100
AcDbCircle
 10
632.3236096814984
 20
168.8276371646659
 30
0.0
 40
1.000000035
100
AcDbArc
 50
270.0
 51
0.0
  0
ARC
  5
2AE
330
1F
100
AcDbEntity
  8
0
100
AcDbCircle
 10
614.8235296814984
 20
159.8276371646659
 30
0.0
 40
5.000000249999999
100
AcDbArc
 50
90.0
 51
180.0
  0
ARC
  5
2AF
330
1F
100
AcDbEntity
  8
0
100
AcDbCircle
 10
505.3236196814984
 20
168.8276371646659
 30
0.0
 40
1.000000035
100
AcDbArc
 50
180.0
 51
270.0
  0
ARC
  5
2B0
330
1F
100
AcDbEntity
  8
0
100
AcDbCircle
 10
642.8236096814985
 20
168.8276371646659
 30
0.0
 40
1.000000035
100
AcDbArc
 50
270.0
 51
0.0
  0
ARC
  5
2B1
330
1F
100
AcDbEntity
  8
0
100
AcDbCircle
 10
508.9094296814985
 20
166.8276271646659
 30
0.0
 40
1.000000035
100
AcDbArc
 50
45.00000000000029
 51
90.0
  0
ARC
  5
2B2
330
1F
100
AcDbEntity
  8
0
100
AcDbCircle
 10
628.7377996814984
 20
166.8276271646659
 30
0.0
 40
1.000000035
100
AcDbArc
 50
90.0
 51
134.9999999999997
  0
ARC
  5
2B3
330
1F
100
AcDbEntity
  8
0
100
AcDbCircle
 10
512.7378346814984
 20
165.8276371646659
 30
0.0
 40
1.000000035
100
AcDbArc
 50
225.0000000000003
 51
270.0
  0
ARC
  5
2B4
330
1F
100
AcDbEntity
  8
0
100
AcDbCircle
 10
514.8236146814983
 20
161.827632164666
 30
0.0
 40
3.0
100
AcDbArc
 50
0.0
 51
90.0
  0
ARC
  5
2B5
330
1F
100
AcDbEntity
  8
0
100
AcDbCircle
 10
522.8237146814983
 20
159.8276371646659
 30
0.0
 40
5.000000249999999
100
AcDbArc
 50
0.0
 51
90.0
  0
ARC
  5
2B6
330
1F
100
AcDbEntity
  8
0
100
AcDbCircle
 10
525.8237146814983
 20
155.8277071646659
 30
0.0
 40
2.000000099999999
100
AcDbArc
 50
270.0
 51
0.0
  0
ARC
  5
2B7
330
1F
100
AcDbEntity
  8
0
100
AcDbCircle
 10
499.8236146814983
 20
167.5616521646659
 30
0.0
 40
5.416833449999999
100
AcDbArc
 50
301.1867569999967
 51
345.7429799999817
  0
ARC
  5
2B8
330
1F
100
AcDbEntity
  8
0
100
AcDbCircle
 10
499.8236146814983
 20
167.5616521646659
 30
0.0
 40
5.416833449999999
100
AcDbArc
 50
194.2570200000182
 51
238.8132400000093
  0
ARC
  5
2B9
330
1F
100
AcDbEntity
  8
0
100
AcDbCircle
 10
534.3236146814984
 20
167.5616521646659
 30
0.0
 40
5.416833449999999
100
AcDbArc
 50
301.1867569999967
 51
345.7429799999817
  0
ARC
  5
2BA
330
1F
100
AcDbEntity
  8
0
100
AcDbCircle
 10
534.3236146814984
 20
167.5616521646659
 30
0.0
 40
5.416833449999999
100
AcDbArc
 50
194.2570200000182
 51
238.8132400000093
  0
ARC
  5
2BB
330
1F
100
AcDbEntity
  8
0
100
AcDbCircle
 10
603.3236146814983
 20
167.5616521646659
 30
0.0
 40
5.416833449999999
100
AcDbArc
 50
301.1867569999967
 51
345.7429799999817
  0
ARC
  5
2BC
330
1F
100
AcDbEntity
  8
0
100
AcDbCircle
 10
603.3236146814983
 20
167.5616521646659
 30
0.0
 40
5.416833449999999
100
AcDbArc
 50
194.2570200000182
 51
238.8132400000093
  0
ARC
  5
2BD
330
1F
100
AcDbEntity
  8
0
100
AcDbCircle
 10
637.8236146814984
 20
167.5616521646659
 30
0.0
 40
5.416833449999999
100
AcDbArc
 50
301.1867569999967
 51
345.7429799999817
  0
ARC
  5
2BE
330
1F
100
AcDbEntity
  8
0
100
AcDbCircle
 10
637.8236146814984
 20
167.5616521646659
 30
0.0
 40
5.416833449999999
100
AcDbArc
 50
194.2570200000182
 51
238.8132400000093
  0
CIRCLE
  5
2BF
330
1F
100
AcDbEntity
  8
0
100
AcDbCircle
 10
568.8236146814984
 20
148.3277071646661
 30
0.0
 40
4.000000049999999
  0
LINE
  5
2C0
330
1F
100
AcDbEntity
  8
0
  6
Continuous
100
AcDbLine
 10
358.9924419664319
 20
236.3276412511038
 30
0.0
 11
358.9924391025133
 21
226.3276558447439
 31
0.0
  0
LINE
  5
2C1
330
1F
100
AcDbEntity
  8
0
  6
Continuous
100
AcDbLine
 10
358.9924391025133
 20
226.3276558447439
 30
0.0
 11
346.4924692956185
 21
226.3276516635357
 31
0.0
  0
LINE
  5
2C2
330
1F
100
AcDbEntity
  8
0
  6
Continuous
100
AcDbLine
 10
343.4285163170143
 20
236.0444566941002
 30
0.0
 11
343.4285277602923
 21
226.6109299496986
 31
0.0
  0
LINE
  5
2C3
330
1F
100
AcDbEntity
  8
0
  6
Continuous
100
AcDbLine
 10
344.4938780293496
 20
226.5776435276404
 30
0.0
 11
341.4285355839053
 21
226.6734262515699
 31
0.0
  0
LINE
  5
2C4
330
1F
100
AcDbEntity
  8
0
  6
Continuous
100
AcDbLine
 10
344.4924384830981
 20
236.0776478649806
 30
0.0
 11
341.4285102107383
 21
235.9818890945455
 31
0.0
  0
LINE
  5
2C5
330
1F
100
AcDbEntity
  8
0
  6
Continuous
100
AcDbLine
 10
346.4924701753436
 20
226.5776360183952
 30
0.0
 11
344.4924556122618
 21
226.5776372127295
 31
0.0
  0
LINE
  5
2C6
330
1F
100
AcDbEntity
  8
0
  6
Continuous
100
AcDbLine
 10
358.9924419664319
 20
236.3276412511038
 30
0.0
 11
346.4924721595373
 21
236.3276370698961
 31
0.0
  0
LINE
  5
2C7
330
1F
100
AcDbEntity
  8
0
  6
Continuous
100
AcDbLine
 10
346.4924721595373
 20
236.3276370698961
 30
0.0
 11
346.4924692956185
 21
226.3276516635357
 31
0.0
  0
LINE
  5
2C8
330
1F
100
AcDbEntity
  8
0
  6
Continuous
100
AcDbLine
 10
346.4924712798124
 20
236.0776527150367
 30
0.0
 11
344.4924472891391
 21
236.0776421462708
 31
0.0
  0
LINE
  5
2C9
330
1F
100
AcDbEntity
  8
0
  6
Continuous
100
AcDbLine
 10
271.4284982612434
 20
293.3276882645757
 30
0.0
 11
283.4284950931232
 21
293.3276683584297
 31
0.0
  0
LINE
  5
2CA
330
1F
100
AcDbEntity
  8
0
  6
Continuous
100
AcDbLine
 10
269.4285014026115
 20
268.3276650823552
 30
0.0
 11
285.4285223137267
 21
268.3276818359534
 31
0.0
  0
LINE
  5
2CB
330
1F
100
AcDbEntity
  8
0
  6
Continuous
100
AcDbLine
 10
269.4285055132519
 20
269.3276915447588
 30
0.0
 11
285.4285163955351
 21
269.327677322538
 31
0.0
  0
LINE
  5
2CC
330
1F
100
AcDbEntity
  8
0
  6
Continuous
100
AcDbLine
 10
269.4285055132519
 20
269.3276915447588
 30
0.0
 11
269.4285014026115
 21
268.3276650823552
 31
0.0
  0
LINE
  5
2CD
330
1F
100
AcDbEntity
  8
0
  6
Continuous
100
AcDbLine
 10
269.4285055132519
 20
269.3276915447588
 30
0.0
 11
269.9284960273628
 21
271.1936931772136
 31
0.0
  0
LINE
  5
2CE
330
1F
100
AcDbEntity
  8
0
  6
Continuous
100
AcDbLine
 10
269.928499865314
 20
291.827686512757
 30
0.0
 11
269.9284960273628
 21
271.1936931772136
 31
0.0
  0
LINE
  5
2CF
330
1F
100
AcDbEntity
  8
0
  6
Continuous
100
AcDbLine
 10
271.4285108413018
 20
293.3276800949899
 30
0.0
 11
269.9285206149579
 21
291.8276909232297
 31
0.0
  0
LINE
  5
2D0
330
1F
100
AcDbEntity
  8
0
  6
Continuous
100
AcDbLine
 10
283.4285240123529
 20
293.3276853489612
 30
0.0
 11
284.9285339337571
 21
291.8276995330904
 31
0.0
  0
LINE
  5
2D1
330
1F
100
AcDbEntity
  8
0
  6
Continuous
100
AcDbLine
 10
269.9284960273628
 20
271.1936931772136
 30
0.0
 11
284.9285258814277
 21
271.1937048865237
 31
0.0
  0
LINE
  5
2D2
330
1F
100
AcDbEntity
  8
0
  6
Continuous
100
AcDbLine
 10
269.928499865314
 20
291.827686512757
 30
0.0
 11
284.9285050145276
 21
291.8276825425589
 31
0.0
  0
LINE
  5
2D3
330
1F
100
AcDbEntity
  8
0
  6
Continuous
100
AcDbLine
 10
339.5200217252803
 20
240.3276745153764
 30
0.0
 11
340.4285259795294
 21
240.327672273326
 31
0.0
  0
LINE
  5
2D4
330
1F
100
AcDbEntity
  8
0
  6
Continuous
100
AcDbLine
 10
341.4285093331116
 20
239.3276670259972
 30
0.0
 11
341.4285034385393
 21
199.9393326165611
 31
0.0
  0
LINE
  5
2D5
330
1F
100
AcDbEntity
  8
0
  6
Continuous
100
AcDbLine
 10
348.9285063130016
 20
195.3276656808391
 30
0.0
 11
343.4285223862693
 21
195.3276727616332
 31
0.0
  0
LINE
  5
2D6
330
1F
100
AcDbEntity
  8
0
  6
Continuous
100
AcDbLine
 10
349.9285167062569
 20
194.3276607591903
 30
0.0
 11
349.928526844146
 21
178.3276709725411
 31
0.0
  0
LINE
  5
2D7
330
1F
100
AcDbEntity
  8
0
  6
Continuous
100
AcDbLine
 10
343.1842586007353
 20
177.3276677721415
 30
0.0
 11
348.9285100942609
 21
177.3276754148116
 31
0.0
  0
LINE
  5
2D8
330
1F
100
AcDbEntity
  8
0
  6
Continuous
100
AcDbLine
 10
341.3316783819023
 20
211.0192548894708
 30
0.0
 11
341.5265723413501
 21
199.853485854622
 31
0.0
  0
LINE
  5
2D9
330
1F
100
AcDbEntity
  8
0
  6
Continuous
100
AcDbLine
 10
252.4285170513016
 20
263.3276625928135
 30
0.0
 11
252.4285014668817
 21
267.3276640428487
 31
0.0
  0
LINE
  5
2DA
330
1F
100
AcDbEntity
  8
0
  6
Continuous
100
AcDbLine
 10
277.4285079411063
 20
176.8276664246778
 30
0.0
 11
211.6727690900688
 21
176.8276630318426
 31
0.0
  0
LINE
  5
2DB
330
1F
100
AcDbEntity
  8
0
  6
Continuous
100
AcDbLine
 10
301.4284992244472
 20
268.3276556219445
 30
0.0
 11
253.428515700755
 21
268.327661234495
 31
0.0
  0
LINE
  5
2DC
330
1F
100
AcDbEntity
  8
0
  6
Continuous
100
AcDbLine
 10
302.4285088480464
 20
263.3276598707218
 30
0.0
 11
302.4284957796381
 21
267.3276596868397
 31
0.0
  0
LINE
  5
2DD
330
1F
100
AcDbEntity
  8
0
  6
Continuous
100
AcDbLine
 10
277.4285079411063
 20
176.8276664246778
 30
0.0
 11
343.1842562346398
 21
176.8276458000347
 31
0.0
  0
LINE
  5
2DE
330
1F
100
AcDbEntity
  8
0
  6
Continuous
100
AcDbLine
 10
324.2552470200313
 20
263.3276615215302
 30
0.0
 11
231.2796316283164
 21
263.3276616034257
 31
0.0
  0
LINE
  5
2DF
330
1F
100
AcDbEntity
  8
0
  6
Continuous
100
AcDbLine
 10
333.9145301536498
 20
255.9158506360488
 30
0.0
 11
336.2434429431964
 21
247.2242354859065
 31
0.0
  0
LINE
  5
2E0
330
1F
100
AcDbEntity
  8
0
  6
Continuous
100
AcDbLine
 10
213.5253242108442
 20
211.0192601412511
 30
0.0
 11
213.4021379204837
 21
203.9631964568081
 31
0.0
  0
LINE
  5
2E1
330
1F
100
AcDbEntity
  8
0
  6
Continuous
100
AcDbLine
 10
220.9424893636076
 20
255.9158366610347
 30
0.0
 11
218.6135806176321
 21
247.2242410971036
 31
0.0
  0
LINE
  5
2E2
330
1F
100
AcDbEntity
  8
0
  6
Continuous
100
AcDbLine
 10
213.4021379204837
 20
203.9631964568081
 30
0.0
 11
213.3303990857746
 21
199.8534740437101
 31
0.0
  0
LINE
  5
2E3
330
1F
100
AcDbEntity
  8
0
  6
Continuous
100
AcDbLine
 10
287.1059586536018
 20
201.1347583409731
 30
0.0
 11
267.7510639812266
 21
201.1347776062009
 31
0.0
  0
LINE
  5
2E4
330
1F
100
AcDbEntity
  8
0
  6
Continuous
100
AcDbLine
 10
292.1059703636913
 20
196.1347598754016
 30
0.0
 11
292.1059866529749
 21
176.8276570740625
 31
0.0
  0
LINE
  5
2E5
330
1F
100
AcDbEntity
  8
0
  6
Continuous
100
AcDbLine
 10
262.7510682773062
 20
196.1347784110341
 30
0.0
 11
262.7510600578332
 21
176.8276378695195
 31
0.0
  0
LINE
  5
2E6
330
1F
100
AcDbEntity
  8
0
  6
Continuous
100
AcDbLine
 10
343.1842669701245
 20
196.1347847076324
 30
0.0
 11
343.1842562346398
 21
176.8276458000347
 31
0.0
  0
LINE
  5
2E7
330
1F
100
AcDbEntity
  8
0
  6
Continuous
100
AcDbLine
 10
324.4829672528112
 20
196.1347761602526
 30
0.0
 11
324.4829540013149
 21
176.8276388865721
 31
0.0
  0
LINE
  5
2E8
330
1F
100
AcDbEntity
  8
0
  6
Continuous
100
AcDbLine
 10
338.1842609285138
 20
201.1347616066011
 30
0.0
 11
329.4829535291405
 21
201.1347635923196
 31
0.0
  0
LINE
  5
2E9
330
1F
100
AcDbEntity
  8
0
  6
Continuous
100
AcDbLine
 10
342.0358949936164
 20
198.4551990389602
 30
0.0
 11
341.7800025332041
 21
197.8580981075181
 31
0.0
  0
LINE
  5
2EA
330
1F
100
AcDbEntity
  8
0
  6
Continuous
100
AcDbLine
 10
328.3314872002522
 20
199.0076989760516
 30
0.0
 11
334.7656032944028
 21
195.4515699133623
 31
0.0
  0
LINE
  5
2EB
330
1F
100
AcDbEntity
  8
0
  6
Continuous
100
AcDbLine
 10
288.2313509464147
 20
199.3342270834252
 30
0.0
 11
279.5356161931795
 21
195.2933097736002
 31
0.0
  0
LINE
  5
2EC
330
1F
100
AcDbEntity
  8
0
  6
Continuous
100
AcDbLine
 10
267.2378743383991
 20
199.0497194737397
 30
0.0
 11
275.3213946775663
 21
195.2933151864565
 31
0.0
  0
LINE
  5
2ED
330
1F
100
AcDbEntity
  8
0
  6
Continuous
100
AcDbLine
 10
211.6727616068261
 20
196.1347601144718
 30
0.0
 11
211.6727690900688
 21
176.8276630318426
 31
0.0
  0
LINE
  5
2EE
330
1F
100
AcDbEntity
  8
0
  6
Continuous
100
AcDbLine
 10
212.8211101395111
 20
198.455152217971
 30
0.0
 11
213.0770359701966
 21
197.8580915643617
 31
0.0
  0
LINE
  5
2EF
330
1F
100
AcDbEntity
  8
0
  6
Continuous
100
AcDbLine
 10
216.6727824559586
 20
201.134778751046
 30
0.0
 11
225.3740678476822
 21
201.1347731718131
 31
0.0
  0
LINE
  5
2F0
330
1F
100
AcDbEntity
  8
0
  6
Continuous
100
AcDbLine
 10
230.3740487440808
 20
196.1347768314369
 30
0.0
 11
230.3740442986254
 21
176.8276338390468
 31
0.0
  0
LINE
  5
2F1
330
1F
100
AcDbEntity
  8
0
  6
Continuous
100
AcDbLine
 10
226.5255581582832
 20
199.0076965343616
 30
0.0
 11
220.0914323109625
 21
195.4515577817448
 31
0.0
  0
LINE
  5
2F2
330
1F
100
AcDbEntity
  8
0
  6
Continuous
100
AcDbLine
 10
318.4284185343564
 20
159.8276579754269
 30
0.0
 11
318.4284221453631
 21
155.8277179573656
 31
0.0
  0
LINE
  5
2F3
330
1F
100
AcDbEntity
  8
0
  6
Continuous
100
AcDbLine
 10
274.9285060838374
 20
162.827656349583
 30
0.0
 11
274.928519962313
 21
155.8277295807906
 31
0.0
  0
LINE
  5
2F4
330
1F
100
AcDbEntity
  8
0
  6
Continuous
100
AcDbLine
 10
211.6727690900688
 20
176.8276630318426
 30
0.0
 11
211.6727750987915
 21
168.8276764709437
 31
0.0
  0
LINE
  5
2F5
330
1F
100
AcDbEntity
  8
0
  6
Continuous
100
AcDbLine
 10
332.507993478946
 20
164.8276413408021
 30
0.0
 11
282.1047702087444
 21
164.8276626644665
 31
0.0
  0
LINE
  5
2F6
330
1F
100
AcDbEntity
  8
0
  6
Continuous
100
AcDbLine
 10
226.4285109544009
 20
153.8277012904182
 30
0.0
 11
272.9285116226599
 21
153.8277221261608
 31
0.0
  0
LINE
  5
2F7
330
1F
100
AcDbEntity
  8
0
  6
Continuous
100
AcDbLine
 10
236.4286062498858
 20
159.8276623085079
 30
0.0
 11
236.4286048288692
 21
155.8277255582806
 31
0.0
  0
LINE
  5
2F8
330
1F
100
AcDbEntity
  8
0
  6
Continuous
100
AcDbLine
 10
343.1842669238578
 20
167.8276628386
 30
0.0
 11
211.6727420689215
 21
167.8276330180083
 31
0.0
  0
LINE
  5
2F9
330
1F
100
AcDbEntity
  8
0
  6
Continuous
100
AcDbLine
 10
277.4285079411063
 20
176.8276664246778
 30
0.0
 11
212.9284909115522
 21
176.8276390401816
 31
0.0
  0
LINE
  5
2FA
330
1F
100
AcDbEntity
  8
0
  6
Continuous
100
AcDbLine
 10
222.3489907903706
 20
164.8276388636954
 30
0.0
 11
272.928495997829
 21
164.8276413584443
 31
0.0
  0
LINE
  5
2FB
330
1F
100
AcDbEntity
  8
0
  6
Continuous
100
AcDbLine
 10
289.4285079105482
 20
176.8276623664248
 30
0.0
 11
277.4285079411063
 21
176.8276664246778
 31
0.0
  0
LINE
  5
2FC
330
1F
100
AcDbEntity
  8
0
  6
Continuous
100
AcDbLine
 10
328.428510954401
 20
153.8277011998016
 30
0.0
 11
281.9285007587566
 21
153.8277037658773
 31
0.0
  0
LINE
  5
2FD
330
1F
100
AcDbEntity
  8
0
  6
Continuous
100
AcDbLine
 10
279.9285013030291
 20
162.8276532837065
 30
0.0
 11
279.9285151815047
 21
155.8277265149141
 31
0.0
  0
LINE
  5
2FE
330
1F
100
AcDbEntity
  8
0
  6
Continuous
100
AcDbLine
 10
343.1842562346398
 20
176.8276458000347
 30
0.0
 11
343.1842584693449
 21
168.8276616900113
 31
0.0
  0
LINE
  5
2FF
330
1F
100
AcDbEntity
  8
0
  6
Continuous
100
AcDbLine
 10
343.1842669238578
 20
167.8276628386
 30
0.0
 11
343.18424989197
 21
166.2276594820301
 31
0.0
  0
LINE
  5
300
330
1F
100
AcDbEntity
  8
0
  6
Continuous
100
AcDbLine
 10
331.184261300842
 20
167.8276526828773
 30
0.0
 11
331.1842687777109
 21
166.2276870664829
 31
0.0
  0
LINE
  5
301
330
1F
100
AcDbEntity
  8
0
  6
Continuous
100
AcDbLine
 10
343.18424989197
 20
166.2276594820301
 30
0.0
 11
331.1842687777109
 21
166.2276870664829
 31
0.0
  0
LINE
  5
302
330
1F
100
AcDbEntity
  8
0
  6
Continuous
100
AcDbLine
 10
339.989260070454
 20
162.927646422663
 30
0.0
 11
334.3792618620643
 21
162.9276273575533
 31
0.0
  0
LINE
  5
303
330
1F
100
AcDbEntity
  8
0
  6
Continuous
100
AcDbLine
 10
283.4284974983647
 20
166.2276717875176
 30
0.0
 11
271.4284943913605
 21
166.2276599978778
 31
0.0
  0
LINE
  5
304
330
1F
100
AcDbEntity
  8
0
  6
Continuous
100
AcDbLine
 10
283.4284900214959
 20
167.827637403912
 30
0.0
 11
283.4284974983647
 21
166.2276717875176
 31
0.0
  0
LINE
  5
305
330
1F
100
AcDbEntity
  8
0
  6
Continuous
100
AcDbLine
 10
280.2334856841039
 20
162.927619354058
 30
0.0
 11
274.6235069524473
 21
162.9276412969578
 31
0.0
  0
LINE
  5
306
330
1F
100
AcDbEntity
  8
0
  6
Continuous
100
AcDbLine
 10
271.4284869144917
 20
167.827625614272
 30
0.0
 11
271.4284943913605
 21
166.2276599978778
 31
0.0
  0
LINE
  5
307
330
1F
100
AcDbEntity
  8
0
  6
Continuous
100
AcDbLine
 10
211.6727420689215
 20
167.8276330180083
 30
0.0
 11
211.6727495457903
 21
166.2276674016139
 31
0.0
  0
LINE
  5
308
330
1F
100
AcDbEntity
  8
0
  6
Continuous
100
AcDbLine
 10
223.6727539819665
 20
167.8276390889383
 30
0.0
 11
223.6727614588353
 21
166.2276734725439
 31
0.0
  0
LINE
  5
309
330
1F
100
AcDbEntity
  8
0
  6
Continuous
100
AcDbLine
 10
220.4777496445744
 20
162.9276210390842
 30
0.0
 11
214.8677853725327
 21
162.9276514772497
 31
0.0
  0
LINE
  5
30A
330
1F
100
AcDbEntity
  8
0
  6
Continuous
100
AcDbLine
 10
223.6727614588353
 20
166.2276734725439
 30
0.0
 11
211.6727495457903
 21
166.2276674016139
 31
0.0
  0
ARC
  5
30B
330
1F
100
AcDbEntity
  8
0
  6
Continuous
100
AcDbCircle
 10
301.428510194972
 20
267.3276551366163
 30
0.0
 40
1.000000035
100
AcDbArc
 50
0.0004499999996975
 51
89.99989800000015
  0
ARC
  5
30C
330
1F
100
AcDbEntity
  8
0
  6
Continuous
100
AcDbCircle
 10
253.4285153492271
 20
267.3276681017939
 30
0.0
 40
1.000000035
100
AcDbArc
 50
89.99989800000015
 51
180.0004499999996
  0
ARC
  5
30D
330
1F
100
AcDbEntity
  8
0
  6
Continuous
100
AcDbCircle
 10
343.4285004601249
 20
197.3276379517117
 30
0.0
 40
2.000000099999999
100
AcDbArc
 50
262.9851700000098
 51
270.0000399999909
  0
ARC
  5
30E
330
1F
100
AcDbEntity
  8
0
  6
Continuous
100
AcDbCircle
 10
348.9285160255206
 20
194.3276660124695
 30
0.0
 40
1.000000035
100
AcDbArc
 50
0.0004499999996975
 51
90.00017300000179
  0
ARC
  5
30F
330
1F
100
AcDbEntity
  8
0
  6
Continuous
100
AcDbCircle
 10
348.9285167358182
 20
178.3276644627202
 30
0.0
 40
1.000000035
100
AcDbArc
 50
270.0000399999909
 51
0.0003599999971511
  0
ARC
  5
310
330
1F
100
AcDbEntity
  8
0
  6
Continuous
100
AcDbCircle
 10
340.4285092888305
 20
239.3276539805076
 30
0.0
 40
1.000000035
100
AcDbArc
 50
0.0004499999996975
 51
90.00017300000179
  0
ARC
  5
311
330
1F
100
AcDbEntity
  8
0
  6
Continuous
100
AcDbCircle
 10
191.3545454630589
 20
208.4013985622366
 30
0.0
 40
150.0
100
AcDbArc
 50
1.000000000001775
 51
12.8970100000048
  0
ARC
  5
312
330
1F
100
AcDbEntity
  8
0
  6
Continuous
100
AcDbCircle
 10
324.2552460505738
 20
253.3276569994434
 30
0.0
 40
10.00000049999999
100
AcDbArc
 50
15.00001999999579
 51
89.99999099999389
  0
ARC
  5
313
330
1F
100
AcDbEntity
  8
0
  6
Continuous
100
AcDbCircle
 10
339.5200130007447
 20
242.3276490176792
 30
0.0
 40
2.000000099999999
100
AcDbArc
 50
192.8971900000052
 51
270.0000399999909
  0
ARC
  5
314
330
1F
100
AcDbEntity
  8
0
  6
Continuous
100
AcDbCircle
 10
191.3545454630589
 20
208.4013985622366
 30
0.0
 40
150.0
100
AcDbArc
 50
12.8970100000048
 51
15.00000000000037
  0
ARC
  5
315
330
1F
100
AcDbEntity
  8
0
  6
Continuous
100
AcDbCircle
 10
363.5024919538723
 20
208.40139682547
 30
0.0
 40
150.0
100
AcDbArc
 50
165.0000099999983
 51
179.0000000000047
  0
ARC
  5
316
330
1F
100
AcDbEntity
  8
0
  6
Continuous
100
AcDbCircle
 10
230.6017697402735
 20
253.3276438398595
 30
0.0
 40
10.00000049999999
100
AcDbArc
 50
86.12207673342409
 51
165.0000700000035
  0
ARC
  5
317
330
1F
100
AcDbEntity
  8
0
  6
Continuous
100
AcDbCircle
 10
287.1059713704819
 20
196.1347653921536
 30
0.0
 40
5.000000249999999
100
AcDbArc
 50
359.9999400000069
 51
90.00000799999821
  0
ARC
  5
318
330
1F
100
AcDbEntity
  8
0
  6
Continuous
100
AcDbCircle
 10
267.7510672705154
 20
196.1347728942821
 30
0.0
 40
5.000000249999999
100
AcDbArc
 50
90.00000799999821
 51
179.999940000007
  0
ARC
  5
319
330
1F
100
AcDbEntity
  8
0
  6
Continuous
100
AcDbCircle
 10
338.1842522741994
 20
196.1347467654989
 30
0.0
 40
5.000000249999999
100
AcDbArc
 50
359.9999400000069
 51
90.00006299999069
  0
ARC
  5
31A
330
1F
100
AcDbEntity
  8
0
  6
Continuous
100
AcDbCircle
 10
329.4829662460206
 20
196.1347706435001
 30
0.0
 40
5.000000249999999
100
AcDbArc
 50
90.00006299999069
 51
179.999940000007
  0
ARC
  5
31B
330
1F
100
AcDbEntity
  8
0
  6
Continuous
100
AcDbCircle
 10
337.1842545221693
 20
199.8276482801786
 30
0.0
 40
5.000000249999999
100
AcDbArc
 50
241.0706599999962
 51
336.8018999999955
  0
ARC
  5
31C
330
1F
100
AcDbEntity
  8
0
  6
Continuous
100
AcDbCircle
 10
277.4285084185933
 20
199.8276565008734
 30
0.0
 40
5.000000249999999
100
AcDbArc
 50
245.0756300000011
 51
294.9241700000077
  0
ARC
  5
31D
330
1F
100
AcDbEntity
  8
0
  6
Continuous
100
AcDbCircle
 10
225.3740623309299
 20
196.1347741786037
 30
0.0
 40
5.000000249999999
100
AcDbArc
 50
359.9999400000069
 51
90.00000799999821
  0
ARC
  5
31E
330
1F
100
AcDbEntity
  8
0
  6
Continuous
100
AcDbCircle
 10
216.6727606000355
 20
196.1347545977198
 30
0.0
 40
5.000000249999999
100
AcDbArc
 50
90.00000799999821
 51
179.999940000007
  0
ARC
  5
31F
330
1F
100
AcDbEntity
  8
0
  6
Continuous
100
AcDbCircle
 10
217.6727510078693
 20
199.8276362936169
 30
0.0
 40
5.000000249999999
100
AcDbArc
 50
203.1983400000037
 51
298.9292400000007
  0
ARC
  5
320
330
1F
100
AcDbEntity
  8
0
  6
Continuous
100
AcDbCircle
 10
231.4286160627174
 20
159.82766210655
 30
0.0
 40
5.000000249999999
100
AcDbArc
 50
359.9999400000069
 51
90.00000799999821
  0
ARC
  5
321
330
1F
100
AcDbEntity
  8
0
  6
Continuous
100
AcDbCircle
 10
234.4286041038517
 20
155.8277177660708
 30
0.0
 40
2.000000099999999
100
AcDbArc
 50
270.000169999991
 51
0.0004499999996975
  0
ARC
  5
322
330
1F
100
AcDbEntity
  8
0
  6
Continuous
100
AcDbCircle
 10
323.4284187855714
 20
159.8276516417162
 30
0.0
 40
5.000000249999999
100
AcDbArc
 50
90.00006299999069
 51
179.999940000007
  0
ARC
  5
323
330
1F
100
AcDbEntity
  8
0
  6
Continuous
100
AcDbCircle
 10
320.4284310399661
 20
155.827738329634
 30
0.0
 40
2.000000099999999
100
AcDbArc
 50
180.0003599999971
 51
270.0000399999909
  0
ARC
  5
324
330
1F
100
AcDbEntity
  8
0
  6
Continuous
100
AcDbCircle
 10
212.6727518923217
 20
168.8276509592987
 30
0.0
 40
1.000000035
100
AcDbArc
 50
180.0004499999996
 51
269.9998999999899
  0
ARC
  5
325
330
1F
100
AcDbEntity
  8
0
  6
Continuous
100
AcDbCircle
 10
272.9285060356864
 20
155.8277124763562
 30
0.0
 40
2.000000099999999
100
AcDbArc
 50
270.0000399999909
 51
0.0003599999971511
  0
ARC
  5
326
330
1F
100
AcDbEntity
  8
0
  6
Continuous
100
AcDbCircle
 10
272.9285053588197
 20
162.8276485573729
 30
0.0
 40
2.000000099999999
100
AcDbArc
 50
0.0004499999996975
 51
2.86577999999375
  0
ARC
  5
327
330
1F
100
AcDbEntity
  8
0
  6
Continuous
100
AcDbCircle
 10
281.9285202616788
 20
162.8276671203066
 30
0.0
 40
2.000000099999999
100
AcDbArc
 50
177.1344500000034
 51
180.0003599999971
  0
ARC
  5
328
330
1F
100
AcDbEntity
  8
0
  6
Continuous
100
AcDbCircle
 10
281.928496429789
 20
155.8276932991143
 30
0.0
 40
2.000000099999999
100
AcDbArc
 50
180.0003599999971
 51
270.0000399999909
  0
ARC
  5
329
330
1F
100
AcDbEntity
  8
0
  6
Continuous
100
AcDbCircle
 10
342.1842596830697
 20
168.8276478275635
 30
0.0
 40
1.000000035
100
AcDbArc
 50
270.0000399999909
 51
0.0003599999971511
  0
ARC
  5
32A
330
1F
100
AcDbEntity
  8
0
  6
Continuous
100
AcDbCircle
 10
337.1842661211533
 20
167.56168193829
 30
0.0
 40
5.416833449999999
100
AcDbArc
 50
301.1865999999952
 51
345.7429800000002
  0
ARC
  5
32B
330
1F
100
AcDbEntity
  8
0
  6
Continuous
100
AcDbCircle
 10
337.1842661211533
 20
167.56168193829
 30
0.0
 40
5.416833449999999
100
AcDbArc
 50
194.2569899999984
 51
238.8131899999978
  0
ARC
  5
32C
330
1F
100
AcDbEntity
  8
0
  6
Continuous
100
AcDbCircle
 10
277.4284992828381
 20
167.5616499679335
 30
0.0
 40
5.416833449999999
100
AcDbArc
 50
301.1865999999952
 51
345.7429800000002
  0
ARC
  5
32D
330
1F
100
AcDbEntity
  8
0
  6
Continuous
100
AcDbCircle
 10
277.4284992828381
 20
167.5616499679335
 30
0.0
 40
5.416833449999999
100
AcDbArc
 50
194.2570199999997
 51
238.8132499999954
  0
ARC
  5
32E
330
1F
100
AcDbEntity
  8
0
  6
Continuous
100
AcDbCircle
 10
217.6727594692913
 20
167.5616541038353
 30
0.0
 40
5.416833449999999
100
AcDbArc
 50
194.2570199999997
 51
238.8132499999954
  0
ARC
  5
32F
330
1F
100
AcDbEntity
  8
0
  6
Continuous
100
AcDbCircle
 10
217.6727594692913
 20
167.5616541038353
 30
0.0
 40
5.416833449999999
100
AcDbArc
 50
301.1866199999979
 51
345.7429800000002
  0
LINE
  5
330
330
1F
100
AcDbEntity
  8
0
  6
Continuous
100
AcDbLine
 10
285.4285163955477
 20
269.3276915447588
 30
0.0
 11
285.428520506188
 21
268.3276650823552
 31
0.0
  0
LINE
  5
331
330
1F
100
AcDbEntity
  8
0
  6
Continuous
100
AcDbLine
 10
285.4285163955477
 20
269.3276915447588
 30
0.0
 11
284.9285258814368
 21
271.1936931772136
 31
0.0
  0
LINE
  5
332
330
1F
100
AcDbEntity
  8
0
  6
Continuous
100
AcDbLine
 10
284.9285220434856
 20
291.827686512757
 30
0.0
 11
284.9285258814368
 21
271.1936931772136
 31
0.0
  0
LINE
  5
333
330
1F
100
AcDbEntity
  8
0
  6
Continuous
100
AcDbLine
 10
336.4285036056586
 20
144.8277392087888
 30
0.0
 11
328.4285173457279
 21
144.8277335275988
 31
0.0
  0
LINE
  5
334
330
1F
100
AcDbEntity
  8
0
  6
Continuous
100
AcDbLine
 10
336.4285183529588
 20
151.8277269182853
 30
0.0
 11
328.4285123746867
 21
151.8277212370814
 31
0.0
  0
LINE
  5
335
330
1F
100
AcDbEntity
  8
0
  6
Continuous
100
AcDbLine
 10
336.4285183529588
 20
151.8277269182853
 30
0.0
 11
336.4285036056586
 21
144.8277392087888
 31
0.0
  0
LINE
  5
336
330
1F
100
AcDbEntity
  8
0
  6
Continuous
100
AcDbLine
 10
273.1858724949337
 20
644.4735199507972
 30
0.0
 11
263.7394272575385
 21
635.0270968487116
 31
0.0
  0
LINE
  5
337
330
1F
100
AcDbEntity
  8
0
  6
Continuous
100
AcDbLine
 10
281.6711437035004
 20
644.4735308000363
 30
0.0
 11
291.1175743055861
 21
635.0270985530221
 31
0.0
  0
LINE
  5
338
330
1F
100
AcDbEntity
  8
0
  6
Continuous
100
AcDbLine
 10
342.9798039543996
 20
538.2838053207382
 30
0.0
 11
339.5221689543997
 21
551.1878703207381
 31
0.0
  0
LINE
  5
339
330
1F
100
AcDbEntity
  8
0
  6
Continuous
100
AcDbLine
 10
338.7371589543998
 20
530.9353503207382
 30
0.0
 11
325.8331089543998
 21
527.4777303207381
 31
0.0
  0
LINE
  5
33A
330
1F
100
AcDbEntity
  8
0
  6
Continuous
100
AcDbLine
 10
348.9285698820528
 20
581.2309053207382
 30
0.0
 11
342.8368898820528
 21
581.2309053207382
 31
0.0
  0
LINE
  5
33B
330
1F
100
AcDbEntity
  8
0
  6
Continuous
100
AcDbLine
 10
349.9285598820526
 20
580.2308853207381
 30
0.0
 11
349.9285598820526
 21
576.2308749920728
 31
0.0
  0
LINE
  5
33C
330
1F
100
AcDbEntity
  8
0
  6
Continuous
100
AcDbLine
 10
349.9285598820526
 20
566.2308895857136
 30
0.0
 11
349.9285598820526
 21
562.2308853207381
 31
0.0
  0
LINE
  5
33D
330
1F
100
AcDbEntity
  8
0
  6
Continuous
100
AcDbLine
 10
348.9285698820527
 20
561.2308803207382
 30
0.0
 11
342.8368898820528
 21
561.2308803207382
 31
0.0
  0
ARC
  5
33E
330
1F
100
AcDbEntity
  8
0
  6
Continuous
100
AcDbCircle
 10
294.6531059504966
 20
638.5626289937745
 30
0.0
 40
5.000000249999999
100
AcDbArc
 50
224.9999599999998
 51
255.6505510000022
  0
ARC
  5
33F
330
1F
100
AcDbEntity
  8
0
  6
Continuous
100
AcDbCircle
 10
277.4285060238367
 20
640.2308767807523
 30
0.0
 40
6.0
100
AcDbArc
 50
44.99995999999983
 51
134.9999899999985
  0
ARC
  5
340
330
1F
100
AcDbEntity
  8
0
  6
Continuous
100
AcDbCircle
 10
260.203896816786
 20
638.562628493622
 30
0.0
 40
5.000000249999999
100
AcDbArc
 50
284.3494859999933
 51
314.9999899999986
  0
ARC
  5
341
330
1F
100
AcDbEntity
  8
0
  6
Continuous
100
AcDbCircle
 10
327.1272039543997
 20
522.6480603207382
 30
0.0
 40
5.000000249999999
100
AcDbArc
 50
105.0000100000029
 51
135.6505099999925
  0
ARC
  5
342
330
1F
100
AcDbEntity
  8
0
  6
Continuous
100
AcDbCircle
 10
337.1842539543998
 20
536.7308853207381
 30
0.0
 40
6.0
100
AcDbArc
 50
285.0000100000029
 51
15.00003999999992
  0
ARC
  5
343
330
1F
100
AcDbEntity
  8
0
  6
Continuous
100
AcDbCircle
 10
344.3518089543998
 20
552.4819653207381
 30
0.0
 40
5.000000249999999
100
AcDbArc
 50
164.3494500000034
 51
195.0000439999963
  0
ARC
  5
344
330
1F
100
AcDbEntity
  8
0
  6
Continuous
100
AcDbCircle
 10
348.9285698820528
 20
580.2308853207381
 30
0.0
 40
1.000000035
100
AcDbArc
 50
0.0
 51
90.0
  0
ARC
  5
345
330
1F
100
AcDbEntity
  8
0
  6
Continuous
100
AcDbCircle
 10
342.8368898820528
 20
583.2308853207381
 30
0.0
 40
2.000000099999999
100
AcDbArc
 50
190.3959840000046
 51
270.0
  0
ARC
  5
346
330
1F
100
AcDbEntity
  8
0
  6
Continuous
100
AcDbCircle
 10
342.8368898820528
 20
559.2308853207381
 30
0.0
 40
2.000000099999999
100
AcDbArc
 50
90.0
 51
169.6040200000057
  0
ARC
  5
347
330
1F
100
AcDbEntity
  8
0
  6
Continuous
100
AcDbCircle
 10
348.9285698820527
 20
562.2308853207381
 30
0.0
 40
1.000000035
100
AcDbArc
 50
270.0
 51
0.0
  0
LINE
  5
348
330
1F
100
AcDbEntity
  8
0
  6
Continuous
100
AcDbLine
 10
281.6711494138658
 20
497.988250690679
 30
0.0
 11
291.117594651261
 21
507.4346737927647
 31
0.0
  0
LINE
  5
349
330
1F
100
AcDbEntity
  8
0
  6
Continuous
100
AcDbLine
 10
273.1858782052991
 20
497.98823984144
 30
0.0
 11
263.7394476032133
 21
507.4346720884541
 31
0.0
  0
LINE
  5
34A
330
1F
100
AcDbEntity
  8
0
  6
Continuous
100
AcDbLine
 10
211.8772179543998
 20
604.177965320738
 30
0.0
 11
215.3348529543998
 21
591.2739003207381
 31
0.0
  0
LINE
  5
34B
330
1F
100
AcDbEntity
  8
0
  6
Continuous
100
AcDbLine
 10
216.1198629543996
 20
611.5264203207381
 30
0.0
 11
229.0239129543997
 21
614.9840403207381
 31
0.0
  0
ARC
  5
34C
330
1F
100
AcDbEntity
  8
0
  6
Continuous
100
AcDbCircle
 10
260.2039159583028
 20
503.8991416477017
 30
0.0
 40
5.000000249999999
100
AcDbArc
 50
44.99995999999983
 51
75.65055099999551
  0
ARC
  5
34D
330
1F
100
AcDbEntity
  8
0
  6
Continuous
100
AcDbCircle
 10
277.4285109543998
 20
571.2308853207381
 30
0.0
 40
64.5
100
AcDbArc
 50
8.919044104115773
 51
351.0809513100705
  0
ARC
  5
34E
330
1F
100
AcDbEntity
  8
0
  6
Continuous
100
AcDbCircle
 10
277.4285158849628
 20
502.2308938607238
 30
0.0
 40
6.0
100
AcDbArc
 50
224.9999599999998
 51
314.9999899999988
  0
ARC
  5
34F
330
1F
100
AcDbEntity
  8
0
  6
Continuous
100
AcDbCircle
 10
294.6531250920135
 20
503.8991421478542
 30
0.0
 40
5.000000249999999
100
AcDbArc
 50
104.3494859999932
 51
134.9999899999988
  0
ARC
  5
350
330
1F
100
AcDbEntity
  8
0
  6
Continuous
100
AcDbCircle
 10
227.7298179543997
 20
619.8137103207381
 30
0.0
 40
5.000000249999999
100
AcDbArc
 50
285.0000100000021
 51
315.6505099999957
  0
ARC
  5
351
330
1F
100
AcDbEntity
  8
0
  6
Continuous
100
AcDbCircle
 10
217.6727679543996
 20
605.7308853207381
 30
0.0
 40
6.0
100
AcDbArc
 50
105.000010000002
 51
195.000039999999
  0
ARC
  5
352
330
1F
100
AcDbEntity
  8
0
  6
Continuous
100
AcDbCircle
 10
210.5052129543996
 20
589.9798053207381
 30
0.0
 40
5.000000249999999
100
AcDbArc
 50
344.3494499999967
 51
15.00004400000231
  0
LINE
  5
353
330
1F
100
AcDbEntity
  8
0
  6
Continuous
100
AcDbLine
 10
338.7371739543997
 20
611.5264353207382
 30
0.0
 11
325.8331089543998
 21
614.9840853207381
 31
0.0
  0
LINE
  5
354
330
1F
100
AcDbEntity
  8
0
  6
Continuous
100
AcDbLine
 10
342.9798189543998
 20
604.1779803207382
 30
0.0
 11
339.5221839543998
 21
591.2739153207382
 31
0.0
  0
ARC
  5
355
330
1F
100
AcDbEntity
  8
0
  6
Continuous
100
AcDbCircle
 10
344.3518089543999
 20
589.9798203207381
 30
0.0
 40
5.000000249999999
100
AcDbArc
 50
164.9999600000001
 51
195.6505510000024
  0
ARC
  5
356
330
1F
100
AcDbEntity
  8
0
  6
Continuous
100
AcDbCircle
 10
337.1842539543999
 20
605.7308853207381
 30
0.0
 40
6.0
100
AcDbArc
 50
344.99996
 51
74.99998999999708
  0
ARC
  5
357
330
1F
100
AcDbEntity
  8
0
  6
Continuous
100
AcDbCircle
 10
327.1272039543998
 20
619.8137103207382
 30
0.0
 40
5.000000249999999
100
AcDbArc
 50
224.3494859999926
 51
254.999989999997
  0
LINE
  5
358
330
1F
100
AcDbEntity
  8
0
  6
Continuous
100
AcDbLine
 10
216.1198479543998
 20
530.9353353207381
 30
0.0
 11
229.0239129543997
 21
527.4776853207381
 31
0.0
  0
LINE
  5
359
330
1F
100
AcDbEntity
  8
0
  6
Continuous
100
AcDbLine
 10
211.8772029543997
 20
538.283790320738
 30
0.0
 11
215.3348379543997
 21
551.187855320738
 31
0.0
  0
ARC
  5
35A
330
1F
100
AcDbEntity
  8
0
  6
Continuous
100
AcDbCircle
 10
210.5052129543996
 20
552.4819503207381
 30
0.0
 40
5.000000249999999
100
AcDbArc
 50
344.9999600000009
 51
15.65055099999823
  0
ARC
  5
35B
330
1F
100
AcDbEntity
  8
0
  6
Continuous
100
AcDbCircle
 10
217.6727679543996
 20
536.7308853207381
 30
0.0
 40
6.0
100
AcDbArc
 50
164.9999600000009
 51
254.9999899999979
  0
ARC
  5
35C
330
1F
100
AcDbEntity
  8
0
  6
Continuous
100
AcDbCircle
 10
227.7298179543997
 20
522.648060320738
 30
0.0
 40
5.000000249999999
100
AcDbArc
 50
44.34948599999497
 51
74.99998999999788
  0
LINE
  5
35D
330
1F
100
AcDbEntity
  8
0
  6
Continuous
100
AcDbLine
 10
341.4285093237997
 20
561.2308803207382
 30
0.0
 11
341.4285093237997
 21
581.2308852207381
 31
0.0
  0
LINE
  5
35E
330
1F
100
AcDbEntity
  8
0
  6
Continuous
100
AcDbLine
 10
337.0852228220994
 20
581.2308852207381
 30
0.0
 11
341.4285093237997
 21
581.2308852207381
 31
0.0
  0
LINE
  5
35F
330
1F
100
AcDbEntity
  8
0
  6
Continuous
100
AcDbLine
 10
337.085221967208
 20
561.2308803207382
 30
0.0
 11
341.4285093237997
 21
561.2308803207382
 31
0.0
  0
ARC
  5
360
330
1F
100
AcDbEntity
  8
0
  6
Continuous
100
AcDbCircle
 10
277.4285109543998
 20
571.2308853207381
 30
0.0
 40
60.48903428610618
100
AcDbArc
 50
350.4842160623669
 51
9.515779039467108
  0
LINE
  5
361
330
1F
100
AcDbEntity
  8
0
  6
Continuous
100
AcDbLine
 10
358.9924419664319
 20
576.230878023918
 30
0.0
 11
358.9924391025133
 21
566.2308926175581
 31
0.0
  0
LINE
  5
362
330
1F
100
AcDbEntity
  8
0
  6
Continuous
100
AcDbLine
 10
358.9924391025133
 20
566.2308926175581
 30
0.0
 11
346.4924692956185
 21
566.23088843635
 31
0.0
  0
LINE
  5
363
330
1F
100
AcDbEntity
  8
0
  6
Continuous
100
AcDbLine
 10
343.4285163170143
 20
575.9476934669145
 30
0.0
 11
343.4285277602923
 21
566.5141667225128
 31
0.0
  0
LINE
  5
364
330
1F
100
AcDbEntity
  8
0
  6
Continuous
100
AcDbLine
 10
344.4938780293496
 20
566.4808803004547
 30
0.0
 11
341.4285355839053
 21
566.5766630243841
 31
0.0
  0
LINE
  5
365
330
1F
100
AcDbEntity
  8
0
  6
Continuous
100
AcDbLine
 10
344.4924384830981
 20
575.9808846377949
 30
0.0
 11
341.4285102107383
 21
575.8851258673598
 31
0.0
  0
LINE
  5
366
330
1F
100
AcDbEntity
  8
0
  6
Continuous
100
AcDbLine
 10
346.4924701753436
 20
566.4808727912094
 30
0.0
 11
344.4924556122618
 21
566.4808739855438
 31
0.0
  0
LINE
  5
367
330
1F
100
AcDbEntity
  8
0
  6
Continuous
100
AcDbLine
 10
358.9924419664319
 20
576.230878023918
 30
0.0
 11
346.4924721595373
 21
576.2308738427103
 31
0.0
  0
LINE
  5
368
330
1F
100
AcDbEntity
  8
0
  6
Continuous
100
AcDbLine
 10
346.4924721595373
 20
576.2308738427103
 30
0.0
 11
346.4924692956185
 21
566.23088843635
 31
0.0
  0
LINE
  5
369
330
1F
100
AcDbEntity
  8
0
  6
Continuous
100
AcDbLine
 10
346.4924712798124
 20
575.9808894878509
 30
0.0
 11
344.4924472891391
 21
575.980878919085
 31
0.0
  0
LINE
  5
3BF
330
1F
100
AcDbEntity
  8
0
  6
CENTER
100
AcDbLine
 10
370.5669449261131
 20
571.2308853207382
 30
0.0
 11
198.2950535461675
 21
571.230885320738
 31
0.0
  0
LINE
  5
3C0
330
1F
100
AcDbEntity
  8
0
  6
CENTER
100
AcDbLine
 10
277.4285109543998
 20
479.1364787661471
 30
0.0
 11
277.4285109543998
 21
663.325291875329
 31
0.0
  0
LINE
  5
3C1
330
1F
100
AcDbEntity
  8
0
  6
CENTER
100
AcDbLine
 10
321.3145925495646
 20
111.4777021646662
 30
0.0
 11
233.542429359235
 21
111.4777021646659
 31
0.0
  0
LINE
  5
3C2
330
1F
100
AcDbEntity
  8
0
  6
CENTER
100
AcDbLine
 10
277.4285109543998
 20
72.27478294858428
 30
0.0
 11
277.4285109543998
 21
313.9083395084637
 31
0.0
  0
LINE
  5
3C3
330
1F
100
AcDbEntity
  8
0
  6
CENTER
100
AcDbLine
 10
568.8236146814984
 20
96.34355845596406
 30
0.0
 11
568.8236146814984
 21
313.9083001103533
 31
0.0
  0
LINE
  5
3C4
330
1F
100
AcDbEntity
  8
0
  6
CENTER
100
AcDbLine
 10
677.4792127938726
 20
111.4777021646662
 30
0.0
 11
460.1680165691241
 21
111.4777021646659
 31
0.0
  0
LINE
  5
5AC
330
1F
100
AcDbEntity
  8
0
  6
CENTER
100
AcDbLine
 10
1144.188482155796
 20
111.4777021646662
 30
0.0
 11
940.8292591543412
 21
111.4777021646662
 31
0.0
  0
LINE
  5
5AD
330
1F
100
AcDbEntity
  8
0
  6
CENTER
100
AcDbLine
 10
1042.508870655089
 20
247.7141475290193
 30
0.0
 11
1042.508870655063
 21
72.13936491990105
 31
0.0
  0
LINE
  5
5AE
330
1F
100
AcDbEntity
  8
0
  6
CENTER
100
AcDbLine
 10
1312.453968424757
 20
480.6597932774558
 30
0.0
 11
1312.453968424764
 21
661.8019773640282
 31
0.0
  0
LINE
  5
5AF
330
1F
100
AcDbEntity
  8
0
  6
CENTER
100
AcDbLine
 10
1293.113326273502
 20
571.2308853207371
 30
0.0
 11
1481.316012716728
 21
571.2308853207789
 31
0.0
  0
LINE
  5
5B0
330
1F
100
AcDbEntity
  8
0
  6
CENTER
100
AcDbLine
 10
1276.506568757553
 20
111.4777021646666
 30
0.0
 11
1348.40136809024
 21
111.4777021646666
 31
0.0
  0
LINE
  5
5B1
330
1F
100
AcDbEntity
  8
0
  6
CENTER
100
AcDbLine
 10
1312.453968423897
 20
75.53030249832298
 30
0.0
 11
1312.453968423897
 21
147.4251018310103
 31
0.0
  0
LINE
  5
5B2
330
1F
100
AcDbEntity
  8
0
  6
CENTER
100
AcDbLine
 10
1282.637950036303
 20
92.11495342485866
 30
0.0
 11
1473.330937370191
 21
215.952427369001
 31
0.0
  0
LINE
  5
5B3
330
1F
100
AcDbEntity
  8
0
  6
CENTER
100
AcDbLine
 10
1735.194808028787
 20
111.4777021646662
 30
0.0
 11
1531.835585027333
 21
111.4777021646662
 31
0.0
  0
LINE
  5
5B4
330
1F
100
AcDbEntity
  8
0
  6
CENTER
100
AcDbLine
 10
1633.515196528081
 20
245.4758762327494
 30
0.0
 11
1633.515196528055
 21
72.13936491990196
 31
0.0
  0
SPLINE
  5
5B5
330
1F
100
AcDbEntity
  8
0
  6
Continuous
100
AcDbSpline
210
0.0
220
0.0
230
1.0
 70
     8
 71
     3
 72
    22
 73
    18
 74
     0
 42
0.0000000001
 43
0.0000000001
 40
0.4231456147794728
 40
0.4231456147794728
 40
0.4231456147794728
 40
0.4231456147794728
 40
0.7368198540047731
 40
0.7368198540047731
 40
1.058335588245783
 40
1.058335588245783
 40
1.38481095226135
 40
1.38481095226135
 40
1.713208695042113
 40
1.713208695042113
 40
2.041706726668101
 40
2.041706726668101
 40
2.368569213082856
 40
2.368569213082856
 40
2.690830350897853
 40
2.690830350897853
 40
2.718447038810325
 40
2.718447038810325
 40
2.718447038810325
 40
2.718447038810325
 10
1093.285050204745
 20
210.9332622577942
 30
0.0
 10
1090.812632168134
 20
215.5375490301255
 30
0.0
 10
1087.497441016714
 20
219.7674897132422
 30
0.0
 10
1079.46519084304
 20
227.1923750533412
 30
0.0
 10
1074.716737119273
 20
230.3597037429351
 30
0.0
 10
1064.266410578551
 20
235.2904906261162
 30
0.0
 10
1058.551742686015
 20
237.0317118096147
 30
0.0
 10
1046.752807699616
 20
238.8936330825484
 30
0.0
 10
1040.667702566862
 20
239.0045952441667
 30
0.0
 10
1028.753511892531
 20
237.5719005670714
 30
0.0
 10
1022.925701202035
 20
236.0277998143053
 30
0.0
 10
1012.136540080389
 20
231.421075845428
 30
0.0
 10
1007.171882777199
 20
228.365861612883
 30
0.0
 10
998.6600910534598
 20
221.0483733288381
 30
0.0
 10
995.0955253832134
 20
216.8026509885724
 30
0.0
 10
992.1745442417796
 20
211.7411567264796
 30
0.0
 10
991.9503691573108
 20
211.3386355239093
 30
0.0
 10
991.7326911054733
 20
210.9332622577938
 30
0.0
  0
LINE
  5
5B6
330
1F
100
AcDbEntity
  8
0
  6
Continuous
100
AcDbLine
 10
991.5088706550815
 20
155.5307488733235
 30
0.0
 11
991.5088706550804
 21
152.2629146632337
 31
0.0
  0
LINE
  5
5B7
330
1F
100
AcDbEntity
  8
0
  6
Continuous
100
AcDbLine
 10
1014.886416021211
 20
175.1368081227085
 30
0.0
 11
1014.88641602121
 21
171.8689739126187
 31
0.0
  0
LINE
  5
5B8
330
1F
100
AcDbEntity
  8
0
  6
Continuous
100
AcDbLine
 10
1093.508870655081
 20
155.5307488733235
 30
0.0
 11
1093.508870655079
 21
152.2629146632337
 31
0.0
  0
LINE
  5
5B9
330
1F
100
AcDbEntity
  8
0
  6
Continuous
100
AcDbLine
 10
1070.131325288943
 20
175.1368081227085
 30
0.0
 11
1070.131325288942
 21
171.8689739126187
 31
0.0
  0
LINE
  5
5BA
330
1F
100
AcDbEntity
  8
0
  6
Continuous
100
AcDbLine
 10
1093.50887065508
 20
151.7182756282184
 30
0.0
 11
1093.508870655079
 21
152.2629146632337
 31
0.0
  0
SPLINE
  5
5BB
330
1F
100
AcDbEntity
  8
0
  6
Continuous
100
AcDbSpline
210
0.0
220
0.0
230
1.0
 70
     8
 71
     3
 72
     8
 73
     4
 74
     0
 42
0.0000000001
 43
0.0000000001
 40
-0.0341682691597106
 40
-0.0341682691597106
 40
-0.0341682691597106
 40
-0.0341682691597106
 40
0.0
 40
0.0
 40
0.0
 40
0.0
 10
1093.271057052847
 20
152.082793503135
 30
0.0
 10
1093.350326511311
 20
152.1428510293851
 30
0.0
 10
1093.429597943322
 20
152.2028915516855
 30
0.0
 10
1093.508870655079
 20
152.2629146632337
 30
0.0
  0
SPLINE
  5
5BC
330
1F
100
AcDbEntity
  8
0
  6
Continuous
100
AcDbSpline
210
0.0
220
0.0
230
1.0
 70
     8
 71
     3
 72
     8
 73
     4
 74
     0
 42
0.0000000001
 43
0.0000000001
 40
-0.0565695160845621
 40
-0.0565695160845621
 40
-0.0565695160845621
 40
-0.0565695160845621
 40
0.0
 40
0.0
 40
0.0
 40
0.0
 10
1070.031368650926
 20
171.3243348776039
 30
0.0
 10
1070.064746608232
 20
171.505873466517
 30
0.0
 10
1070.098065539754
 20
171.6874212633381
 30
0.0
 10
1070.131325288942
 20
171.8689739126187
 30
0.0
  0
SPLINE
  5
5BD
330
1F
100
AcDbEntity
  8
0
  6
Continuous
100
AcDbSpline
210
0.0
220
0.0
230
1.0
 70
     8
 71
     3
 72
     8
 73
     4
 74
     0
 42
0.0000000001
 43
0.0000000001
 40
-0.0565695160846079
 40
-0.0565695160846079
 40
-0.0565695160846079
 40
-0.0565695160846079
 40
0.0
 40
0.0
 40
0.0
 40
0.0
 10
1014.986372659226
 20
171.3243348776039
 30
0.0
 10
1014.95299470192
 20
171.505873466517
 30
0.0
 10
1014.919675770398
 20
171.6874212633381
 30
0.0
 10
1014.88641602121
 20
171.8689739126187
 30
0.0
  0
SPLINE
  5
5BE
330
1F
100
AcDbEntity
  8
0
  6
Continuous
100
AcDbSpline
210
0.0
220
0.0
230
1.0
 70
     8
 71
     3
 72
     8
 73
     4
 74
     0
 42
0.0000000001
 43
0.0000000001
 40
-0.0341682691596659
 40
-0.0341682691596659
 40
-0.0341682691596659
 40
-0.0341682691596659
 40
0.0
 40
0.0
 40
0.0
 40
0.0
 10
991.746684257313
 20
152.082793503135
 30
0.0
 10
991.6674147988487
 20
152.1428510293851
 30
0.0
 10
991.5881433668364
 20
152.2028915516855
 30
0.0
 10
991.5088706550804
 20
152.2629146632337
 30
0.0
  0
LINE
  5
5BF
330
1F
100
AcDbEntity
  8
0
  6
Continuous
100
AcDbLine
 10
991.5088706550804
 20
152.2629146632337
 30
0.0
 11
991.5088706550804
 21
151.7182756282184
 31
0.0
  0
ELLIPSE
  5
5C0
330
1F
100
AcDbEntity
  8
0
  6
Continuous
100
AcDbEllipse
 10
1042.508870655085
 20
129.0967749474023
 30
0.0
 11
-57.99999999999998
 21
0.0000000000265593
 31
0.0
210
0.0
220
0.0
230
1.0
 40
0.8386705679454204
 41
5.208773145514363
 42
5.786801142051006
  0
LINE
  5
5C1
330
1F
100
AcDbEntity
  8
0
  6
Continuous
100
AcDbLine
 10
1070.131325288942
 20
171.8689739126187
 30
0.0
 11
1014.88641602121
 21
171.8689739126187
 31
0.0
  0
ELLIPSE
  5
5C2
330
1F
100
AcDbEntity
  8
0
  6
Continuous
100
AcDbEllipse
 10
1042.508870655084
 20
129.0967749474023
 30
0.0
 11
-57.9999999999999
 21
0.0000000000215661
 31
0.0
210
0.0
220
0.0
230
1.0
 40
0.8386705679454205
 41
3.637976818719309
 42
4.216004815255992
  0
ELLIPSE
  5
5C3
330
1F
100
AcDbEntity
  8
0
  6
Continuous
100
AcDbEllipse
 10
1042.508870655086
 20
132.3646091574921
 30
0.0
 11
57.99999999999993
 21
-0.0000000000266204
 31
0.0
210
0.0
220
0.0
230
1.0
 40
0.8386705679454205
 41
0.4963841651296744
 42
1.074412161666314
  0
LINE
  5
5C4
330
1F
100
AcDbEntity
  8
0
  6
Continuous
100
AcDbLine
 10
1014.886416021211
 20
175.1368081227085
 30
0.0
 11
1070.131325288943
 21
175.1368081227085
 31
0.0
  0
ELLIPSE
  5
5C5
330
1F
100
AcDbEntity
  8
0
  6
Continuous
100
AcDbEllipse
 10
1042.508870655086
 20
132.3646091574921
 30
0.0
 11
57.99999999999987
 21
-0.000000000031608
 31
0.0
210
0.0
220
0.0
230
1.0
 40
0.8386705679454204
 41
2.067180491924686
 42
2.645208488461367
  0
LINE
  5
5C6
330
1F
100
AcDbEntity
  8
0
  6
Continuous
100
AcDbLine
 10
1116.902255202626
 20
130.5277021646659
 30
0.0
 11
1093.508870655076
 21
130.5277021646659
 31
0.0
  0
LINE
  5
5C7
330
1F
100
AcDbEntity
  8
0
  6
Continuous
100
AcDbLine
 10
1116.902255202626
 20
92.4277021646665
 30
0.0
 11
1093.508870655076
 21
92.4277021646665
 31
0.0
  0
LINE
  5
5C8
330
1F
100
AcDbEntity
  8
0
  6
Continuous
100
AcDbLine
 10
1116.902255202626
 20
92.4277021646665
 30
0.0
 11
1119.158870655076
 21
86.22770216466623
 31
0.0
  0
LINE
  5
5C9
330
1F
100
AcDbEntity
  8
0
  6
Continuous
100
AcDbLine
 10
1116.902255202626
 20
130.5277021646659
 30
0.0
 11
1119.158870655076
 21
136.7277021646657
 31
0.0
  0
LINE
  5
5CA
330
1F
100
AcDbEntity
  8
0
  6
Continuous
100
AcDbLine
 10
1122.008870655075
 20
136.7277021646657
 30
0.0
 11
1119.158870655076
 21
136.7277021646657
 31
0.0
  0
LINE
  5
5CB
330
1F
100
AcDbEntity
  8
0
  6
Continuous
100
AcDbLine
 10
1122.008870655075
 20
86.22770216466623
 30
0.0
 11
1119.158870655076
 21
86.22770216466623
 31
0.0
  0
LINE
  5
5CC
330
1F
100
AcDbEntity
  8
0
  6
Continuous
100
AcDbLine
 10
1116.902255202625
 20
130.5277021646659
 30
0.0
 11
1116.902255202625
 21
92.42770216466604
 31
0.0
  0
LINE
  5
5CD
330
1F
100
AcDbEntity
  8
0
  6
Continuous
100
AcDbLine
 10
1119.158870655076
 20
136.7277021646657
 30
0.0
 11
1119.158870655076
 21
86.22770216466623
 31
0.0
  0
LINE
  5
5CE
330
1F
100
AcDbEntity
  8
0
  6
Continuous
100
AcDbLine
 10
1122.008870655075
 20
136.7277021646657
 30
0.0
 11
1122.008870655075
 21
86.22770216466623
 31
0.0
  0
LINE
  5
5CF
330
1F
100
AcDbEntity
  8
0
  6
Continuous
100
AcDbLine
 10
991.5088706550768
 20
130.5277021646659
 30
0.0
 11
968.1154861075274
 21
130.5277021646659
 31
0.0
  0
LINE
  5
5D0
330
1F
100
AcDbEntity
  8
0
  6
Continuous
100
AcDbLine
 10
991.5088706550768
 20
92.4277021646665
 30
0.0
 11
968.1154861075274
 21
92.4277021646665
 31
0.0
  0
LINE
  5
5D1
330
1F
100
AcDbEntity
  8
0
  6
Continuous
100
AcDbLine
 10
968.1154861075274
 20
130.5277021646659
 30
0.0
 11
965.8588706550762
 21
136.7277021646657
 31
0.0
  0
LINE
  5
5D2
330
1F
100
AcDbEntity
  8
0
  6
Continuous
100
AcDbLine
 10
968.1154861075274
 20
92.4277021646665
 30
0.0
 11
965.8588706550762
 21
86.22770216466623
 31
0.0
  0
LINE
  5
5D3
330
1F
100
AcDbEntity
  8
0
  6
Continuous
100
AcDbLine
 10
965.8588706550762
 20
136.7277021646657
 30
0.0
 11
963.0088706550768
 21
136.7277021646657
 31
0.0
  0
LINE
  5
5D4
330
1F
100
AcDbEntity
  8
0
  6
Continuous
100
AcDbLine
 10
965.8588706550762
 20
86.22770216466623
 30
0.0
 11
963.0088706550768
 21
86.22770216466623
 31
0.0
  0
LINE
  5
5D5
330
1F
100
AcDbEntity
  8
0
  6
Continuous
100
AcDbLine
 10
968.1154861075274
 20
130.5277021646659
 30
0.0
 11
968.1154861075274
 21
92.42770216466604
 31
0.0
  0
LINE
  5
5D6
330
1F
100
AcDbEntity
  8
0
  6
Continuous
100
AcDbLine
 10
965.8588706550762
 20
136.7277021646657
 30
0.0
 11
965.8588706550762
 21
86.22770216466623
 31
0.0
  0
LINE
  5
5D7
330
1F
100
AcDbEntity
  8
0
  6
Continuous
100
AcDbLine
 10
963.0088706550768
 20
136.7277021646657
 30
0.0
 11
963.0088706550768
 21
86.22770216466623
 31
0.0
  0
LINE
  5
5D8
330
1F
100
AcDbEntity
  8
0
  6
Continuous
100
AcDbLine
 10
991.5088706550742
 20
90.48394463990806
 30
0.0
 11
1019.944769039935
 21
90.48394463990806
 31
0.0
  0
LINE
  5
5D9
330
1F
100
AcDbEntity
  8
0
  6
Continuous
100
AcDbLine
 10
1022.542845251289
 20
90.48394463990806
 30
0.0
 11
1019.944769039935
 21
90.48394463990806
 31
0.0
  0
LINE
  5
5DA
330
1F
100
AcDbEntity
  8
0
  6
Continuous
100
AcDbLine
 10
1022.542845251289
 20
90.48394463990806
 30
0.0
 11
1029.518489598312
 21
90.48394463990806
 31
0.0
  0
LINE
  5
5DB
330
1F
100
AcDbEntity
  8
0
  6
Continuous
100
AcDbLine
 10
1029.518489598312
 20
90.48394463990806
 30
0.0
 11
1055.499251711845
 21
90.48394463990806
 31
0.0
  0
LINE
  5
5DC
330
1F
100
AcDbEntity
  8
0
  6
Continuous
100
AcDbLine
 10
1055.499251711845
 20
90.48394463990806
 30
0.0
 11
1062.474896058858
 21
90.48394463990806
 31
0.0
  0
LINE
  5
5DD
330
1F
100
AcDbEntity
  8
0
  6
Continuous
100
AcDbLine
 10
1065.072972270211
 20
90.48394463990806
 30
0.0
 11
1062.474896058858
 21
90.48394463990806
 31
0.0
  0
LINE
  5
5DE
330
1F
100
AcDbEntity
  8
0
  6
Continuous
100
AcDbLine
 10
1065.072972270211
 20
90.48394463990806
 30
0.0
 11
1093.508870655074
 21
90.48394463990806
 31
0.0
  0
LINE
  5
5DF
330
1F
100
AcDbEntity
  8
0
  6
Continuous
100
AcDbLine
 10
991.5088706550696
 20
108.3939290343435
 30
0.0
 11
991.5088706550696
 21
111.248056068616
 31
0.0
  0
LINE
  5
5E0
330
1F
100
AcDbEntity
  8
0
  6
Continuous
100
AcDbLine
 10
991.5088706550742
 20
90.48394463990806
 30
0.0
 11
991.5088706550731
 21
91.85002753486314
 31
0.0
  0
LINE
  5
5E1
330
1F
100
AcDbEntity
  8
0
  6
Continuous
100
AcDbLine
 10
1093.508870655072
 20
91.85002753486314
 30
0.0
 11
1093.508870655073
 21
90.48394463990806
 31
0.0
  0
LINE
  5
5E2
330
1F
100
AcDbEntity
  8
0
  6
Continuous
100
AcDbLine
 10
1093.508870655069
 20
111.248056068616
 30
0.0
 11
1093.508870655069
 21
108.3939290343435
 31
0.0
  0
LINE
  5
5E3
330
1F
100
AcDbEntity
  8
0
  6
Continuous
100
AcDbLine
 10
1016.22670256107
 20
82.1707546997284
 30
0.0
 11
1016.226702561073
 21
87.61714504987848
 31
0.0
  0
LINE
  5
5E4
330
1F
100
AcDbEntity
  8
0
  6
Continuous
100
AcDbLine
 10
1003.226702561071
 20
82.1707546997284
 30
0.0
 11
1003.226702561073
 21
87.61714504987848
 31
0.0
  0
ELLIPSE
  5
5E5
330
1F
100
AcDbEntity
  8
0
  6
Continuous
100
AcDbEllipse
 10
1009.72670256107
 20
82.1707546997284
 30
0.0
 11
-6.499999999999986
 21
-0.0000000000000001
 31
0.0
210
0.0
220
0.0
230
1.0
 40
0.8386705679454205
 41
0.0
 42
6.283185307179586
  0
ELLIPSE
  5
5E6
330
1F
100
AcDbEntity
  8
0
  6
Continuous
100
AcDbEllipse
 10
1009.726702561073
 20
87.61714504987848
 30
0.0
 11
6.500000000000005
 21
-0.0000000000029803
 31
0.0
210
0.0
220
0.0
230
1.0
 40
0.8386705679454205
 41
0.0
 42
0.5537578252690212
  0
ELLIPSE
  5
5E7
330
1F
100
AcDbEntity
  8
0
  6
Continuous
100
AcDbEllipse
 10
1009.726702561073
 20
87.61714504987848
 30
0.0
 11
-6.499999999999992
 21
0.000000000000026
 31
0.0
210
0.0
220
0.0
230
1.0
 40
0.8386705679454205
 41
5.729427481910768
 42
6.283185307179167
  0
LINE
  5
5E8
330
1F
100
AcDbEntity
  8
0
  6
Continuous
100
AcDbLine
 10
1068.7910387491
 20
87.61714504987848
 30
0.0
 11
1068.791038749097
 21
82.1707546997284
 31
0.0
  0
LINE
  5
5E9
330
1F
100
AcDbEntity
  8
0
  6
Continuous
100
AcDbLine
 10
1081.7910387491
 20
87.61714504987848
 30
0.0
 11
1081.791038749098
 21
82.1707546997284
 31
0.0
  0
ELLIPSE
  5
5EA
330
1F
100
AcDbEntity
  8
0
  6
Continuous
100
AcDbEllipse
 10
1075.291038749097
 20
82.1707546997284
 30
0.0
 11
6.499999999999986
 21
0.0000000000000001
 31
0.0
210
0.0
220
0.0
230
1.0
 40
0.8386705679454205
 41
0.0
 42
6.283185307179586
  0
ELLIPSE
  5
5EB
330
1F
100
AcDbEntity
  8
0
  6
Continuous
100
AcDbEllipse
 10
1075.2910387491
 20
87.61714504987848
 30
0.0
 11
6.500000000000022
 21
-0.0000000000029806
 31
0.0
210
0.0
220
0.0
230
1.0
 40
0.8386705679454205
 41
0.0
 42
0.5537578252690212
  0
ELLIPSE
  5
5EC
330
1F
100
AcDbEntity
  8
0
  6
Continuous
100
AcDbEllipse
 10
1075.2910387491
 20
87.61714504987848
 30
0.0
 11
-6.499999999999998
 21
-0.0000000000000001
 31
0.0
210
0.0
220
0.0
230
1.0
 40
0.8386705679454204
 41
5.729427481910818
 42
6.283185307179095
  0
LINE
  5
5ED
330
1F
100
AcDbEntity
  8
0
  6
Continuous
100
AcDbLine
 10
1081.791038749085
 20
147.7015653742949
 30
0.0
 11
1081.791038749088
 21
153.1479557244449
 31
0.0
  0
LINE
  5
5EE
330
1F
100
AcDbEntity
  8
0
  6
Continuous
100
AcDbLine
 10
1068.791038749085
 20
147.7015653742949
 30
0.0
 11
1068.791038749087
 21
153.1479557244449
 31
0.0
  0
LINE
  5
5EF
330
1F
100
AcDbEntity
  8
0
  6
Continuous
100
AcDbLine
 10
1003.22670256106
 20
153.1479557244449
 30
0.0
 11
1003.226702561058
 21
147.7015653742949
 31
0.0
  0
LINE
  5
5F0
330
1F
100
AcDbEntity
  8
0
  6
Continuous
100
AcDbLine
 10
1016.22670256106
 20
153.1479557244449
 30
0.0
 11
1016.226702561058
 21
147.7015653742949
 31
0.0
  0
ELLIPSE
  5
5F1
330
1F
100
AcDbEntity
  8
0
  6
Continuous
100
AcDbEllipse
 10
1075.291038749084
 20
147.7015653742949
 30
0.0
 11
-6.499999999999986
 21
-0.0000000000000001
 31
0.0
210
0.0
220
0.0
230
1.0
 40
0.8386705679454205
 41
0.0
 42
6.283185307179586
  0
ELLIPSE
  5
5F2
330
1F
100
AcDbEntity
  8
0
  6
Continuous
100
AcDbEllipse
 10
1009.726702561058
 20
147.7015653742949
 30
0.0
 11
6.499999999999986
 21
0.0000000000000001
 31
0.0
210
0.0
220
0.0
230
1.0
 40
0.8386705679454205
 41
0.0
 42
6.283185307179586
  0
ELLIPSE
  5
5F3
330
1F
100
AcDbEntity
  8
0
  6
Continuous
100
AcDbEllipse
 10
1009.726702561061
 20
153.1479557244454
 30
0.0
 11
-6.499999999999984
 21
-0.0000000000000224
 31
0.0
210
0.0
220
0.0
230
1.0
 40
0.8386705679454205
 41
3.141592653589295
 42
6.283185307179088
  0
ELLIPSE
  5
5F4
330
1F
100
AcDbEntity
  8
0
  6
Continuous
100
AcDbEllipse
 10
1075.291038749087
 20
153.1479557244454
 30
0.0
 11
-6.499999999999984
 21
0.0000000000000037
 31
0.0
210
0.0
220
0.0
230
1.0
 40
0.8386705679454205
 41
3.141592653589302
 42
6.283185307179095
  0
LINE
  5
5F5
330
1F
100
AcDbEntity
  8
0
  6
Continuous
100
AcDbLine
 10
991.5088706550696
 20
108.393929034343
 30
0.0
 11
991.5088706550731
 21
91.85002753486267
 31
0.0
  0
LINE
  5
5F6
330
1F
100
AcDbEntity
  8
0
  6
Continuous
100
AcDbLine
 10
991.5088706550713
 20
124.5339696984913
 30
0.0
 11
991.5088706550696
 21
111.2480560686156
 31
0.0
  0
LINE
  5
5F7
330
1F
100
AcDbEntity
  8
0
  6
Continuous
100
AcDbLine
 10
1093.508870655072
 20
91.85002753486267
 30
0.0
 11
1093.508870655069
 21
108.393929034343
 31
0.0
  0
LINE
  5
5F8
330
1F
100
AcDbEntity
  8
0
  6
Continuous
100
AcDbLine
 10
1093.508870655069
 20
111.2480560686156
 30
0.0
 11
1093.508870655071
 21
124.5339696984913
 31
0.0
  0
LINE
  5
5F9
330
1F
100
AcDbEntity
  8
0
  6
Continuous
100
AcDbLine
 10
1026.695031778951
 20
150.2811561344163
 30
0.0
 11
1058.322709531198
 21
150.2811561344163
 31
0.0
  0
LINE
  5
5FA
330
1F
100
AcDbEntity
  8
0
  6
Continuous
100
AcDbLine
 10
1014.886416021209
 20
171.3243348776034
 30
0.0
 11
1014.886416021206
 21
163.1547493523783
 31
0.0
  0
LINE
  5
5FB
330
1F
100
AcDbEntity
  8
0
  6
Continuous
100
AcDbLine
 10
1070.131325288942
 20
171.3243348776039
 30
0.0
 11
1070.131325288938
 21
163.1547493523783
 31
0.0
  0
ELLIPSE
  5
5FC
330
1F
100
AcDbEntity
  8
0
  6
Continuous
100
AcDbEllipse
 10
1042.508870655084
 20
128.552135912387
 30
0.0
 11
-57.99999999999996
 21
0.0000000000265954
 31
0.0
210
0.0
220
0.0
230
1.0
 40
0.8386705679454205
 41
5.20877314551436
 42
5.786801142051006
  0
ELLIPSE
  5
5FD
330
1F
100
AcDbEntity
  8
0
  6
Continuous
100
AcDbEllipse
 10
1042.508870655084
 20
128.552135912387
 30
0.0
 11
-57.99999999999993
 21
0.0000000000215772
 31
0.0
210
0.0
220
0.0
230
1.0
 40
0.8386705679454207
 41
3.637976818719311
 42
4.216004815255995
  0
LINE
  5
5FE
330
1F
100
AcDbEntity
  8
0
  6
Continuous
100
AcDbLine
 10
1070.131325288942
 20
171.3243348776039
 30
0.0
 11
1014.886416021209
 21
171.3243348776039
 31
0.0
  0
LINE
  5
5FF
330
1F
100
AcDbEntity
  8
0
  6
Continuous
100
AcDbLine
 10
991.5088706550795
 20
151.7182756282184
 30
0.0
 11
991.508870655076
 21
143.5486901029928
 31
0.0
  0
LINE
  5
600
330
1F
100
AcDbEntity
  8
0
  6
Continuous
100
AcDbLine
 10
1093.508870655079
 20
151.7182756282184
 30
0.0
 11
1093.508870655075
 21
143.5486901029928
 31
0.0
  0
ELLIPSE
  5
601
330
1F
100
AcDbEntity
  8
0
  6
Continuous
100
AcDbEllipse
 10
1042.508870655058
 20
120.3825503871946
 30
0.0
 11
-58.00000000004491
 21
0.0000000000316441
 31
0.0
210
0.0
220
0.0
230
1.0
 40
0.8386705679454204
 41
2.067180491924652
 42
2.085331674073243
  0
ELLIPSE
  5
602
330
1F
100
AcDbEntity
  8
0
  6
Continuous
100
AcDbEllipse
 10
1042.508870655079
 20
120.3825503871624
 30
0.0
 11
-58.00000000000094
 21
0.0000000000316108
 31
0.0
210
0.0
220
0.0
230
1.0
 40
0.8386705679454205
 41
2.314853923508945
 42
2.479643918489529
  0
LINE
  5
603
330
1F
100
AcDbEntity
  8
0
  6
Continuous
100
AcDbLine
 10
1070.131325288955
 20
77.61035142194558
 30
0.0
 11
1014.886416021222
 21
77.61035142194558
 31
0.0
  0
ELLIPSE
  5
604
330
1F
100
AcDbEntity
  8
0
  6
Continuous
100
AcDbEllipse
 10
1042.50887065508
 20
120.3825503871619
 30
0.0
 11
-57.99999999999981
 21
0.0000000000266176
 31
0.0
210
0.0
220
0.0
230
1.0
 40
0.8386705679454204
 41
0.6619487351015004
 42
0.8267387300820718
  0
ELLIPSE
  5
605
330
1F
100
AcDbEntity
  8
0
  6
Continuous
100
AcDbEllipse
 10
1042.508870655072
 20
120.3825503871505
 30
0.0
 11
-57.99999999998393
 21
0.0000000000265815
 31
0.0
210
0.0
220
0.0
230
1.0
 40
0.8386705679454205
 41
1.056260979517714
 42
1.07441216166632
  0
LINE
  5
606
330
1F
100
AcDbEntity
  8
0
  6
Continuous
100
AcDbLine
 10
991.5088706550777
 20
137.4075629164538
 30
0.0
 11
991.508870655076
 21
143.5486901029928
 31
0.0
  0
ELLIPSE
  5
607
330
1F
100
AcDbEntity
  8
0
  6
Continuous
100
AcDbEllipse
 10
1042.50887065508
 20
120.3825503871624
 30
0.0
 11
57.99999999999969
 21
-0.000000000031633
 31
0.0
210
0.0
220
0.0
230
1.0
 40
0.8386705679454205
 41
2.067180491924681
 42
2.645208488461374
  0
LINE
  5
608
330
1F
100
AcDbEntity
  8
0
  6
Continuous
100
AcDbLine
 10
1014.886416021206
 20
163.1547493523783
 30
0.0
 11
1070.131325288938
 21
163.1547493523783
 31
0.0
  0
ELLIPSE
  5
609
330
1F
100
AcDbEntity
  8
0
  6
Continuous
100
AcDbEllipse
 10
1042.50887065508
 20
120.3825503871619
 30
0.0
 11
57.99999999999994
 21
-0.0000000000266037
 31
0.0
210
0.0
220
0.0
230
1.0
 40
0.8386705679454205
 41
0.4963841651296726
 42
1.074412161666314
  0
LINE
  5
60A
330
1F
100
AcDbEntity
  8
0
  6
Continuous
100
AcDbLine
 10
1093.508870655075
 20
143.5486901029928
 30
0.0
 11
1093.508870655076
 21
137.4075629164538
 31
0.0
  0
LINE
  5
60B
330
1F
100
AcDbEntity
  8
0
  6
Continuous
100
AcDbLine
 10
1093.508870655076
 20
137.4075629164538
 30
0.0
 11
1093.508870655071
 21
124.5339696984917
 31
0.0
  0
LINE
  5
60C
330
1F
100
AcDbEntity
  8
0
  6
Continuous
100
AcDbLine
 10
1093.508870655071
 20
124.5339696984913
 30
0.0
 11
1081.017441129706
 21
124.5339696984913
 31
0.0
  0
LINE
  5
60D
330
1F
100
AcDbEntity
  8
0
  6
Continuous
100
AcDbLine
 10
1004.000300180435
 20
124.5339696984913
 30
0.0
 11
991.5088706550713
 21
124.5339696984913
 31
0.0
  0
LINE
  5
60E
330
1F
100
AcDbEntity
  8
0
  6
Continuous
100
AcDbLine
 10
991.5088706550713
 20
124.5339696984913
 30
0.0
 11
991.5088706550777
 21
137.4075629164538
 31
0.0
  0
ELLIPSE
  5
60F
330
1F
100
AcDbEntity
  8
0
  6
Continuous
100
AcDbEllipse
 10
1042.508870655066
 20
90.48394463990806
 30
0.0
 11
-0.0000000000086702
 21
-65.41630429974266
 31
0.0
210
0.0
220
0.0
230
1.0
 40
0.5961816464179764
 41
3.559099862035786
 42
4.045725439010748
  0
ELLIPSE
  5
610
330
1F
100
AcDbEntity
  8
0
  6
Continuous
100
AcDbEllipse
 10
1042.50887065508
 20
120.3825503871619
 30
0.0
 11
38.99999999999999
 21
-0.0000000000212691
 31
0.0
210
0.0
220
0.0
230
1.0
 40
0.8386705679454202
 41
1.988303535241932
 42
2.474929112216788
  0
LINE
  5
611
330
1F
100
AcDbEntity
  8
0
  6
Continuous
100
AcDbLine
 10
991.5088706550777
 20
137.4075629164538
 30
0.0
 11
1004.000300180441
 21
137.4075629164538
 31
0.0
  0
LINE
  5
612
330
1F
100
AcDbEntity
  8
0
  6
Continuous
100
AcDbLine
 10
1093.508870655076
 20
137.4075629164538
 30
0.0
 11
1081.017441129713
 21
137.4075629164538
 31
0.0
  0
ELLIPSE
  5
613
330
1F
100
AcDbEntity
  8
0
  6
Continuous
100
AcDbEllipse
 10
1042.508870655066
 20
90.48394463990806
 30
0.0
 11
-0.0000000000086658
 21
-65.41630429974266
 31
0.0
210
0.0
220
0.0
230
1.0
 40
0.5961816464179764
 41
2.23745986816832
 42
2.724085445143005
  0
ELLIPSE
  5
614
330
1F
100
AcDbEntity
  8
0
  6
Continuous
100
AcDbEllipse
 10
1042.50887065508
 20
120.3825503871619
 30
0.0
 11
-38.99999999999998
 21
0.0000000000145051
 31
0.0
210
0.0
220
0.0
230
1.0
 40
0.8386705679454204
 41
3.808256194963892
 42
4.294881771938745
  0
ELLIPSE
  5
615
330
1F
100
AcDbEntity
  8
0
  6
Continuous
100
AcDbEllipse
 10
1004.000300180438
 20
141.3073810573999
 30
0.0
 11
-0.0000000000022226
 21
-16.77341135890837
 31
0.0
210
0.0
220
0.0
230
1.0
 40
0.5961816464179761
 41
0.0
 42
0.9041327854209404
  0
ELLIPSE
  5
616
330
1F
100
AcDbEntity
  8
0
  6
Continuous
100
AcDbEllipse
 10
1004.000300180439
 20
145.7942685959081
 30
0.0
 11
9.999999999999953
 21
-0.0000000000000073
 31
0.0
210
0.0
220
0.0
230
1.0
 40
0.8386705679454204
 41
4.712388980385009
 42
5.616521765805986
  0
ELLIPSE
  5
617
330
1F
100
AcDbEntity
  8
0
  6
Continuous
100
AcDbEllipse
 10
1081.017441129709
 20
141.3073810573999
 30
0.0
 11
-0.0000000000022226
 21
-16.77341135890837
 31
0.0
210
0.0
220
0.0
230
1.0
 40
0.5961816464179761
 41
5.379052521758092
 42
6.283185307179124
  0
ELLIPSE
  5
618
330
1F
100
AcDbEntity
  8
0
  6
Continuous
100
AcDbEllipse
 10
1081.017441129711
 20
145.7942685959081
 30
0.0
 11
9.999999999999911
 21
-0.0000000000037234
 31
0.0
210
0.0
220
0.0
230
1.0
 40
0.8386705679454205
 41
3.808256194963905
 42
4.712388980385144
  0
LINE
  5
619
330
1F
100
AcDbEntity
  8
0
  6
Continuous
100
AcDbLine
 10
978.0088706551051
 20
173.7571758186339
 30
0.0
 11
978.008870655104
 21
170.2798750842009
 31
0.0
  0
LINE
  5
61A
330
1F
100
AcDbEntity
  8
0
  6
Continuous
100
AcDbLine
 10
1107.008870655105
 20
173.7571758186343
 30
0.0
 11
1107.008870655103
 21
170.2798750842005
 31
0.0
  0
LINE
  5
61B
330
1F
100
AcDbEntity
  8
0
  6
Continuous
100
AcDbLine
 10
991.7326911054724
 20
210.9332622577933
 30
0.0
 11
983.6976566406875
 21
195.9699339073338
 31
0.0
  0
LINE
  5
61C
330
1F
100
AcDbEntity
  8
0
  6
Continuous
100
AcDbLine
 10
1093.285050204746
 20
210.9332622577938
 30
0.0
 11
1101.320084669513
 21
195.9699339073338
 31
0.0
  0
ELLIPSE
  5
61D
330
1F
100
AcDbEntity
  8
0
  6
Continuous
100
AcDbEllipse
 10
1042.50887065509
 20
142.1681117877631
 30
0.0
 11
-40.99999999999989
 21
0.0000000000188072
 31
0.0
210
0.0
220
0.0
230
1.0
 40
0.8386705679454205
 41
4.424328442330447
 42
5.000449518440021
  0
ELLIPSE
  5
61E
330
1F
100
AcDbEntity
  8
0
  6
Continuous
100
AcDbEllipse
 10
1042.50887065509
 20
142.1681117877627
 30
0.0
 11
-64.49999999999995
 21
0.0000000000295791
 31
0.0
210
0.0
220
0.0
230
1.0
 40
0.8386705679454207
 41
4.407609398171993
 42
5.017168562598477
  0
ELLIPSE
  5
61F
330
1F
100
AcDbEntity
  8
0
  6
Continuous
100
AcDbEllipse
 10
1042.50887065509
 20
142.1681117877631
 30
0.0
 11
-64.49999999999987
 21
0.0000000000295597
 31
0.0
210
0.0
220
0.0
230
1.0
 40
0.8386705679454205
 41
5.454806949368589
 42
6.064366113795074
  0
ELLIPSE
  5
620
330
1F
100
AcDbEntity
  8
0
  6
Continuous
100
AcDbEllipse
 10
1042.50887065509
 20
142.1681117877631
 30
0.0
 11
64.49999999999985
 21
-0.0000000000295791
 31
0.0
210
0.0
220
0.0
230
1.0
 40
0.8386705679454204
 41
0.2188191933855989
 42
0.8283783578120861
  0
ELLIPSE
  5
621
330
1F
100
AcDbEntity
  8
0
  6
Continuous
100
AcDbEllipse
 10
1042.508870655105
 20
173.7571758186343
 30
0.0
 11
64.49999999999985
 21
0.0000000000000458
 31
0.0
210
0.0
220
0.0
230
1.0
 40
0.8386705679454205
 41
0.0
 42
3.141592653589331
  0
LINE
  5
622
330
1F
100
AcDbEntity
  8
0
  6
Continuous
100
AcDbLine
 10
967.5088706550905
 20
142.1681117877631
 30
0.0
 11
967.5088706550978
 21
156.8395012617491
 31
0.0
  0
LINE
  5
623
330
1F
100
AcDbEntity
  8
0
  6
Continuous
100
AcDbLine
 10
1117.50887065509
 20
142.1681117877627
 30
0.0
 11
1117.508870655097
 21
156.8395012617486
 31
0.0
  0
LINE
  5
624
330
1F
100
AcDbEntity
  8
0
  6
Continuous
100
AcDbLine
 10
1105.599265060988
 20
130.5277021646659
 30
0.0
 11
1115.638998109253
 21
138.5180109735031
 31
0.0
  0
ELLIPSE
  5
625
330
1F
100
AcDbEntity
  8
0
  6
Continuous
100
AcDbEllipse
 10
1077.00887065508
 20
192.2835029778095
 30
0.0
 11
5.999999999999987
 21
-0.0000000000027506
 31
0.0
210
0.0
220
0.0
230
1.0
 40
0.8386705679454205
 41
0.2356194490197675
 42
1.858775653374505
  0
LINE
  5
626
330
1F
100
AcDbEntity
  8
0
  6
Continuous
100
AcDbLine
 10
1086.115484522128
 20
199.9997916312047
 30
0.0
 11
1086.115484522119
 21
182.0267034757087
 31
0.0
  0
LINE
  5
627
330
1F
100
AcDbEntity
  8
0
  6
Continuous
100
AcDbLine
 10
1086.115484522119
 20
182.0267034757087
 30
0.0
 11
1082.843090177466
 21
193.4582055131452
 31
0.0
  0
LINE
  5
628
330
1F
100
AcDbEntity
  8
0
  6
Continuous
100
AcDbLine
 10
1023.153522116296
 20
211.7424162570848
 30
0.0
 11
1023.153522116288
 21
193.7693281015893
 31
0.0
  0
LINE
  5
629
330
1F
100
AcDbEntity
  8
0
  6
Continuous
100
AcDbLine
 10
1023.153522116288
 20
193.7693281015893
 30
0.0
 11
1009.712962723303
 21
197.1083063274047
 31
0.0
  0
LINE
  5
62A
330
1F
100
AcDbEntity
  8
0
  6
Continuous
100
AcDbLine
 10
979.5469082492672
 20
171.8838245691388
 30
0.0
 11
979.5469082492591
 21
153.9107364136428
 31
0.0
  0
LINE
  5
62B
330
1F
100
AcDbEntity
  8
0
  6
Continuous
100
AcDbLine
 10
979.5469082492591
 20
153.9107364136428
 30
0.0
 11
969.3787432009276
 21
145.8182126020222
 31
0.0
  0
LINE
  5
62C
330
1F
100
AcDbEntity
  8
0
  6
Continuous
100
AcDbLine
 10
969.3787432009285
 20
138.5180109735031
 30
0.0
 11
979.4184762491967
 21
130.5277021646659
 31
0.0
  0
ELLIPSE
  5
62D
330
1F
100
AcDbEntity
  8
0
  6
Continuous
100
AcDbEllipse
 10
973.5088706550905
 20
142.1681117877631
 30
0.0
 11
-5.999999999999981
 21
0.000000000002752
 31
0.0
210
0.0
220
0.0
230
1.0
 40
0.8386705679454205
 41
5.471607205002803
 42
7.094763409357511
  0
LINE
  5
62E
330
1F
100
AcDbEntity
  8
0
  6
Continuous
100
AcDbLine
 10
1115.638998109252
 20
145.8182126020222
 30
0.0
 11
1105.470833060917
 21
153.9107364136428
 31
0.0
  0
LINE
  5
62F
330
1F
100
AcDbEntity
  8
0
  6
Continuous
100
AcDbLine
 10
1105.470833060917
 20
153.9107364136428
 30
0.0
 11
1105.470833060925
 21
171.8838245691383
 31
0.0
  0
ELLIPSE
  5
630
330
1F
100
AcDbEntity
  8
0
  6
Continuous
100
AcDbEllipse
 10
1111.50887065509
 20
142.1681117877627
 30
0.0
 11
5.999999999999974
 21
-0.0000000000027506
 31
0.0
210
0.0
220
0.0
230
1.0
 40
0.8386705679454205
 41
5.471607205002803
 42
7.094763409357511
  0
LINE
  5
631
330
1F
100
AcDbEntity
  8
0
  6
Continuous
100
AcDbLine
 10
1002.174651132694
 20
193.4582055131452
 30
0.0
 11
998.9022567880466
 21
182.0267034757087
 31
0.0
  0
LINE
  5
632
330
1F
100
AcDbEntity
  8
0
  6
Continuous
100
AcDbLine
 10
998.9022567880466
 20
182.0267034757087
 30
0.0
 11
998.9022567880548
 21
199.9997916312047
 31
0.0
  0
ELLIPSE
  5
633
330
1F
100
AcDbEntity
  8
0
  6
Continuous
100
AcDbEllipse
 10
1008.008870655081
 20
192.2835029778095
 30
0.0
 11
-5.999999999999975
 21
0.0000000000027509
 31
0.0
210
0.0
220
0.0
230
1.0
 40
0.8386705679454207
 41
4.424409653806187
 42
6.047565858160846
  0
LINE
  5
634
330
1F
100
AcDbEntity
  8
0
  6
Continuous
100
AcDbLine
 10
1075.304778586856
 20
197.1083063274047
 30
0.0
 11
1061.864219193872
 21
193.7693281015893
 31
0.0
  0
LINE
  5
635
330
1F
100
AcDbEntity
  8
0
  6
Continuous
100
AcDbLine
 10
1061.864219193872
 20
193.7693281015893
 30
0.0
 11
1061.864219193881
 21
211.7424162570848
 31
0.0
  0
SPLINE
  5
636
330
1F
100
AcDbEntity
  8
0
  6
Continuous
100
AcDbSpline
210
0.0
220
0.0
230
1.0
 70
    12
 71
     2
 72
     6
 73
     3
 74
     0
 42
0.0000000001
 43
0.0000000001
 40
0.0
 40
0.0
 40
0.0
 40
1.617671887431031
 40
1.617671887431031
 40
1.617671887431031
 10
1086.115484522128
 20
199.9997916312047
 30
0.0
 41
1.0
 10
1084.583325932249
 20
204.1991611017163
 30
0.0
 41
1.010371862764367
 10
1082.843090177473
 20
208.6768838780178
 30
0.0
 41
1.01028117927845
  0
SPLINE
  5
637
330
1F
100
AcDbEntity
  8
0
  6
Continuous
100
AcDbSpline
210
0.0
220
0.0
230
1.0
 70
     8
 71
     3
 72
    14
 73
    10
 74
     0
 42
0.0000000001
 43
0.0000000001
 40
0.54783826465067
 40
0.54783826465067
 40
0.54783826465067
 40
0.54783826465067
 40
0.7836152875134732
 40
0.7836152875134732
 40
1.030564880727202
 40
1.030564880727202
 40
1.277514473940932
 40
1.277514473940932
 40
1.513291496803739
 40
1.513291496803739
 40
1.513291496803739
 40
1.513291496803739
 10
1075.304778586863
 20
212.3269846922774
 30
0.0
 10
1076.009899489876
 20
212.3441675057154
 30
0.0
 10
1076.816378373552
 20
212.2783742473723
 30
0.0
 10
1078.459477233188
 20
211.9406670736096
 30
0.0
 10
1079.295988584495
 20
211.6579348146021
 30
0.0
 10
1080.721752725678
 20
210.9675702959541
 30
0.0
 10
1081.378393305872
 20
210.5273084182133
 30
0.0
 10
1082.345374662699
 20
209.6011973206203
 30
0.0
 10
1082.671413271189
 20
209.1186180461175
 30
0.0
 10
1082.843090177473
 20
208.6768838780178
 30
0.0
  0
SPLINE
  5
638
330
1F
100
AcDbEntity
  8
0
  6
Continuous
100
AcDbSpline
210
0.0
220
0.0
230
1.0
 70
    12
 71
     2
 72
     6
 73
     3
 74
     0
 42
0.0000000001
 43
0.0000000001
 40
1.589629741223895
 40
1.589629741223895
 40
1.589629741223895
 40
3.207301628655474
 40
3.207301628655474
 40
3.207301628655474
 10
1075.304778586863
 20
212.3269846922774
 30
0.0
 41
1.010281179278433
 10
1068.157185859208
 20
212.1528078215499
 30
0.0
 41
1.010371862764353
 10
1061.864219193881
 20
211.7424162570848
 30
0.0
 41
1.0
  0
SPLINE
  5
639
330
1F
100
AcDbEntity
  8
0
  6
Continuous
100
AcDbSpline
210
0.0
220
0.0
230
1.0
 70
     8
 71
     3
 72
    10
 73
     6
 74
     0
 42
0.0000000001
 43
0.0000000001
 40
0.54783826465067
 40
0.54783826465067
 40
0.54783826465067
 40
0.54783826465067
 40
0.7836152875134736
 40
0.7836152875134736
 40
1.030564880727203
 40
1.030564880727203
 40
1.030564880727204
 40
1.030564880727204
 10
1115.638998109258
 20
161.0368909668948
 30
0.0
 10
1116.172442105987
 20
160.4543523845375
 30
0.0
 10
1116.652882381175
 20
159.7654242752144
 30
0.0
 10
1117.328999883985
 20
158.3047370506463
 30
0.0
 10
1117.508870655097
 20
157.5298657803971
 30
0.0
 10
1117.508870655097
 20
156.8395012617491
 30
0.0
  0
SPLINE
  5
63A
330
1F
100
AcDbEntity
  8
0
  6
Continuous
100
AcDbSpline
210
0.0
220
0.0
230
1.0
 70
    12
 71
     2
 72
     6
 73
     3
 74
     0
 42
0.0000000001
 43
0.0000000001
 40
1.589629741223882
 40
1.589629741223882
 40
1.589629741223882
 40
3.20730162865547
 40
3.20730162865547
 40
3.20730162865547
 10
1115.638998109258
 20
161.0368909668948
 30
0.0
 41
1.010281179278441
 10
1110.231641136378
 20
166.9419045851898
 30
0.0
 41
1.010371862764361
 10
1105.470833060925
 20
171.8838245691388
 30
0.0
 41
1.0
  0
SPLINE
  5
63B
330
1F
100
AcDbEntity
  8
0
  6
Continuous
100
AcDbSpline
210
0.0
220
0.0
230
1.0
 70
     8
 71
     3
 72
    14
 73
    10
 74
     0
 42
0.0000000001
 43
0.0000000001
 40
0.5478382646506683
 40
0.5478382646506683
 40
0.5478382646506683
 40
0.5478382646506683
 40
0.7836152875134726
 40
0.7836152875134726
 40
1.030564880727201
 40
1.030564880727201
 40
1.277514473940931
 40
1.277514473940931
 40
1.513291496803739
 40
1.513291496803739
 40
1.513291496803739
 40
1.513291496803739
 10
1002.174651132702
 20
208.6768838780178
 30
0.0
 10
1002.346328038985
 20
209.1186180461175
 30
0.0
 10
1002.672366647475
 20
209.6011973206203
 30
0.0
 10
1003.6393480043
 20
210.5273084182133
 30
0.0
 10
1004.295988584495
 20
210.9675702959546
 30
0.0
 10
1005.721752725678
 20
211.6579348146021
 30
0.0
 10
1006.558264076984
 20
211.9406670736096
 30
0.0
 10
1008.20136293662
 20
212.2783742473723
 30
0.0
 10
1009.007841820297
 20
212.3441675057154
 30
0.0
 10
1009.71296272331
 20
212.3269846922774
 30
0.0
  0
SPLINE
  5
63C
330
1F
100
AcDbEntity
  8
0
  6
Continuous
100
AcDbSpline
210
0.0
220
0.0
230
1.0
 70
    12
 71
     2
 72
     6
 73
     3
 74
     0
 42
0.0000000001
 43
0.0000000001
 40
1.589629741223896
 40
1.589629741223896
 40
1.589629741223896
 40
3.207301628655471
 40
3.207301628655471
 40
3.207301628655471
 10
1002.174651132702
 20
208.6768838780178
 30
0.0
 41
1.01028117927841
 10
1000.434415377928
 20
204.1991611017149
 30
0.0
 41
1.01037186276433
 10
998.9022567880548
 20
199.9997916312047
 30
0.0
 41
1.0
  0
SPLINE
  5
63D
330
1F
100
AcDbEntity
  8
0
  6
Continuous
100
AcDbSpline
210
0.0
220
0.0
230
1.0
 70
    12
 71
     2
 72
     6
 73
     3
 74
     0
 42
0.0000000001
 43
0.0000000001
 40
0.0
 40
0.0
 40
0.0
 40
1.617671887431019
 40
1.617671887431019
 40
1.617671887431019
 10
1023.153522116296
 20
211.7424162570848
 30
0.0
 41
1.0
 10
1016.860555450965
 20
212.1528078215499
 30
0.0
 41
1.010371862764352
 10
1009.71296272331
 20
212.3269846922774
 30
0.0
 41
1.010281179278436
  0
SPLINE
  5
63E
330
1F
100
AcDbEntity
  8
0
  6
Continuous
100
AcDbSpline
210
0.0
220
0.0
230
1.0
 70
     8
 71
     3
 72
    10
 73
     6
 74
     0
 42
0.0000000001
 43
0.0000000001
 40
1.030564880727203
 40
1.030564880727203
 40
1.030564880727205
 40
1.030564880727205
 40
1.277514473940933
 40
1.277514473940933
 40
1.513291496803741
 40
1.513291496803741
 40
1.513291496803741
 40
1.513291496803741
 10
967.5088706550978
 20
156.8395012617491
 30
0.0
 10
967.5088706550978
 20
157.5298657803976
 30
0.0
 10
967.6887414262091
 20
158.3047370506467
 30
0.0
 10
968.3648589290188
 20
159.7654242752144
 30
0.0
 10
968.8452992042057
 20
160.4543523845375
 30
0.0
 10
969.378743200934
 20
161.0368909668953
 30
0.0
  0
SPLINE
  5
63F
330
1F
100
AcDbEntity
  8
0
  6
Continuous
100
AcDbSpline
210
0.0
220
0.0
230
1.0
 70
    12
 71
     2
 72
     6
 73
     3
 74
     0
 42
0.0000000001
 43
0.0000000001
 40
0.0
 40
0.0
 40
0.0
 40
1.61767188743102
 40
1.61767188743102
 40
1.61767188743102
 10
979.5469082492672
 20
171.8838245691388
 30
0.0
 41
1.0
 10
974.7861001738128
 20
166.9419045851871
 30
0.0
 41
1.010371862764354
 10
969.378743200934
 20
161.0368909668953
 30
0.0
 41
1.010281179278437
  0
SPLINE
  5
640
330
1F
100
AcDbEntity
  8
0
  6
Continuous
100
AcDbSpline
210
0.0
220
0.0
230
1.0
 70
     8
 71
     3
 72
    22
 73
    18
 74
     0
 42
0.0000000001
 43
0.0000000001
 40
0.4231456147794728
 40
0.4231456147794728
 40
0.4231456147794728
 40
0.4231456147794728
 40
0.7368198540047731
 40
0.7368198540047731
 40
1.058335588245783
 40
1.058335588245783
 40
1.38481095226135
 40
1.38481095226135
 40
1.713208695042113
 40
1.713208695042113
 40
2.041706726668101
 40
2.041706726668101
 40
2.368569213082856
 40
2.368569213082856
 40
2.690830350897853
 40
2.690830350897853
 40
2.718447038810325
 40
2.718447038810325
 40
2.718447038810325
 40
2.718447038810325
 10
1582.739016978464
 20
210.9332622577947
 30
0.0
 10
1585.211435015073
 20
215.537549030126
 30
0.0
 10
1588.526626166492
 20
219.7674897132426
 30
0.0
 10
1596.558876340163
 20
227.1923750533417
 30
0.0
 10
1601.307330063928
 20
230.3597037429356
 30
0.0
 10
1611.757656604649
 20
235.2904906261167
 30
0.0
 10
1617.472324497185
 20
237.0317118096152
 30
0.0
 10
1629.271259483583
 20
238.8936330825488
 30
0.0
 10
1635.356364616338
 20
239.0045952441671
 30
0.0
 10
1647.270555290669
 20
237.5719005670719
 30
0.0
 10
1653.098365981166
 20
236.0277998143058
 30
0.0
 10
1663.887527102813
 20
231.4210758454285
 30
0.0
 10
1668.852184406005
 20
228.3658616128835
 30
0.0
 10
1677.363976129746
 20
221.0483733288385
 30
0.0
 10
1680.928541799994
 20
216.8026509885728
 30
0.0
 10
1683.849522941431
 20
211.7411567264801
 30
0.0
 10
1684.073698025899
 20
211.3386355239097
 30
0.0
 10
1684.291376077736
 20
210.9332622577942
 30
0.0
  0
LINE
  5
641
330
1F
100
AcDbEntity
  8
0
  6
Continuous
100
AcDbLine
 10
1661.137651161951
 20
88.51313517759335
 30
0.0
 11
1661.13765116195
 21
86.32457598218641
 31
0.0
  0
LINE
  5
642
330
1F
100
AcDbEntity
  8
0
  6
Continuous
100
AcDbLine
 10
1605.892741894219
 20
88.51313517759335
 30
0.0
 11
1605.892741894217
 21
86.32457598218596
 31
0.0
  0
LINE
  5
643
330
1F
100
AcDbEntity
  8
0
  6
Continuous
100
AcDbLine
 10
1582.515196528081
 20
109.0512421386258
 30
0.0
 11
1582.515196528079
 21
105.9306352315714
 31
0.0
  0
LINE
  5
644
330
1F
100
AcDbEntity
  8
0
  6
Continuous
100
AcDbLine
 10
1684.515196528082
 20
109.0512421386258
 30
0.0
 11
1684.515196528079
 21
105.9306352315714
 31
0.0
  0
ELLIPSE
  5
645
330
1F
100
AcDbEntity
  8
0
  6
Continuous
100
AcDbEllipse
 10
1633.515196528075
 20
129.0967749474027
 30
0.0
 11
-57.99999999999956
 21
0.0000000000263789
 31
0.0
210
0.0
220
0.0
230
1.0
 40
0.8386705679454205
 41
0.4963841651296744
 42
0.7718877030957519
  0
ELLIPSE
  5
646
330
1F
100
AcDbEntity
  8
0
  6
Continuous
100
AcDbEllipse
 10
1633.515196528068
 20
129.0967749473937
 30
0.0
 11
-57.99999999998746
 21
0.0000000000263622
 31
0.0
210
0.0
220
0.0
230
1.0
 40
0.8386705679454205
 41
1.015069451778071
 42
1.074412161666332
  0
ELLIPSE
  5
647
330
1F
100
AcDbEntity
  8
0
  6
Continuous
100
AcDbEllipse
 10
1633.515196528065
 20
129.0967749474168
 30
0.0
 11
-58.00000000001944
 21
0.0000000000314082
 31
0.0
210
0.0
220
0.0
230
1.0
 40
0.8386705679454207
 41
2.067180491924656
 42
2.12652320181289
  0
ELLIPSE
  5
648
330
1F
100
AcDbEntity
  8
0
  6
Continuous
100
AcDbEllipse
 10
1633.515196528074
 20
129.0967749474032
 30
0.0
 11
-58.00000000000065
 21
0.0000000000314221
 31
0.0
210
0.0
220
0.0
230
1.0
 40
0.8386705679454204
 41
2.369704950495279
 42
2.645208488461367
  0
LINE
  5
649
330
1F
100
AcDbEntity
  8
0
  6
Continuous
100
AcDbLine
 10
1661.13765116195
 20
86.32457598218641
 30
0.0
 11
1605.892741894217
 21
86.32457598218641
 31
0.0
  0
ELLIPSE
  5
64A
330
1F
100
AcDbEntity
  8
0
  6
Continuous
100
AcDbEllipse
 10
1633.515196528019
 20
132.9092481925484
 30
0.0
 11
-57.0000000000758
 21
0.0000000000308614
 31
0.0
210
0.0
220
0.0
230
1.0
 40
0.8386705679454205
 41
2.439856151097876
 42
2.463633345167217
  0
ELLIPSE
  5
64B
330
1F
100
AcDbEntity
  8
0
  6
Continuous
100
AcDbEllipse
 10
1633.515196528077
 20
132.3646091574926
 30
0.0
 11
57.99999999999898
 21
-0.0000000000263817
 31
0.0
210
0.0
220
0.0
230
1.0
 40
0.8386705679454207
 41
5.542834081796529
 42
5.775162316063861
  0
LINE
  5
64C
330
1F
100
AcDbEntity
  8
0
  6
Continuous
100
AcDbLine
 10
1648.69073826234
 20
89.59241019227674
 30
0.0
 11
1656.793190385281
 21
89.59241019227674
 31
0.0
  0
LINE
  5
64D
330
1F
100
AcDbEntity
  8
0
  6
Continuous
100
AcDbLine
 10
1610.237202670889
 20
89.59241019227674
 30
0.0
 11
1618.33965479383
 21
89.59241019227674
 31
0.0
  0
ELLIPSE
  5
64E
330
1F
100
AcDbEntity
  8
0
  6
Continuous
100
AcDbEllipse
 10
1633.515196528078
 20
132.9092481925092
 30
0.0
 11
-57.00000000000205
 21
0.0000000000259459
 31
0.0
210
0.0
220
0.0
230
1.0
 40
0.8386705679454204
 41
0.6779593084237874
 42
0.7017365024931595
  0
ELLIPSE
  5
64F
330
1F
100
AcDbEntity
  8
0
  6
Continuous
100
AcDbEllipse
 10
1633.515196528077
 20
132.3646091574935
 30
0.0
 11
58.00000000000096
 21
-0.0000000000213579
 31
0.0
210
0.0
220
0.0
230
1.0
 40
0.8386705679454205
 41
3.649615644706445
 42
3.88194387897378
  0
LINE
  5
650
330
1F
100
AcDbEntity
  8
0
  6
Continuous
100
AcDbLine
 10
1559.121811980518
 20
92.42770216466695
 30
0.0
 11
1582.515196528068
 21
92.42770216466695
 31
0.0
  0
LINE
  5
651
330
1F
100
AcDbEntity
  8
0
  6
Continuous
100
AcDbLine
 10
1559.121811980518
 20
130.5277021646664
 30
0.0
 11
1570.424802122172
 21
130.5277021646664
 31
0.0
  0
LINE
  5
652
330
1F
100
AcDbEntity
  8
0
  6
Continuous
100
AcDbLine
 10
1559.121811980518
 20
130.5277021646664
 30
0.0
 11
1556.865196528067
 21
136.7277021646662
 31
0.0
  0
LINE
  5
653
330
1F
100
AcDbEntity
  8
0
  6
Continuous
100
AcDbLine
 10
1559.121811980518
 20
92.42770216466695
 30
0.0
 11
1556.865196528067
 21
86.22770216466667
 31
0.0
  0
LINE
  5
654
330
1F
100
AcDbEntity
  8
0
  6
Continuous
100
AcDbLine
 10
1554.015196528067
 20
86.22770216466667
 30
0.0
 11
1556.865196528067
 21
86.22770216466667
 31
0.0
  0
LINE
  5
655
330
1F
100
AcDbEntity
  8
0
  6
Continuous
100
AcDbLine
 10
1554.015196528067
 20
136.7277021646662
 30
0.0
 11
1556.865196528067
 21
136.7277021646662
 31
0.0
  0
LINE
  5
656
330
1F
100
AcDbEntity
  8
0
  6
Continuous
100
AcDbLine
 10
1559.121811980518
 20
92.4277021646665
 30
0.0
 11
1559.121811980518
 21
130.5277021646664
 31
0.0
  0
LINE
  5
657
330
1F
100
AcDbEntity
  8
0
  6
Continuous
100
AcDbLine
 10
1556.865196528067
 20
86.22770216466667
 30
0.0
 11
1556.865196528067
 21
136.7277021646662
 31
0.0
  0
LINE
  5
658
330
1F
100
AcDbEntity
  8
0
  6
Continuous
100
AcDbLine
 10
1554.015196528067
 20
86.22770216466667
 30
0.0
 11
1554.015196528067
 21
136.7277021646662
 31
0.0
  0
LINE
  5
659
330
1F
100
AcDbEntity
  8
0
  6
Continuous
100
AcDbLine
 10
1684.515196528067
 20
92.42770216466695
 30
0.0
 11
1707.908581075616
 21
92.42770216466695
 31
0.0
  0
LINE
  5
65A
330
1F
100
AcDbEntity
  8
0
  6
Continuous
100
AcDbLine
 10
1696.605590933963
 20
130.5277021646664
 30
0.0
 11
1707.908581075616
 21
130.5277021646664
 31
0.0
  0
LINE
  5
65B
330
1F
100
AcDbEntity
  8
0
  6
Continuous
100
AcDbLine
 10
1707.908581075616
 20
92.42770216466695
 30
0.0
 11
1710.165196528067
 21
86.22770216466667
 31
0.0
  0
LINE
  5
65C
330
1F
100
AcDbEntity
  8
0
  6
Continuous
100
AcDbLine
 10
1707.908581075616
 20
130.5277021646664
 30
0.0
 11
1710.165196528067
 21
136.7277021646662
 31
0.0
  0
LINE
  5
65D
330
1F
100
AcDbEntity
  8
0
  6
Continuous
100
AcDbLine
 10
1710.165196528068
 20
86.22770216466667
 30
0.0
 11
1713.015196528067
 21
86.22770216466667
 31
0.0
  0
LINE
  5
65E
330
1F
100
AcDbEntity
  8
0
  6
Continuous
100
AcDbLine
 10
1710.165196528068
 20
136.7277021646662
 30
0.0
 11
1713.015196528067
 21
136.7277021646662
 31
0.0
  0
LINE
  5
65F
330
1F
100
AcDbEntity
  8
0
  6
Continuous
100
AcDbLine
 10
1707.908581075616
 20
92.4277021646665
 30
0.0
 11
1707.908581075616
 21
130.5277021646664
 31
0.0
  0
LINE
  5
660
330
1F
100
AcDbEntity
  8
0
  6
Continuous
100
AcDbLine
 10
1710.165196528067
 20
86.22770216466667
 30
0.0
 11
1710.165196528067
 21
136.7277021646662
 31
0.0
  0
LINE
  5
661
330
1F
100
AcDbEntity
  8
0
  6
Continuous
100
AcDbLine
 10
1713.015196528067
 20
86.22770216466667
 30
0.0
 11
1713.015196528067
 21
136.7277021646662
 31
0.0
  0
LINE
  5
662
330
1F
100
AcDbEntity
  8
0
  6
Continuous
100
AcDbLine
 10
1594.233028434062
 20
84.59468507596582
 30
0.0
 11
1594.233028434061
 21
82.17075469972886
 31
0.0
  0
ELLIPSE
  5
663
330
1F
100
AcDbEntity
  8
0
  6
Continuous
100
AcDbEllipse
 10
1600.733028434062
 20
82.17075469972886
 30
0.0
 11
-6.499999999999984
 21
0.0000000000000299
 31
0.0
210
0.0
220
0.0
230
1.0
 40
0.8386705679454205
 41
0.0
 42
2.281138143315462
  0
LINE
  5
664
330
1F
100
AcDbEntity
  8
0
  6
Continuous
100
AcDbLine
 10
1672.797364622089
 20
82.17075469972886
 30
0.0
 11
1672.79736462209
 21
84.59468507596582
 31
0.0
  0
ELLIPSE
  5
665
330
1F
100
AcDbEntity
  8
0
  6
Continuous
100
AcDbEllipse
 10
1666.297364622089
 20
82.17075469972886
 30
0.0
 11
6.499999999999989
 21
-0.0000000000000336
 31
0.0
210
0.0
220
0.0
230
1.0
 40
0.8386705679454205
 41
4.002047163863728
 42
6.28318530717917
  0
LINE
  5
666
330
1F
100
AcDbEntity
  8
0
  6
Continuous
100
AcDbLine
 10
1587.765032593937
 20
90.48394463990851
 30
0.0
 11
1582.515196528069
 21
90.48394463990851
 31
0.0
  0
LINE
  5
667
330
1F
100
AcDbEntity
  8
0
  6
Continuous
100
AcDbLine
 10
1684.515196528072
 20
97.21641067133104
 30
0.0
 11
1684.515196528069
 21
90.48394463990851
 31
0.0
  0
LINE
  5
668
330
1F
100
AcDbEntity
  8
0
  6
Continuous
100
AcDbLine
 10
1684.515196528069
 20
90.48394463990851
 30
0.0
 11
1679.265360462201
 21
90.48394463990851
 31
0.0
  0
LINE
  5
669
330
1F
100
AcDbEntity
  8
0
  6
Continuous
100
AcDbLine
 10
1582.515196528069
 20
90.48394463990851
 30
0.0
 11
1582.515196528072
 21
97.21641067133104
 31
0.0
  0
LINE
  5
66A
330
1F
100
AcDbEntity
  8
0
  6
Continuous
100
AcDbLine
 10
1661.13765116195
 20
85.77993694717113
 30
0.0
 11
1661.137651161945
 21
77.61035142194604
 31
0.0
  0
LINE
  5
66B
330
1F
100
AcDbEntity
  8
0
  6
Continuous
100
AcDbLine
 10
1605.892741894217
 20
85.77993694717113
 30
0.0
 11
1605.892741894213
 21
77.61035142194604
 31
0.0
  0
ELLIPSE
  5
66C
330
1F
100
AcDbEntity
  8
0
  6
Continuous
100
AcDbEllipse
 10
1633.51519652808
 20
128.5521359123807
 30
0.0
 11
-57.99999999999044
 21
0.0000000000314276
 31
0.0
210
0.0
220
0.0
230
1.0
 40
0.8386705679454207
 41
2.067180491924649
 42
2.140802456409723
  0
ELLIPSE
  5
66D
330
1F
100
AcDbEntity
  8
0
  6
Continuous
100
AcDbEllipse
 10
1633.515196528074
 20
128.5521359123879
 30
0.0
 11
-58.00000000000034
 21
0.0000000000314165
 31
0.0
210
0.0
220
0.0
230
1.0
 40
0.8386705679454207
 41
2.364610977802209
 42
2.645208488461367
  0
LINE
  5
66E
330
1F
100
AcDbEntity
  8
0
  6
Continuous
100
AcDbLine
 10
1661.13765116195
 20
85.77993694717113
 30
0.0
 11
1605.892741894217
 21
85.77993694717113
 31
0.0
  0
ELLIPSE
  5
66F
330
1F
100
AcDbEntity
  8
0
  6
Continuous
100
AcDbEllipse
 10
1633.515196528075
 20
128.5521359123879
 30
0.0
 11
-58.00000000000014
 21
0.0000000000263872
 31
0.0
210
0.0
220
0.0
230
1.0
 40
0.8386705679454205
 41
0.4963841651296744
 42
0.7769816757888029
  0
ELLIPSE
  5
670
330
1F
100
AcDbEntity
  8
0
  6
Continuous
100
AcDbEllipse
 10
1633.515196528077
 20
128.5521359123906
 30
0.0
 11
-58.00000000000405
 21
0.0000000000263733
 31
0.0
210
0.0
220
0.0
230
1.0
 40
0.8386705679454205
 41
1.000790197181256
 42
1.074412161666321
  0
LINE
  5
671
330
1F
100
AcDbEntity
  8
0
  6
Continuous
100
AcDbLine
 10
1684.515196528079
 20
105.3859961965561
 30
0.0
 11
1684.515196528076
 21
97.21641067133104
 31
0.0
  0
LINE
  5
672
330
1F
100
AcDbEntity
  8
0
  6
Continuous
100
AcDbLine
 10
1684.515196528079
 20
105.9306352315714
 30
0.0
 11
1684.515196528079
 21
105.3859961965561
 31
0.0
  0
LINE
  5
673
330
1F
100
AcDbEntity
  8
0
  6
Continuous
100
AcDbLine
 10
1582.515196528079
 20
105.3859961965565
 30
0.0
 11
1582.515196528079
 21
105.9306352315714
 31
0.0
  0
LINE
  5
674
330
1F
100
AcDbEntity
  8
0
  6
Continuous
100
AcDbLine
 10
1582.515196528079
 20
105.3859961965565
 30
0.0
 11
1582.515196528076
 21
97.21641067133104
 31
0.0
  0
ELLIPSE
  5
675
330
1F
100
AcDbEntity
  8
0
  6
Continuous
100
AcDbEllipse
 10
1633.515196528072
 20
120.3825503871624
 30
0.0
 11
57.99999999999996
 21
-0.0000000000213468
 31
0.0
210
0.0
220
0.0
230
1.0
 40
0.8386705679454205
 41
3.637976818719318
 42
4.216004815255987
  0
LINE
  5
676
330
1F
100
AcDbEntity
  8
0
  6
Continuous
100
AcDbLine
 10
1605.892741894213
 20
77.61035142194604
 30
0.0
 11
1661.137651161945
 21
77.61035142194604
 31
0.0
  0
ELLIPSE
  5
677
330
1F
100
AcDbEntity
  8
0
  6
Continuous
100
AcDbEllipse
 10
1633.515196528072
 20
120.3825503871628
 30
0.0
 11
57.99999999999998
 21
-0.0000000000263761
 31
0.0
210
0.0
220
0.0
230
1.0
 40
0.8386705679454204
 41
5.208773145514346
 42
5.786801142050999
  0
LINE
  5
678
330
1F
100
AcDbEntity
  8
0
  6
Continuous
100
AcDbLine
 10
1569.015196528096
 20
173.7571758186348
 30
0.0
 11
1569.015196528089
 21
160.1411999432591
 31
0.0
  0
LINE
  5
679
330
1F
100
AcDbEntity
  8
0
  6
Continuous
100
AcDbLine
 10
1698.015196528095
 20
173.7571758186343
 30
0.0
 11
1698.015196528089
 21
160.1411999432587
 31
0.0
  0
LINE
  5
67A
330
1F
100
AcDbEntity
  8
0
  6
Continuous
100
AcDbLine
 10
1608.515196528107
 20
196.9043348067732
 30
0.0
 11
1608.515196528105
 21
194.1811396316982
 31
0.0
  0
LINE
  5
67B
330
1F
100
AcDbEntity
  8
0
  6
Continuous
100
AcDbLine
 10
1658.515196528105
 20
196.9043348067732
 30
0.0
 11
1658.515196528105
 21
194.1811396316982
 31
0.0
  0
LINE
  5
67C
330
1F
100
AcDbEntity
  8
0
  6
Continuous
100
AcDbLine
 10
1582.739016978464
 20
210.9332622577942
 30
0.0
 11
1574.703982513678
 21
195.9699339073343
 31
0.0
  0
LINE
  5
67D
330
1F
100
AcDbEntity
  8
0
  6
Continuous
100
AcDbLine
 10
1684.291376077738
 20
210.9332622577938
 30
0.0
 11
1692.326410542505
 21
195.9699339073343
 31
0.0
  0
LINE
  5
67E
330
1F
100
AcDbEntity
  8
0
  6
Continuous
100
AcDbLine
 10
1626.015196528112
 20
209.7033521296264
 30
0.0
 11
1626.015196528106
 21
196.9043348067732
 31
0.0
  0
LINE
  5
67F
330
1F
100
AcDbEntity
  8
0
  6
Continuous
100
AcDbLine
 10
1641.015196528112
 20
209.7033521296264
 30
0.0
 11
1641.015196528105
 21
196.9043348067732
 31
0.0
  0
ELLIPSE
  5
680
330
1F
100
AcDbEntity
  8
0
  6
Continuous
100
AcDbEllipse
 10
1633.515196528082
 20
142.1681117877635
 30
0.0
 11
64.49999999999999
 21
-0.0000000000293529
 31
0.0
210
0.0
220
0.0
230
1.0
 40
0.8386705679454204
 41
5.454806949368579
 42
6.064366113795062
  0
ELLIPSE
  5
681
330
1F
100
AcDbEntity
  8
0
  6
Continuous
100
AcDbEllipse
 10
1633.515196528082
 20
142.1681117877635
 30
0.0
 11
-64.49999999999992
 21
0.0000000000293182
 31
0.0
210
0.0
220
0.0
230
1.0
 40
0.8386705679454202
 41
1.266016744582174
 42
1.875575909008659
  0
ELLIPSE
  5
682
330
1F
100
AcDbEntity
  8
0
  6
Continuous
100
AcDbEllipse
 10
1633.515196528082
 20
142.1681117877635
 30
0.0
 11
-64.49999999999987
 21
0.0000000000293598
 31
0.0
210
0.0
220
0.0
230
1.0
 40
0.8386705679454205
 41
0.2188191933856025
 42
0.8283783578120909
  0
ELLIPSE
  5
683
330
1F
100
AcDbEntity
  8
0
  6
Continuous
100
AcDbEllipse
 10
1633.515196528105
 20
196.9043348067732
 30
0.0
 11
24.99999999999994
 21
-0.0000000000000003
 31
0.0
210
0.0
220
0.0
230
1.0
 40
0.8386705679454205
 41
0.0
 42
6.283185307179586
  0
ELLIPSE
  5
684
330
1F
100
AcDbEntity
  8
0
  6
Continuous
100
AcDbEllipse
 10
1633.515196528095
 20
173.7571758186348
 30
0.0
 11
64.49999999999987
 21
-0.0000000000293293
 31
0.0
210
0.0
220
0.0
230
1.0
 40
0.8386705679454205
 41
2.718447038810877
 42
6.706330921959581
  0
ELLIPSE
  5
685
330
1F
100
AcDbEntity
  8
0
  6
Continuous
100
AcDbEllipse
 10
1633.515196528105
 20
194.1811396316982
 30
0.0
 11
24.99999999999996
 21
0.0000000000000016
 31
0.0
210
0.0
220
0.0
230
1.0
 40
0.8386705679454205
 41
3.141592653589327
 42
6.283185307179119
  0
ELLIPSE
  5
686
330
1F
100
AcDbEntity
  8
0
  6
Continuous
100
AcDbEllipse
 10
1633.515196528105
 20
196.9043348067732
 30
0.0
 11
7.499999999999981
 21
-0.0000000000000001
 31
0.0
210
0.0
220
0.0
230
1.0
 40
0.8386705679454205
 41
3.141592653589338
 42
6.283185307179131
  0
ELLIPSE
  5
687
330
1F
100
AcDbEntity
  8
0
  6
Continuous
100
AcDbEllipse
 10
1633.515196528113
 20
209.7033521296264
 30
0.0
 11
-7.499999999999978
 21
0.0000000000000001
 31
0.0
210
0.0
220
0.0
230
1.0
 40
0.8386705679454205
 41
0.0
 42
6.283185307179586
  0
ELLIPSE
  5
688
330
1F
100
AcDbEntity
  8
0
  6
Continuous
100
AcDbEllipse
 10
1633.515196528113
 20
210.5203106821488
 30
0.0
 11
5.999999999999981
 21
-0.0000000000000001
 31
0.0
210
0.0
220
0.0
230
1.0
 40
0.8386705679454205
 41
0.0
 42
6.283185307179586
  0
ELLIPSE
  5
689
330
1F
100
AcDbEntity
  8
0
  6
Continuous
100
AcDbEllipse
 10
1668.015196528091
 20
92.05272059771667
 30
0.0
 11
5.999999999999998
 21
-0.0000000000027294
 31
0.0
210
0.0
220
0.0
230
1.0
 40
0.8386705679454205
 41
4.424409653806042
 42
6.047565858160945
  0
LINE
  5
68A
330
1F
100
AcDbEntity
  8
0
  6
Continuous
100
AcDbLine
 10
1677.121810395134
 20
120.2826082553131
 30
0.0
 11
1677.121810395125
 21
102.3095200998175
 31
0.0
  0
LINE
  5
68B
330
1F
100
AcDbEntity
  8
0
  6
Continuous
100
AcDbLine
 10
1677.121810395125
 20
102.3095200998175
 30
0.0
 11
1673.849416050477
 21
90.87801806238102
 31
0.0
  0
LINE
  5
68C
330
1F
100
AcDbEntity
  8
0
  6
Continuous
100
AcDbLine
 10
1666.311104459868
 20
87.22791724812148
 30
0.0
 11
1652.870545066884
 21
90.56689547393697
 31
0.0
  0
LINE
  5
68D
330
1F
100
AcDbEntity
  8
0
  6
Continuous
100
AcDbLine
 10
1652.870545066884
 20
90.56689547393697
 30
0.0
 11
1652.870545066892
 21
108.539983629433
 31
0.0
  0
LINE
  5
68E
330
1F
100
AcDbEntity
  8
0
  6
Continuous
100
AcDbLine
 10
1708.515196528082
 20
142.1681117877635
 30
0.0
 11
1708.515196528088
 21
156.8395012617495
 31
0.0
  0
LINE
  5
68F
330
1F
100
AcDbEntity
  8
0
  6
Continuous
100
AcDbLine
 10
1558.515196528082
 20
142.1681117877631
 30
0.0
 11
1558.515196528088
 21
156.8395012617491
 31
0.0
  0
ELLIPSE
  5
690
330
1F
100
AcDbEntity
  8
0
  6
Continuous
100
AcDbEllipse
 10
1599.015196528092
 20
92.05272059771667
 30
0.0
 11
-5.999999999999975
 21
0.0000000000027306
 31
0.0
210
0.0
220
0.0
230
1.0
 40
0.8386705679454205
 41
0.2356194490198318
 42
1.858775653374578
  0
LINE
  5
691
330
1F
100
AcDbEntity
  8
0
  6
Continuous
100
AcDbLine
 10
1614.159847989307
 20
108.539983629433
 30
0.0
 11
1614.159847989299
 21
90.56689547393697
 31
0.0
  0
LINE
  5
692
330
1F
100
AcDbEntity
  8
0
  6
Continuous
100
AcDbLine
 10
1614.159847989299
 20
90.56689547393697
 30
0.0
 11
1600.719288596316
 21
87.22791724812148
 31
0.0
  0
LINE
  5
693
330
1F
100
AcDbEntity
  8
0
  6
Continuous
100
AcDbLine
 10
1570.553234122263
 20
148.398575317379
 30
0.0
 11
1570.553234122255
 21
130.4254871618834
 31
0.0
  0
LINE
  5
694
330
1F
100
AcDbEntity
  8
0
  6
Continuous
100
AcDbLine
 10
1570.553234122255
 20
130.4254871618834
 30
0.0
 11
1560.385069073919
 21
138.5180109735036
 31
0.0
  0
LINE
  5
695
330
1F
100
AcDbEntity
  8
0
  6
Continuous
100
AcDbLine
 10
1593.180977005706
 20
90.87801806238102
 30
0.0
 11
1589.908582661053
 21
102.309520099817
 31
0.0
  0
LINE
  5
696
330
1F
100
AcDbEntity
  8
0
  6
Continuous
100
AcDbLine
 10
1589.908582661053
 20
102.309520099817
 30
0.0
 11
1589.90858266106
 21
120.2826082553131
 31
0.0
  0
LINE
  5
697
330
1F
100
AcDbEntity
  8
0
  6
Continuous
100
AcDbLine
 10
1706.645323982245
 20
138.5180109735036
 30
0.0
 11
1696.477158933912
 21
130.4254871618834
 31
0.0
  0
LINE
  5
698
330
1F
100
AcDbEntity
  8
0
  6
Continuous
100
AcDbLine
 10
1696.477158933912
 20
130.4254871618834
 30
0.0
 11
1696.47715893392
 21
148.398575317379
 31
0.0
  0
ELLIPSE
  5
699
330
1F
100
AcDbEntity
  8
0
  6
Continuous
100
AcDbEllipse
 10
1702.515196528081
 20
142.1681117877635
 30
0.0
 11
5.999999999999991
 21
-0.0000000000000001
 31
0.0
210
0.0
220
0.0
230
1.0
 40
0.8386705679454205
 41
5.471607205001809
 42
6.283185307179145
  0
ELLIPSE
  5
69A
330
1F
100
AcDbEntity
  8
0
  6
Continuous
100
AcDbEllipse
 10
1564.515196528082
 20
142.1681117877635
 30
0.0
 11
-6.000000000000001
 21
0.0000000000027284
 31
0.0
210
0.0
220
0.0
230
1.0
 40
0.8386705679454204
 41
0.0
 42
0.8115781021778083
  0
ELLIPSE
  5
69B
330
1F
100
AcDbEntity
  8
0
  6
Continuous
100
AcDbEllipse
 10
1633.515196528088
 20
160.1411999432591
 30
0.0
 11
-64.4999999999986
 21
0.0000000000002391
 31
0.0
210
0.0
220
0.0
230
1.0
 40
0.8386705679454205
 41
0.0
 42
0.2188191933846255
  0
SPLINE
  5
69C
330
1F
100
AcDbEntity
  8
0
  6
Continuous
100
AcDbSpline
210
0.0
220
0.0
230
1.0
 70
    12
 71
     2
 72
     6
 73
     3
 74
     0
 42
0.0000000001
 43
0.0000000001
 40
0.0
 40
0.0
 40
0.0
 40
1.617671887431014
 40
1.617671887431014
 40
1.617671887431014
 10
1570.553234122263
 20
148.398575317379
 30
0.0
 41
1.0
 10
1565.792426046808
 20
151.0346111455208
 30
0.0
 41
1.010371862764327
 10
1560.385069073926
 20
153.7366893383762
 30
0.0
 41
1.010281179278411
  0
SPLINE
  5
69D
330
1F
100
AcDbEntity
  8
0
  6
Continuous
100
AcDbSpline
210
0.0
220
0.0
230
1.0
 70
     8
 71
     3
 72
    14
 73
    10
 74
     0
 42
0.0000000001
 43
0.0000000001
 40
0.54783826465067
 40
0.54783826465067
 40
0.54783826465067
 40
0.54783826465067
 40
0.7836152875134736
 40
0.7836152875134736
 40
1.030564880727203
 40
1.030564880727203
 40
1.277514473940932
 40
1.277514473940932
 40
1.513291496803738
 40
1.513291496803738
 40
1.513291496803738
 40
1.513291496803738
 10
1560.385069073925
 20
161.0368909668953
 30
0.0
 10
1559.851625077196
 20
160.454352384538
 30
0.0
 10
1559.371184802009
 20
159.7654242752148
 30
0.0
 10
1558.695067299199
 20
158.3047370506467
 30
0.0
 10
1558.515196528088
 20
157.5298657803976
 30
0.0
 10
1558.515196528088
 20
156.1491367431015
 30
0.0
 10
1558.6950672992
 20
155.4780197398547
 30
0.0
 10
1559.37118480201
 20
154.4110704217103
 30
0.0
 10
1559.851625077198
 20
154.0032534653426
 30
0.0
 10
1560.385069073926
 20
153.7366893383762
 30
0.0
  0
SPLINE
  5
69E
330
1F
100
AcDbEntity
  8
0
  6
Continuous
100
AcDbSpline
210
0.0
220
0.0
230
1.0
 70
    12
 71
     2
 72
     6
 73
     3
 74
     0
 42
0.0000000001
 43
0.0000000001
 40
1.589629741223882
 40
1.589629741223882
 40
1.589629741223882
 40
2.950657496246815
 40
2.950657496246815
 40
2.950657496246815
 10
1560.385069073925
 20
161.0368909668953
 30
0.0
 41
1.010281179278441
 10
1564.934612015802
 20
166.0051431395438
 30
0.0
 41
1.010357475801993
 10
1569.015196528087
 20
170.2798750842014
 30
0.0
 41
1.003027656873632
  0
ELLIPSE
  5
69F
330
1F
100
AcDbEntity
  8
0
  6
Continuous
100
AcDbEllipse
 10
1633.51519652809
 20
160.1411999432591
 30
0.0
 11
64.49999999999992
 21
-0.0000000000237366
 31
0.0
210
0.0
220
0.0
230
1.0
 40
0.8386705679454205
 41
3.969971011401776
 42
4.407609398171911
  0
SPLINE
  5
6A0
330
1F
100
AcDbEntity
  8
0
  6
Continuous
100
AcDbSpline
210
0.0
220
0.0
230
1.0
 70
    12
 71
     2
 72
     6
 73
     3
 74
     0
 42
0.0000000001
 43
0.0000000001
 40
0.0
 40
0.0
 40
0.0
 40
1.617671887431025
 40
1.617671887431025
 40
1.617671887431025
 10
1614.159847989307
 20
108.539983629433
 30
0.0
 41
1.0
 10
1607.866881323975
 20
105.8237079091584
 30
0.0
 41
1.010371862764336
 10
1600.719288596322
 20
102.4465956129941
 30
0.0
 41
1.01028117927842
  0
SPLINE
  5
6A1
330
1F
100
AcDbEntity
  8
0
  6
Continuous
100
AcDbSpline
210
0.0
220
0.0
230
1.0
 70
     8
 71
     3
 72
    14
 73
    10
 74
     0
 42
0.0000000001
 43
0.0000000001
 40
0.5478382646506688
 40
0.5478382646506688
 40
0.5478382646506688
 40
0.5478382646506688
 40
0.7836152875134724
 40
0.7836152875134724
 40
1.030564880727202
 40
1.030564880727202
 40
1.277514473940931
 40
1.277514473940931
 40
1.513291496803735
 40
1.513291496803735
 40
1.513291496803735
 40
1.513291496803735
 10
1593.180977005712
 20
106.0966964272531
 30
0.0
 10
1593.352653911996
 20
105.3389878037621
 30
0.0
 10
1593.678692520485
 20
104.5752973763044
 30
0.0
 10
1594.645673877312
 20
103.2554483722877
 30
0.0
 10
1595.302314457507
 20
102.7114322275445
 30
0.0
 10
1596.72807859869
 20
102.0210677088964
 30
0.0
 10
1597.564589949996
 20
101.8420897168919
 30
0.0
 10
1599.207688809632
 20
101.8981204495524
 30
0.0
 10
1600.01416769331
 20
102.1134383441647
 30
0.0
 10
1600.719288596322
 20
102.4465956129941
 30
0.0
  0
SPLINE
  5
6A2
330
1F
100
AcDbEntity
  8
0
  6
Continuous
100
AcDbSpline
210
0.0
220
0.0
230
1.0
 70
    12
 71
     2
 72
     6
 73
     3
 74
     0
 42
0.0000000001
 43
0.0000000001
 40
1.589629741223896
 40
1.589629741223896
 40
1.589629741223896
 40
3.207301628655472
 40
3.207301628655472
 40
3.207301628655472
 10
1593.180977005712
 20
106.0966964272531
 30
0.0
 41
1.010281179278425
 10
1591.440741250936
 20
113.7773546289948
 30
0.0
 41
1.010371862764345
 10
1589.90858266106
 20
120.2826082553131
 30
0.0
 41
1.0
  0
ELLIPSE
  5
6A3
330
1F
100
AcDbEntity
  8
0
  6
Continuous
100
AcDbEllipse
 10
1633.51519652809
 20
160.1411999432591
 30
0.0
 11
64.49999999999997
 21
-0.0000000000293654
 31
0.0
210
0.0
220
0.0
230
1.0
 40
0.8386705679454205
 41
5.017168562598475
 42
5.454806949368585
  0
SPLINE
  5
6A4
330
1F
100
AcDbEntity
  8
0
  6
Continuous
100
AcDbSpline
210
0.0
220
0.0
230
1.0
 70
    12
 71
     2
 72
     6
 73
     3
 74
     0
 42
0.0000000001
 43
0.0000000001
 40
0.0
 40
0.0
 40
0.0
 40
1.617671887431026
 40
1.617671887431026
 40
1.617671887431026
 10
1677.121810395134
 20
120.2826082553131
 30
0.0
 41
1.0
 10
1675.589651805257
 20
113.7773546289916
 30
0.0
 41
1.010371862764331
 10
1673.849416050484
 20
106.0966964272531
 30
0.0
 41
1.010281179278414
  0
SPLINE
  5
6A5
330
1F
100
AcDbEntity
  8
0
  6
Continuous
100
AcDbSpline
210
0.0
220
0.0
230
1.0
 70
     8
 71
     3
 72
    14
 73
    10
 74
     0
 42
0.0000000001
 43
0.0000000001
 40
0.5478382646506686
 40
0.5478382646506686
 40
0.5478382646506686
 40
0.5478382646506686
 40
0.783615287513473
 40
0.783615287513473
 40
1.030564880727202
 40
1.030564880727202
 40
1.277514473940932
 40
1.277514473940932
 40
1.513291496803738
 40
1.513291496803738
 40
1.513291496803738
 40
1.513291496803738
 10
1666.311104459875
 20
102.4465956129941
 30
0.0
 10
1667.016225362888
 20
102.1134383441647
 30
0.0
 10
1667.822704246565
 20
101.8981204495524
 30
0.0
 10
1669.4658031062
 20
101.8420897168919
 30
0.0
 10
1670.302314457507
 20
102.0210677088964
 30
0.0
 10
1671.72807859869
 20
102.7114322275445
 30
0.0
 10
1672.384719178884
 20
103.2554483722877
 30
0.0
 10
1673.351700535709
 20
104.5752973763044
 30
0.0
 10
1673.6777391442
 20
105.3389878037621
 30
0.0
 10
1673.849416050484
 20
106.0966964272531
 30
0.0
  0
SPLINE
  5
6A6
330
1F
100
AcDbEntity
  8
0
  6
Continuous
100
AcDbSpline
210
0.0
220
0.0
230
1.0
 70
    12
 71
     2
 72
     6
 73
     3
 74
     0
 42
0.0000000001
 43
0.0000000001
 40
1.589629741223882
 40
1.589629741223882
 40
1.589629741223882
 40
3.207301628655473
 40
3.207301628655473
 40
3.207301628655473
 10
1666.311104459875
 20
102.4465956129941
 30
0.0
 41
1.010281179278414
 10
1659.16351173222
 20
105.8237079091598
 30
0.0
 41
1.010371862764334
 10
1652.870545066892
 20
108.539983629433
 30
0.0
 41
1.0
  0
SPLINE
  5
6A7
330
1F
100
AcDbEntity
  8
0
  6
Continuous
100
AcDbSpline
210
0.0
220
0.0
230
1.0
 70
     8
 71
     3
 72
    14
 73
    10
 74
     0
 42
0.0000000001
 43
0.0000000001
 40
0.5478382646506683
 40
0.5478382646506683
 40
0.5478382646506683
 40
0.5478382646506683
 40
0.7836152875134735
 40
0.7836152875134735
 40
1.030564880727203
 40
1.030564880727203
 40
1.277514473940933
 40
1.277514473940933
 40
1.513291496803741
 40
1.513291496803741
 40
1.513291496803741
 40
1.513291496803741
 10
1706.645323982251
 20
153.7366893383766
 30
0.0
 10
1707.17876797898
 20
154.0032534653426
 30
0.0
 10
1707.659208254166
 20
154.4110704217103
 30
0.0
 10
1708.335325756976
 20
155.4780197398547
 30
0.0
 10
1708.515196528088
 20
156.1491367431015
 30
0.0
 10
1708.515196528087
 20
157.529865780398
 30
0.0
 10
1708.335325756976
 20
158.3047370506472
 30
0.0
 10
1707.659208254166
 20
159.7654242752148
 30
0.0
 10
1707.178767978979
 20
160.454352384538
 30
0.0
 10
1706.645323982249
 20
161.0368909668957
 30
0.0
  0
SPLINE
  5
6A8
330
1F
100
AcDbEntity
  8
0
  6
Continuous
100
AcDbSpline
210
0.0
220
0.0
230
1.0
 70
    12
 71
     2
 72
     6
 73
     3
 74
     0
 42
0.0000000001
 43
0.0000000001
 40
1.589629741223892
 40
1.589629741223892
 40
1.589629741223892
 40
3.207301628655474
 40
3.207301628655474
 40
3.207301628655474
 10
1706.645323982251
 20
153.7366893383766
 30
0.0
 41
1.010281179278437
 10
1701.237967009372
 20
151.0346111455203
 30
0.0
 41
1.010371862764357
 10
1696.47715893392
 20
148.3985753173795
 30
0.0
 41
1.0
  0
ELLIPSE
  5
6A9
330
1F
100
AcDbEntity
  8
0
  6
Continuous
100
AcDbEllipse
 10
1633.515196528088
 20
160.1411999432591
 30
0.0
 11
64.50000000000035
 21
-0.0000000000293446
 31
0.0
210
0.0
220
0.0
230
1.0
 40
0.8386705679454207
 41
6.064366113795069
 42
6.283185307180121
  0
SPLINE
  5
6AA
330
1F
100
AcDbEntity
  8
0
  6
Continuous
100
AcDbSpline
210
0.0
220
0.0
230
1.0
 70
    12
 71
     2
 72
     6
 73
     3
 74
     0
 42
0.0000000001
 43
0.0000000001
 40
0.2566441324084681
 40
0.2566441324084681
 40
0.2566441324084681
 40
1.61767188743102
 40
1.61767188743102
 40
1.61767188743102
 10
1698.015196528086
 20
170.2798750842014
 30
0.0
 41
1.003027656873628
 10
1702.095781040374
 20
166.005143139542
 30
0.0
 41
1.010357475801987
 10
1706.645323982249
 20
161.0368909668957
 30
0.0
 41
1.010281179278437
  0
SPLINE
  5
6AB
330
1F
100
AcDbEntity
  8
0
  6
Continuous
100
AcDbSpline
210
0.0
220
0.0
230
1.0
 70
     8
 71
     3
 72
    16
 73
    12
 74
     0
 42
0.0000000001
 43
0.0000000001
 40
4.761288710571373
 40
4.761288710571373
 40
4.761288710571373
 40
4.761288710571373
 40
4.91971080557886
 40
4.91971080557886
 40
5.254712067493481
 40
5.254712067493481
 40
5.593350597536004
 40
5.593350597536004
 40
5.932434630588002
 40
5.932434630588002
 40
6.109132475161389
 40
6.109132475161389
 40
6.109132475161389
 40
6.109132475161389
 10
1467.911681437236
 20
568.6323668641683
 30
0.0
 10
1467.836937831794
 20
565.8281444048118
 30
0.0
 10
1467.641030585378
 20
563.0334355173419
 30
0.0
 10
1466.658051385365
 20
554.4530848009001
 30
0.0
 10
1465.454311908011
 20
548.8085260384107
 30
0.0
 10
1462.023625204295
 20
538.3553311532316
 30
0.0
 10
1459.789454041414
 20
533.5558354559664
 30
0.0
 10
1454.355196826503
 20
525.3236329953608
 30
0.0
 10
1451.148107420705
 20
521.8776800122907
 30
0.0
 10
1445.532558122621
 20
518.1052475569197
 30
0.0
 10
1443.475724473047
 20
517.0795213925141
 30
0.0
 10
1441.322994826744
 20
516.3845312418291
 30
0.0
  0
SPLINE
  5
6AC
330
1F
100
AcDbEntity
  8
0
  6
Continuous
100
AcDbSpline
210
0.0
220
0.0
230
1.0
 70
     8
 71
     3
 72
    16
 73
    12
 74
     0
 42
0.0000000001
 43
0.0000000001
 40
3.315645485607991
 40
3.315645485607991
 40
3.315645485607991
 40
3.315645485607991
 40
3.587903643345727
 40
3.587903643345727
 40
3.907112215562572
 40
3.907112215562572
 40
4.247522925757921
 40
4.247522925757921
 40
4.585134833491888
 40
4.585134833491888
 40
4.663489250198
 40
4.663489250198
 40
4.663489250198
 40
4.663489250198
 10
1441.322994826744
 20
626.0772393997015
 30
0.0
 10
1444.639946479576
 20
625.006390241758
 30
0.0
 10
1447.717557125688
 20
623.153688925475
 30
0.0
 10
1453.681650457154
 20
617.9137080291959
 30
0.0
 10
1456.467115447658
 20
614.3164617080895
 30
0.0
 10
1461.333302842817
 20
605.7300999793653
 30
0.0
 10
1463.35476635849
 20
600.6547636618218
 30
0.0
 10
1466.334497688084
 20
589.7459723429931
 30
0.0
 10
1467.298128560925
 20
583.9198011245737
 30
0.0
 10
1467.808133966346
 20
576.6009838235943
 30
0.0
 10
1467.874713793257
 20
575.2163518233612
 30
0.0
 10
1467.911681437235
 20
573.8294037773423
 30
0.0
  0
LINE
  5
6AD
330
1F
100
AcDbEntity
  8
0
  6
Continuous
100
AcDbLine
 10
1329.572717668936
 20
622.2308853207571
 30
0.0
 11
1324.540694261263
 21
622.2308853207553
 31
0.0
  0
LINE
  5
6AE
330
1F
100
AcDbEntity
  8
0
  6
Continuous
100
AcDbLine
 10
1316.840393919705
 20
598.8533399546288
 30
0.0
 11
1311.808370512033
 21
598.8533399546279
 31
0.0
  0
LINE
  5
6AF
330
1F
100
AcDbEntity
  8
0
  6
Continuous
100
AcDbLine
 10
1329.572717668936
 20
520.2308853207571
 30
0.0
 11
1324.540694261263
 21
520.2308853207561
 31
0.0
  0
LINE
  5
6B0
330
1F
100
AcDbEntity
  8
0
  6
Continuous
100
AcDbLine
 10
1316.840393919705
 20
543.6084306868963
 30
0.0
 11
1311.808370512033
 21
543.6084306868954
 31
0.0
  0
LINE
  5
6B1
330
1F
100
AcDbEntity
  8
0
  6
Continuous
100
AcDbLine
 10
1318.585805411094
 20
527.8857759266323
 30
0.0
 11
1319.070783254148
 21
527.125335410946
 31
0.0
  0
LINE
  5
6B2
330
1F
100
AcDbEntity
  8
0
  6
Continuous
100
AcDbLine
 10
1318.585805411094
 20
614.5759947148838
 30
0.0
 11
1319.070783254148
 21
615.3364352305709
 31
0.0
  0
SPLINE
  5
6B3
330
1F
100
AcDbEntity
  8
0
  6
Continuous
100
AcDbSpline
210
0.0
220
0.0
230
1.0
 70
     8
 71
     3
 72
     8
 73
     4
 74
     0
 42
0.0000000001
 43
0.0000000001
 40
-0.1436911116739463
 40
-0.1436911116739463
 40
-0.1436911116739463
 40
-0.1436911116739463
 40
0.0
 40
0.0
 40
0.0
 40
0.0
 10
1311.514338979103
 20
543.8630209539535
 30
0.0
 10
1311.612332720509
 20
543.7777773971531
 30
0.0
 10
1311.710348288899
 20
543.692913119584
 30
0.0
 10
1311.808370512033
 20
543.6084306868954
 30
0.0
  0
SPLINE
  5
6B4
330
1F
100
AcDbEntity
  8
0
  6
Continuous
100
AcDbSpline
210
0.0
220
0.0
230
1.0
 70
     8
 71
     3
 72
     8
 73
     4
 74
     0
 42
0.0000000001
 43
0.0000000001
 40
-0.14369111167417
 40
-0.14369111167417
 40
-0.14369111167417
 40
-0.14369111167417
 40
0.0
 40
0.0
 40
0.0
 40
0.0
 10
1311.514338979103
 20
598.5987496875688
 30
0.0
 10
1311.612332720507
 20
598.6839932443701
 30
0.0
 10
1311.710348288898
 20
598.7688575219383
 30
0.0
 10
1311.808370512033
 20
598.8533399546279
 30
0.0
  0
ELLIPSE
  5
6B5
330
1F
100
AcDbEntity
  8
0
  6
Continuous
100
AcDbEllipse
 10
1339.584961297799
 20
571.2308853207489
 30
0.0
 11
-0.0000000000112882
 21
57.99999999999998
 31
0.0
210
0.0
220
0.0
230
1.0
 40
0.5446390350150252
 41
0.4963841651287649
 42
1.074412161665417
  0
LINE
  5
6B6
330
1F
100
AcDbEntity
  8
0
  6
Continuous
100
AcDbLine
 10
1311.808370512033
 20
543.6084306868954
 30
0.0
 11
1311.808370512033
 21
598.8533399546279
 31
0.0
  0
ELLIPSE
  5
6B7
330
1F
100
AcDbEntity
  8
0
  6
Continuous
100
AcDbEllipse
 10
1339.584961297799
 20
571.2308853207489
 30
0.0
 11
-0.0000000000080297
 21
57.9999999999999
 31
0.0
210
0.0
220
0.0
230
1.0
 40
0.5446390350150253
 41
2.067180491923936
 42
2.645208488460767
  0
LINE
  5
6B8
330
1F
100
AcDbEntity
  8
0
  6
Continuous
100
AcDbLine
 10
1337.521102689745
 20
521.2308853207535
 30
0.0
 11
1330.550048034256
 21
521.2308853207571
 31
0.0
  0
LINE
  5
6B9
330
1F
100
AcDbEntity
  8
0
  6
Continuous
100
AcDbLine
 10
1329.572717668936
 20
520.2308853207571
 30
0.0
 11
1338.206708315407
 21
520.2308853207535
 31
0.0
  0
ELLIPSE
  5
6BA
330
1F
100
AcDbEntity
  8
0
  6
Continuous
100
AcDbEllipse
 10
1345.455655273417
 20
571.2308853207498
 30
0.0
 11
-0.0000000000078937
 21
56.9999999999999
 31
0.0
210
0.0
220
0.0
230
1.0
 40
0.5446390350150252
 41
2.071608319766172
 42
2.640780660618538
  0
SPLINE
  5
6BB
330
1F
100
AcDbEntity
  8
0
  6
Continuous
100
AcDbSpline
210
0.0
220
0.0
230
1.0
 70
     8
 71
     3
 72
     8
 73
     4
 74
     0
 42
0.0000000001
 43
0.0000000001
 40
-0.1436911213497667
 40
-0.1436911213497667
 40
-0.1436911213497667
 40
-0.1436911213497667
 40
0.0
 40
0.0
 40
0.0
 40
0.0
 10
1329.572717668936
 20
520.2308853207571
 30
0.0
 10
1329.898320362294
 20
520.5642584870859
 30
0.0
 10
1330.224112041855
 20
520.8976090206618
 30
0.0
 10
1330.550048034256
 20
521.2308853207571
 30
0.0
  0
ELLIPSE
  5
6BC
330
1F
100
AcDbEntity
  8
0
  6
Continuous
100
AcDbEllipse
 10
1344.616984705471
 20
571.2308853207498
 30
0.0
 11
0.0000000000112882
 21
-57.9999999999999
 31
0.0
210
0.0
220
0.0
230
1.0
 40
0.5446390350150253
 41
5.208773145513454
 42
5.786801142050104
  0
LINE
  5
6BD
330
1F
100
AcDbEntity
  8
0
  6
Continuous
100
AcDbLine
 10
1318.223703522666
 20
543.8630209539544
 30
0.0
 11
1318.223703522666
 21
598.5987496875707
 31
0.0
  0
SPLINE
  5
6BE
330
1F
100
AcDbEntity
  8
0
  6
Continuous
100
AcDbSpline
210
0.0
220
0.0
230
1.0
 70
     8
 71
     3
 72
     8
 73
     4
 74
     0
 42
0.0000000001
 43
0.0000000001
 40
-0.1436911213500971
 40
-0.1436911213500971
 40
-0.1436911213500971
 40
-0.1436911213500971
 40
0.0
 40
0.0
 40
0.0
 40
0.0
 10
1316.840393919705
 20
543.6084306868972
 30
0.0
 10
1317.301552222055
 20
543.6929131195849
 30
0.0
 10
1317.762679216304
 20
543.777777397154
 30
0.0
 10
1318.223703522666
 20
543.8630209539544
 30
0.0
  0
LINE
  5
6BF
330
1F
100
AcDbEntity
  8
0
  6
Continuous
100
AcDbLine
 10
1316.840393919705
 20
598.8533399546288
 30
0.0
 11
1316.840393919705
 21
543.6084306868963
 31
0.0
  0
ELLIPSE
  5
6C0
330
1F
100
AcDbEntity
  8
0
  6
Continuous
100
AcDbEllipse
 10
1345.455655273417
 20
571.2308853207498
 30
0.0
 11
-0.0000000000110995
 21
56.99999999999988
 31
0.0
210
0.0
220
0.0
230
1.0
 40
0.5446390350150255
 41
0.5008119929710145
 42
1.069984333823189
  0
SPLINE
  5
6C1
330
1F
100
AcDbEntity
  8
0
  6
Continuous
100
AcDbSpline
210
0.0
220
0.0
230
1.0
 70
     8
 71
     3
 72
     8
 73
     4
 74
     0
 42
0.0000000001
 43
0.0000000001
 40
-0.1436911213496018
 40
-0.1436911213496018
 40
-0.1436911213496018
 40
-0.1436911213496018
 40
0.0
 40
0.0
 40
0.0
 40
0.0
 10
1316.840393919705
 20
598.8533399546288
 30
0.0
 10
1317.301552222059
 20
598.7688575219401
 30
0.0
 10
1317.762679216305
 20
598.6839932443711
 30
0.0
 10
1318.223703522666
 20
598.5987496875707
 30
0.0
  0
ELLIPSE
  5
6C2
330
1F
100
AcDbEntity
  8
0
  6
Continuous
100
AcDbEllipse
 10
1344.616984705471
 20
571.2308853207498
 30
0.0
 11
0.0000000000145634
 21
-57.99999999999987
 31
0.0
210
0.0
220
0.0
230
1.0
 40
0.5446390350150251
 41
3.637976818718101
 42
4.216004815254924
  0
LINE
  5
6C3
330
1F
100
AcDbEntity
  8
0
  6
Continuous
100
AcDbLine
 10
1330.550048034256
 20
621.2308853207562
 30
0.0
 11
1337.521102689745
 21
621.2308853207535
 31
0.0
  0
SPLINE
  5
6C4
330
1F
100
AcDbEntity
  8
0
  6
Continuous
100
AcDbSpline
210
0.0
220
0.0
230
1.0
 70
     8
 71
     3
 72
     8
 73
     4
 74
     0
 42
0.0000000001
 43
0.0000000001
 40
-0.1436911213494336
 40
-0.1436911213494336
 40
-0.1436911213494336
 40
-0.1436911213494336
 40
0.0
 40
0.0
 40
0.0
 40
0.0
 10
1329.572717668936
 20
622.2308853207571
 30
0.0
 10
1329.898320362295
 20
621.8975121544255
 30
0.0
 10
1330.224112041856
 20
621.5641616208515
 30
0.0
 10
1330.550048034256
 20
621.2308853207562
 30
0.0
  0
LINE
  5
6C5
330
1F
100
AcDbEntity
  8
0
  6
Continuous
100
AcDbLine
 10
1338.206708315407
 20
622.2308853207525
 30
0.0
 11
1329.572717668936
 21
622.2308853207571
 31
0.0
  0
LINE
  5
6C6
330
1F
100
AcDbEntity
  8
0
  6
Continuous
100
AcDbLine
 10
1331.503968424764
 20
496.837500773194
 30
0.0
 11
1331.503968424764
 21
520.2308853207443
 31
0.0
  0
LINE
  5
6C7
330
1F
100
AcDbEntity
  8
0
  6
Continuous
100
AcDbLine
 10
1293.403968424764
 20
496.837500773194
 30
0.0
 11
1293.403968424764
 21
520.2308853207443
 31
0.0
  0
LINE
  5
6C8
330
1F
100
AcDbEntity
  8
0
  6
Continuous
100
AcDbLine
 10
1293.403968424764
 20
496.8375007731949
 30
0.0
 11
1287.203968424764
 21
494.5808853207437
 31
0.0
  0
LINE
  5
6C9
330
1F
100
AcDbEntity
  8
0
  6
Continuous
100
AcDbLine
 10
1331.503968424764
 20
496.837500773194
 30
0.0
 11
1337.703968424764
 21
494.5808853207437
 31
0.0
  0
LINE
  5
6CA
330
1F
100
AcDbEntity
  8
0
  6
Continuous
100
AcDbLine
 10
1337.703968424764
 20
491.7308853207434
 30
0.0
 11
1337.703968424764
 21
494.5808853207437
 31
0.0
  0
LINE
  5
6CB
330
1F
100
AcDbEntity
  8
0
  6
Continuous
100
AcDbLine
 10
1287.203968424764
 20
491.7308853207443
 30
0.0
 11
1287.203968424764
 21
494.5808853207437
 31
0.0
  0
LINE
  5
6CC
330
1F
100
AcDbEntity
  8
0
  6
Continuous
100
AcDbLine
 10
1331.503968424764
 20
496.837500773194
 30
0.0
 11
1293.403968424764
 21
496.837500773194
 31
0.0
  0
LINE
  5
6CD
330
1F
100
AcDbEntity
  8
0
  6
Continuous
100
AcDbLine
 10
1337.703968424764
 20
494.5808853207437
 30
0.0
 11
1287.203968424764
 21
494.5808853207437
 31
0.0
  0
LINE
  5
6CE
330
1F
100
AcDbEntity
  8
0
  6
Continuous
100
AcDbLine
 10
1337.703968424764
 20
491.7308853207443
 30
0.0
 11
1287.203968424764
 21
491.7308853207443
 31
0.0
  0
LINE
  5
6CF
330
1F
100
AcDbEntity
  8
0
  6
Continuous
100
AcDbLine
 10
1331.503968424764
 20
622.2308853207435
 30
0.0
 11
1331.503968424764
 21
645.6242698682928
 31
0.0
  0
LINE
  5
6D0
330
1F
100
AcDbEntity
  8
0
  6
Continuous
100
AcDbLine
 10
1293.403968424764
 20
622.2308853207435
 30
0.0
 11
1293.403968424764
 21
645.6242698682928
 31
0.0
  0
LINE
  5
6D1
330
1F
100
AcDbEntity
  8
0
  6
Continuous
100
AcDbLine
 10
1331.503968424764
 20
645.6242698682928
 30
0.0
 11
1337.703968424764
 21
647.880885320744
 31
0.0
  0
LINE
  5
6D2
330
1F
100
AcDbEntity
  8
0
  6
Continuous
100
AcDbLine
 10
1293.403968424764
 20
645.6242698682928
 30
0.0
 11
1287.203968424764
 21
647.880885320744
 31
0.0
  0
LINE
  5
6D3
330
1F
100
AcDbEntity
  8
0
  6
Continuous
100
AcDbLine
 10
1337.703968424764
 20
647.880885320744
 30
0.0
 11
1337.703968424764
 21
650.7308853207434
 31
0.0
  0
LINE
  5
6D4
330
1F
100
AcDbEntity
  8
0
  6
Continuous
100
AcDbLine
 10
1287.203968424764
 20
647.880885320744
 30
0.0
 11
1287.203968424764
 21
650.7308853207434
 31
0.0
  0
LINE
  5
6D5
330
1F
100
AcDbEntity
  8
0
  6
Continuous
100
AcDbLine
 10
1331.503968424764
 20
645.6242698682928
 30
0.0
 11
1293.403968424764
 21
645.6242698682928
 31
0.0
  0
LINE
  5
6D6
330
1F
100
AcDbEntity
  8
0
  6
Continuous
100
AcDbLine
 10
1337.703968424764
 20
647.880885320744
 30
0.0
 11
1287.203968424764
 21
647.880885320744
 31
0.0
  0
LINE
  5
6D7
330
1F
100
AcDbEntity
  8
0
  6
Continuous
100
AcDbLine
 10
1337.703968424764
 20
650.7308853207434
 30
0.0
 11
1287.203968424764
 21
650.7308853207434
 31
0.0
  0
LINE
  5
6D8
330
1F
100
AcDbEntity
  8
0
  6
Continuous
100
AcDbLine
 10
1289.111831159502
 20
593.794986935881
 30
0.0
 11
1289.111831159502
 21
622.2308853207435
 31
0.0
  0
SPLINE
  5
6D9
330
1F
100
AcDbEntity
  8
0
  6
Continuous
100
AcDbSpline
210
0.0
220
0.0
230
1.0
 70
     8
 71
     3
 72
    16
 73
    12
 74
     0
 42
0.0000000001
 43
0.0000000001
 40
-1.047197551196598
 40
-1.047197551196598
 40
-1.047197551196598
 40
-1.047197551196598
 40
-0.8377580409572786
 40
-0.8377580409572786
 40
-0.6283185307179591
 40
-0.6283185307179591
 40
-0.4188790204786394
 40
-0.4188790204786394
 40
-0.2094395102393197
 40
-0.2094395102393197
 40
0.0
 40
0.0
 40
0.0
 40
0.0
 10
1290.542190417096
 20
589.2673260279318
 30
0.0
 10
1290.301009481898
 20
589.5544440475561
 30
0.0
 10
1290.110859618918
 20
589.847964876016
 30
0.0
 10
1289.793116938046
 20
590.4378821248157
 30
0.0
 10
1289.66579123371
 20
590.7349961976053
 30
0.0
 10
1289.454627528238
 20
591.334285238606
 30
0.0
 10
1289.371055950924
 20
591.6365921076815
 30
0.0
 10
1289.239341304015
 20
592.2465909867189
 30
0.0
 10
1289.191328836657
 20
592.5542709921276
 30
0.0
 10
1289.127548899211
 20
593.1729817608359
 30
0.0
 10
1289.111831159502
 20
593.4839739037154
 30
0.0
 10
1289.111831159502
 20
593.794986935881
 30
0.0
  0
LINE
  5
6DA
330
1F
100
AcDbEntity
  8
0
  6
Continuous
100
AcDbLine
 10
1290.542190417096
 20
589.2673260279318
 30
0.0
 11
1296.401775369024
 21
582.2916816809176
 31
0.0
  0
SPLINE
  5
6DB
330
1F
100
AcDbEntity
  8
0
  6
Continuous
100
AcDbSpline
210
0.0
220
0.0
230
1.0
 70
     8
 71
     3
 72
    10
 73
     6
 74
     0
 42
0.0000000001
 43
0.0000000001
 40
0.5494390464926231
 40
0.5494390464926231
 40
0.5494390464926231
 40
0.5494390464926231
 40
0.8091219319492894
 40
0.8091219319492894
 40
1.047197551196596
 40
1.047197551196596
 40
1.047197551196596
 40
1.047197551196596
 10
1298.389641424906
 20
564.2517947557009
 30
0.0
 10
1298.106008676529
 20
563.2970672447047
 30
0.0
 10
1297.768444877223
 20
562.4443855423162
 30
0.0
 10
1297.07749738101
 20
561.085730483501
 30
0.0
 10
1296.727573438862
 20
560.5579409130261
 30
0.0
 10
1296.401775369024
 20
560.1700889605774
 30
0.0
  0
SPLINE
  5
6DC
330
1F
100
AcDbEntity
  8
0
  6
Continuous
100
AcDbSpline
210
0.0
220
0.0
230
1.0
 70
     8
 71
     3
 72
    10
 73
     6
 74
     0
 42
0.0000000001
 43
0.0000000001
 40
-1.047197551196597
 40
-1.047197551196597
 40
-1.047197551196597
 40
-1.047197551196597
 40
-0.7521453485970219
 40
-0.7521453485970219
 40
-0.5493699394649885
 40
-0.5493699394649885
 40
-0.5493699394649885
 40
-0.5493699394649885
 10
1296.401775369024
 20
582.2916816809176
 30
0.0
 10
1296.805543879266
 20
581.8110084678685
 30
0.0
 10
1297.244914739578
 20
581.1140018478438
 30
0.0
 10
1297.914519159827
 20
579.6382927410897
 30
0.0
 10
1298.168006632643
 20
578.9546206580064
 30
0.0
 10
1298.389641424904
 20
578.2091340344334
 30
0.0
  0
LINE
  5
6DD
330
1F
100
AcDbEntity
  8
0
  6
Continuous
100
AcDbLine
 10
1296.401775369024
 20
560.1700889605774
 30
0.0
 11
1290.542190417096
 21
553.194444613556
 31
0.0
  0
SPLINE
  5
6DE
330
1F
100
AcDbEntity
  8
0
  6
Continuous
100
AcDbSpline
210
0.0
220
0.0
230
1.0
 70
     8
 71
     3
 72
    16
 73
    12
 74
     0
 42
0.0000000001
 43
0.0000000001
 40
0.0000000000000001
 40
0.0000000000000001
 40
0.0000000000000001
 40
0.0000000000000001
 40
0.2094395102393197
 40
0.2094395102393197
 40
0.4188790204786394
 40
0.4188790204786394
 40
0.628318530717959
 40
0.628318530717959
 40
0.8377580409572786
 40
0.8377580409572786
 40
1.047197551196598
 40
1.047197551196598
 40
1.047197551196598
 40
1.047197551196598
 10
1289.111831159502
 20
548.6667837056058
 30
0.0
 10
1289.111831159502
 20
548.9777967377706
 30
0.0
 10
1289.127548899211
 20
549.288788880651
 30
0.0
 10
1289.191328836657
 20
549.9074996493584
 30
0.0
 10
1289.239341304015
 20
550.2151796547679
 30
0.0
 10
1289.371055950924
 20
550.8251785338054
 30
0.0
 10
1289.454627528238
 20
551.1274854028799
 30
0.0
 10
1289.66579123371
 20
551.7267744438815
 30
0.0
 10
1289.793116938046
 20
552.023888516672
 30
0.0
 10
1290.110859618918
 20
552.6138057654718
 30
0.0
 10
1290.301009481899
 20
552.9073265939316
 30
0.0
 10
1290.542190417096
 20
553.194444613556
 30
0.0
  0
LINE
  5
6DF
330
1F
100
AcDbEntity
  8
0
  6
Continuous
100
AcDbLine
 10
1289.111831159502
 20
520.2308853207434
 30
0.0
 11
1289.111831159502
 21
548.6667837056058
 31
0.0
  0
LINE
  5
6E0
330
1F
100
AcDbEntity
  8
0
  6
Continuous
100
AcDbLine
 10
1289.111831159502
 20
622.2308853207435
 30
0.0
 11
1289.371194786574
 21
622.2308853207444
 31
0.0
  0
LINE
  5
6E1
330
1F
100
AcDbEntity
  8
0
  6
Continuous
100
AcDbLine
 10
1289.371194786574
 20
520.2308853207443
 30
0.0
 11
1289.111831159502
 21
520.2308853207434
 31
0.0
  0
LINE
  5
6E2
330
1F
100
AcDbEntity
  8
0
  6
Continuous
100
AcDbLine
 10
1295.286464645126
 20
622.230885320748
 30
0.0
 11
1289.371194786573
 21
622.2308853207435
 31
0.0
  0
LINE
  5
6E3
330
1F
100
AcDbEntity
  8
0
  6
Continuous
100
AcDbLine
 10
1289.371194786573
 20
520.2308853207443
 30
0.0
 11
1295.286464645126
 21
520.2308853207471
 31
0.0
  0
LINE
  5
6E4
330
1F
100
AcDbEntity
  8
0
  6
Continuous
100
AcDbLine
 10
1311.121965174136
 20
520.2308853207507
 30
0.0
 11
1295.286464645126
 21
520.2308853207471
 31
0.0
  0
LINE
  5
6E5
330
1F
100
AcDbEntity
  8
0
  6
Continuous
100
AcDbLine
 10
1295.286464645126
 20
520.2308853207471
 30
0.0
 11
1295.286464645126
 21
532.3434972711423
 31
0.0
  0
LINE
  5
6E6
330
1F
100
AcDbEntity
  8
0
  6
Continuous
100
AcDbLine
 10
1295.286464645126
 20
610.1182733703528
 30
0.0
 11
1295.286464645126
 21
622.230885320748
 31
0.0
  0
LINE
  5
6E7
330
1F
100
AcDbEntity
  8
0
  6
Continuous
100
AcDbLine
 10
1295.286464645126
 20
622.230885320748
 30
0.0
 11
1311.121965174136
 21
622.2308853207508
 31
0.0
  0
LINE
  5
6E8
330
1F
100
AcDbEntity
  8
0
  6
Continuous
100
AcDbLine
 10
1296.501423510992
 20
531.9487172267411
 30
0.0
 11
1302.925320733251
 21
531.948717226742
 31
0.0
  0
LINE
  5
6E9
330
1F
100
AcDbEntity
  8
0
  6
Continuous
100
AcDbLine
 10
1296.501423510992
 20
544.9487172267411
 30
0.0
 11
1298.389641424906
 21
544.948717226742
 31
0.0
  0
LINE
  5
6EA
330
1F
100
AcDbEntity
  8
0
  6
Continuous
100
AcDbLine
 10
1302.925320733251
 20
610.5130534147686
 30
0.0
 11
1296.501423510992
 21
610.5130534147686
 31
0.0
  0
LINE
  5
6EB
330
1F
100
AcDbEntity
  8
0
  6
Continuous
100
AcDbLine
 10
1298.389641424906
 20
597.5130534147677
 30
0.0
 11
1296.501423510992
 21
597.5130534147677
 31
0.0
  0
ELLIPSE
  5
6EC
330
1F
100
AcDbEntity
  8
0
  6
Continuous
100
AcDbEllipse
 10
1296.501423510992
 20
538.4487172267411
 30
0.0
 11
-0.0000000000000558
 21
-6.499999999999984
 31
0.0
210
0.0
220
0.0
230
1.0
 40
0.5446390350150253
 41
3.141592653591496
 42
6.283185307181289
  0
ELLIPSE
  5
6ED
330
1F
100
AcDbEntity
  8
0
  6
Continuous
100
AcDbEllipse
 10
1296.501423510992
 20
604.0130534147685
 30
0.0
 11
0.0000000000000074
 21
6.499999999999984
 31
0.0
210
0.0
220
0.0
230
1.0
 40
0.5446390350150253
 41
0.0000000000016574
 42
3.14159265359145
  0
LINE
  5
6EE
330
1F
100
AcDbEntity
  8
0
  6
Continuous
100
AcDbLine
 10
1310.969699944087
 20
598.8533399546279
 30
0.0
 11
1298.389641424906
 21
598.8533399546252
 31
0.0
  0
LINE
  5
6EF
330
1F
100
AcDbEntity
  8
0
  6
Continuous
100
AcDbLine
 10
1310.969699944087
 20
543.6084306868954
 30
0.0
 11
1298.389641424906
 21
543.6084306868926
 31
0.0
  0
ELLIPSE
  5
6F0
330
1F
100
AcDbEntity
  8
0
  6
Continuous
100
AcDbEllipse
 10
1338.746290729854
 20
571.2308853207489
 30
0.0
 11
0.0000000000143136
 21
-57.00000000000017
 31
0.0
210
0.0
220
0.0
230
1.0
 40
0.5446390350150253
 41
3.848397799836382
 42
4.211576987412758
  0
LINE
  5
6F1
330
1F
100
AcDbEntity
  8
0
  6
Continuous
100
AcDbLine
 10
1311.514338979103
 20
598.5987496875688
 30
0.0
 11
1311.514338979103
 21
543.8630209539535
 31
0.0
  0
ELLIPSE
  5
6F2
330
1F
100
AcDbEntity
  8
0
  6
Continuous
100
AcDbEllipse
 10
1338.746290729854
 20
571.2308853207489
 30
0.0
 11
0.0000000000110995
 21
-56.99999999999942
 31
0.0
210
0.0
220
0.0
230
1.0
 40
0.5446390350150252
 41
5.213200973355685
 42
5.576380160931968
  0
ELLIPSE
  5
6F3
330
1F
100
AcDbEntity
  8
0
  6
Continuous
100
AcDbEllipse
 10
1338.746290729854
 20
571.2308853207489
 30
0.0
 11
-0.0000000000112882
 21
57.99999999999996
 31
0.0
210
0.0
220
0.0
230
1.0
 40
0.5446390350150253
 41
0.4963841651287649
 42
1.074412161665417
  0
ELLIPSE
  5
6F4
330
1F
100
AcDbEntity
  8
0
  6
Continuous
100
AcDbEllipse
 10
1338.746290729854
 20
571.2308853207489
 30
0.0
 11
-0.0000000000080325
 21
57.99999999999993
 31
0.0
210
0.0
220
0.0
230
1.0
 40
0.5446390350150253
 41
2.067180491923926
 42
2.645208488460767
  0
LINE
  5
6F5
330
1F
100
AcDbEntity
  8
0
  6
Continuous
100
AcDbLine
 10
1310.969699944087
 20
543.6084306868954
 30
0.0
 11
1310.969699944087
 21
598.8533399546279
 31
0.0
  0
LINE
  5
6F6
330
1F
100
AcDbEntity
  8
0
  6
Continuous
100
AcDbLine
 10
1323.702023693318
 20
622.2308853207553
 30
0.0
 11
1324.540694261263
 21
622.2308853207553
 31
0.0
  0
LINE
  5
6F7
330
1F
100
AcDbEntity
  8
0
  6
Continuous
100
AcDbLine
 10
1323.702023693318
 20
622.2308853207553
 30
0.0
 11
1311.121965174136
 21
622.2308853207534
 31
0.0
  0
LINE
  5
6F8
330
1F
100
AcDbEntity
  8
0
  6
Continuous
100
AcDbLine
 10
1323.702023693318
 20
520.2308853207561
 30
0.0
 11
1311.121965174136
 21
520.2308853207535
 31
0.0
  0
LINE
  5
6F9
330
1F
100
AcDbEntity
  8
0
  6
Continuous
100
AcDbLine
 10
1324.540694261263
 20
520.2308853207552
 30
0.0
 11
1323.702023693318
 21
520.2308853207561
 31
0.0
  0
ELLIPSE
  5
6FA
330
1F
100
AcDbEntity
  8
0
  6
Continuous
100
AcDbEllipse
 10
1326.166232210672
 20
571.2308853207462
 30
0.0
 11
0.0000000000145606
 21
-57.99999999999971
 31
0.0
210
0.0
220
0.0
230
1.0
 40
0.5446390350150251
 41
3.637976818718101
 42
4.216004815254924
  0
LINE
  5
6FB
330
1F
100
AcDbEntity
  8
0
  6
Continuous
100
AcDbLine
 10
1298.389641424906
 20
598.8533399546252
 30
0.0
 11
1298.389641424906
 21
543.6084306868926
 31
0.0
  0
ELLIPSE
  5
6FC
330
1F
100
AcDbEntity
  8
0
  6
Continuous
100
AcDbEllipse
 10
1326.166232210672
 20
571.2308853207462
 30
0.0
 11
0.0000000000112937
 21
-57.99999999999996
 31
0.0
210
0.0
220
0.0
230
1.0
 40
0.5446390350150251
 41
5.208773145513454
 42
5.786801142050104
  0
LINE
  5
6FD
330
1F
100
AcDbEntity
  8
0
  6
Continuous
100
AcDbLine
 10
1408.355947869323
 20
635.7308853207617
 30
0.0
 11
1387.389183670688
 21
635.730885320758
 31
0.0
  0
LINE
  5
6FE
330
1F
100
AcDbEntity
  8
0
  6
Continuous
100
AcDbLine
 10
1408.355947869323
 20
506.7308853207616
 30
0.0
 11
1387.389183670688
 21
506.7308853207579
 31
0.0
  0
LINE
  5
6FF
330
1F
100
AcDbEntity
  8
0
  6
Continuous
100
AcDbLine
 10
1443.999447007003
 20
596.2308853207689
 30
0.0
 11
1439.806094167277
 21
596.230885320768
 31
0.0
  0
LINE
  5
700
330
1F
100
AcDbEntity
  8
0
  6
Continuous
100
AcDbLine
 10
1443.999447007003
 20
546.2308853207689
 30
0.0
 11
1439.806094167277
 21
546.2308853207689
 31
0.0
  0
LINE
  5
701
330
1F
100
AcDbEntity
  8
0
  6
Continuous
100
AcDbLine
 10
1441.322994826744
 20
626.0772393997024
 30
0.0
 11
1414.43946273744
 21
634.7563552607227
 31
0.0
  0
LINE
  5
702
330
1F
100
AcDbEntity
  8
0
  6
Continuous
100
AcDbLine
 10
1441.322994826744
 20
516.3845312418291
 30
0.0
 11
1414.43946273744
 21
507.7054153807959
 31
0.0
  0
LINE
  5
703
330
1F
100
AcDbEntity
  8
0
  6
Continuous
100
AcDbLine
 10
1463.708205353721
 20
578.7308853207726
 30
0.0
 11
1443.999447007003
 21
578.7308853207689
 31
0.0
  0
LINE
  5
704
330
1F
100
AcDbEntity
  8
0
  6
Continuous
100
AcDbLine
 10
1463.70820535372
 20
563.7308853207725
 30
0.0
 11
1443.999447007003
 21
563.7308853207689
 31
0.0
  0
ELLIPSE
  5
705
330
1F
100
AcDbEntity
  8
0
  6
Continuous
100
AcDbEllipse
 10
1345.455655273417
 20
571.2308853207498
 30
0.0
 11
-0.0000000000056746
 21
40.99999999999992
 31
0.0
210
0.0
220
0.0
230
1.0
 40
0.5446390350150252
 41
1.053072282482608
 42
2.088520371106705
  0
ELLIPSE
  5
706
330
1F
100
AcDbEntity
  8
0
  6
Continuous
100
AcDbEllipse
 10
1359.713054928489
 20
571.2308853207526
 30
0.0
 11
-0.0000000000125649
 21
64.49999999999995
 31
0.0
210
0.0
220
0.0
230
1.0
 40
0.5446390350150253
 41
1.266016744581289
 42
1.875575909007777
  0
ELLIPSE
  5
707
330
1F
100
AcDbEntity
  8
0
  6
Continuous
100
AcDbEllipse
 10
1359.713054928489
 20
571.2308853207526
 30
0.0
 11
-0.0000000000125594
 21
64.49999999999987
 31
0.0
210
0.0
220
0.0
230
1.0
 40
0.5446390350150252
 41
0.218819193384693
 42
0.8283783578111947
  0
ELLIPSE
  5
708
330
1F
100
AcDbEntity
  8
0
  6
Continuous
100
AcDbEllipse
 10
1359.713054928489
 20
571.2308853207526
 30
0.0
 11
0.0000000000125566
 21
-64.49999999999983
 31
0.0
210
0.0
220
0.0
230
1.0
 40
0.5446390350150251
 41
5.454806949367695
 42
6.064366113794179
  0
ELLIPSE
  5
709
330
1F
100
AcDbEntity
  8
0
  6
Continuous
100
AcDbEllipse
 10
1443.999447007004
 20
571.2308853207689
 30
0.0
 11
0.0000000000048676
 21
-24.99999999999994
 31
0.0
210
0.0
220
0.0
230
1.0
 40
0.5446390350150253
 41
1.875488980809954
 42
7.54928897995876
  0
ELLIPSE
  5
70A
330
1F
100
AcDbEntity
  8
0
  6
Continuous
100
AcDbEllipse
 10
1408.355947869323
 20
571.2308853207625
 30
0.0
 11
0.000000000012558
 21
-64.49999999999985
 31
0.0
210
0.0
220
0.0
230
1.0
 40
0.5446390350150255
 41
2.967539821571238
 42
6.457238139197428
  0
ELLIPSE
  5
70B
330
1F
100
AcDbEntity
  8
0
  6
Continuous
100
AcDbEllipse
 10
1439.806094167277
 20
571.230885320768
 30
0.0
 11
-0.0000000000000073
 21
-24.99999999999994
 31
0.0
210
0.0
220
0.0
230
1.0
 40
0.5446390350150253
 41
3.141592653591477
 42
6.28318530718127
  0
ELLIPSE
  5
70C
330
1F
100
AcDbEntity
  8
0
  6
Continuous
100
AcDbEllipse
 10
1443.999447007004
 20
571.2308853207689
 30
0.0
 11
0.0000000000000465
 21
-7.499999999999981
 31
0.0
210
0.0
220
0.0
230
1.0
 40
0.5446390350150253
 41
3.141592653591471
 42
6.283185307181264
  0
LINE
  5
70D
330
1F
100
AcDbEntity
  8
0
  6
Continuous
100
AcDbLine
 10
1467.088367554983
 20
575.7935284148909
 30
0.0
 11
1466.360900790399
 21
576.9341891884198
 31
0.0
  0
LINE
  5
70E
330
1F
100
AcDbEntity
  8
0
  6
Continuous
100
AcDbLine
 10
1467.088367554983
 20
566.6682422266542
 30
0.0
 11
1466.360900790399
 21
565.5275814531234
 31
0.0
  0
ELLIPSE
  5
70F
330
1F
100
AcDbEntity
  8
0
  6
Continuous
100
AcDbEllipse
 10
1463.708205353721
 20
571.2308853207725
 30
0.0
 11
-0.0000000000014603
 21
7.499999999999978
 31
0.0
210
0.0
220
0.0
230
1.0
 40
0.5446390350150253
 41
5.576380160932016
 42
10.13158310701639
  0
ELLIPSE
  5
710
330
1F
100
AcDbEntity
  8
0
  6
Continuous
100
AcDbEllipse
 10
1464.966211205639
 20
571.2308853207725
 30
0.0
 11
-0.0000000000000066
 21
5.999999999999981
 31
0.0
210
0.0
220
0.0
230
1.0
 40
0.5446390350150253
 41
0.0
 42
6.283185307179585
  0
LINE
  5
711
330
1F
100
AcDbEntity
  8
0
  6
Continuous
100
AcDbLine
 10
1359.713054928488
 20
646.2308853207526
 30
0.0
 11
1382.305013549959
 21
646.2308853207571
 31
0.0
  0
LINE
  5
712
330
1F
100
AcDbEntity
  8
0
  6
Continuous
100
AcDbLine
 10
1359.713054928489
 20
496.2308853207525
 30
0.0
 11
1382.305013549959
 21
496.230885320757
 31
0.0
  0
ELLIPSE
  5
713
330
1F
100
AcDbEntity
  8
0
  6
Continuous
100
AcDbEllipse
 10
1327.167739353608
 20
536.730885320768
 30
0.0
 11
0.000000000001168
 21
-5.999999999999987
 31
0.0
210
0.0
220
0.0
230
1.0
 40
0.5446390350150253
 41
4.424409653805243
 42
6.047565858159985
  0
LINE
  5
714
330
1F
100
AcDbEntity
  8
0
  6
Continuous
100
AcDbLine
 10
1361.504711574376
 20
527.6242714537341
 30
0.0
 11
1333.828582832176
 21
527.6242714537277
 31
0.0
  0
LINE
  5
715
330
1F
100
AcDbEntity
  8
0
  6
Continuous
100
AcDbLine
 10
1333.828582832176
 20
527.6242714537277
 30
0.0
 11
1326.404878607413
 21
530.8966657983821
 31
0.0
  0
LINE
  5
716
330
1F
100
AcDbEntity
  8
0
  6
Continuous
100
AcDbLine
 10
1353.878961978262
 20
590.5862338595654
 30
0.0
 11
1326.202833236062
 21
590.58623385956
 31
0.0
  0
LINE
  5
717
330
1F
100
AcDbEntity
  8
0
  6
Continuous
100
AcDbLine
 10
1326.202833236062
 20
590.58623385956
 30
0.0
 11
1324.034475422697
 21
604.0267932525459
 31
0.0
  0
LINE
  5
718
330
1F
100
AcDbEntity
  8
0
  6
Continuous
100
AcDbLine
 10
1379.763434074573
 20
634.1928477265912
 30
0.0
 11
1352.087305332374
 21
634.1928477265849
 31
0.0
  0
LINE
  5
719
330
1F
100
AcDbEntity
  8
0
  6
Continuous
100
AcDbLine
 10
1352.087305332374
 20
634.1928477265849
 30
0.0
 11
1357.342651743772
 21
644.3610127749163
 31
0.0
  0
ELLIPSE
  5
71A
330
1F
100
AcDbEntity
  8
0
  6
Continuous
100
AcDbEllipse
 10
1359.713054928489
 20
640.2308853207525
 30
0.0
 11
-0.0000000000011682
 21
6.000000000000044
 31
0.0
210
0.0
220
0.0
230
1.0
 40
0.5446390350150253
 41
0.0
 42
0.8115781021770951
  0
LINE
  5
71B
330
1F
100
AcDbEntity
  8
0
  6
Continuous
100
AcDbLine
 10
1357.342651743772
 20
498.1007578665914
 30
0.0
 11
1352.087305332374
 21
508.2689229149274
 31
0.0
  0
LINE
  5
71C
330
1F
100
AcDbEntity
  8
0
  6
Continuous
100
AcDbLine
 10
1352.087305332374
 20
508.2689229149274
 30
0.0
 11
1379.763434074573
 21
508.2689229149329
 31
0.0
  0
ELLIPSE
  5
71D
330
1F
100
AcDbEntity
  8
0
  6
Continuous
100
AcDbEllipse
 10
1359.713054928489
 20
502.2308853207534
 30
0.0
 11
0.0000000000000174
 21
-5.999999999999991
 31
0.0
210
0.0
220
0.0
230
1.0
 40
0.5446390350150253
 41
5.471607205003278
 42
6.283185307181285
  0
LINE
  5
71E
330
1F
100
AcDbEntity
  8
0
  6
Continuous
100
AcDbLine
 10
1326.404878607413
 20
611.5651048431539
 30
0.0
 11
1333.828582832176
 21
614.8374991878011
 31
0.0
  0
LINE
  5
71F
330
1F
100
AcDbEntity
  8
0
  6
Continuous
100
AcDbLine
 10
1333.828582832176
 20
614.8374991878011
 30
0.0
 11
1361.504711574376
 21
614.8374991878065
 31
0.0
  0
ELLIPSE
  5
720
330
1F
100
AcDbEntity
  8
0
  6
Continuous
100
AcDbEllipse
 10
1327.167739353608
 20
605.730885320768
 30
0.0
 11
-0.0000000000011678
 21
5.999999999999975
 31
0.0
210
0.0
220
0.0
230
1.0
 40
0.5446390350150255
 41
0.2356194490188868
 42
1.858775653373573
  0
LINE
  5
721
330
1F
100
AcDbEntity
  8
0
  6
Continuous
100
AcDbLine
 10
1324.034475422697
 20
538.4349773889928
 30
0.0
 11
1326.202833236062
 21
551.875536781976
 31
0.0
  0
LINE
  5
722
330
1F
100
AcDbEntity
  8
0
  6
Continuous
100
AcDbLine
 10
1326.202833236062
 20
551.875536781976
 30
0.0
 11
1353.878961978262
 21
551.8755367819815
 31
0.0
  0
ELLIPSE
  5
723
330
1F
100
AcDbEntity
  8
0
  6
Continuous
100
AcDbEllipse
 10
1387.389183670688
 20
571.230885320758
 30
0.0
 11
0.0000000000125538
 21
-64.49999999999985
 31
0.0
210
0.0
220
0.0
230
1.0
 40
0.5446390350150253
 41
5.017168562597571
 42
5.454806949367673
  0
SPLINE
  5
724
330
1F
100
AcDbEntity
  8
0
  6
Continuous
100
AcDbSpline
210
0.0
220
0.0
230
1.0
 70
    12
 71
     2
 72
     6
 73
     3
 74
     0
 42
0.0000000001
 43
0.0000000001
 40
0.0
 40
0.0
 40
0.0
 40
1.617671887431031
 40
1.617671887431031
 40
1.617671887431031
 10
1361.504711574376
 20
527.6242714537331
 30
0.0
 41
1.0
 10
1356.253504702603
 20
529.1564300436114
 30
0.0
 41
1.010371862764367
 10
1349.839588217044
 20
530.8966657983867
 30
0.0
 41
1.01028117927845
  0
SPLINE
  5
725
330
1F
100
AcDbEntity
  8
0
  6
Continuous
100
AcDbSpline
210
0.0
220
0.0
230
1.0
 70
     8
 71
     3
 72
    14
 73
    10
 74
     0
 42
0.0000000001
 43
0.0000000001
 40
0.54783826465067
 40
0.54783826465067
 40
0.54783826465067
 40
0.54783826465067
 40
0.7836152875134732
 40
0.7836152875134732
 40
1.030564880727202
 40
1.030564880727202
 40
1.277514473940932
 40
1.277514473940932
 40
1.513291496803739
 40
1.513291496803739
 40
1.513291496803739
 40
1.513291496803739
 10
1347.469185032327
 20
538.4349773889973
 30
0.0
 10
1347.112149280856
 20
537.7298564859841
 30
0.0
 10
1346.847161456087
 20
536.9233776023068
 30
0.0
 10
1346.635471262412
 20
535.2802787426719
 30
0.0
 10
1346.705506553542
 20
534.4437673913646
 30
0.0
 10
1347.153834514027
 20
533.0180032501823
 30
0.0
 10
1347.553317105137
 20
532.3613626699864
 30
0.0
 10
1348.585740480653
 20
531.3943813131611
 30
0.0
 10
1349.206845592152
 20
531.0683427046708
 30
0.0
 10
1349.839588217044
 20
530.8966657983867
 30
0.0
  0
SPLINE
  5
726
330
1F
100
AcDbEntity
  8
0
  6
Continuous
100
AcDbSpline
210
0.0
220
0.0
230
1.0
 70
    12
 71
     2
 72
     6
 73
     3
 74
     0
 42
0.0000000001
 43
0.0000000001
 40
1.589629741223895
 40
1.589629741223895
 40
1.589629741223895
 40
3.207301628655474
 40
3.207301628655474
 40
3.207301628655474
 10
1347.469185032327
 20
538.4349773889973
 30
0.0
 41
1.010281179278433
 10
1351.088346129134
 20
545.5825701166534
 30
0.0
 41
1.010371862764353
 10
1353.878961978262
 20
551.8755367819815
 30
0.0
 41
1.0
  0
ELLIPSE
  5
727
330
1F
100
AcDbEntity
  8
0
  6
Continuous
100
AcDbEllipse
 10
1387.389183670688
 20
571.230885320758
 30
0.0
 11
0.0000000000125608
 21
-64.49999999999943
 31
0.0
210
0.0
220
0.0
230
1.0
 40
0.5446390350150253
 41
6.064366113794176
 42
6.283185307179248
  0
SPLINE
  5
728
330
1F
100
AcDbEntity
  8
0
  6
Continuous
100
AcDbSpline
210
0.0
220
0.0
230
1.0
 70
    12
 71
     2
 72
     6
 73
     3
 74
     0
 42
0.0000000001
 43
0.0000000001
 40
0.2566441324084842
 40
0.2566441324084842
 40
0.2566441324084842
 40
1.617671887431014
 40
1.617671887431014
 40
1.617671887431014
 10
1393.635055064795
 20
506.7308853207543
 30
0.0
 41
1.003027656873621
 10
1389.944402747741
 20
502.6503008084684
 30
0.0
 41
1.01035747580196
 10
1385.518167722835
 20
498.1007578665932
 30
0.0
 41
1.010281179278411
  0
SPLINE
  5
729
330
1F
100
AcDbEntity
  8
0
  6
Continuous
100
AcDbSpline
210
0.0
220
0.0
230
1.0
 70
     8
 71
     3
 72
    14
 73
    10
 74
     0
 42
0.0000000001
 43
0.0000000001
 40
0.54783826465067
 40
0.54783826465067
 40
0.54783826465067
 40
0.54783826465067
 40
0.7836152875134736
 40
0.7836152875134736
 40
1.030564880727203
 40
1.030564880727203
 40
1.277514473940932
 40
1.277514473940932
 40
1.513291496803738
 40
1.513291496803738
 40
1.513291496803738
 40
1.513291496803738
 10
1380.777361353402
 20
498.1007578665959
 30
0.0
 10
1380.809789230164
 20
497.5673138698668
 30
0.0
 10
1380.949469909208
 20
497.0868735946789
 30
0.0
 10
1381.467051487534
 20
496.4107560918693
 30
0.0
 10
1381.856685589475
 20
496.230885320757
 30
0.0
 10
1382.753341510442
 20
496.230885320757
 30
0.0
 10
1383.302743172986
 20
496.4107560918684
 30
0.0
 10
1384.42662795834
 20
497.086873594678
 30
0.0
 10
1384.999181852758
 20
497.567313869865
 30
0.0
 10
1385.518167722835
 20
498.1007578665932
 30
0.0
  0
SPLINE
  5
72A
330
1F
100
AcDbEntity
  8
0
  6
Continuous
100
AcDbSpline
210
0.0
220
0.0
230
1.0
 70
    12
 71
     2
 72
     6
 73
     3
 74
     0
 42
0.0000000001
 43
0.0000000001
 40
1.589629741223882
 40
1.589629741223882
 40
1.589629741223882
 40
3.20730162865547
 40
3.20730162865547
 40
3.20730162865547
 10
1380.777361353402
 20
498.1007578665959
 30
0.0
 41
1.010281179278441
 10
1380.448649986145
 20
503.5081148394785
 30
0.0
 41
1.010371862764361
 10
1379.763434074573
 20
508.2689229149329
 30
0.0
 41
1.0
  0
SPLINE
  5
72B
330
1F
100
AcDbEntity
  8
0
  6
Continuous
100
AcDbSpline
210
0.0
220
0.0
230
1.0
 70
     8
 71
     3
 72
    14
 73
    10
 74
     0
 42
0.0000000001
 43
0.0000000001
 40
0.5478382646506683
 40
0.5478382646506683
 40
0.5478382646506683
 40
0.5478382646506683
 40
0.7836152875134726
 40
0.7836152875134726
 40
1.030564880727201
 40
1.030564880727201
 40
1.277514473940931
 40
1.277514473940931
 40
1.513291496803739
 40
1.513291496803739
 40
1.513291496803739
 40
1.513291496803739
 10
1349.839588217043
 20
611.5651048431584
 30
0.0
 10
1349.206845592152
 20
611.3934279368743
 30
0.0
 10
1348.585740480653
 20
611.0673893283849
 30
0.0
 10
1347.553317105137
 20
610.1004079715596
 30
0.0
 10
1347.153834514027
 20
609.4437673913646
 30
0.0
 10
1346.705506553542
 20
608.0180032501823
 30
0.0
 10
1346.635471262412
 20
607.1814918988759
 30
0.0
 10
1346.847161456087
 20
605.5383930392402
 30
0.0
 10
1347.112149280856
 20
604.7319141555629
 30
0.0
 10
1347.469185032327
 20
604.0267932525495
 30
0.0
  0
SPLINE
  5
72C
330
1F
100
AcDbEntity
  8
0
  6
Continuous
100
AcDbSpline
210
0.0
220
0.0
230
1.0
 70
    12
 71
     2
 72
     6
 73
     3
 74
     0
 42
0.0000000001
 43
0.0000000001
 40
1.589629741223896
 40
1.589629741223896
 40
1.589629741223896
 40
3.207301628655471
 40
3.207301628655471
 40
3.207301628655471
 10
1349.839588217043
 20
611.5651048431584
 30
0.0
 41
1.01028117927841
 10
1356.253504702604
 20
613.3053405979319
 30
0.0
 41
1.01037186276433
 10
1361.504711574376
 20
614.8374991878065
 30
0.0
 41
1.0
  0
ELLIPSE
  5
72D
330
1F
100
AcDbEntity
  8
0
  6
Continuous
100
AcDbEllipse
 10
1387.389183670688
 20
571.230885320758
 30
0.0
 11
0.0000000000161898
 21
-64.50000000000001
 31
0.0
210
0.0
220
0.0
230
1.0
 40
0.5446390350150253
 41
3.96997101140073
 42
4.40760939817096
  0
SPLINE
  5
72E
330
1F
100
AcDbEntity
  8
0
  6
Continuous
100
AcDbSpline
210
0.0
220
0.0
230
1.0
 70
    12
 71
     2
 72
     6
 73
     3
 74
     0
 42
0.0000000001
 43
0.0000000001
 40
0.0
 40
0.0
 40
0.0
 40
1.617671887431019
 40
1.617671887431019
 40
1.617671887431019
 10
1353.878961978262
 20
590.5862338595654
 30
0.0
 41
1.0
 10
1351.088346129132
 20
596.8792005248972
 30
0.0
 41
1.010371862764352
 10
1347.469185032327
 20
604.0267932525495
 30
0.0
 41
1.010281179278436
  0
SPLINE
  5
72F
330
1F
100
AcDbEntity
  8
0
  6
Continuous
100
AcDbSpline
210
0.0
220
0.0
230
1.0
 70
     8
 71
     3
 72
    14
 73
    10
 74
     0
 42
0.0000000001
 43
0.0000000001
 40
0.5478382646506683
 40
0.5478382646506683
 40
0.5478382646506683
 40
0.5478382646506683
 40
0.7836152875134735
 40
0.7836152875134735
 40
1.030564880727203
 40
1.030564880727203
 40
1.277514473940933
 40
1.277514473940933
 40
1.513291496803741
 40
1.513291496803741
 40
1.513291496803741
 40
1.513291496803741
 10
1385.518167722835
 20
644.3610127749191
 30
0.0
 10
1384.999181852758
 20
644.8944567716482
 30
0.0
 10
1384.426627958339
 20
645.3748970468352
 30
0.0
 10
1383.302743172986
 20
646.0510145496448
 30
0.0
 10
1382.753341510442
 20
646.2308853207562
 30
0.0
 10
1381.856685589473
 20
646.2308853207571
 30
0.0
 10
1381.467051487534
 20
646.0510145496466
 30
0.0
 10
1380.949469909208
 20
645.374897046837
 30
0.0
 10
1380.809789230163
 20
644.8944567716491
 30
0.0
 10
1380.777361353402
 20
644.3610127749209
 30
0.0
  0
SPLINE
  5
730
330
1F
100
AcDbEntity
  8
0
  6
Continuous
100
AcDbSpline
210
0.0
220
0.0
230
1.0
 70
    12
 71
     2
 72
     6
 73
     3
 74
     0
 42
0.0000000001
 43
0.0000000001
 40
1.589629741223892
 40
1.589629741223892
 40
1.589629741223892
 40
2.950657496246827
 40
2.950657496246827
 40
2.950657496246827
 10
1385.518167722835
 20
644.3610127749191
 30
0.0
 41
1.010281179278437
 10
1389.944402747742
 20
639.8114698330411
 30
0.0
 41
1.010357475801989
 10
1393.635055064795
 20
635.7308853207544
 30
0.0
 41
1.00302765687363
  0
ELLIPSE
  5
731
330
1F
100
AcDbEntity
  8
0
  6
Continuous
100
AcDbEllipse
 10
1387.389183670688
 20
571.230885320758
 30
0.0
 11
-0.0000000000000391
 21
64.49999999999992
 31
0.0
210
0.0
220
0.0
230
1.0
 40
0.5446390350150252
 41
0.0000000000016933
 42
0.2188191933866923
  0
SPLINE
  5
732
330
1F
100
AcDbEntity
  8
0
  6
Continuous
100
AcDbSpline
210
0.0
220
0.0
230
1.0
 70
    12
 71
     2
 72
     6
 73
     3
 74
     0
 42
0.0000000001
 43
0.0000000001
 40
0.0
 40
0.0
 40
0.0
 40
1.61767188743102
 40
1.61767188743102
 40
1.61767188743102
 10
1379.763434074573
 20
634.1928477265912
 30
0.0
 41
1.0
 10
1380.448649986144
 20
638.9536558020438
 30
0.0
 41
1.010371862764354
 10
1380.777361353402
 20
644.3610127749209
 30
0.0
 41
1.010281179278437
  0
LINE
  5
733
330
1F
100
AcDbEntity
  8
0
  6
Continuous
100
AcDbLine
 10
1372.393575490351
 20
89.59241019227627
 30
0.0
 11
1367.361552082678
 21
86.32457598218641
 31
0.0
  0
LINE
  5
734
330
1F
100
AcDbEntity
  8
0
  6
Continuous
100
AcDbLine
 10
1359.66125174112
 20
109.1984694416617
 30
0.0
 11
1354.629228333448
 21
105.9306352315714
 31
0.0
  0
LINE
  5
735
330
1F
100
AcDbEntity
  8
0
  6
Continuous
100
AcDbLine
 10
1329.57271766805
 20
155.530748873324
 30
0.0
 11
1324.540694260377
 21
152.2629146632337
 31
0.0
  0
LINE
  5
736
330
1F
100
AcDbEntity
  8
0
  6
Continuous
100
AcDbLine
 10
1316.840393918819
 20
175.136808122709
 30
0.0
 11
1311.808370511146
 21
171.8689739126187
 31
0.0
  0
LINE
  5
737
330
1F
100
AcDbEntity
  8
0
  6
Continuous
100
AcDbLine
 10
1354.629228333448
 20
105.9306352315714
 30
0.0
 11
1367.361552082678
 21
86.32457598218641
 31
0.0
  0
LINE
  5
738
330
1F
100
AcDbEntity
  8
0
  6
Continuous
100
AcDbLine
 10
1354.629228333448
 20
105.9306352315714
 30
0.0
 11
1324.540694260377
 21
152.2629146632337
 31
0.0
  0
SPLINE
  5
739
330
1F
100
AcDbEntity
  8
0
  6
Continuous
100
AcDbSpline
210
0.0
220
0.0
230
1.0
 70
     8
 71
     3
 72
     8
 73
     4
 74
     0
 42
0.0000000001
 43
0.0000000001
 40
-0.1436911116739463
 40
-0.1436911116739463
 40
-0.1436911116739463
 40
-0.1436911116739463
 40
0.0
 40
0.0
 40
0.0
 40
0.0
 10
1353.651897968127
 20
105.5995135604237
 30
0.0
 10
1353.977833960529
 20
105.709537580705
 30
0.0
 10
1354.30362564009
 20
105.8199201217665
 30
0.0
 10
1354.629228333448
 20
105.9306352315714
 30
0.0
  0
SPLINE
  5
73A
330
1F
100
AcDbEntity
  8
0
  6
Continuous
100
AcDbSpline
210
0.0
220
0.0
230
1.0
 70
     8
 71
     3
 72
     8
 73
     4
 74
     0
 42
0.0000000001
 43
0.0000000001
 40
-0.1436911116746254
 40
-0.1436911116746254
 40
-0.1436911116746254
 40
-0.1436911116746254
 40
0.0
 40
0.0
 40
0.0
 40
0.0
 10
1323.840683489807
 20
151.5047582643517
 30
0.0
 10
1324.073765545172
 20
151.7577648090239
 30
0.0
 10
1324.307116428249
 20
152.0104936938189
 30
0.0
 10
1324.540694260378
 20
152.2629146632337
 30
0.0
  0
SPLINE
  5
73B
330
1F
100
AcDbEntity
  8
0
  6
Continuous
100
AcDbSpline
210
0.0
220
0.0
230
1.0
 70
    24
 71
     3
 72
     8
 73
     4
 74
     0
 42
0.0000000001
 43
0.0000000001
 40
-0.1436911116739463
 40
-0.1436911116739463
 40
-0.1436911116739463
 40
-0.1436911116739463
 40
0.0
 40
0.0
 40
0.0
 40
0.0
 10
1311.514338978217
 20
170.4856643096584
 30
0.0
 10
1311.612332719622
 20
170.9466886160192
 30
0.0
 10
1311.710348288014
 20
171.4078156102662
 30
0.0
 10
1311.808370511146
 20
171.8689739126187
 30
0.0
  0
SPLINE
  5
73C
330
1F
100
AcDbEntity
  8
0
  6
Continuous
100
AcDbSpline
210
0.0
220
0.0
230
1.0
 70
    24
 71
     3
 72
     8
 73
     4
 74
     0
 42
0.0000000001
 43
0.0000000001
 40
-0.1436911116735142
 40
-0.1436911116735142
 40
-0.1436911116735142
 40
-0.1436911116735142
 40
0.0
 40
0.0
 40
0.0
 40
0.0
 10
1365.978242479718
 20
86.61860751511657
 30
0.0
 10
1366.439266786079
 20
86.52061377371026
 30
0.0
 10
1366.900393780328
 20
86.4225982053197
 30
0.0
 10
1367.361552082678
 20
86.32457598218641
 30
0.0
  0
LINE
  5
73D
330
1F
100
AcDbEntity
  8
0
  6
Continuous
100
AcDbLine
 10
1311.808370511146
 20
171.8689739126187
 30
0.0
 11
1324.540694260378
 21
152.2629146632337
 31
0.0
  0
LINE
  5
73E
330
1F
100
AcDbEntity
  8
0
  6
Continuous
100
AcDbLine
 10
1360.361262511691
 20
109.9566258405436
 30
0.0
 11
1330.55004803337
 21
155.8618705444717
 31
0.0
  0
LINE
  5
73F
330
1F
100
AcDbEntity
  8
0
  6
Continuous
100
AcDbLine
 10
1329.57271766805
 20
155.530748873324
 30
0.0
 11
1359.66125174112
 21
109.1984694416617
 31
0.0
  0
LINE
  5
740
330
1F
100
AcDbEntity
  8
0
  6
Continuous
100
AcDbLine
 10
1318.223703521779
 20
174.8427765897788
 30
0.0
 11
1330.55004803337
 21
155.8618705444721
 31
0.0
  0
SPLINE
  5
741
330
1F
100
AcDbEntity
  8
0
  6
Continuous
100
AcDbSpline
210
0.0
220
0.0
230
1.0
 70
     8
 71
     3
 72
     8
 73
     4
 74
     0
 42
0.0000000001
 43
0.0000000001
 40
-0.1436911213497667
 40
-0.1436911213497667
 40
-0.1436911213497667
 40
-0.1436911213497667
 40
0.0
 40
0.0
 40
0.0
 40
0.0
 10
1329.57271766805
 20
155.530748873324
 30
0.0
 10
1329.898320361408
 20
155.6414639831289
 30
0.0
 10
1330.224112040969
 20
155.7518465241903
 30
0.0
 10
1330.55004803337
 20
155.8618705444721
 30
0.0
  0
LINE
  5
742
330
1F
100
AcDbEntity
  8
0
  6
Continuous
100
AcDbLine
 10
1329.57271766805
 20
155.530748873324
 30
0.0
 11
1316.840393918819
 21
175.136808122709
 31
0.0
  0
SPLINE
  5
743
330
1F
100
AcDbEntity
  8
0
  6
Continuous
100
AcDbSpline
210
0.0
220
0.0
230
1.0
 70
    24
 71
     3
 72
     8
 73
     4
 74
     0
 42
0.0000000001
 43
0.0000000001
 40
-0.1436911213500971
 40
-0.1436911213500971
 40
-0.1436911213500971
 40
-0.1436911213500971
 40
0.0
 40
0.0
 40
0.0
 40
0.0
 10
1316.840393918819
 20
175.1368081227094
 30
0.0
 10
1317.301552221169
 20
175.0387858995761
 30
0.0
 10
1317.762679215418
 20
174.9407703311856
 30
0.0
 10
1318.223703521779
 20
174.8427765897788
 30
0.0
  0
SPLINE
  5
744
330
1F
100
AcDbEntity
  8
0
  6
Continuous
100
AcDbSpline
210
0.0
220
0.0
230
1.0
 70
     8
 71
     3
 72
     8
 73
     4
 74
     0
 42
0.0000000001
 43
0.0000000001
 40
-0.1436911213500971
 40
-0.1436911213500971
 40
-0.1436911213500971
 40
-0.1436911213500971
 40
0.0
 40
0.0
 40
0.0
 40
0.0
 10
1359.66125174112
 20
109.1984694416617
 30
0.0
 10
1359.894829573247
 20
109.4508904110746
 30
0.0
 10
1360.128180456324
 20
109.7036192958701
 30
0.0
 10
1360.361262511691
 20
109.9566258405436
 30
0.0
  0
LINE
  5
745
330
1F
100
AcDbEntity
  8
0
  6
Continuous
100
AcDbLine
 10
1360.361262511691
 20
109.9566258405436
 30
0.0
 11
1372.687607023282
 21
90.97571979523698
 31
0.0
  0
SPLINE
  5
746
330
1F
100
AcDbEntity
  8
0
  6
Continuous
100
AcDbSpline
210
0.0
220
0.0
230
1.0
 70
    24
 71
     3
 72
     8
 73
     4
 74
     0
 42
0.0000000001
 43
0.0000000001
 40
-0.1436911213491166
 40
-0.1436911213491166
 40
-0.1436911213491166
 40
-0.1436911213491166
 40
0.0
 40
0.0
 40
0.0
 40
0.0
 10
1372.393575490351
 20
89.59241019227627
 30
0.0
 10
1372.491597713486
 20
90.05356849463286
 30
0.0
 10
1372.589613281876
 20
90.51469548887851
 30
0.0
 10
1372.687607023282
 20
90.97571979523698
 30
0.0
  0
LINE
  5
747
330
1F
100
AcDbEntity
  8
0
  6
Continuous
100
AcDbLine
 10
1372.393575490351
 20
89.59241019227674
 30
0.0
 11
1359.66125174112
 21
109.1984694416617
 31
0.0
  0
CIRCLE
  5
748
330
1F
100
AcDbEntity
  8
0
  6
Continuous
100
AcDbCircle
 10
1312.453968423878
 20
111.4777021646666
 30
0.0
 40
17.84999999999991
  0
CIRCLE
  5
749
330
1F
100
AcDbEntity
  8
0
  6
Continuous
100
AcDbCircle
 10
1312.453968423878
 20
111.4777021646666
 30
0.0
 40
25.24999999999987
  0
LINE
  5
74A
330
1F
100
AcDbEntity
  8
0
  6
Continuous
100
AcDbLine
 10
1343.904181502414
 20
93.06850374152444
 30
0.0
 11
1335.51747582296
 21
87.62211339137392
 31
0.0
  0
LINE
  5
74B
330
1F
100
AcDbEntity
  8
0
  6
Continuous
100
AcDbLine
 10
1350.984488957609
 20
82.16578635823342
 30
0.0
 11
1342.597783278155
 21
76.71939600808335
 31
0.0
  0
LINE
  5
74C
330
1F
100
AcDbEntity
  8
0
  6
Continuous
100
AcDbLine
 10
1342.597783278155
 20
76.71939600808335
 30
0.0
 11
1335.51747582296
 21
87.62211339137392
 31
0.0
  0
LINE
  5
74D
330
1F
100
AcDbEntity
  8
0
  6
Continuous
100
AcDbLine
 10
1300.041577237703
 20
142.2502066826503
 30
0.0
 11
1308.428282917158
 21
147.6965970327999
 31
0.0
  0
LINE
  5
74E
330
1F
100
AcDbEntity
  8
0
  6
Continuous
100
AcDbLine
 10
1292.961269782508
 20
153.1529240659404
 30
0.0
 11
1301.347975461962
 21
158.5993144160909
 31
0.0
  0
LINE
  5
74F
330
1F
100
AcDbEntity
  8
0
  6
Continuous
100
AcDbLine
 10
1292.961269782508
 20
153.1529240659408
 30
0.0
 11
1300.041577237703
 21
142.2502066826503
 31
0.0
  0
LINE
  5
750
330
1F
100
AcDbEntity
  8
0
  6
Continuous
100
AcDbLine
 10
1366.522881514733
 20
85.77993694717113
 30
0.0
 11
1353.942822995552
 21
77.61035142194604
 31
0.0
  0
LINE
  5
751
330
1F
100
AcDbEntity
  8
0
  6
Continuous
100
AcDbLine
 10
1310.969699943201
 20
171.3243348776043
 30
0.0
 11
1298.389641424019
 21
163.1547493523783
 31
0.0
  0
LINE
  5
752
330
1F
100
AcDbEntity
  8
0
  6
Continuous
100
AcDbLine
 10
1353.790557765504
 20
105.3859961965561
 30
0.0
 11
1366.522881514733
 21
85.77993694717113
 31
0.0
  0
LINE
  5
753
330
1F
100
AcDbEntity
  8
0
  6
Continuous
100
AcDbLine
 10
1310.969699943201
 20
171.3243348776039
 30
0.0
 11
1323.702023692432
 21
151.7182756282188
 31
0.0
  0
LINE
  5
754
330
1F
100
AcDbEntity
  8
0
  6
Continuous
100
AcDbLine
 10
1323.702023692432
 20
151.7182756282188
 30
0.0
 11
1311.12196517325
 21
143.5486901029933
 31
0.0
  0
LINE
  5
755
330
1F
100
AcDbEntity
  8
0
  6
Continuous
100
AcDbLine
 10
1353.790557765502
 20
105.3859961965565
 30
0.0
 11
1323.702023692432
 21
151.7182756282188
 31
0.0
  0
LINE
  5
756
330
1F
100
AcDbEntity
  8
0
  6
Continuous
100
AcDbLine
 10
1353.790557765502
 20
105.3859961965565
 30
0.0
 11
1341.21049924632
 21
97.21641067133104
 31
0.0
  0
LINE
  5
757
330
1F
100
AcDbEntity
  8
0
  6
Continuous
100
AcDbLine
 10
1337.222404620591
 20
103.35753785787
 30
0.0
 11
1341.21049924632
 21
97.21641067133104
 31
0.0
  0
LINE
  5
758
330
1F
100
AcDbEntity
  8
0
  6
Continuous
100
AcDbLine
 10
1353.942822995553
 20
77.61035142194604
 30
0.0
 11
1341.21049924632
 21
97.21641067133148
 31
0.0
  0
LINE
  5
759
330
1F
100
AcDbEntity
  8
0
  6
Continuous
100
AcDbLine
 10
1311.121965173251
 20
143.5486901029933
 30
0.0
 11
1298.389641424019
 21
163.1547493523783
 31
0.0
  0
LINE
  5
75A
330
1F
100
AcDbEntity
  8
0
  6
Continuous
100
AcDbLine
 10
1311.121965173251
 20
143.5486901029933
 30
0.0
 11
1315.11005979898
 21
137.4075629164542
 31
0.0
  0
LINE
  5
75B
330
1F
100
AcDbEntity
  8
0
  6
Continuous
100
AcDbLine
 10
1336.103401487824
 20
102.6308487266394
 30
0.0
 11
1337.222404620591
 21
103.35753785787
 31
0.0
  0
LINE
  5
75C
330
1F
100
AcDbEntity
  8
0
  6
Continuous
100
AcDbLine
 10
1315.11005979898
 20
137.4075629164542
 30
0.0
 11
1313.991056666214
 21
136.6808737852241
 31
0.0
  0
LINE
  5
75D
330
1F
100
AcDbEntity
  8
0
  6
Continuous
100
AcDbLine
 10
1326.483389117251
 20
90.48394463990806
 30
0.0
 11
1339.924309494928
 21
90.48394463990806
 31
0.0
  0
LINE
  5
75E
330
1F
100
AcDbEntity
  8
0
  6
Continuous
100
AcDbLine
 10
1304.448410909671
 20
145.1120379311844
 30
0.0
 11
1298.981496075405
 21
132.8331461736222
 31
0.0
  0
LINE
  5
75F
330
1F
100
AcDbEntity
  8
0
  6
Continuous
100
AcDbLine
 10
1337.382854491987
 20
176.5536050735256
 30
0.0
 11
1323.125454836914
 21
167.29474147827
 31
0.0
  0
LINE
  5
760
330
1F
100
AcDbEntity
  8
0
  6
Continuous
100
AcDbLine
 10
1382.043255363219
 20
107.782618502001
 30
0.0
 11
1367.785855708147
 21
98.52375490674539
 31
0.0
  0
LINE
  5
761
330
1F
100
AcDbEntity
  8
0
  6
Continuous
100
AcDbLine
 10
1373.226730109968
 20
227.8514274511142
 30
0.0
 11
1349.170425683803
 21
212.2290806924923
 31
0.0
  0
LINE
  5
762
330
1F
100
AcDbEntity
  8
0
  6
Continuous
100
AcDbLine
 10
1443.485165626907
 20
119.6629241861549
 30
0.0
 11
1419.428861200742
 21
104.040577427533
 31
0.0
  0
LINE
  5
763
330
1F
100
AcDbEntity
  8
0
  6
Continuous
100
AcDbLine
 10
1430.383471130741
 20
217.8710990054085
 30
0.0
 11
1426.190118291015
 21
215.1479038303334
 31
0.0
  0
LINE
  5
764
330
1F
100
AcDbEntity
  8
0
  6
Continuous
100
AcDbLine
 10
1457.615422881493
 20
175.9375706081375
 30
0.0
 11
1453.422070041766
 21
173.2143754330625
 31
0.0
  0
LINE
  5
765
330
1F
100
AcDbEntity
  8
0
  6
Continuous
100
AcDbLine
 10
1405.740918403054
 20
238.4589725771355
 30
0.0
 11
1373.226730109968
 21
227.8514274511142
 31
0.0
  0
LINE
  5
766
330
1F
100
AcDbEntity
  8
0
  6
Continuous
100
AcDbLine
 10
1466.400352092187
 20
145.0516359144078
 30
0.0
 11
1443.485165626905
 21
119.6629241861553
 31
0.0
  0
LINE
  5
767
330
1F
100
AcDbEntity
  8
0
  6
Continuous
100
AcDbLine
 10
1459.623412590222
 20
215.9933813892169
 30
0.0
 11
1439.914654243504
 21
203.1943640663637
 31
0.0
  0
LINE
  5
768
330
1F
100
AcDbEntity
  8
0
  6
Continuous
100
AcDbLine
 10
1467.792998115448
 20
203.4133228700354
 30
0.0
 11
1448.08423976873
 21
190.6143055471823
 31
0.0
  0
LINE
  5
769
330
1F
100
AcDbEntity
  8
0
  6
Continuous
100
AcDbLine
 10
1367.338804523717
 20
130.4254871618834
 30
0.0
 11
1385.597527023915
 21
102.309520099817
 31
0.0
  0
LINE
  5
76A
330
1F
100
AcDbEntity
  8
0
  6
Continuous
100
AcDbLine
 10
1333.828582831291
 20
182.0267034757091
 30
0.0
 11
1352.087305331489
 21
153.9107364136432
 31
0.0
  0
LINE
  5
76B
330
1F
100
AcDbEntity
  8
0
  6
Continuous
100
AcDbLine
 10
1430.383471130742
 20
217.8710990054085
 30
0.0
 11
1457.615422881493
 21
175.9375706081375
 31
0.0
  0
LINE
  5
76C
330
1F
100
AcDbEntity
  8
0
  6
Continuous
100
AcDbLine
 10
1373.226730109968
 20
227.8514274511142
 30
0.0
 11
1443.485165626905
 21
119.6629241861553
 31
0.0
  0
ARC
  5
76D
330
1F
100
AcDbEntity
  8
0
  6
Continuous
100
AcDbCircle
 10
1461.94629201267
 20
149.0717539236282
 30
0.0
 40
5.999999999999975
100
AcDbArc
 50
317.9314171781152
 51
32.99999999997555
  0
ARC
  5
76E
330
1F
100
AcDbEntity
  8
0
  6
Continuous
100
AcDbCircle
 10
1407.601849504765
 20
232.7548569195876
 30
0.0
 40
5.999999999999977
100
AcDbArc
 50
33.00000000000314
 51
108.0685828218828
  0
LINE
  5
76F
330
1F
100
AcDbEntity
  8
0
  6
Continuous
100
AcDbLine
 10
1412.633872912438
 20
236.0226911296774
 30
0.0
 11
1466.978315420343
 21
152.3395881337185
 31
0.0
  0
LINE
  5
770
330
1F
100
AcDbEntity
  8
0
  6
Continuous
100
AcDbLine
 10
1461.698376994663
 20
215.552334089821
 30
0.0
 11
1459.623412590222
 21
215.9933813892169
 31
0.0
  0
LINE
  5
771
330
1F
100
AcDbEntity
  8
0
  6
Continuous
100
AcDbLine
 10
1468.234045414843
 20
205.4882872744758
 30
0.0
 11
1467.792998115448
 21
203.4133228700354
 31
0.0
  0
LINE
  5
772
330
1F
100
AcDbEntity
  8
0
  6
Continuous
100
AcDbLine
 10
1467.792998115448
 20
203.4133228700354
 30
0.0
 11
1459.623412590222
 21
215.9933813892169
 31
0.0
  0
LINE
  5
773
330
1F
100
AcDbEntity
  8
0
  6
Continuous
100
AcDbLine
 10
1461.698376994663
 20
215.552334089821
 30
0.0
 11
1468.234045414843
 21
205.4882872744758
 31
0.0
  0
LINE
  5
774
330
1F
100
AcDbEntity
  8
0
  6
Continuous
100
AcDbLine
 10
1395.526204712572
 20
87.02069719004411
 30
0.0
 11
1418.478036535238
 21
101.925791053475
 31
0.0
  0
LINE
  5
775
330
1F
100
AcDbEntity
  8
0
  6
Continuous
100
AcDbLine
 10
1323.899905142632
 20
197.3155263854826
 30
0.0
 11
1346.851736965298
 21
212.2206202489135
 31
0.0
  0
LINE
  5
776
330
1F
100
AcDbEntity
  8
0
  6
Continuous
100
AcDbLine
 10
1393.021231248678
 20
90.87801806238102
 30
0.0
 11
1395.526204712572
 21
87.02069719004411
 31
0.0
  0
LINE
  5
777
330
1F
100
AcDbEntity
  8
0
  6
Continuous
100
AcDbLine
 10
1395.014933265916
 20
148.398575317379
 30
0.0
 11
1367.338804523717
 21
130.4254871618834
 31
0.0
  0
LINE
  5
778
330
1F
100
AcDbEntity
  8
0
  6
Continuous
100
AcDbLine
 10
1367.338804523717
 20
130.4254871618834
 30
0.0
 11
1362.083458112319
 21
138.5180109735036
 31
0.0
  0
LINE
  5
779
330
1F
100
AcDbEntity
  8
0
  6
Continuous
100
AcDbLine
 10
1323.899905142632
 20
197.3155263854826
 30
0.0
 11
1326.404878606527
 21
193.4582055131457
 31
0.0
  0
LINE
  5
77A
330
1F
100
AcDbEntity
  8
0
  6
Continuous
100
AcDbLine
 10
1361.50471157349
 20
199.9997916312052
 30
0.0
 11
1333.828582831291
 21
182.0267034757091
 31
0.0
  0
LINE
  5
77B
330
1F
100
AcDbEntity
  8
0
  6
Continuous
100
AcDbLine
 10
1333.828582831291
 20
182.0267034757091
 30
0.0
 11
1326.404878606527
 21
193.4582055131457
 31
0.0
  0
LINE
  5
77C
330
1F
100
AcDbEntity
  8
0
  6
Continuous
100
AcDbLine
 10
1393.021231248678
 20
90.87801806238102
 30
0.0
 11
1385.597527023914
 21
102.309520099817
 31
0.0
  0
LINE
  5
77D
330
1F
100
AcDbEntity
  8
0
  6
Continuous
100
AcDbLine
 10
1385.597527023914
 20
102.309520099817
 30
0.0
 11
1413.273655766113
 21
120.2826082553126
 31
0.0
  0
LINE
  5
77E
330
1F
100
AcDbEntity
  8
0
  6
Continuous
100
AcDbLine
 10
1357.342651742887
 20
145.8182126020226
 30
0.0
 11
1352.087305331488
 21
153.9107364136432
 31
0.0
  0
LINE
  5
77F
330
1F
100
AcDbEntity
  8
0
  6
Continuous
100
AcDbLine
 10
1352.087305331488
 20
153.9107364136432
 30
0.0
 11
1379.763434073687
 21
171.8838245691388
 31
0.0
  0
LINE
  5
780
330
1F
100
AcDbEntity
  8
0
  6
Continuous
100
AcDbLine
 10
1357.342651742887
 20
145.8182126020222
 30
0.0
 11
1362.08345811232
 21
138.5180109735031
 31
0.0
  0
LINE
  5
781
330
1F
100
AcDbEntity
  8
0
  6
Continuous
100
AcDbLine
 10
1361.50471157349
 20
199.9997916312047
 30
0.0
 11
1353.878961977375
 21
211.7424162570853
 31
0.0
  0
SPLINE
  5
782
330
1F
100
AcDbEntity
  8
0
  6
Continuous
100
AcDbSpline
210
0.0
220
0.0
230
1.0
 70
    12
 71
     2
 72
     6
 73
     3
 74
     0
 42
0.0000000001
 43
0.0000000001
 40
0.0
 40
0.0
 40
0.0
 40
1.617671887431031
 40
1.617671887431031
 40
1.617671887431031
 10
1361.50471157349
 20
199.9997916312052
 30
0.0
 41
1.0
 10
1356.253504701716
 20
204.1991611017167
 30
0.0
 41
1.010371862764367
 10
1349.839588216158
 20
208.6768838780183
 30
0.0
 41
1.01028117927845
  0
SPLINE
  5
783
330
1F
100
AcDbEntity
  8
0
  6
Continuous
100
AcDbSpline
210
0.0
220
0.0
230
1.0
 70
     8
 71
     3
 72
    14
 73
    10
 74
     0
 42
0.0000000001
 43
0.0000000001
 40
0.54783826465067
 40
0.54783826465067
 40
0.54783826465067
 40
0.54783826465067
 40
0.7836152875134732
 40
0.7836152875134732
 40
1.030564880727202
 40
1.030564880727202
 40
1.277514473940932
 40
1.277514473940932
 40
1.513291496803739
 40
1.513291496803739
 40
1.513291496803739
 40
1.513291496803739
 10
1347.469185031441
 20
212.3269846922774
 30
0.0
 10
1347.11214927997
 20
212.3441675057158
 30
0.0
 10
1346.847161455201
 20
212.2783742473727
 30
0.0
 10
1346.635471261525
 20
211.94066707361
 30
0.0
 10
1346.705506552656
 20
211.6579348146026
 30
0.0
 10
1347.153834513141
 20
210.9675702959546
 30
0.0
 10
1347.553317104251
 20
210.5273084182133
 30
0.0
 10
1348.585740479767
 20
209.6011973206203
 30
0.0
 10
1349.206845591266
 20
209.1186180461179
 30
0.0
 10
1349.839588216158
 20
208.6768838780183
 30
0.0
  0
SPLINE
  5
784
330
1F
100
AcDbEntity
  8
0
  6
Continuous
100
AcDbSpline
210
0.0
220
0.0
230
1.0
 70
    12
 71
     2
 72
     6
 73
     3
 74
     0
 42
0.0000000001
 43
0.0000000001
 40
1.589629741223895
 40
1.589629741223895
 40
1.589629741223895
 40
3.207301628655474
 40
3.207301628655474
 40
3.207301628655474
 10
1347.469185031441
 20
212.3269846922774
 30
0.0
 41
1.010281179278433
 10
1351.088346128248
 20
212.1528078215503
 30
0.0
 41
1.010371862764353
 10
1353.878961977376
 20
211.7424162570853
 30
0.0
 41
1.0
  0
LINE
  5
785
330
1F
100
AcDbEntity
  8
0
  6
Continuous
100
AcDbLine
 10
1395.014933265916
 20
148.398575317379
 30
0.0
 11
1379.763434073687
 21
171.8838245691393
 31
0.0
  0
SPLINE
  5
786
330
1F
100
AcDbEntity
  8
0
  6
Continuous
100
AcDbSpline
210
0.0
220
0.0
230
1.0
 70
    12
 71
     2
 72
     6
 73
     3
 74
     0
 42
0.0000000001
 43
0.0000000001
 40
0.0
 40
0.0
 40
0.0
 40
1.617671887431014
 40
1.617671887431014
 40
1.617671887431014
 10
1395.014933265916
 20
148.398575317379
 30
0.0
 41
1.0
 10
1390.778967132199
 20
151.0346111455208
 30
0.0
 41
1.010371862764327
 10
1385.518167721949
 20
153.7366893383762
 30
0.0
 41
1.010281179278411
  0
SPLINE
  5
787
330
1F
100
AcDbEntity
  8
0
  6
Continuous
100
AcDbSpline
210
0.0
220
0.0
230
1.0
 70
     8
 71
     3
 72
    14
 73
    10
 74
     0
 42
0.0000000001
 43
0.0000000001
 40
0.54783826465067
 40
0.54783826465067
 40
0.54783826465067
 40
0.54783826465067
 40
0.7836152875134736
 40
0.7836152875134736
 40
1.030564880727203
 40
1.030564880727203
 40
1.277514473940932
 40
1.277514473940932
 40
1.513291496803738
 40
1.513291496803738
 40
1.513291496803738
 40
1.513291496803738
 10
1380.777361352516
 20
161.0368909668953
 30
0.0
 10
1380.809789229278
 20
160.4543523845375
 30
0.0
 10
1380.949469908322
 20
159.7654242752148
 30
0.0
 10
1381.467051486648
 20
158.3047370506467
 30
0.0
 10
1381.856685588588
 20
157.5298657803976
 30
0.0
 10
1382.753341509556
 20
156.149136743101
 30
0.0
 10
1383.3027431721
 20
155.4780197398543
 30
0.0
 10
1384.426627957454
 20
154.4110704217103
 30
0.0
 10
1384.999181851872
 20
154.0032534653426
 30
0.0
 10
1385.518167721949
 20
153.7366893383762
 30
0.0
  0
SPLINE
  5
788
330
1F
100
AcDbEntity
  8
0
  6
Continuous
100
AcDbSpline
210
0.0
220
0.0
230
1.0
 70
    12
 71
     2
 72
     6
 73
     3
 74
     0
 42
0.0000000001
 43
0.0000000001
 40
1.589629741223882
 40
1.589629741223882
 40
1.589629741223882
 40
3.20730162865547
 40
3.20730162865547
 40
3.20730162865547
 10
1380.777361352516
 20
161.0368909668953
 30
0.0
 41
1.010281179278441
 10
1380.448649985259
 20
166.9419045851903
 30
0.0
 41
1.010371862764361
 10
1379.763434073687
 20
171.8838245691393
 30
0.0
 41
1.0
  0
LINE
  5
789
330
1F
100
AcDbEntity
  8
0
  6
Continuous
100
AcDbLine
 10
1420.899405362228
 20
108.539983629433
 30
0.0
 11
1413.273655766113
 21
120.2826082553126
 31
0.0
  0
SPLINE
  5
78A
330
1F
100
AcDbEntity
  8
0
  6
Continuous
100
AcDbSpline
210
0.0
220
0.0
230
1.0
 70
    12
 71
     2
 72
     6
 73
     3
 74
     0
 42
0.0000000001
 43
0.0000000001
 40
0.0
 40
0.0
 40
0.0
 40
1.617671887431025
 40
1.617671887431025
 40
1.617671887431025
 10
1420.899405362228
 20
108.5399836294325
 30
0.0
 41
1.0
 10
1420.139270989211
 20
105.823707909158
 30
0.0
 41
1.010371862764336
 10
1418.826344043025
 20
102.4465956129941
 30
0.0
 41
1.01028117927842
  0
SPLINE
  5
78B
330
1F
100
AcDbEntity
  8
0
  6
Continuous
100
AcDbSpline
210
0.0
220
0.0
230
1.0
 70
     8
 71
     3
 72
    14
 73
    10
 74
     0
 42
0.0000000001
 43
0.0000000001
 40
0.5478382646506688
 40
0.5478382646506688
 40
0.5478382646506688
 40
0.5478382646506688
 40
0.7836152875134724
 40
0.7836152875134724
 40
1.030564880727202
 40
1.030564880727202
 40
1.277514473940931
 40
1.277514473940931
 40
1.513291496803735
 40
1.513291496803735
 40
1.513291496803735
 40
1.513291496803735
 10
1416.455940858309
 20
106.0966964272531
 30
0.0
 10
1416.602125489882
 20
105.3389878037621
 30
0.0
 10
1416.790357386007
 20
104.5752973763044
 30
0.0
 10
1417.216477554497
 20
103.2554483722877
 30
0.0
 10
1417.456192585004
 20
102.711432227544
 30
0.0
 10
1417.904520545488
 20
102.0210677088964
 30
0.0
 10
1418.134323397222
 20
101.8420897168914
 30
0.0
 10
1418.528936410574
 20
101.8981204495524
 30
0.0
 10
1418.696821801178
 20
102.1134383441647
 30
0.0
 10
1418.826344043025
 20
102.4465956129941
 30
0.0
  0
SPLINE
  5
78C
330
1F
100
AcDbEntity
  8
0
  6
Continuous
100
AcDbSpline
210
0.0
220
0.0
230
1.0
 70
    12
 71
     2
 72
     6
 73
     3
 74
     0
 42
0.0000000001
 43
0.0000000001
 40
1.589629741223896
 40
1.589629741223896
 40
1.589629741223896
 40
3.207301628655472
 40
3.207301628655472
 40
3.207301628655472
 10
1416.455940858309
 20
106.0966964272531
 30
0.0
 41
1.010281179278425
 10
1414.97411241574
 20
113.7773546289948
 30
0.0
 41
1.010371862764345
 10
1413.273655766113
 20
120.2826082553126
 30
0.0
 41
1.0
  0
VIEWPORT
  5
71
330
55
100
AcDbEntity
 67
     1
  8
0
100
AcDbViewport
 10
133.3499908447265
 20
101.5999970436096
 30
0.0
 40
381.3957395593834
 41
218.2856291881582
 68
     1
 69
     1
 12
133.3499908447265
 22
101.5999970436096
 13
0.0
 23
0.0
 14
10.0
 24
10.0
 15
10.0
 25
10.0
 16
0.0
 26
0.0
 36
1.0
 17
0.0
 27
0.0
 37
0.0
 42
50.0
 43
0.0
 44
0.0
 45
218.2856291881582
 50
0.0
 51
0.0
 72
   100
 90
    32800
  1

281
     0
 71
     1
 74
     0
110
0.0
120
0.0
130
0.0
111
1.0
121
0.0
131
0.0
112
0.0
122
1.0
132
0.0
 79
     0
146
0.0
  0
VIEWPORT
  5
73
330
55
100
AcDbEntity
 67
     1
  8
0
100
AcDbViewport
 10
133.349993944168
 20
101.599993944168
 30
0.0
 40
213.3599903106689
 41
162.5599903106689
 68
     2
 69
     2
 12
210.0
 22
148.5
 13
0.0
 23
0.0
 14
10.0
 24
10.0
 15
10.0
 25
10.0
 16
0.0
 26
0.0
 36
1.0
 17
0.0
 27
0.0
 37
0.0
 42
50.0
 43
0.0
 44
0.0
 45
324.0677920111345
 50
0.0
 51
0.0
 72
   100
 90
    32864
  1

281
     0
 71
     1
 74
     0
110
0.0
120
0.0
130
0.0
111
1.0
121
0.0
131
0.0
112
0.0
122
1.0
132
0.0
 79
     0
146
0.0
  0
ENDSEC
  0
SECTION
  2
OBJECTS
  0
DICTIONARY
  5
C
330
0
100
AcDbDictionary
281
     1
  3
ACAD_GROUP
350
D
  3
ACAD_LAYOUT
350
1A
  3
ACAD_MLINESTYLE
350
17
  3
ACAD_PLOTSETTINGS
350
19
  3
ACAD_PLOTSTYLENAME
350
E
  3
AcDbVariableDictionary
350
5E
  0
DICTIONARY
  5
3B7
330
2
100
AcDbDictionary
280
     1
281
     1
  3
ACAD_LAYERSTATES
360
3B8
  0
DICTIONARY
  5
36F
330
1F
100
AcDbDictionary
280
     1
281
     1
  3
ACAD_LAYOUTSELFREF
360
3A6
  0
DICTIONARY
  5
371
330
55
100
AcDbDictionary
280
     1
281
     1
  3
ACAD_LAYOUTSELFREF
360
3AA
  0
DICTIONARY
  5
373
330
50
100
AcDbDictionary
280
     1
281
     1
  3
ACAD_LAYOUTSELFREF
360
3A9
  0
DICTIONARY
  5
D
102
{ACAD_REACTORS
330
C
102
}
330
C
100
AcDbDictionary
281
     1
  0
DICTIONARY
  5
1A
102
{ACAD_REACTORS
330
C
102
}
330
C
100
AcDbDictionary
281
     1
  3
Model
350
22
  3
ﾚｲｱｳﾄ1
350
51
  3
ﾚｲｱｳﾄ2
350
56
  0
DICTIONARY
  5
17
102
{ACAD_REACTORS
330
C
102
}
330
C
100
AcDbDictionary
281
     1
  3
Standard
350
18
  0
DICTIONARY
  5
19
102
{ACAD_REACTORS
330
C
102
}
330
C
100
AcDbDictionary
281
     1
  0
ACDBDICTIONARYWDFLT
  5
E
102
{ACAD_REACTORS
330
C
102
}
330
C
100
AcDbDictionary
281
     1
  3
Normal
350
F
100
AcDbDictionaryWithDefault
340
F
  0
DICTIONARY
  5
5E
102
{ACAD_REACTORS
330
C
102
}
330
C
100
AcDbDictionary
281
     1
  3
DIMASSOC
350
5F
  3
HIDETEXT
350
63
  0
DICTIONARY
  5
3B8
102
{ACAD_REACTORS
330
3B7
102
}
330
3B7
100
AcDbDictionary
281
     1
  0
XRECORD
  5
3A6
102
{ACAD_REACTORS
330
36F
102
}
330
36F
100
AcDbXrecord
280
     1
340
1F
  0
XRECORD
  5
3AA
102
{ACAD_REACTORS
330
371
102
}
330
371
100
AcDbXrecord
280
     1
340
55
  0
XRECORD
  5
3A9
102
{ACAD_REACTORS
330
373
102
}
330
373
100
AcDbXrecord
280
     1
340
50
  0
LAYOUT
  5
22
102
{ACAD_REACTORS
330
1A
102
}
330
1A
100
AcDbPlotSettings
  1

  2
none_device
  4
ANSI_A_(8.50_x_11.00_Inches)
  6

 40
6.349999904632568
 41
19.04999923706054
 42
6.350006103515625
 43
19.04998779296875
 44
215.8999938964843
 45
279.3999938964843
 46
0.0
 47
0.0
 48
0.0
 49
0.0
140
0.0
141
0.0
142
1.0
143
78.436453180766
 70
 11952
 72
     0
 73
     1
 74
     0
  7

 75
     0
147
0.0127491741332998
148
0.0
149
0.0
100
AcDbLayout
  1
Model
 70
     1
 71
     0
 10
0.0
 20
0.0
 11
12.0
 21
9.0
 12
0.0
 22
0.0
 32
0.0
 14
0.0
 24
0.0
 34
0.0
 15
0.0
 25
0.0
 35
0.0
146
0.0
 13
0.0
 23
0.0
 33
0.0
 16
1.0
 26
0.0
 36
0.0
 17
0.0
 27
1.0
 37
0.0
 76
     0
330
1F
  0
LAYOUT
  5
51
102
{ACAD_REACTORS
330
1A
102
}
330
1A
100
AcDbPlotSettings
  1

  2
none_device
  4
Letter_(8.50_x_11.00_Inches)
  6

 40
6.349999904632568
 41
6.349999904632568
 42
6.350006103515625
 43
6.350006103515625
 44
215.8999938964843
 45
279.3999938964843
 46
0.0
 47
0.0
 48
0.0
 49
0.0
140
0.0
141
0.0
142
1.0
143
1.0
 70
   688
 72
     1
 73
     1
 74
     5
  7

 75
    16
147
1.0
148
0.0
149
0.0
100
AcDbLayout
  1
ﾚｲｱｳﾄ1
 70
     1
 71
     1
 10
-6.350006103515625
 20
-6.349999904632568
 11
273.0499877929687
 21
209.5499939918517
 12
0.0
 22
0.0
 32
0.0
 14
26.66076962115562
 24
20.31135699206657
 34
-0.0015258207003583
 15
240.039213369355
 25
182.8886381005154
 35
0.0000000349246037
146
0.0
 13
0.0
 23
0.0
 33
0.0
 16
1.0
 26
0.0
 36
0.0
 17
0.0
 27
1.0
 37
0.0
 76
     0
330
50
331
6B
  0
LAYOUT
  5
56
102
{ACAD_REACTORS
330
1A
102
}
330
1A
100
AcDbPlotSettings
  1

  2
none_device
  4
Letter_(8.50_x_11.00_Inches)
  6

 40
6.349999904632568
 41
6.349999904632568
 42
6.350006103515625
 43
6.350006103515625
 44
215.8999938964843
 45
279.3999938964843
 46
0.0
 47
0.0
 48
0.0
 49
0.0
140
0.0
141
0.0
142
1.0
143
1.0
 70
   688
 72
     1
 73
     1
 74
     5
  7

 75
    16
147
1.0
148
0.0
149
0.0
100
AcDbLayout
  1
ﾚｲｱｳﾄ2
 70
     1
 71
     2
 10
-6.350006103515625
 20
-6.349999904632568
 11
273.0499877929687
 21
209.5499939918517
 12
0.0
 22
0.0
 32
0.0
 14
26.66076962115562
 24
20.31135699206657
 34
-0.0015258207003583
 15
240.039213369355
 25
182.8886381005154
 35
0.0000000349246037
146
0.0
 13
0.0
 23
0.0
 33
0.0
 16
1.0
 26
0.0
 36
0.0
 17
0.0
 27
1.0
 37
0.0
 76
     0
330
55
331
71
  0
MLINESTYLE
  5
18
102
{ACAD_REACTORS
330
17
102
}
330
17
100
AcDbMlineStyle
  2
STANDARD
 70
     0
  3

 62
   256
 51
90.0
 52
90.0
 71
     2
 49
0.5
 62
   256
  6
BYLAYER
 49
-0.5
 62
   256
  6
BYLAYER
  0
ACDBPLACEHOLDER
  5
F
102
{ACAD_REACTORS
330
E
102
}
330
E
  0
DICTIONARYVAR
  5
5F
102
{ACAD_REACTORS
330
5E
102
}
330
5E
100
DictionaryVariables
280
     0
  1
2
  0
DICTIONARYVAR
  5
63
102
{ACAD_REACTORS
330
5E
102
}
330
5E
100
DictionaryVariables
280
     0
  1
1
  0
ENDSEC
  0
EOF
