  0
SECTION
  2
HEADER
  9
$ACADVER
  1
AC1015
  9
$ACADMAINTVER
 70
    14
  9
$DWGCODEPAGE
  3
ANSI_932
  9
$INSBASE
 10
0.0
 20
0.0
 30
0.0
  9
$EXTMIN
 10
32.74534809415854
 20
50.82287064426509
 30
-0.0000000000112498
  9
$EXTMAX
 10
1647.01793904701
 20
722.7810493751016
 30
0.0000000000002956
  9
$LIMMIN
 10
0.0
 20
0.0
  9
$LIMMAX
 10
420.0
 20
297.0
  9
$ORTHOMODE
 70
     0
  9
$REGENMODE
 70
     1
  9
$FILLMODE
 70
     1
  9
$QTEXTMODE
 70
     0
  9
$MIRRTEXT
 70
     1
  9
$LTSCALE
 40
1.0
  9
$ATTMODE
 70
     1
  9
$TEXTSIZE
 40
2.5
  9
$TRACEWID
 40
1.0
  9
$TEXTSTYLE
  7
Standard
  9
$CLAYER
  8
0
  9
$CELTYPE
  6
ByLayer
  9
$CECOLOR
 62
   256
  9
$CELTSCALE
 40
1.0
  9
$DISPSILH
 70
     0
  9
$DIMSCALE
 40
1.0
  9
$DIMASZ
 40
2.5
  9
$DIMEXO
 40
0.625
  9
$DIMDLI
 40
3.75
  9
$DIMRND
 40
0.0
  9
$DIMDLE
 40
0.0
  9
$DIMEXE
 40
1.25
  9
$DIMTP
 40
0.0
  9
$DIMTM
 40
0.0
  9
$DIMTXT
 40
2.5
  9
$DIMCEN
 40
2.5
  9
$DIMTSZ
 40
0.0
  9
$DIMTOL
 70
     0
  9
$DIMLIM
 70
     0
  9
$DIMTIH
 70
     0
  9
$DIMTOH
 70
     0
  9
$DIMSE1
 70
     0
  9
$DIMSE2
 70
     0
  9
$DIMTAD
 70
     1
  9
$DIMZIN
 70
     8
  9
$DIMBLK
  1

  9
$DIMASO
 70
     1
  9
$DIMSHO
 70
     1
  9
$DIMPOST
  1

  9
$DIMAPOST
  1

  9
$DIMALT
 70
     0
  9
$DIMALTD
 70
     3
  9
$DIMALTF
 40
0.03937007874016
  9
$DIMLFAC
 40
1.0
  9
$DIMTOFL
 70
     1
  9
$DIMTVP
 40
0.0
  9
$DIMTIX
 70
     0
  9
$DIMSOXD
 70
     0
  9
$DIMSAH
 70
     0
  9
$DIMBLK1
  1

  9
$DIMBLK2
  1

  9
$DIMSTYLE
  2
ISO-25
  9
$DIMCLRD
 70
     0
  9
$DIMCLRE
 70
     0
  9
$DIMCLRT
 70
     0
  9
$DIMTFAC
 40
1.0
  9
$DIMGAP
 40
0.625
  9
$DIMJUST
 70
     0
  9
$DIMSD1
 70
     0
  9
$DIMSD2
 70
     0
  9
$DIMTOLJ
 70
     0
  9
$DIMTZIN
 70
     8
  9
$DIMALTZ
 70
     0
  9
$DIMALTTZ
 70
     0
  9
$DIMUPT
 70
     0
  9
$DIMDEC
 70
     2
  9
$DIMTDEC
 70
     2
  9
$DIMALTU
 70
     2
  9
$DIMALTTD
 70
     3
  9
$DIMTXSTY
  7
Standard
  9
$DIMAUNIT
 70
     0
  9
$DIMADEC
 70
     0
  9
$DIMALTRND
 40
0.0
  9
$DIMAZIN
 70
     0
  9
$DIMDSEP
 70
    44
  9
$DIMATFIT
 70
     3
  9
$DIMFRAC
 70
     0
  9
$DIMLDRBLK
  1

  9
$DIMLUNIT
 70
     2
  9
$DIMLWD
 70
    -2
  9
$DIMLWE
 70
    -2
  9
$DIMTMOVE
 70
     0
  9
$LUNITS
 70
     2
  9
$LUPREC
 70
     4
  9
$SKETCHINC
 40
1.0
  9
$FILLETRAD
 40
10.0
  9
$AUNITS
 70
     0
  9
$AUPREC
 70
     0
  9
$MENU
  1
.
  9
$ELEVATION
 40
0.0
  9
$PELEVATION
 40
0.0
  9
$THICKNESS
 40
0.0
  9
$LIMCHECK
 70
     0
  9
$CHAMFERA
 40
10.0
  9
$CHAMFERB
 40
10.0
  9
$CHAMFERC
 40
20.0
  9
$CHAMFERD
 40
0.0
  9
$SKPOLY
 70
     0
  9
$TDCREATE
 40
2454284.638818356
  9
$TDUCREATE
 40
2454284.263818356
  9
$TDUPDATE
 40
2456899.672578194
  9
$TDUUPDATE
 40
2456899.297578194
  9
$TDINDWG
 40
0.0020806134
  9
$TDUSRTIMER
 40
0.0020806134
  9
$USRTIMER
 70
     1
  9
$ANGBASE
 50
0.0
  9
$ANGDIR
 70
     0
  9
$PDMODE
 70
     0
  9
$PDSIZE
 40
0.0
  9
$PLINEWID
 40
0.0
  9
$SPLFRAME
 70
     0
  9
$SPLINETYPE
 70
     6
  9
$SPLINESEGS
 70
     8
  9
$HANDSEED
  5
5EF
  9
$SURFTAB1
 70
     6
  9
$SURFTAB2
 70
     6
  9
$SURFTYPE
 70
     6
  9
$SURFU
 70
     6
  9
$SURFV
 70
     6
  9
$UCSBASE
  2

  9
$UCSNAME
  2

  9
$UCSORG
 10
0.0
 20
0.0
 30
0.0
  9
$UCSXDIR
 10
1.0
 20
0.0
 30
0.0
  9
$UCSYDIR
 10
0.0
 20
1.0
 30
0.0
  9
$UCSORTHOREF
  2

  9
$UCSORTHOVIEW
 70
     0
  9
$UCSORGTOP
 10
0.0
 20
0.0
 30
0.0
  9
$UCSORGBOTTOM
 10
0.0
 20
0.0
 30
0.0
  9
$UCSORGLEFT
 10
0.0
 20
0.0
 30
0.0
  9
$UCSORGRIGHT
 10
0.0
 20
0.0
 30
0.0
  9
$UCSORGFRONT
 10
0.0
 20
0.0
 30
0.0
  9
$UCSORGBACK
 10
0.0
 20
0.0
 30
0.0
  9
$PUCSBASE
  2

  9
$PUCSNAME
  2

  9
$PUCSORG
 10
0.0
 20
0.0
 30
0.0
  9
$PUCSXDIR
 10
1.0
 20
0.0
 30
0.0
  9
$PUCSYDIR
 10
0.0
 20
1.0
 30
0.0
  9
$PUCSORTHOREF
  2

  9
$PUCSORTHOVIEW
 70
     0
  9
$PUCSORGTOP
 10
0.0
 20
0.0
 30
0.0
  9
$PUCSORGBOTTOM
 10
0.0
 20
0.0
 30
0.0
  9
$PUCSORGLEFT
 10
0.0
 20
0.0
 30
0.0
  9
$PUCSORGRIGHT
 10
0.0
 20
0.0
 30
0.0
  9
$PUCSORGFRONT
 10
0.0
 20
0.0
 30
0.0
  9
$PUCSORGBACK
 10
0.0
 20
0.0
 30
0.0
  9
$USERI1
 70
     0
  9
$USERI2
 70
     0
  9
$USERI3
 70
     0
  9
$USERI4
 70
     0
  9
$USERI5
 70
     0
  9
$USERR1
 40
0.0
  9
$USERR2
 40
0.0
  9
$USERR3
 40
0.0
  9
$USERR4
 40
0.0
  9
$USERR5
 40
0.0
  9
$WORLDVIEW
 70
     1
  9
$SHADEDGE
 70
     3
  9
$SHADEDIF
 70
    70
  9
$TILEMODE
 70
     1
  9
$MAXACTVP
 70
    48
  9
$PINSBASE
 10
0.0
 20
0.0
 30
0.0
  9
$PLIMCHECK
 70
     0
  9
$PEXTMIN
 10
26.66076962115562
 20
20.31135699206657
 30
-0.0015258207003583
  9
$PEXTMAX
 10
240.039213369355
 20
182.8886381005154
 30
0.0000000349246037
  9
$PLIMMIN
 10
-6.350006103515625
 20
-6.349999904632568
  9
$PLIMMAX
 10
273.0499877929687
 20
209.5499939918517
  9
$UNITMODE
 70
     0
  9
$VISRETAIN
 70
     1
  9
$PLINEGEN
 70
     0
  9
$PSLTSCALE
 70
     1
  9
$TREEDEPTH
 70
  3020
  9
$CMLSTYLE
  2
Standard
  9
$CMLJUST
 70
     0
  9
$CMLSCALE
 40
20.0
  9
$PROXYGRAPHICS
 70
     1
  9
$MEASUREMENT
 70
     1
  9
$CELWEIGHT
370
    -1
  9
$ENDCAPS
280
     0
  9
$JOINSTYLE
280
     0
  9
$LWDISPLAY
290
     0
  9
$INSUNITS
 70
     4
  9
$HYPERLINKBASE
  1

  9
$STYLESHEET
  1

  9
$XEDIT
290
     1
  9
$CEPSNTYPE
380
     0
  9
$PSTYLEMODE
290
     1
  9
$FINGERPRINTGUID
  2
{FDEAD578-A652-11D2-9A35-0060089B3A3F}
  9
$VERSIONGUID
  2
{55D2D9A9-72ED-4FEE-869A-46D17869F315}
  9
$EXTNAMES
290
     1
  9
$PSVPSCALE
 40
0.0
  9
$OLESTARTUP
290
     0
  0
ENDSEC
  0
SECTION
  2
CLASSES
  0
CLASS
  1
ACDBDICTIONARYWDFLT
  2
AcDbDictionaryWithDefault
  3
AutoCAD 2000
 90
        0
280
     0
281
     0
  0
CLASS
  1
ACDBPLACEHOLDER
  2
AcDbPlaceHolder
  3
AutoCAD 2000
 90
        0
280
     0
281
     0
  0
CLASS
  1
LAYOUT
  2
AcDbLayout
  3
AutoCAD 2000
 90
        0
280
     0
281
     0
  0
CLASS
  1
DICTIONARYVAR
  2
AcDbDictionaryVar
  3
AutoCAD 2000
 90
        0
280
     0
281
     0
  0
CLASS
  1
LONG_TRANSACTION
  2
AcDbLongTransaction
  3
AutoCAD 2000
 90
    32768
280
     0
281
     0
  0
CLASS
  1
LWPOLYLINE
  2
AcDbPolyline
  3
AutoCAD 2000
 90
    32768
280
     0
281
     1
  0
CLASS
  1
HATCH
  2
AcDbHatch
  3
AutoCAD 2000
 90
    32768
280
     0
281
     1
  0
CLASS
  1
XRECORD
  2
AcDbXrecord
  3
AutoCAD 2000
 90
    32768
280
     0
281
     0
  0
ENDSEC
  0
SECTION
  2
TABLES
  0
TABLE
  2
VPORT
  5
8
330
0
100
AcDbSymbolTable
 70
     2
  0
VPORT
  5
5EE
330
8
100
AcDbSymbolTableRecord
100
AcDbViewportTableRecord
  2
*Active
 70
     0
 10
0.0
 20
0.0
 11
1.0
 21
1.0
 12
839.8816435705844
 22
386.8019600096833
 13
0.0
 23
0.0
 14
10.0
 24
10.0
 15
10.0
 25
10.0
 16
0.0
 26
0.0
 36
1.0
 17
0.0
 27
0.0
 37
0.0
 40
1017.930948188244
 41
1.592161016949152
 42
50.0
 43
0.0
 44
0.0
 50
0.0
 51
0.0
 71
     0
 72
   100
 73
     1
 74
     3
 75
     0
 76
     0
 77
     0
 78
     0
281
     0
 65
     1
110
0.0
120
0.0
130
0.0
111
1.0
121
0.0
131
0.0
112
0.0
122
1.0
132
0.0
 79
     0
146
0.0
  0
ENDTAB
  0
TABLE
  2
LTYPE
  5
5
330
0
100
AcDbSymbolTable
 70
     3
  0
LTYPE
  5
14
330
5
100
AcDbSymbolTableRecord
100
AcDbLinetypeTableRecord
  2
ByBlock
 70
     0
  3

 72
    65
 73
     0
 40
0.0
  0
LTYPE
  5
15
330
5
100
AcDbSymbolTableRecord
100
AcDbLinetypeTableRecord
  2
ByLayer
 70
     0
  3

 72
    65
 73
     0
 40
0.0
  0
LTYPE
  5
16
330
5
100
AcDbSymbolTableRecord
100
AcDbLinetypeTableRecord
  2
Continuous
 70
     0
  3
Solid line
 72
    65
 73
     0
 40
0.0
  0
LTYPE
  5
86
330
5
100
AcDbSymbolTableRecord
100
AcDbLinetypeTableRecord
  2
HIDDEN
 70
     0
  3
Hidden __ __ __ __ __ __ __ __ __ __ __ __ __ _
 72
    65
 73
     2
 40
0.375
 49
0.25
 74
     0
 49
-0.125
 74
     0
  0
LTYPE
  5
331
330
5
100
AcDbSymbolTableRecord
100
AcDbLinetypeTableRecord
  2
CENTER
 70
     0
  3
Center ____ _ ____ _ ____ _ ____ _ ____ _ ____
 72
    65
 73
     4
 40
50.8
 49
31.75
 74
     0
 49
-6.349999999999999
 74
     0
 49
6.349999999999999
 74
     0
 49
-6.349999999999999
 74
     0
  0
ENDTAB
  0
TABLE
  2
LAYER
  5
2
102
{ACAD_XDICTIONARY
360
332
102
}
330
0
100
AcDbSymbolTable
 70
     2
  0
LAYER
  5
10
330
2
100
AcDbSymbolTableRecord
100
AcDbLayerTableRecord
  2
0
 70
     0
 62
     7
  6
Continuous
370
    -3
390
F
  0
LAYER
  5
344
330
2
100
AcDbSymbolTableRecord
100
AcDbLayerTableRecord
  2
Visible (ISO)
 70
     0
 62
     7
  6
Continuous
370
    35
390
F
  0
ENDTAB
  0
TABLE
  2
STYLE
  5
3
330
0
100
AcDbSymbolTable
 70
     1
  0
STYLE
  5
11
330
3
100
AcDbSymbolTableRecord
100
AcDbTextStyleTableRecord
  2
Standard
 70
     0
 40
0.0
 41
1.0
 50
0.0
 71
     0
 42
2.5
  3
txt
  4

  0
ENDTAB
  0
TABLE
  2
VIEW
  5
6
330
0
100
AcDbSymbolTable
 70
     0
  0
ENDTAB
  0
TABLE
  2
UCS
  5
7
330
0
100
AcDbSymbolTable
 70
     0
  0
ENDTAB
  0
TABLE
  2
APPID
  5
9
330
0
100
AcDbSymbolTable
 70
     1
  0
APPID
  5
12
330
9
100
AcDbSymbolTableRecord
100
AcDbRegAppTableRecord
  2
ACAD
 70
     0
  0
ENDTAB
  0
TABLE
  2
DIMSTYLE
  5
A
330
0
100
AcDbSymbolTable
 70
     1
100
AcDbDimStyleTable
 71
     0
  0
DIMSTYLE
105
27
330
A
100
AcDbSymbolTableRecord
100
AcDbDimStyleTableRecord
  2
ISO-25
 70
     0
 41
2.5
 42
0.625
 43
3.75
 44
1.25
 73
     0
 74
     0
 77
     1
 78
     8
140
2.5
141
2.5
143
0.03937007874016
147
0.625
171
     3
172
     1
271
     2
272
     2
274
     3
278
    44
283
     0
284
     8
340
11
  0
ENDTAB
  0
TABLE
  2
BLOCK_RECORD
  5
1
330
0
100
AcDbSymbolTable
 70
     1
  0
BLOCK_RECORD
  5
1F
102
{ACAD_XDICTIONARY
360
2EA
102
}
330
1
100
AcDbSymbolTableRecord
100
AcDbBlockTableRecord
  2
*Model_Space
340
22
  0
BLOCK_RECORD
  5
55
102
{ACAD_XDICTIONARY
360
2EC
102
}
330
1
100
AcDbSymbolTableRecord
100
AcDbBlockTableRecord
  2
*Paper_Space
340
56
  0
BLOCK_RECORD
  5
50
102
{ACAD_XDICTIONARY
360
2EE
102
}
330
1
100
AcDbSymbolTableRecord
100
AcDbBlockTableRecord
  2
*Paper_Space0
340
51
  0
ENDTAB
  0
ENDSEC
  0
SECTION
  2
BLOCKS
  0
BLOCK
  5
20
330
1F
100
AcDbEntity
  8
0
100
AcDbBlockBegin
  2
*Model_Space
 70
     0
 10
0.0
 20
0.0
 30
0.0
  3
*Model_Space
  1

  0
ENDBLK
  5
21
330
1F
100
AcDbEntity
  8
0
100
AcDbBlockEnd
  0
BLOCK
  5
57
330
55
100
AcDbEntity
 67
     1
  8
0
100
AcDbBlockBegin
  2
*Paper_Space
 70
     0
 10
0.0
 20
0.0
 30
0.0
  3
*Paper_Space
  1

  0
ENDBLK
  5
58
330
55
100
AcDbEntity
 67
     1
  8
0
100
AcDbBlockEnd
  0
BLOCK
  5
52
330
50
100
AcDbEntity
  8
0
100
AcDbBlockBegin
  2
*Paper_Space0
 70
     0
 10
0.0
 20
0.0
 30
0.0
  3
*Paper_Space0
  1

  0
VIEWPORT
  5
6B
330
50
100
AcDbEntity
  8
0
100
AcDbViewport
 10
133.3499908447265
 20
101.5999970436096
 30
0.0
 40
381.3957395593834
 41
218.2856291881582
 69
     0
 12
133.3499908447265
 22
101.5999970436096
 13
0.0
 23
0.0
 14
10.0
 24
10.0
 15
10.0
 25
10.0
 16
0.0
 26
0.0
 36
1.0
 17
0.0
 27
0.0
 37
0.0
 42
50.0
 43
0.0
 44
0.0
 45
218.2856291881582
 50
0.0
 51
0.0
 72
   100
 90
    32800
  1

281
     0
 71
     1
 74
     0
110
0.0
120
0.0
130
0.0
111
1.0
121
0.0
131
0.0
112
0.0
122
1.0
132
0.0
 79
     0
146
0.0
  0
VIEWPORT
  5
6D
330
50
100
AcDbEntity
  8
0
100
AcDbViewport
 10
133.349993944168
 20
101.599993944168
 30
0.0
 40
213.3599903106689
 41
162.5599903106689
 69
     0
 12
210.0
 22
148.5
 13
0.0
 23
0.0
 14
10.0
 24
10.0
 15
10.0
 25
10.0
 16
0.0
 26
0.0
 36
1.0
 17
0.0
 27
0.0
 37
0.0
 42
50.0
 43
0.0
 44
0.0
 45
324.0677920111345
 50
0.0
 51
0.0
 72
   100
 90
    32864
  1

281
     0
 71
     1
 74
     0
110
0.0
120
0.0
130
0.0
111
1.0
121
0.0
131
0.0
112
0.0
122
1.0
132
0.0
 79
     0
146
0.0
  0
ENDBLK
  5
53
330
50
100
AcDbEntity
  8
0
100
AcDbBlockEnd
  0
ENDSEC
  0
SECTION
  2
ENTITIES
  0
LINE
  5
1B6
330
1F
100
AcDbEntity
  8
0
100
AcDbLine
 10
304.9677829125712
 20
505.354337093898
 30
0.0
 11
304.9677943558492
 21
495.9208103494959
 31
0.0
  0
LINE
  5
1B7
330
1F
100
AcDbEntity
  8
0
100
AcDbLine
 10
306.0331156907721
 20
495.8875427174845
 30
0.0
 11
302.7635653364579
 21
495.9897025869374
 31
0.0
  0
LINE
  5
1B8
330
1F
100
AcDbEntity
  8
0
100
AcDbLine
 10
306.0316767809759
 20
505.3875287560565
 30
0.0
 11
302.7635624505431
 21
505.285400670222
 31
0.0
  0
LINE
  5
1B9
330
1F
100
AcDbEntity
  8
0
100
AcDbLine
 10
308.0317449404862
 20
495.8875289982513
 30
0.0
 11
306.0317222078186
 21
495.8875176125268
 31
0.0
  0
LINE
  5
1BA
330
1F
100
AcDbEntity
  8
0
100
AcDbLine
 10
308.0317378753693
 20
505.3875331148342
 30
0.0
 11
306.0317302238671
 21
505.3875477061853
 31
0.0
  0
LINE
  5
1BB
330
1F
100
AcDbEntity
  8
0
100
AcDbLine
 10
308.0317337230709
 20
505.6375207375278
 30
0.0
 11
308.031744060761
 21
495.637544643392
 31
0.0
  0
LINE
  5
1BC
330
1F
100
AcDbEntity
  8
0
100
AcDbLine
 10
320.5317085619889
 20
505.6375216509014
 30
0.0
 11
308.0317337230709
 21
505.6375207375278
 31
0.0
  0
LINE
  5
1BD
330
1F
100
AcDbEntity
  8
0
100
AcDbLine
 10
320.5317138676557
 20
495.6375488245996
 30
0.0
 11
308.031744060761
 21
495.637544643392
 31
0.0
  0
LINE
  5
1BE
330
1F
100
AcDbEntity
  8
0
100
AcDbLine
 10
320.5317085619889
 20
505.6375216509014
 30
0.0
 11
320.5317138676557
 21
495.6375488245996
 31
0.0
  0
CIRCLE
  5
1BF
330
1F
100
AcDbEntity
  8
0
  6
Continuous
100
AcDbCircle
 10
249.9677579092181
 20
500.6375352377506
 30
0.0
 40
61.00006288614304
  0
CIRCLE
  5
1C0
330
1F
100
AcDbEntity
  8
0
  6
Continuous
100
AcDbCircle
 10
249.9677579092181
 20
500.6375352377506
 30
0.0
 40
52.9999965117372
  0
CIRCLE
  5
1C1
330
1F
100
AcDbEntity
  8
0
  6
Continuous
100
AcDbCircle
 10
249.9677579092181
 20
500.6375352377506
 30
0.0
 40
24.99998360606986
  0
CIRCLE
  5
1C2
330
1F
100
AcDbEntity
  8
0
  6
Continuous
100
AcDbCircle
 10
249.9677579092181
 20
500.6375352377506
 30
0.0
 40
7.999986883765643
  0
CIRCLE
  5
1C3
330
1F
100
AcDbEntity
  8
0
  6
Continuous
100
AcDbCircle
 10
249.9677579092181
 20
500.6375352377506
 30
0.0
 40
7.500000254169265
  0
LINE
  5
1C4
330
1F
100
AcDbEntity
  8
0
100
AcDbLine
 10
257.4677998822619
 20
237.9731585240997
 30
0.0
 11
257.4677600816687
 21
217.3391910723032
 31
0.0
  0
LINE
  5
1C5
330
1F
100
AcDbEntity
  8
0
100
AcDbLine
 10
257.9677546476149
 20
215.4731689884645
 30
0.0
 11
257.4677600816556
 21
217.3391843043212
 31
0.0
  0
LINE
  5
1C6
330
1F
100
AcDbEntity
  8
0
100
AcDbLine
 10
257.9677445835536
 20
215.4731624528183
 30
0.0
 11
257.9677326643342
 21
214.4731627844724
 31
0.0
  0
LINE
  5
1C7
330
1F
100
AcDbEntity
  8
0
100
AcDbLine
 10
197.5960959300002
 20
131.9732536596107
 30
0.0
 11
196.9033077041578
 21
132.3732325095055
 31
0.0
  0
ARC
  5
1C8
330
1F
100
AcDbEntity
  8
0
100
AcDbCircle
 10
309.9678119061564
 20
140.4732675122976
 30
0.0
 40
1.000000035
100
AcDbArc
 50
270.0000399999975
 51
0.0003599999971511
  0
ARC
  5
1C9
330
1F
100
AcDbEntity
  8
0
100
AcDbCircle
 10
310.467818658812
 20
143.4732139762545
 30
0.0
 40
0.50000001
100
AcDbArc
 50
0.0004499999996975
 51
89.99874399999596
  0
ARC
  5
1CA
330
1F
100
AcDbEntity
  8
0
100
AcDbCircle
 10
189.4676900266781
 20
143.4732000195225
 30
0.0
 40
0.50000001
100
AcDbArc
 50
89.99901899999763
 51
180.0004499999996
  0
ARC
  5
1CB
330
1F
100
AcDbEntity
  8
0
100
AcDbCircle
 10
189.9676896083327
 20
140.4732625162617
 30
0.0
 40
1.000000035
100
AcDbArc
 50
180.0004499999996
 51
269.9998999999964
  0
ARC
  5
1CC
330
1F
100
AcDbEntity
  8
0
100
AcDbCircle
 10
292.967755521425
 20
192.5987932853995
 30
0.0
 40
9.999999749999998
100
AcDbArc
 50
359.9999500000015
 51
19.99999000000105
  0
ARC
  5
1CD
330
1F
100
AcDbEntity
  8
0
100
AcDbCircle
 10
291.8660997500392
 20
201.4731833268664
 30
0.0
 40
8.000000249999999
100
AcDbArc
 50
19.99998000000285
 51
89.99997999999798
  0
ARC
  5
1CE
330
1F
100
AcDbEntity
  8
0
100
AcDbCircle
 10
225.9677634102047
 20
213.4732006136041
 30
0.0
 40
1.000000035
100
AcDbArc
 50
89.99989800000015
 51
180.0004499999996
  0
ARC
  5
1CF
330
1F
100
AcDbEntity
  8
0
100
AcDbCircle
 10
193.9676917642617
 20
156.0864522312835
 30
0.0
 40
4.99999995
100
AcDbArc
 50
119.9999569999991
 51
179.9999400000004
  0
ARC
  5
1D0
330
1F
100
AcDbEntity
  8
0
100
AcDbCircle
 10
189.4676803141592
 20
144.4731996878922
 30
0.0
 40
0.50000001
100
AcDbArc
 50
180.0004499999996
 51
269.999019999999
  0
ARC
  5
1D1
330
1F
100
AcDbEntity
  8
0
100
AcDbCircle
 10
206.9677575263248
 20
192.5988122670429
 30
0.0
 40
9.999999749999998
100
AcDbArc
 50
159.9999100000009
 51
179.9999400000004
  0
ARC
  5
1D2
330
1F
100
AcDbEntity
  8
0
100
AcDbCircle
 10
208.069414811976
 20
201.4731900304819
 30
0.0
 40
8.000000249999999
100
AcDbArc
 50
90.00003499999699
 51
159.9999899999986
  0
ARC
  5
1D3
330
1F
100
AcDbEntity
  8
0
100
AcDbCircle
 10
191.9677612316658
 20
166.4788107669146
 30
0.0
 40
4.99999995
100
AcDbArc
 50
299.9999600000002
 51
359.9999400000005
  0
ARC
  5
1D4
330
1F
100
AcDbEntity
  8
0
100
AcDbCircle
 10
305.9678205747017
 20
156.0864736021577
 30
0.0
 40
4.99999995
100
AcDbArc
 50
359.9999500000015
 51
60.00000869999842
  0
ARC
  5
1D5
330
1F
100
AcDbEntity
  8
0
100
AcDbCircle
 10
273.9677620299671
 20
213.4731851975509
 30
0.0
 40
1.000000035
100
AcDbArc
 50
0.0004499999996975
 51
89.99989800000015
  0
ARC
  5
1D6
330
1F
100
AcDbEntity
  8
0
100
AcDbCircle
 10
307.9677544291229
 20
166.4787936483779
 30
0.0
 40
4.99999995
100
AcDbArc
 50
179.9999400000004
 51
240.0000099999989
  0
ARC
  5
1D7
330
1F
100
AcDbEntity
  8
0
100
AcDbCircle
 10
310.4678139783166
 20
144.4732103767902
 30
0.0
 40
0.50000001
100
AcDbArc
 50
269.9987399999968
 51
0.0004499999996975
  0
ARC
  5
1D8
330
1F
100
AcDbEntity
  8
0
100
AcDbCircle
 10
220.0678488587133
 20
134.4732705286411
 30
0.0
 40
2.000000099999999
100
AcDbArc
 50
0.0004499999996975
 51
90.00017299999525
  0
ARC
  5
1D9
330
1F
100
AcDbEntity
  8
0
100
AcDbCircle
 10
279.8676685804394
 20
134.473293055587
 30
0.0
 40
2.000000099999999
100
AcDbArc
 50
90.00003499999699
 51
180.0003599999971
  0
LINE
  5
1DA
330
1F
100
AcDbEntity
  8
0
100
AcDbLine
 10
242.467760521255
 20
237.9731750744032
 30
0.0
 11
257.4677650340132
 21
237.9731894029736
 31
0.0
  0
LINE
  5
1DB
330
1F
100
AcDbEntity
  8
0
100
AcDbLine
 10
242.4677547888426
 20
217.3392008545871
 30
0.0
 11
257.4677600816687
 21
217.3391910723032
 31
0.0
  0
LINE
  5
1DC
330
1F
100
AcDbEntity
  8
0
100
AcDbLine
 10
255.9677657982063
 20
239.473186164986
 30
0.0
 11
257.4677650340132
 21
237.9731894029736
 31
0.0
  0
LINE
  5
1DD
330
1F
100
AcDbEntity
  8
0
100
AcDbLine
 10
243.9677658287641
 20
239.4731902232389
 30
0.0
 11
242.4677504572083
 21
237.9731816100717
 31
0.0
  0
LINE
  5
1DE
330
1F
100
AcDbEntity
  8
0
100
AcDbLine
 10
242.467760521255
 20
237.9731750744032
 30
0.0
 11
242.4677547888426
 21
217.3392008545871
 31
0.0
  0
LINE
  5
1DF
330
1F
100
AcDbEntity
  8
0
100
AcDbLine
 10
241.9677561051462
 20
215.4731866420736
 30
0.0
 11
242.4677547888426
 21
217.3392008545871
 31
0.0
  0
LINE
  5
1E0
330
1F
100
AcDbEntity
  8
0
100
AcDbLine
 10
241.967766169193
 20
215.4731801064052
 30
0.0
 11
241.9677758817118
 21
214.4731804380355
 31
0.0
  0
LINE
  5
1E1
330
1F
100
AcDbEntity
  8
0
100
AcDbLine
 10
241.967766169193
 20
215.4731801064052
 30
0.0
 11
257.9677546475687
 21
215.4732023006914
 31
0.0
  0
LINE
  5
1E2
330
1F
100
AcDbEntity
  8
0
100
AcDbLine
 10
243.9677658287641
 20
239.4731902232389
 30
0.0
 11
255.9677576286208
 21
239.4731735849276
 31
0.0
  0
LINE
  5
1E3
330
1F
100
AcDbEntity
  8
0
100
AcDbLine
 10
304.9677804350426
 20
194.6900291984322
 30
0.0
 11
304.9677918783206
 21
185.2565024540302
 31
0.0
  0
LINE
  5
1E4
330
1F
100
AcDbEntity
  8
0
100
AcDbLine
 10
306.0331132132434
 20
185.2232348220188
 30
0.0
 11
302.9677475021434
 21
185.3190147693924
 31
0.0
  0
LINE
  5
1E5
330
1F
100
AcDbEntity
  8
0
100
AcDbLine
 10
306.0316743034472
 20
194.7232208605907
 30
0.0
 11
302.9677554586788
 21
194.6274738532556
 31
0.0
  0
LINE
  5
1E6
330
1F
100
AcDbEntity
  8
0
100
AcDbLine
 10
308.0317424629575
 20
185.2232211027855
 30
0.0
 11
306.0317197302901
 21
185.2232097170611
 31
0.0
  0
LINE
  5
1E7
330
1F
100
AcDbEntity
  8
0
100
AcDbLine
 10
308.0317353978407
 20
194.7232252193684
 30
0.0
 11
306.0317277463385
 21
194.7232398107196
 31
0.0
  0
LINE
  5
1E8
330
1F
100
AcDbEntity
  8
0
100
AcDbLine
 10
308.0317312455423
 20
194.9732128420621
 30
0.0
 11
308.0317415832324
 21
184.9732367479263
 31
0.0
  0
LINE
  5
1E9
330
1F
100
AcDbEntity
  8
0
100
AcDbLine
 10
320.5317060844603
 20
194.9732137554357
 30
0.0
 11
308.0317312455423
 21
194.9732128420621
 31
0.0
  0
LINE
  5
1EA
330
1F
100
AcDbEntity
  8
0
100
AcDbLine
 10
320.5317113901271
 20
184.973240929134
 30
0.0
 11
308.0317415832324
 21
184.9732367479263
 31
0.0
  0
LINE
  5
1EB
330
1F
100
AcDbEntity
  8
0
100
AcDbLine
 10
320.5317060844603
 20
194.9732137554357
 30
0.0
 11
320.5317113901271
 21
184.973240929134
 31
0.0
  0
LINE
  5
1EC
330
1F
100
AcDbEntity
  8
0
100
AcDbLine
 10
302.9677692967433
 20
194.6274648667116
 30
0.0
 11
302.9677679674585
 21
192.598790747161
 31
0.0
  0
LINE
  5
1ED
330
1F
100
AcDbEntity
  8
0
100
AcDbLine
 10
254.2749183354911
 20
131.9732658895601
 30
0.0
 11
254.9677210209482
 21
132.3732532347207
 31
0.0
  0
LINE
  5
1EE
330
1F
100
AcDbEntity
  8
0
100
AcDbLine
 10
245.6605653041354
 20
131.9732634121587
 30
0.0
 11
244.9677406466115
 21
132.3732528308054
 31
0.0
  0
LINE
  5
1EF
330
1F
100
AcDbEntity
  8
0
100
AcDbLine
 10
244.9677557426817
 20
132.3732430273026
 30
0.0
 11
244.967754674138
 21
137.9732494678246
 31
0.0
  0
LINE
  5
1F0
330
1F
100
AcDbEntity
  8
0
100
AcDbLine
 10
244.9677557426817
 20
132.3732430273026
 30
0.0
 11
254.9677832698804
 21
132.3732664661398
 31
0.0
  0
LINE
  5
1F1
330
1F
100
AcDbEntity
  8
0
100
AcDbLine
 10
244.9677521374482
 20
137.1732349638421
 30
0.0
 11
254.9677809226527
 21
137.1732575857205
 31
0.0
  0
LINE
  5
1F2
330
1F
100
AcDbEntity
  8
0
100
AcDbLine
 10
254.9677832698804
 20
132.3732664661398
 30
0.0
 11
254.9677834593425
 21
137.9732720897031
 31
0.0
  0
LINE
  5
1F3
330
1F
100
AcDbEntity
  8
0
100
AcDbLine
 10
244.967754674138
 20
137.9732494678246
 30
0.0
 11
244.9677674558082
 21
139.4732580369644
 31
0.0
  0
LINE
  5
1F4
330
1F
100
AcDbEntity
  8
0
100
AcDbLine
 10
245.6605703361588
 20
131.9732601443245
 30
0.0
 11
254.2749233675146
 21
131.973262621726
 31
0.0
  0
LINE
  5
1F5
330
1F
100
AcDbEntity
  8
0
100
AcDbLine
 10
244.967754674138
 20
137.9732494678246
 30
0.0
 11
254.9677834593425
 21
137.9732720897031
 31
0.0
  0
LINE
  5
1F6
330
1F
100
AcDbEntity
  8
0
100
AcDbLine
 10
254.9677834593425
 20
137.9732720897031
 30
0.0
 11
254.9677654422268
 21
139.4732470034601
 31
0.0
  0
LINE
  5
1F7
330
1F
100
AcDbEntity
  8
0
100
AcDbLine
 10
225.967748059017
 20
214.4731502874199
 30
0.0
 11
249.9677542730254
 21
214.4731738666996
 31
0.0
  0
LINE
  5
1F8
330
1F
100
AcDbEntity
  8
0
100
AcDbLine
 10
309.9678266506987
 20
139.4732645760937
 30
0.0
 11
249.9677563849707
 21
139.4732590558808
 31
0.0
  0
LINE
  5
1F9
330
1F
100
AcDbEntity
  8
0
100
AcDbLine
 10
206.9032852886911
 20
132.3732447638838
 30
0.0
 11
196.9033061723601
 21
132.3732435430098
 31
0.0
  0
LINE
  5
1FA
330
1F
100
AcDbEntity
  8
0
100
AcDbLine
 10
206.2105159329364
 20
131.9732536596107
 30
0.0
 11
206.9033041587788
 21
132.3732325095055
 31
0.0
  0
LINE
  5
1FB
330
1F
100
AcDbEntity
  8
0
100
AcDbLine
 10
196.9033061723601
 20
132.3732435430098
 30
0.0
 11
196.9033183054254
 21
137.973259295756
 31
0.0
  0
LINE
  5
1FC
330
1F
100
AcDbEntity
  8
0
100
AcDbLine
 10
206.9032852886911
 20
132.3732447638838
 30
0.0
 11
206.9032986797622
 21
137.9732596996715
 31
0.0
  0
LINE
  5
1FD
330
1F
100
AcDbEntity
  8
0
100
AcDbLine
 10
249.9677580346334
 20
163.5920368867078
 30
0.0
 11
302.9677864463909
 21
163.5920496092853
 31
0.0
  0
LINE
  5
1FE
330
1F
100
AcDbEntity
  8
0
100
AcDbLine
 10
279.8676780895362
 20
136.4732736022798
 30
0.0
 11
254.9677719356782
 21
136.4732627036047
 31
0.0
  0
LINE
  5
1FF
330
1F
100
AcDbEntity
  8
0
100
AcDbLine
 10
302.3393622522388
 20
131.9732511598774
 30
0.0
 11
303.0321919624643
 21
132.3732746112965
 31
0.0
  0
LINE
  5
200
330
1F
100
AcDbEntity
  8
0
100
AcDbLine
 10
293.7250167689183
 20
131.9732437807248
 30
0.0
 11
293.032187079371
 21
132.3732364672054
 31
0.0
  0
LINE
  5
201
330
1F
100
AcDbEntity
  8
0
100
AcDbLine
 10
293.032224168186
 20
132.3732660377954
 30
0.0
 11
293.032225615654
 21
137.9732708444004
 31
0.0
  0
LINE
  5
202
330
1F
100
AcDbEntity
  8
0
100
AcDbLine
 10
293.032224168186
 20
132.3732660377954
 30
0.0
 11
303.0322259286223
 21
132.3732525534156
 31
0.0
  0
LINE
  5
203
330
1F
100
AcDbEntity
  8
0
100
AcDbLine
 10
293.0322312485496
 20
137.1732689204761
 30
0.0
 11
303.0322304929743
 21
137.1732570700135
 31
0.0
  0
LINE
  5
204
330
1F
100
AcDbEntity
  8
0
100
AcDbLine
 10
303.0322259286223
 20
132.3732525534156
 30
0.0
 11
303.0322248600786
 21
137.9732589939375
 31
0.0
  0
LINE
  5
205
330
1F
100
AcDbEntity
  8
0
100
AcDbLine
 10
293.032225615654
 20
137.9732708444004
 30
0.0
 11
293.0322170261297
 21
139.4732575212574
 31
0.0
  0
LINE
  5
206
330
1F
100
AcDbEntity
  8
0
100
AcDbLine
 10
293.7250525997275
 20
131.9732741682734
 30
0.0
 11
302.3393672842622
 21
131.9732478920432
 31
0.0
  0
LINE
  5
207
330
1F
100
AcDbEntity
  8
0
100
AcDbLine
 10
293.032225615654
 20
137.9732708444004
 30
0.0
 11
303.0322248600786
 21
137.9732589939375
 31
0.0
  0
LINE
  5
208
330
1F
100
AcDbEntity
  8
0
100
AcDbLine
 10
303.0322248600786
 20
137.9732589939375
 30
0.0
 11
303.0322407793109
 21
139.47328341097
 31
0.0
  0
LINE
  5
209
330
1F
100
AcDbEntity
  8
0
100
AcDbLine
 10
220.0678583678102
 20
136.4732510753341
 30
0.0
 11
244.9677726912536
 21
136.4732745540677
 31
0.0
  0
LINE
  5
20A
330
1F
100
AcDbEntity
  8
0
100
AcDbLine
 10
188.9676969235698
 20
143.4731890035058
 30
0.0
 11
188.9676945960751
 21
140.4732462029386
 31
0.0
  0
LINE
  5
20B
330
1F
100
AcDbEntity
  8
0
100
AcDbLine
 10
249.9677695996743
 20
143.9732295413147
 30
0.0
 11
189.4676974247969
 21
143.973218723795
 31
0.0
  0
LINE
  5
20C
330
1F
100
AcDbEntity
  8
0
100
AcDbLine
 10
249.9677695996743
 20
143.9732295413147
 30
0.0
 11
310.4678285729426
 21
143.9732310466103
 31
0.0
  0
LINE
  5
20D
330
1F
100
AcDbEntity
  8
0
100
AcDbLine
 10
189.9677093848985
 20
139.4732563122237
 30
0.0
 11
249.9677563849707
 21
139.4732590558808
 31
0.0
  0
LINE
  5
20E
330
1F
100
AcDbEntity
  8
0
100
AcDbLine
 10
222.0678596477775
 20
134.4732717851826
 30
0.0
 11
222.0678861938744
 21
122.7731991827153
 31
0.0
  0
LINE
  5
20F
330
1F
100
AcDbEntity
  8
0
100
AcDbLine
 10
206.9033072692865
 20
136.4732730228146
 30
0.0
 11
220.0678583678102
 21
136.4732510753341
 31
0.0
  0
LINE
  5
210
330
1F
100
AcDbEntity
  8
0
100
AcDbLine
 10
310.9678381800432
 20
143.4732078361416
 30
0.0
 11
310.9678333365369
 21
140.4732666694914
 31
0.0
  0
LINE
  5
211
330
1F
100
AcDbEntity
  8
0
100
AcDbLine
 10
277.8676735239007
 20
134.4732636967744
 30
0.0
 11
277.8676892247353
 21
122.7731512471446
 31
0.0
  0
LINE
  5
212
330
1F
100
AcDbEntity
  8
0
100
AcDbLine
 10
288.4677579092181
 20
122.773142141013
 30
0.0
 11
211.4677579092181
 21
122.773208288898
 31
0.0
  0
LINE
  5
213
330
1F
100
AcDbEntity
  8
0
100
AcDbLine
 10
274.9677625775028
 20
209.4731708159296
 30
0.0
 11
274.9677589366859
 21
213.4731823951473
 31
0.0
  0
LINE
  5
214
330
1F
100
AcDbEntity
  8
0
100
AcDbLine
 10
249.9677487562731
 20
209.4731748734902
 30
0.0
 11
291.8661082009314
 21
209.4731783830311
 31
0.0
  0
LINE
  5
215
330
1F
100
AcDbEntity
  8
0
100
AcDbLine
 10
249.9677603831681
 20
158.9731895977259
 30
0.0
 11
191.4552160362601
 21
158.9731844578937
 31
0.0
  0
LINE
  5
216
330
1F
100
AcDbEntity
  8
0
100
AcDbLine
 10
249.9677580346334
 20
163.5920368867078
 30
0.0
 11
196.9677547829928
 21
163.5920078249594
 31
0.0
  0
LINE
  5
217
330
1F
100
AcDbEntity
  8
0
100
AcDbLine
 10
249.9677652845089
 20
194.3620698862611
 30
0.0
 11
197.5708629490791
 21
194.3620738517575
 31
0.0
  0
LINE
  5
218
330
1F
100
AcDbEntity
  8
0
100
AcDbLine
 10
200.5518734278606
 20
204.2093495820823
 30
0.0
 11
197.5708311218609
 21
196.0189846668701
 31
0.0
  0
LINE
  5
219
330
1F
100
AcDbEntity
  8
0
100
AcDbLine
 10
249.9677603831681
 20
158.9731895977259
 30
0.0
 11
308.4803254797203
 21
158.973199148031
 31
0.0
  0
LINE
  5
21A
330
1F
100
AcDbEntity
  8
0
100
AcDbLine
 10
310.9678296319579
 20
156.0864615497372
 30
0.0
 11
310.9678322415419
 21
144.4732050536357
 31
0.0
  0
LINE
  5
21B
330
1F
100
AcDbEntity
  8
0
100
AcDbLine
 10
293.032219124013
 20
136.4732581904677
 30
0.0
 11
279.8676780895362
 21
136.4732736022798
 31
0.0
  0
LINE
  5
21C
330
1F
100
AcDbEntity
  8
0
100
AcDbLine
 10
249.9677652845089
 20
194.3620698862611
 30
0.0
 11
302.3646890060382
 21
194.3620520324694
 31
0.0
  0
LINE
  5
21D
330
1F
100
AcDbEntity
  8
0
100
AcDbLine
 10
206.9032986797622
 20
137.9732596996715
 30
0.0
 11
206.903305171403
 21
139.473272353604
 31
0.0
  0
LINE
  5
21E
330
1F
100
AcDbEntity
  8
0
100
AcDbLine
 10
196.9033183054254
 20
137.973259295756
 30
0.0
 11
196.9033247970663
 21
139.4732719496886
 31
0.0
  0
LINE
  5
21F
330
1F
100
AcDbEntity
  8
0
100
AcDbLine
 10
206.2104958048428
 20
131.9732667309474
 30
0.0
 11
197.5961377414637
 21
131.9732675213804
 31
0.0
  0
LINE
  5
220
330
1F
100
AcDbEntity
  8
0
100
AcDbLine
 10
194.467776126973
 20
162.1486591687729
 30
0.0
 11
191.4677064395447
 21
160.4165667406101
 31
0.0
  0
LINE
  5
221
330
1F
100
AcDbEntity
  8
0
100
AcDbLine
 10
196.9677476112079
 20
192.598777390786
 30
0.0
 11
196.9677751837538
 21
166.4700674364495
 31
0.0
  0
LINE
  5
222
330
1F
100
AcDbEntity
  8
0
100
AcDbLine
 10
224.9677802083493
 20
209.4731853011213
 30
0.0
 11
224.967768397947
 21
213.4731843002807
 31
0.0
  0
LINE
  5
223
330
1F
100
AcDbEntity
  8
0
100
AcDbLine
 10
249.9677487562731
 20
209.4731748734902
 30
0.0
 11
208.0694213833118
 21
209.4731684217954
 31
0.0
  0
LINE
  5
224
330
1F
100
AcDbEntity
  8
0
100
AcDbLine
 10
188.9677028350991
 20
156.0864512123671
 30
0.0
 11
188.9676872110509
 21
144.4731886718756
 31
0.0
  0
LINE
  5
225
330
1F
100
AcDbEntity
  8
0
100
AcDbLine
 10
206.9032986797622
 20
137.9732596996715
 30
0.0
 11
196.9033183054254
 21
137.973259295756
 31
0.0
  0
LINE
  5
226
330
1F
100
AcDbEntity
  8
0
100
AcDbLine
 10
260.5089527753321
 20
214.4731700747479
 30
0.0
 11
269.7465608263418
 21
214.4731737296408
 31
0.0
  0
LINE
  5
227
330
1F
100
AcDbEntity
  8
0
100
AcDbLine
 10
305.4677495666718
 20
162.1486789370937
 30
0.0
 11
308.4784603205246
 21
160.4103973574035
 31
0.0
  0
LINE
  5
228
330
1F
100
AcDbEntity
  8
0
100
AcDbLine
 10
299.3836536419113
 20
204.209337176022
 30
0.0
 11
302.364691130073
 21
196.0189765702792
 31
0.0
  0
LINE
  5
229
330
1F
100
AcDbEntity
  8
0
100
AcDbLine
 10
206.903289853043
 20
137.1732492804816
 30
0.0
 11
196.9033107367121
 21
137.1732480596076
 31
0.0
  0
LINE
  5
22A
330
1F
100
AcDbEntity
  8
0
100
AcDbLine
 10
273.9677623814951
 20
214.4731783302522
 30
0.0
 11
249.9677542730254
 21
214.4731738666996
 31
0.0
  0
LINE
  5
22B
330
1F
100
AcDbEntity
  8
0
100
AcDbLine
 10
302.9677679674585
 20
192.598790747161
 30
0.0
 11
302.9677741688098
 21
166.4700589005415
 31
0.0
  0
LINE
  5
22C
330
1F
100
AcDbEntity
  8
0
100
AcDbLine
 10
539.837011977476
 20
237.9732361442421
 30
0.0
 11
554.8370119774761
 21
237.9732361442421
 31
0.0
  0
LINE
  5
22D
330
1F
100
AcDbEntity
  8
0
100
AcDbLine
 10
553.3370119774761
 20
239.4732361442422
 30
0.0
 11
554.8370119774761
 21
237.9731911442422
 31
0.0
  0
LINE
  5
22E
330
1F
100
AcDbEntity
  8
0
100
AcDbLine
 10
541.336981977476
 20
239.4731911442422
 30
0.0
 11
539.837011977476
 21
237.9732361442421
 31
0.0
  0
LINE
  5
22F
330
1F
100
AcDbEntity
  8
0
100
AcDbLine
 10
541.3370119774761
 20
239.4732361442422
 30
0.0
 11
553.3370119774761
 21
239.4732361442422
 31
0.0
  0
ARC
  5
230
330
1F
100
AcDbEntity
  8
0
100
AcDbCircle
 10
596.3370169774761
 20
138.4733011442422
 30
0.0
 40
1.000000035
100
AcDbArc
 50
90.0
 51
180.0
  0
ARC
  5
231
330
1F
100
AcDbEntity
  8
0
100
AcDbCircle
 10
498.3370069774761
 20
138.4733011442422
 30
0.0
 40
1.000000035
100
AcDbArc
 50
0.0
 51
90.0
  0
ARC
  5
232
330
1F
100
AcDbEntity
  8
0
100
AcDbCircle
 10
594.337006977476
 20
137.4732961442422
 30
0.0
 40
1.000000035
100
AcDbArc
 50
270.0
 51
0.0
  0
ARC
  5
233
330
1F
100
AcDbEntity
  8
0
100
AcDbCircle
 10
500.337016977476
 20
137.4732961442422
 30
0.0
 40
1.000000035
100
AcDbArc
 50
180.0
 51
270.0
  0
ARC
  5
234
330
1F
100
AcDbEntity
  8
0
100
AcDbCircle
 10
590.3370169774762
 20
192.5988211442421
 30
0.0
 40
9.999999749999998
100
AcDbArc
 50
0.0
 51
20.00001000000045
  0
ARC
  5
235
330
1F
100
AcDbEntity
  8
0
100
AcDbCircle
 10
589.2353719774759
 20
201.4732111442421
 30
0.0
 40
8.000000249999999
100
AcDbArc
 50
19.99991000000047
 51
90.0
  0
ARC
  5
236
330
1F
100
AcDbEntity
  8
0
100
AcDbCircle
 10
523.337011977476
 20
213.4732111442421
 30
0.0
 40
1.000000035
100
AcDbArc
 50
90.0
 51
180.0
  0
ARC
  5
237
330
1F
100
AcDbEntity
  8
0
100
AcDbCircle
 10
491.3369569774761
 20
156.0864961442422
 30
0.0
 40
4.99999995
100
AcDbArc
 50
120.0000899999968
 51
180.0
  0
ARC
  5
238
330
1F
100
AcDbEntity
  8
0
100
AcDbCircle
 10
504.3370069774761
 20
192.5988211442421
 30
0.0
 40
9.999999749999998
100
AcDbArc
 50
159.9999899999995
 51
180.0
  0
ARC
  5
239
330
1F
100
AcDbEntity
  8
0
100
AcDbCircle
 10
505.4386819774761
 20
201.4732111442421
 30
0.0
 40
8.000000249999999
100
AcDbArc
 50
90.0
 51
160.0000899999995
  0
ARC
  5
23A
330
1F
100
AcDbEntity
  8
0
100
AcDbCircle
 10
489.3370069774761
 20
166.4788261442422
 30
0.0
 40
4.99999995
100
AcDbArc
 50
300.0000940000022
 51
0.0
  0
ARC
  5
23B
330
1F
100
AcDbEntity
  8
0
100
AcDbCircle
 10
603.337066977476
 20
156.0864961442422
 30
0.0
 40
4.99999995
100
AcDbArc
 50
0.0
 51
59.99991000000317
  0
ARC
  5
23C
330
1F
100
AcDbEntity
  8
0
100
AcDbCircle
 10
571.3370119774761
 20
213.4732111442421
 30
0.0
 40
1.000000035
100
AcDbArc
 50
0.0
 51
90.0
  0
ARC
  5
23D
330
1F
100
AcDbEntity
  8
0
100
AcDbCircle
 10
605.3370169774762
 20
166.4788261442422
 30
0.0
 40
4.99999995
100
AcDbArc
 50
180.0
 51
239.9999100000032
  0
ARC
  5
23E
330
1F
100
AcDbEntity
  8
0
100
AcDbCircle
 10
594.337006977476
 20
137.4732961442422
 30
0.0
 40
1.000000035
100
AcDbArc
 50
270.0
 51
0.0
  0
CIRCLE
  5
23F
330
1F
100
AcDbEntity
  8
0
100
AcDbCircle
 10
547.337011977476
 20
152.9732461442422
 30
0.0
 40
4.193887649999999
  0
CIRCLE
  5
240
330
1F
100
AcDbEntity
  8
0
100
AcDbCircle
 10
547.337011977476
 20
152.9732461442422
 30
0.0
 40
4.793629649999999
  0
CIRCLE
  5
241
330
1F
100
AcDbEntity
  8
0
100
AcDbCircle
 10
547.337011977476
 20
189.9732811442423
 30
0.0
 40
4.999969499999998
  0
ARC
  5
242
330
1F
100
AcDbEntity
  8
0
100
AcDbCircle
 10
596.3370169774761
 20
138.4733011442422
 30
0.0
 40
1.000000035
100
AcDbArc
 50
90.0
 51
180.0
  0
LINE
  5
243
330
1F
100
AcDbEntity
  8
0
100
AcDbLine
 10
570.0870469774761
 20
137.9733211442421
 30
0.0
 11
570.0870469774761
 21
139.4733211442421
 31
0.0
  0
LINE
  5
244
330
1F
100
AcDbEntity
  8
0
100
AcDbLine
 10
539.837011977476
 20
217.3392661442422
 30
0.0
 11
554.8370119774761
 21
217.3392661442422
 31
0.0
  0
LINE
  5
245
330
1F
100
AcDbEntity
  8
0
100
AcDbLine
 10
554.8370119774761
 20
237.9732361442421
 30
0.0
 11
554.8370119774761
 21
217.3392661442422
 31
0.0
  0
LINE
  5
246
330
1F
100
AcDbEntity
  8
0
100
AcDbLine
 10
539.837011977476
 20
237.9732361442421
 30
0.0
 11
539.837011977476
 21
217.3392661442422
 31
0.0
  0
LINE
  5
247
330
1F
100
AcDbEntity
  8
0
100
AcDbLine
 10
554.8370119774761
 20
217.3392661442422
 30
0.0
 11
555.3370069774762
 21
215.4732361442422
 31
0.0
  0
LINE
  5
248
330
1F
100
AcDbEntity
  8
0
100
AcDbLine
 10
539.3370169774762
 20
215.4732361442422
 30
0.0
 11
539.837011977476
 21
217.3392661442422
 31
0.0
  0
LINE
  5
249
330
1F
100
AcDbEntity
  8
0
100
AcDbLine
 10
539.3370169774762
 20
215.4732361442422
 30
0.0
 11
539.3370169774762
 21
214.4732011442422
 31
0.0
  0
LINE
  5
24A
330
1F
100
AcDbEntity
  8
0
100
AcDbLine
 10
555.3370069774762
 20
215.4732361442422
 30
0.0
 11
555.3370069774762
 21
214.4732011442422
 31
0.0
  0
LINE
  5
24B
330
1F
100
AcDbEntity
  8
0
100
AcDbLine
 10
539.3370169774762
 20
215.4732361442422
 30
0.0
 11
555.3370069774762
 21
215.4732361442422
 31
0.0
  0
LINE
  5
24C
330
1F
100
AcDbEntity
  8
0
100
AcDbLine
 10
539.3370169774762
 20
214.4732011442422
 30
0.0
 11
555.3370069774762
 21
214.4732011442422
 31
0.0
  0
LINE
  5
24D
330
1F
100
AcDbEntity
  8
0
100
AcDbLine
 10
523.337011977476
 20
214.4732011442422
 30
0.0
 11
547.337011977476
 21
214.4732011442422
 31
0.0
  0
LINE
  5
24E
330
1F
100
AcDbEntity
  8
0
100
AcDbLine
 10
608.3370619774761
 20
139.4733211442421
 30
0.0
 11
547.337011977476
 21
139.4733211442421
 31
0.0
  0
LINE
  5
24F
330
1F
100
AcDbEntity
  8
0
100
AcDbLine
 10
580.087021977476
 20
137.1732811442422
 30
0.0
 11
570.0870169774759
 21
137.1732811442422
 31
0.0
  0
LINE
  5
250
330
1F
100
AcDbEntity
  8
0
100
AcDbLine
 10
496.836961977476
 20
137.9733211442421
 30
0.0
 11
496.836961977476
 21
139.4733211442421
 31
0.0
  0
LINE
  5
251
330
1F
100
AcDbEntity
  8
0
100
AcDbLine
 10
496.144111977476
 20
131.9732911442422
 30
0.0
 11
496.836961977476
 21
132.3733111442422
 31
0.0
  0
LINE
  5
252
330
1F
100
AcDbEntity
  8
0
100
AcDbLine
 10
486.8369719774761
 20
132.3733111442422
 30
0.0
 11
496.836961977476
 21
132.3733111442422
 31
0.0
  0
LINE
  5
253
330
1F
100
AcDbEntity
  8
0
100
AcDbLine
 10
487.529776977476
 20
131.9733211442421
 30
0.0
 11
496.1441269774761
 21
131.9733211442421
 31
0.0
  0
LINE
  5
254
330
1F
100
AcDbEntity
  8
0
100
AcDbLine
 10
486.8369719774761
 20
137.1732811442422
 30
0.0
 11
496.836961977476
 21
137.1732811442422
 31
0.0
  0
LINE
  5
255
330
1F
100
AcDbEntity
  8
0
100
AcDbLine
 10
496.836961977476
 20
132.3733111442422
 30
0.0
 11
496.836961977476
 21
137.9733211442421
 31
0.0
  0
LINE
  5
256
330
1F
100
AcDbEntity
  8
0
100
AcDbLine
 10
487.529776977476
 20
131.9733211442421
 30
0.0
 11
486.8369719774761
 21
132.3733111442422
 31
0.0
  0
LINE
  5
257
330
1F
100
AcDbEntity
  8
0
100
AcDbLine
 10
486.8369719774761
 20
132.3733111442422
 30
0.0
 11
486.8369719774761
 21
137.9733211442421
 31
0.0
  0
LINE
  5
258
330
1F
100
AcDbEntity
  8
0
100
AcDbLine
 10
486.8369719774761
 20
137.9733211442421
 30
0.0
 11
496.836961977476
 21
137.9733211442421
 31
0.0
  0
LINE
  5
259
330
1F
100
AcDbEntity
  8
0
100
AcDbLine
 10
486.8369719774761
 20
137.9733211442421
 30
0.0
 11
486.8369719774761
 21
139.4733211442421
 31
0.0
  0
LINE
  5
25A
330
1F
100
AcDbEntity
  8
0
100
AcDbLine
 10
547.337011977476
 20
163.5920611442422
 30
0.0
 11
600.337006977476
 21
163.5920611442422
 31
0.0
  0
LINE
  5
25B
330
1F
100
AcDbEntity
  8
0
100
AcDbLine
 10
570.0870169774759
 20
136.4733211442421
 30
0.0
 11
547.337011977476
 21
136.4733211442421
 31
0.0
  0
LINE
  5
25C
330
1F
100
AcDbEntity
  8
0
100
AcDbLine
 10
524.5870069774762
 20
137.9733211442421
 30
0.0
 11
524.5870069774762
 21
139.4733211442421
 31
0.0
  0
LINE
  5
25D
330
1F
100
AcDbEntity
  8
0
100
AcDbLine
 10
514.587001977476
 20
137.9733211442421
 30
0.0
 11
524.5870069774762
 21
137.9733211442421
 31
0.0
  0
LINE
  5
25E
330
1F
100
AcDbEntity
  8
0
100
AcDbLine
 10
514.587001977476
 20
137.9733211442421
 30
0.0
 11
514.587001977476
 21
139.4733211442421
 31
0.0
  0
LINE
  5
25F
330
1F
100
AcDbEntity
  8
0
100
AcDbLine
 10
524.5870069774762
 20
132.3733111442422
 30
0.0
 11
524.5870069774762
 21
137.9733211442421
 31
0.0
  0
LINE
  5
260
330
1F
100
AcDbEntity
  8
0
100
AcDbLine
 10
514.587001977476
 20
137.1732811442422
 30
0.0
 11
524.5870069774762
 21
137.1732811442422
 31
0.0
  0
LINE
  5
261
330
1F
100
AcDbEntity
  8
0
100
AcDbLine
 10
515.2797919774761
 20
131.9733211442421
 30
0.0
 11
523.8941569774761
 21
131.9733211442421
 31
0.0
  0
LINE
  5
262
330
1F
100
AcDbEntity
  8
0
100
AcDbLine
 10
514.587001977476
 20
132.3733111442422
 30
0.0
 11
524.5870069774762
 21
132.3733111442422
 31
0.0
  0
LINE
  5
263
330
1F
100
AcDbEntity
  8
0
100
AcDbLine
 10
514.587001977476
 20
132.3733111442422
 30
0.0
 11
514.587001977476
 21
137.9733211442421
 31
0.0
  0
LINE
  5
264
330
1F
100
AcDbEntity
  8
0
100
AcDbLine
 10
515.2797919774761
 20
131.9732761442422
 30
0.0
 11
514.5869719774761
 21
132.3732661442422
 31
0.0
  0
LINE
  5
265
330
1F
100
AcDbEntity
  8
0
100
AcDbLine
 10
523.8941719774762
 20
131.9733211442421
 30
0.0
 11
524.5869769774761
 21
132.3733111442422
 31
0.0
  0
LINE
  5
266
330
1F
100
AcDbEntity
  8
0
100
AcDbLine
 10
607.144246977476
 20
131.9733211442421
 30
0.0
 11
607.837066977476
 21
132.3733111442421
 31
0.0
  0
LINE
  5
267
330
1F
100
AcDbEntity
  8
0
100
AcDbLine
 10
598.5298669774761
 20
131.9732761442422
 30
0.0
 11
597.8370469774761
 21
132.3732661442422
 31
0.0
  0
LINE
  5
268
330
1F
100
AcDbEntity
  8
0
100
AcDbLine
 10
597.8370619774762
 20
132.3733111442422
 30
0.0
 11
597.8370619774762
 21
137.9733211442421
 31
0.0
  0
LINE
  5
269
330
1F
100
AcDbEntity
  8
0
100
AcDbLine
 10
597.8370619774762
 20
132.3733111442422
 30
0.0
 11
607.837066977476
 21
132.3733111442421
 31
0.0
  0
LINE
  5
26A
330
1F
100
AcDbEntity
  8
0
100
AcDbLine
 10
597.8370619774762
 20
137.1732811442422
 30
0.0
 11
607.837066977476
 21
137.1732811442422
 31
0.0
  0
LINE
  5
26B
330
1F
100
AcDbEntity
  8
0
100
AcDbLine
 10
607.837066977476
 20
132.3733111442421
 30
0.0
 11
607.837066977476
 21
137.9733211442421
 31
0.0
  0
LINE
  5
26C
330
1F
100
AcDbEntity
  8
0
100
AcDbLine
 10
597.8370619774762
 20
137.9733211442421
 30
0.0
 11
597.8370619774762
 21
139.4733211442421
 31
0.0
  0
LINE
  5
26D
330
1F
100
AcDbEntity
  8
0
100
AcDbLine
 10
598.529896977476
 20
131.9733211442421
 30
0.0
 11
607.144231977476
 21
131.9733211442421
 31
0.0
  0
LINE
  5
26E
330
1F
100
AcDbEntity
  8
0
100
AcDbLine
 10
597.8370619774762
 20
137.9733211442421
 30
0.0
 11
607.837066977476
 21
137.9733211442421
 31
0.0
  0
LINE
  5
26F
330
1F
100
AcDbEntity
  8
0
100
AcDbLine
 10
607.837066977476
 20
137.9733211442421
 30
0.0
 11
607.837066977476
 21
139.4733211442421
 31
0.0
  0
LINE
  5
270
330
1F
100
AcDbEntity
  8
0
100
AcDbLine
 10
524.5870069774762
 20
136.4733211442421
 30
0.0
 11
547.337011977476
 21
136.4733211442421
 31
0.0
  0
LINE
  5
271
330
1F
100
AcDbEntity
  8
0
100
AcDbLine
 10
595.3370119774761
 20
138.4733011442422
 30
0.0
 11
595.3370119774761
 21
137.4732961442422
 31
0.0
  0
LINE
  5
272
330
1F
100
AcDbEntity
  8
0
100
AcDbLine
 10
547.337011977476
 20
143.9732461442422
 30
0.0
 11
486.3369619774761
 21
143.9732461442422
 31
0.0
  0
LINE
  5
273
330
1F
100
AcDbEntity
  8
0
100
AcDbLine
 10
499.337011977476
 20
138.4733011442422
 30
0.0
 11
499.337011977476
 21
137.4732961442422
 31
0.0
  0
LINE
  5
274
330
1F
100
AcDbEntity
  8
0
100
AcDbLine
 10
547.337011977476
 20
143.9732461442422
 30
0.0
 11
608.3370619774761
 21
143.9732461442421
 31
0.0
  0
LINE
  5
275
330
1F
100
AcDbEntity
  8
0
100
AcDbLine
 10
486.336961977476
 20
139.4733211442421
 30
0.0
 11
547.337011977476
 21
139.4733211442421
 31
0.0
  0
LINE
  5
276
330
1F
100
AcDbEntity
  8
0
100
AcDbLine
 10
519.437116977476
 20
131.9733211442421
 30
0.0
 11
519.437116977476
 21
122.7732211442422
 31
0.0
  0
LINE
  5
277
330
1F
100
AcDbEntity
  8
0
100
AcDbLine
 10
500.337016977476
 20
136.4733211442421
 30
0.0
 11
514.587001977476
 21
136.4733211442421
 31
0.0
  0
LINE
  5
278
330
1F
100
AcDbEntity
  8
0
100
AcDbLine
 10
575.236906977476
 20
131.9733211442421
 30
0.0
 11
575.236906977476
 21
122.7732211442422
 31
0.0
  0
LINE
  5
279
330
1F
100
AcDbEntity
  8
0
100
AcDbLine
 10
585.8370169774764
 20
122.7732211442422
 30
0.0
 11
508.837016977476
 21
122.7732211442422
 31
0.0
  0
LINE
  5
27A
330
1F
100
AcDbEntity
  8
0
100
AcDbLine
 10
572.3370169774762
 20
209.4732361442422
 30
0.0
 11
572.3370169774762
 21
213.4732111442421
 31
0.0
  0
LINE
  5
27B
330
1F
100
AcDbEntity
  8
0
100
AcDbLine
 10
547.337011977476
 20
209.4732361442422
 30
0.0
 11
589.2353719774759
 21
209.4732361442422
 31
0.0
  0
LINE
  5
27C
330
1F
100
AcDbEntity
  8
0
100
AcDbLine
 10
547.337011977476
 20
158.9732311442422
 30
0.0
 11
488.824471977476
 21
158.9732311442422
 31
0.0
  0
LINE
  5
27D
330
1F
100
AcDbEntity
  8
0
100
AcDbLine
 10
547.337011977476
 20
163.5920611442422
 30
0.0
 11
494.337016977476
 21
163.5920611442422
 31
0.0
  0
LINE
  5
27E
330
1F
100
AcDbEntity
  8
0
100
AcDbLine
 10
544.9415869774761
 20
194.3620861442422
 30
0.0
 11
494.9400769774761
 21
194.3620861442422
 31
0.0
  0
LINE
  5
27F
330
1F
100
AcDbEntity
  8
0
100
AcDbLine
 10
497.9211319774761
 20
204.2094061442422
 30
0.0
 11
494.9400769774761
 21
196.0190311442422
 31
0.0
  0
LINE
  5
280
330
1F
100
AcDbEntity
  8
0
100
AcDbLine
 10
547.337011977476
 20
158.9732311442422
 30
0.0
 11
605.849551977476
 21
158.9732311442422
 31
0.0
  0
LINE
  5
281
330
1F
100
AcDbEntity
  8
0
100
AcDbLine
 10
608.3370619774761
 20
156.0864961442421
 30
0.0
 11
608.3370619774761
 21
139.4733211442421
 31
0.0
  0
LINE
  5
282
330
1F
100
AcDbEntity
  8
0
100
AcDbLine
 10
594.337006977476
 20
136.4733211442421
 30
0.0
 11
580.087021977476
 21
136.4733211442421
 31
0.0
  0
LINE
  5
283
330
1F
100
AcDbEntity
  8
0
100
AcDbLine
 10
579.3942319774759
 20
131.9733211442421
 30
0.0
 11
570.7798669774761
 21
131.9733211442421
 31
0.0
  0
LINE
  5
284
330
1F
100
AcDbEntity
  8
0
100
AcDbLine
 10
570.7798669774761
 20
131.9733211442421
 30
0.0
 11
570.0870619774762
 21
132.3733111442422
 31
0.0
  0
LINE
  5
285
330
1F
100
AcDbEntity
  8
0
100
AcDbLine
 10
549.732436977476
 20
194.3620861442422
 30
0.0
 11
599.733946977476
 21
194.3620861442422
 31
0.0
  0
LINE
  5
286
330
1F
100
AcDbEntity
  8
0
100
AcDbLine
 10
579.394246977476
 20
131.9732761442422
 30
0.0
 11
580.0870519774759
 21
132.3732661442422
 31
0.0
  0
LINE
  5
287
330
1F
100
AcDbEntity
  8
0
100
AcDbLine
 10
580.087021977476
 20
132.3733111442422
 30
0.0
 11
570.0870169774759
 21
132.3733111442422
 31
0.0
  0
LINE
  5
288
330
1F
100
AcDbEntity
  8
0
100
AcDbLine
 10
580.087021977476
 20
132.3733111442422
 30
0.0
 11
580.087021977476
 21
137.9733211442421
 31
0.0
  0
LINE
  5
289
330
1F
100
AcDbEntity
  8
0
100
AcDbLine
 10
570.0870169774759
 20
132.3733111442422
 30
0.0
 11
570.0870169774759
 21
137.9733211442421
 31
0.0
  0
LINE
  5
28A
330
1F
100
AcDbEntity
  8
0
100
AcDbLine
 10
491.8370419774761
 20
162.1487011442422
 30
0.0
 11
488.836966977476
 21
160.4166211442422
 31
0.0
  0
LINE
  5
28B
330
1F
100
AcDbEntity
  8
0
100
AcDbLine
 10
494.3370169774761
 20
192.5988211442421
 30
0.0
 11
494.3370169774761
 21
166.4701111442422
 31
0.0
  0
LINE
  5
28C
330
1F
100
AcDbEntity
  8
0
100
AcDbLine
 10
522.3370069774762
 20
209.4732361442422
 30
0.0
 11
522.3370069774762
 21
213.4732111442421
 31
0.0
  0
LINE
  5
28D
330
1F
100
AcDbEntity
  8
0
100
AcDbLine
 10
547.337011977476
 20
209.4732361442422
 30
0.0
 11
505.4386819774761
 21
209.4732361442422
 31
0.0
  0
LINE
  5
28E
330
1F
100
AcDbEntity
  8
0
100
AcDbLine
 10
580.087021977476
 20
137.9733211442421
 30
0.0
 11
580.087021977476
 21
139.4733211442421
 31
0.0
  0
LINE
  5
28F
330
1F
100
AcDbEntity
  8
0
100
AcDbLine
 10
486.336961977476
 20
156.0864961442422
 30
0.0
 11
486.336961977476
 21
139.4733211442421
 31
0.0
  0
LINE
  5
290
330
1F
100
AcDbEntity
  8
0
100
AcDbLine
 10
602.8370119774761
 20
162.1487011442422
 30
0.0
 11
605.847751977476
 21
160.4104711442422
 31
0.0
  0
LINE
  5
291
330
1F
100
AcDbEntity
  8
0
100
AcDbLine
 10
596.7528769774762
 20
204.2093611442421
 30
0.0
 11
599.7339169774761
 21
196.0190311442422
 31
0.0
  0
LINE
  5
292
330
1F
100
AcDbEntity
  8
0
100
AcDbLine
 10
580.087021977476
 20
137.9733211442421
 30
0.0
 11
570.0870169774759
 21
137.9733211442421
 31
0.0
  0
LINE
  5
293
330
1F
100
AcDbEntity
  8
0
100
AcDbLine
 10
571.3370119774761
 20
214.4732011442422
 30
0.0
 11
547.337011977476
 21
214.4732011442422
 31
0.0
  0
LINE
  5
294
330
1F
100
AcDbEntity
  8
0
100
AcDbLine
 10
600.3370069774762
 20
192.5988211442421
 30
0.0
 11
600.3370069774762
 21
166.4701111442422
 31
0.0
  0
CIRCLE
  5
295
330
1F
100
AcDbEntity
  8
0
100
AcDbCircle
 10
547.3370322362661
 20
118.7732499723674
 30
0.0
 40
3.500015258788379
  0
LINE
  5
296
330
1F
100
AcDbEntity
  8
0
100
AcDbLine
 10
296.4677728585401
 20
115.2732347135781
 30
0.0
 11
288.467757599752
 21
115.2732354209282
 31
0.0
  0
LINE
  5
297
330
1F
100
AcDbEntity
  8
0
100
AcDbLine
 10
296.4677734774721
 20
122.2732652311562
 30
0.0
 11
288.4677582186836
 21
122.2732659385048
 31
0.0
  0
LINE
  5
298
330
1F
100
AcDbEntity
  8
0
100
AcDbLine
 10
296.4677728585401
 20
115.2732347135781
 30
0.0
 11
296.4677734774721
 21
122.2732652311562
 31
0.0
  0
LINE
  5
299
330
1F
100
AcDbEntity
  8
0
  6
HIDDEN
 48
10.0
100
AcDbLine
 10
262.6677701162498
 20
556.7197352595558
 30
0.0
 11
262.6677701162498
 21
539.1375671979948
 31
0.0
  0
LINE
  5
29A
330
1F
100
AcDbEntity
  8
0
100
AcDbLine
 10
268.3706801844047
 20
558.7954248473887
 30
0.0
 11
275.217757909219
 21
561.2875574201678
 31
0.0
  0
LINE
  5
29B
330
1F
100
AcDbEntity
  8
0
  6
HIDDEN
 48
10.0
100
AcDbLine
 10
262.6677701162498
 20
556.7197352595558
 30
0.0
 11
268.3706801844047
 21
558.7954248473887
 31
0.0
  0
LINE
  5
29C
330
1F
100
AcDbEntity
  8
0
100
AcDbLine
 10
275.217757909219
 20
564.1375657553287
 30
0.0
 11
275.217757909219
 21
561.2875574201678
 31
0.0
  0
LINE
  5
29D
330
1F
100
AcDbEntity
  8
0
  6
HIDDEN
 48
10.0
100
AcDbLine
 10
237.2677762197659
 20
556.7197408696514
 30
0.0
 11
237.2677762197659
 21
539.1375657553289
 31
0.0
  0
LINE
  5
29E
330
1F
100
AcDbEntity
  8
0
100
AcDbLine
 10
224.7177579092189
 20
564.1375657553287
 30
0.0
 11
224.7177579092189
 21
561.2875741377528
 31
0.0
  0
LINE
  5
29F
330
1F
100
AcDbEntity
  8
0
  6
HIDDEN
 48
10.0
100
AcDbLine
 10
231.5648602042502
 20
558.7954326221462
 30
0.0
 11
237.2677762197659
 21
556.7197408696514
 31
0.0
  0
LINE
  5
2A0
330
1F
100
AcDbEntity
  8
0
100
AcDbLine
 10
224.7177579092189
 20
561.2875741377528
 30
0.0
 11
231.5648602042502
 21
558.7954326221462
 31
0.0
  0
LINE
  5
2A1
330
1F
100
AcDbEntity
  8
0
  6
HIDDEN
 48
10.0
100
AcDbLine
 10
237.2677762197659
 20
556.7197408696514
 30
0.0
 11
262.6677701162498
 21
556.7197352595558
 31
0.0
  0
LINE
  5
2A2
330
1F
100
AcDbEntity
  8
0
  6
HIDDEN
 48
10.0
100
AcDbLine
 10
272.2836758779681
 20
539.1375657553289
 30
0.0
 11
227.6518399404681
 21
539.1375657553289
 31
0.0
  0
LINE
  5
2A3
330
1F
100
AcDbEntity
  8
0
100
AcDbLine
 10
275.217757909219
 20
564.1375657553287
 30
0.0
 11
224.7177579092189
 21
564.1375657553287
 31
0.0
  0
LINE
  5
2A4
330
1F
100
AcDbEntity
  8
0
  6
HIDDEN
 48
10.0
100
AcDbLine
 10
288.467757909218
 20
522.9534837240788
 30
0.0
 11
288.467757909218
 21
478.3216172690006
 31
0.0
  0
ARC
  5
2A5
330
1F
100
AcDbEntity
  8
0
  6
HIDDEN
 48
10.0
100
AcDbCircle
 10
249.9677579092181
 20
500.6375352377506
 30
0.0
 40
44.5
100
AcDbArc
 50
300.0980593562544
 51
329.9019415543605
  0
ARC
  5
2A6
330
1F
100
AcDbEntity
  8
0
  6
HIDDEN
 48
10.0
100
AcDbCircle
 10
249.9677579092181
 20
500.6375352377506
 30
0.0
 40
44.5
100
AcDbArc
 50
210.098056851771
 51
239.9019424649615
  0
LINE
  5
2A7
330
1F
100
AcDbEntity
  8
0
  6
HIDDEN
 48
10.0
100
AcDbLine
 10
211.4677579092181
 20
522.9534837240788
 30
0.0
 11
211.4677579092181
 21
478.3216172690006
 31
0.0
  0
LINE
  5
2A8
330
1F
100
AcDbEntity
  8
0
  6
HIDDEN
 48
10.0
100
AcDbLine
 10
272.2836758779681
 20
462.1375352377505
 30
0.0
 11
227.6518399404681
 21
462.1375352377505
 31
0.0
  0
LINE
  5
2A9
330
1F
100
AcDbEntity
  8
0
100
AcDbLine
 10
275.217757909219
 20
437.137504720173
 30
0.0
 11
275.217757909219
 21
439.9875260241334
 31
0.0
  0
LINE
  5
2AA
330
1F
100
AcDbEntity
  8
0
100
AcDbLine
 10
268.3706992449348
 20
442.4796516594464
 30
0.0
 11
275.217757909219
 21
439.9875260241334
 31
0.0
  0
LINE
  5
2AB
330
1F
100
AcDbEntity
  8
0
  6
HIDDEN
 48
10.0
100
AcDbLine
 10
262.6677701162498
 20
444.5553481847447
 30
0.0
 11
268.3706992449348
 21
442.4796516594464
 31
0.0
  0
LINE
  5
2AC
330
1F
100
AcDbEntity
  8
0
100
AcDbLine
 10
224.7177579092189
 20
437.137504720173
 30
0.0
 11
224.7177579092189
 21
439.9874808899348
 31
0.0
  0
LINE
  5
2AD
330
1F
100
AcDbEntity
  8
0
  6
HIDDEN
 48
10.0
100
AcDbLine
 10
231.5648829082693
 20
442.4796306691292
 30
0.0
 11
237.2677762197659
 21
444.5553141580369
 31
0.0
  0
LINE
  5
2AE
330
1F
100
AcDbEntity
  8
0
100
AcDbLine
 10
224.7177579092189
 20
439.9874808899348
 30
0.0
 11
231.5648829082693
 21
442.4796306691292
 31
0.0
  0
LINE
  5
2AF
330
1F
100
AcDbEntity
  8
0
  6
HIDDEN
 48
10.0
100
AcDbLine
 10
237.2677762197659
 20
444.5553141580369
 30
0.0
 11
262.6677701162498
 21
444.5553481847447
 31
0.0
  0
LINE
  5
2B0
330
1F
100
AcDbEntity
  8
0
100
AcDbLine
 10
275.217757909219
 20
437.137504720173
 30
0.0
 11
224.7177579092189
 21
437.137504720173
 31
0.0
  0
LINE
  5
2B1
330
1F
100
AcDbEntity
  8
0
  6
HIDDEN
 48
10.0
100
AcDbLine
 10
237.2677762197659
 20
444.5553141580369
 30
0.0
 11
237.2677762197659
 21
462.1375352377505
 31
0.0
  0
LINE
  5
2B2
330
1F
100
AcDbEntity
  8
0
  6
HIDDEN
 48
10.0
100
AcDbLine
 10
262.6677701162498
 20
444.5553481847447
 30
0.0
 11
262.6677701162498
 21
462.1375352377505
 31
0.0
  0
ARC
  5
2B3
330
1F
100
AcDbEntity
  8
0
  6
HIDDEN
 48
10.0
100
AcDbCircle
 10
249.9677579092181
 20
500.6375352377506
 30
0.0
 40
44.5
100
AcDbArc
 50
120.0980575350384
 51
149.901943148228
  0
ARC
  5
2B4
330
1F
100
AcDbEntity
  8
0
  6
HIDDEN
 48
10.0
100
AcDbCircle
 10
249.9677579092181
 20
500.6375352377506
 30
0.0
 40
44.5
100
AcDbArc
 50
30.0980584456395
 51
59.90194064374556
  0
LINE
  5
2B5
330
1F
100
AcDbEntity
  8
0
100
AcDbLine
 10
603.4191967465671
 20
78.7732194547891
 30
0.0
 11
585.8370169774762
 21
78.7732194547891
 31
0.0
  0
LINE
  5
2B6
330
1F
100
AcDbEntity
  8
0
100
AcDbLine
 10
603.4191941479007
 20
104.1732133512738
 30
0.0
 11
585.8370169774762
 21
104.1732133512738
 31
0.0
  0
LINE
  5
2B7
330
1F
100
AcDbEntity
  8
0
100
AcDbLine
 10
585.8370169774764
 20
122.7732211442422
 30
0.0
 11
585.8370169774762
 21
76.97320114424224
 31
0.0
  0
LINE
  5
2B8
330
1F
100
AcDbEntity
  8
0
100
AcDbLine
 10
610.8370169774762
 20
116.7232011442422
 30
0.0
 11
607.9870163085116
 21
116.7232011442431
 31
0.0
  0
LINE
  5
2B9
330
1F
100
AcDbEntity
  8
0
100
AcDbLine
 10
603.4191941479007
 20
104.1732133512738
 30
0.0
 11
607.9870163085116
 21
116.7232011442431
 31
0.0
  0
LINE
  5
2BA
330
1F
100
AcDbEntity
  8
0
100
AcDbLine
 10
603.4191941479007
 20
104.1732133512738
 30
0.0
 11
603.4191967465671
 21
78.7732194547891
 31
0.0
  0
LINE
  5
2BB
330
1F
100
AcDbEntity
  8
0
100
AcDbLine
 10
610.8370169774762
 20
66.22320114424224
 30
0.0
 11
607.9870300146675
 21
66.22320114424224
 31
0.0
  0
LINE
  5
2BC
330
1F
100
AcDbEntity
  8
0
100
AcDbLine
 10
607.9870300146675
 20
66.22320114424224
 30
0.0
 11
603.4191967465671
 21
78.7732194547891
 31
0.0
  0
LINE
  5
2BD
330
1F
100
AcDbEntity
  8
0
100
AcDbLine
 10
610.8370169774762
 20
116.7232011442422
 30
0.0
 11
610.8370169774762
 21
66.22320114424224
 31
0.0
  0
LINE
  5
2BE
330
1F
100
AcDbEntity
  8
0
100
AcDbLine
 10
553.9350738132156
 20
87.97321987007808
 30
0.0
 11
557.9765319975022
 21
80.97320908386789
 31
0.0
  0
ARC
  5
2BF
330
1F
100
AcDbEntity
  8
0
100
AcDbCircle
 10
546.8010977880238
 20
84.47320114424224
 30
0.0
 40
7.0
100
AcDbArc
 50
90.00000865141489
 51
149.9999966606829
  0
LINE
  5
2C0
330
1F
100
AcDbEntity
  8
0
100
AcDbLine
 10
540.7389626412614
 20
87.9732406391472
 30
0.0
 11
536.6975044569747
 21
80.97322985293748
 31
0.0
  0
LINE
  5
2C1
330
1F
100
AcDbEntity
  8
0
100
AcDbLine
 10
546.8010977880238
 20
91.47320114424315
 30
0.0
 11
547.3370169774762
 21
91.47320114424315
 31
0.0
  0
ARC
  5
2C2
330
1F
100
AcDbEntity
  8
0
100
AcDbCircle
 10
547.8729361669292
 20
84.47320114424224
 30
0.0
 40
7.0
100
AcDbArc
 50
30.00000333931701
 51
89.9999913485851
  0
ARC
  5
2C3
330
1F
100
AcDbEntity
  8
0
100
AcDbCircle
 10
564.9047354833355
 20
84.97320114424224
 30
0.0
 40
8.0
100
AcDbArc
 50
210.0000051605297
 51
270.0000043257204
  0
LINE
  5
2C4
330
1F
100
AcDbEntity
  8
0
100
AcDbLine
 10
569.6529349462271
 20
122.7732499723674
 30
0.0
 11
569.6529349462271
 21
100.9732316618202
 31
0.0
  0
LINE
  5
2C5
330
1F
100
AcDbEntity
  8
0
100
AcDbLine
 10
508.8269766942739
 20
76.97320114424224
 30
0.0
 11
529.7692984716176
 21
76.97320114424224
 31
0.0
  0
LINE
  5
2C6
330
1F
100
AcDbEntity
  8
0
100
AcDbLine
 10
491.2547944150197
 20
78.77318893721213
 30
0.0
 11
508.8269766942739
 21
78.77318893721213
 31
0.0
  0
LINE
  5
2C7
330
1F
100
AcDbEntity
  8
0
100
AcDbLine
 10
491.2548081211757
 20
104.1732133512738
 30
0.0
 11
508.837016977476
 21
104.1732133512738
 31
0.0
  0
LINE
  5
2C8
330
1F
100
AcDbEntity
  8
0
100
AcDbLine
 10
491.2548081211757
 20
104.1732133512738
 30
0.0
 11
491.2548081211761
 21
78.77318893721213
 31
0.0
  0
LINE
  5
2C9
330
1F
100
AcDbEntity
  8
0
100
AcDbLine
 10
508.837016977476
 20
122.7732211442422
 30
0.0
 11
508.837016977476
 21
76.97320114424224
 31
0.0
  0
LINE
  5
2CA
330
1F
100
AcDbEntity
  8
0
100
AcDbLine
 10
525.0210990087269
 20
122.7732499723674
 30
0.0
 11
525.0210990087269
 21
100.9732316618202
 31
0.0
  0
ARC
  5
2CB
330
1F
100
AcDbEntity
  8
0
100
AcDbCircle
 10
529.7692984716176
 20
84.97320114424224
 30
0.0
 40
8.0
100
AcDbArc
 50
269.9999974955313
 51
330.0000016696514
  0
LINE
  5
2CC
330
1F
100
AcDbEntity
  8
0
100
AcDbLine
 10
483.837016977476
 20
116.7232011442422
 30
0.0
 11
486.6869859605649
 21
116.7232011442422
 31
0.0
  0
LINE
  5
2CD
330
1F
100
AcDbEntity
  8
0
100
AcDbLine
 10
491.2548081211757
 20
104.1732133512738
 30
0.0
 11
486.6869859605649
 21
116.7232011442422
 31
0.0
  0
LINE
  5
2CE
330
1F
100
AcDbEntity
  8
0
100
AcDbLine
 10
483.837016977476
 20
66.22320114424224
 30
0.0
 11
486.6869722544088
 21
66.22320114424224
 31
0.0
  0
LINE
  5
2CF
330
1F
100
AcDbEntity
  8
0
100
AcDbLine
 10
486.6869722544088
 20
66.22320114424224
 30
0.0
 11
491.2547944150197
 21
78.77318893721213
 31
0.0
  0
LINE
  5
2D0
330
1F
100
AcDbEntity
  8
0
100
AcDbLine
 10
483.837016977476
 20
116.7232011442422
 30
0.0
 11
483.837016977476
 21
66.22320114424224
 31
0.0
  0
LINE
  5
2D1
330
1F
100
AcDbEntity
  8
0
100
AcDbLine
 10
288.467757909218
 20
114.7732499723673
 30
0.0
 11
259.6976204265974
 21
114.7732499723673
 31
0.0
  0
LINE
  5
2D2
330
1F
100
AcDbEntity
  8
0
100
AcDbLine
 10
288.467757909218
 20
76.97320114424224
 30
0.0
 11
270.6392963135057
 21
76.97320114424224
 31
0.0
  0
LINE
  5
2D3
330
1F
100
AcDbEntity
  8
0
100
AcDbLine
 10
288.467757909218
 20
100.9732316618202
 30
0.0
 11
273.3624564575029
 21
100.9732316618202
 31
0.0
  0
LINE
  5
2D4
330
1F
100
AcDbEntity
  8
0
100
AcDbLine
 10
272.2836758779681
 20
122.7732499723674
 30
0.0
 11
272.2836758779681
 21
103.2868502507662
 31
0.0
  0
LINE
  5
2D5
330
1F
100
AcDbEntity
  8
0
100
AcDbLine
 10
288.4677579092181
 20
122.773142141013
 30
0.0
 11
288.467757909218
 21
76.97320114424224
 31
0.0
  0
LINE
  5
2D6
330
1F
100
AcDbEntity
  8
0
100
AcDbLine
 10
240.2378953918387
 20
114.7732499723673
 30
0.0
 11
211.4677579092181
 21
114.7732499723673
 31
0.0
  0
LINE
  5
2D7
330
1F
100
AcDbEntity
  8
0
100
AcDbLine
 10
211.4577176260148
 20
76.97320114424224
 30
0.0
 11
229.2962195049302
 21
76.97320114424224
 31
0.0
  0
LINE
  5
2D8
330
1F
100
AcDbEntity
  8
0
100
AcDbLine
 10
226.5730593609322
 20
100.9732316618202
 30
0.0
 11
211.4677579092181
 21
100.9732316618202
 31
0.0
  0
LINE
  5
2D9
330
1F
100
AcDbEntity
  8
0
100
AcDbLine
 10
211.4677579092181
 20
122.773208288898
 30
0.0
 11
211.4677579092181
 21
76.97320114424224
 31
0.0
  0
LINE
  5
2DA
330
1F
100
AcDbEntity
  8
0
100
AcDbLine
 10
227.6518399404681
 20
122.7732499723674
 30
0.0
 11
227.6518399404681
 21
103.2868502507662
 31
0.0
  0
CIRCLE
  5
2DB
330
1F
100
AcDbEntity
  8
0
100
AcDbCircle
 10
249.9677579092181
 20
91.47320114424521
 30
0.0
 40
11.5
  0
CIRCLE
  5
2DC
330
1F
100
AcDbEntity
  8
0
100
AcDbCircle
 10
249.9677579092181
 20
91.47320114424521
 30
0.0
 40
25.25
  0
LINE
  5
2DD
330
1F
100
AcDbEntity
  8
0
100
AcDbLine
 10
585.8370169774762
 20
100.9732316618202
 30
0.0
 11
508.837016977476
 21
100.9732316618202
 31
0.0
  0
LINE
  5
2DE
330
1F
100
AcDbEntity
  8
0
100
AcDbLine
 10
585.8370169774762
 20
114.7732499723673
 30
0.0
 11
508.837016977476
 21
114.7732499723673
 31
0.0
  0
LINE
  5
2DF
330
1F
100
AcDbEntity
  8
0
100
AcDbLine
 10
585.8370169774762
 20
76.97320114424224
 30
0.0
 11
564.9047354833355
 21
76.97320114424224
 31
0.0
  0
TEXT
  5
2E0
330
1F
100
AcDbEntity
  8
0
100
AcDbText
 10
32.85499999999911
 20
674.7700150776108
 30
0.0
 40
48.000002
  1
DHC2S10RD000 1S
 41
1.32095
100
AcDbText
  0
LINE
  5
33E
330
1F
100
AcDbEntity
  8
0
  6
CENTER
100
AcDbLine
 10
333.1193007907172
 20
500.6375352377506
 30
0.0
 11
170.8342750371594
 21
500.6375352377504
 31
0.0
  0
LINE
  5
33F
330
1F
100
AcDbEntity
  8
0
  6
CENTER
100
AcDbLine
 10
249.9677579092181
 20
417.9337050309718
 30
0.0
 11
249.9677579092181
 21
583.3413654445292
 31
0.0
  0
LINE
  5
340
330
1F
100
AcDbEntity
  8
0
  6
CENTER
100
AcDbLine
 10
249.9677579092181
 20
52.91206028166289
 30
0.0
 11
249.9677579092181
 21
252.72735554798
 31
0.0
  0
LINE
  5
341
330
1F
100
AcDbEntity
  8
0
  6
CENTER
100
AcDbLine
 10
299.7651297569673
 20
91.47320114424525
 30
0.0
 11
200.1703860614688
 21
91.47320114424502
 31
0.0
  0
LINE
  5
342
330
1F
100
AcDbEntity
  8
0
  6
CENTER
100
AcDbLine
 10
624.2539070468236
 20
91.47320114424328
 30
0.0
 11
470.4201269081288
 21
91.47320114424305
 31
0.0
  0
LINE
  5
343
330
1F
100
AcDbEntity
  8
0
  6
CENTER
100
AcDbLine
 10
547.337011977476
 20
79.73068018910703
 30
0.0
 11
547.337011977476
 21
252.7273595543475
 31
0.0
  0
LINE
  5
497
330
1F
100
AcDbEntity
  8
Visible (ISO)
100
AcDbLine
 10
1342.258621498745
 20
177.1118017341399
 30
0.0
 11
1348.794289918926
 21
167.0477549187947
 31
0.0
  0
LINE
  5
498
330
1F
100
AcDbEntity
  8
Visible (ISO)
100
AcDbLine
 10
1348.35324261953
 20
164.9727905143544
 30
0.0
 11
1340.183657094307
 21
177.5528490335353
 31
0.0
  0
LINE
  5
499
330
1F
100
AcDbEntity
  8
Visible (ISO)
100
AcDbLine
 10
1348.794289918926
 20
167.0477549187947
 30
0.0
 11
1348.35324261953
 21
164.9727905143539
 31
0.0
  0
LINE
  5
49A
330
1F
100
AcDbEntity
  8
Visible (ISO)
100
AcDbLine
 10
1342.258621498745
 20
177.1118017341399
 30
0.0
 11
1340.183657094305
 21
177.5528490335353
 31
0.0
  0
LINE
  5
49B
330
1F
100
AcDbEntity
  8
Visible (ISO)
100
AcDbLine
 10
1296.762117919675
 20
192.0879198083151
 30
0.0
 11
1343.970559421272
 21
119.3932947437182
 31
0.0
  0
ARC
  5
49C
330
1F
100
AcDbEntity
  8
Visible (ISO)
100
AcDbCircle
 10
1291.730094512004
 20
188.8200855982248
 30
0.0
 40
5.999999999999975
100
AcDbArc
 50
32.99999999997589
 51
102.9999999999707
  0
ARC
  5
49D
330
1F
100
AcDbEntity
  8
Visible (ISO)
100
AcDbCircle
 10
1338.938536013599
 20
116.1254605336279
 30
0.0
 40
5.999999999999976
100
AcDbArc
 50
323.0000000000005
 51
33.00000000000296
  0
LINE
  5
49E
330
1F
100
AcDbEntity
  8
Visible (ISO)
100
AcDbLine
 10
1278.920411295495
 20
192.0205618518983
 30
0.0
 11
1336.652149007089
 21
103.1214816496839
 31
0.0
  0
LINE
  5
49F
330
1F
100
AcDbEntity
  8
Visible (ISO)
100
AcDbLine
 10
1310.943715634825
 20
179.4305666497269
 30
0.0
 11
1338.175667385576
 21
137.4970382524564
 31
0.0
  0
LINE
  5
4A0
330
1F
100
AcDbEntity
  8
Visible (ISO)
100
AcDbLine
 10
1255.856970676996
 20
177.042988388985
 30
0.0
 11
1313.58870838859
 21
88.143908186771
 31
0.0
  0
LINE
  5
4A1
330
1F
100
AcDbEntity
  8
Visible (ISO)
100
AcDbLine
 10
1244.790493853313
 20
179.3952406524284
 30
0.0
 11
1311.236456125146
 21
77.07743136308761
 31
0.0
  0
LINE
  5
4A2
330
1F
100
AcDbEntity
  8
Visible (ISO)
100
AcDbLine
 10
1228.436417778378
 20
168.7747794696355
 30
0.0
 11
1294.88238005021
 21
66.4569701802942
 31
0.0
  0
LINE
  5
4A3
330
1F
100
AcDbEntity
  8
Visible (ISO)
100
AcDbLine
 10
1348.35324261953
 20
164.9727905143539
 30
0.0
 11
1328.644484272814
 21
152.1737731915012
 31
0.0
  0
LINE
  5
4A4
330
1F
100
AcDbEntity
  8
Visible (ISO)
100
AcDbLine
 10
1340.183657094305
 20
177.5528490335353
 30
0.0
 11
1320.474898747588
 21
164.7538317106822
 31
0.0
  0
LINE
  5
4A5
330
1F
100
AcDbEntity
  8
Visible (ISO)
100
AcDbLine
 10
1343.730349073883
 20
112.5145703947158
 30
0.0
 11
1336.652149007089
 21
103.1214816496839
 31
0.0
  0
LINE
  5
4A6
330
1F
100
AcDbEntity
  8
Visible (ISO)
100
AcDbLine
 10
1290.38038818594
 20
194.6663059869359
 30
0.0
 11
1278.920411295496
 21
192.0205618518983
 31
0.0
  0
LINE
  5
4A7
330
1F
100
AcDbEntity
  8
Visible (ISO)
100
AcDbLine
 10
1338.175667385576
 20
137.4970382524564
 30
0.0
 11
1333.98231454585
 21
134.773843077381
 31
0.0
  0
LINE
  5
4A8
330
1F
100
AcDbEntity
  8
Visible (ISO)
100
AcDbLine
 10
1310.943715634825
 20
179.4305666497269
 30
0.0
 11
1306.750362795099
 21
176.7073714746519
 31
0.0
  0
LINE
  5
4A9
330
1F
100
AcDbEntity
  8
Visible (ISO)
100
AcDbLine
 10
1336.652149007089
 20
103.1214816496839
 30
0.0
 11
1313.58870838859
 21
88.143908186771
 31
0.0
  0
LINE
  5
4AA
330
1F
100
AcDbEntity
  8
Visible (ISO)
100
AcDbLine
 10
1278.920411295496
 20
192.0205618518983
 30
0.0
 11
1255.856970676997
 21
177.042988388985
 31
0.0
  0
LINE
  5
4AB
330
1F
100
AcDbEntity
  8
Visible (ISO)
100
AcDbLine
 10
1313.58870838859
 20
88.143908186771
 30
0.0
 11
1311.236456125147
 21
77.07743136308716
 31
0.0
  0
LINE
  5
4AC
330
1F
100
AcDbEntity
  8
Visible (ISO)
100
AcDbLine
 10
1255.856970676997
 20
177.042988388985
 30
0.0
 11
1244.790493853313
 21
179.3952406524284
 31
0.0
  0
LINE
  5
4AD
330
1F
100
AcDbEntity
  8
Visible (ISO)
100
AcDbLine
 10
1311.236456125147
 20
77.07743136308716
 30
0.0
 11
1294.88238005021
 21
66.4569701802942
 31
0.0
  0
LINE
  5
4AE
330
1F
100
AcDbEntity
  8
Visible (ISO)
100
AcDbLine
 10
1244.790493853313
 20
179.3952406524284
 30
0.0
 11
1228.436417778378
 21
168.7747794696355
 31
0.0
  0
LINE
  5
4AF
330
1F
100
AcDbEntity
  8
Visible (ISO)
100
AcDbLine
 10
1276.854827991213
 20
94.21696597928747
 30
0.0
 11
1262.849029506524
 21
85.12149409453639
 31
0.0
  0
LINE
  5
4B0
330
1F
100
AcDbEntity
  8
Visible (ISO)
100
AcDbLine
 10
1246.463969837376
 20
141.0147836706422
 30
0.0
 11
1232.458171352686
 21
131.9193117858911
 31
0.0
  0
LINE
  5
4B1
330
1F
100
AcDbEntity
  8
Visible (ISO)
100
AcDbLine
 10
1216.628909257184
 20
116.2677274884621
 30
0.0
 11
1208.401979200316
 21
128.9360888427853
 31
0.0
  0
LINE
  5
4B2
330
1F
100
AcDbEntity
  8
Visible (ISO)
100
AcDbLine
 10
1250.339184896473
 20
64.35845511098785
 30
0.0
 11
1242.112254839607
 21
77.02681646531107
 31
0.0
  0
LINE
  5
4B3
330
1F
100
AcDbEntity
  8
Visible (ISO)
100
AcDbLine
 10
1253.098353537032
 20
85.44759072325257
 30
0.0
 11
1243.465096023737
 21
79.19168014689137
 31
0.0
  0
LINE
  5
4B4
330
1F
100
AcDbEntity
  8
Visible (ISO)
100
AcDbLine
 10
1253.098353537032
 20
85.44759072325257
 30
0.0
 11
1246.243562501678
 21
96.00304327286437
 31
0.0
  0
LINE
  5
4B5
330
1F
100
AcDbEntity
  8
Visible (ISO)
100
AcDbLine
 10
1235.644909270404
 20
112.3235380473232
 30
0.0
 11
1228.79011823505
 21
122.8789905969346
 31
0.0
  0
LINE
  5
4B6
330
1F
100
AcDbEntity
  8
Visible (ISO)
100
AcDbLine
 10
1228.79011823505
 20
122.8789905969346
 30
0.0
 11
1219.156860721755
 21
116.6230800205738
 31
0.0
  0
LINE
  5
4B7
330
1F
100
AcDbEntity
  8
Visible (ISO)
100
AcDbLine
 10
1219.975633037964
 20
136.4521075259925
 30
0.0
 11
1228.79011823505
 21
122.878990596935
 31
0.0
  0
LINE
  5
4B8
330
1F
100
AcDbEntity
  8
Visible (ISO)
100
AcDbLine
 10
1253.098353537032
 20
85.44759072325257
 30
0.0
 11
1261.91283873412
 21
71.87447379419507
 31
0.0
  0
LINE
  5
4B9
330
1F
100
AcDbEntity
  8
Visible (ISO)
100
AcDbLine
 10
1219.975633037964
 20
136.4521075259925
 30
0.0
 11
1208.401979200316
 21
128.9360888427853
 31
0.0
  0
LINE
  5
4BA
330
1F
100
AcDbEntity
  8
Visible (ISO)
100
AcDbLine
 10
1261.91283873412
 20
71.87447379419507
 30
0.0
 11
1250.339184896474
 21
64.35845511098739
 31
0.0
  0
LINE
  5
4BB
330
1F
100
AcDbEntity
  8
Visible (ISO)
100
AcDbLine
 10
1205.300880603525
 20
122.1440676310265
 30
0.0
 11
1210.445706570512
 21
114.2217303795404
 31
0.0
  0
LINE
  5
4BC
330
1F
100
AcDbEntity
  8
Visible (ISO)
100
AcDbLine
 10
1205.300880603525
 20
122.1440676310265
 30
0.0
 11
1210.584505181581
 21
125.5752935516214
 31
0.0
  0
LINE
  5
4BD
330
1F
100
AcDbEntity
  8
Visible (ISO)
100
AcDbLine
 10
1213.210913482857
 20
115.3572701169476
 30
0.0
 11
1216.030895531731
 21
117.1885878721672
 31
0.0
  0
LINE
  5
4BE
330
1F
100
AcDbEntity
  8
Visible (ISO)
100
AcDbLine
 10
1242.873034337153
 20
64.28802448155682
 30
0.0
 11
1237.728208370166
 21
72.2103617330439
 31
0.0
  0
LINE
  5
4BF
330
1F
100
AcDbEntity
  8
Visible (ISO)
100
AcDbLine
 10
1248.156658915209
 20
67.71925040215126
 30
0.0
 11
1242.873034337153
 21
64.28802448155682
 31
0.0
  0
LINE
  5
4C0
330
1F
100
AcDbEntity
  8
Visible (ISO)
100
AcDbLine
 10
1242.710268565059
 20
76.10595608160554
 30
0.0
 11
1239.890286516183
 21
74.2746383263842
 31
0.0
  0
CIRCLE
  5
4C1
330
1F
100
AcDbEntity
  8
Visible (ISO)
100
AcDbCircle
 10
1221.403211652913
 20
91.47320114424372
 30
0.0
 40
25.24999999999988
  0
CIRCLE
  5
4C2
330
1F
100
AcDbEntity
  8
Visible (ISO)
100
AcDbCircle
 10
1221.403211652913
 20
91.47320114424372
 30
0.0
 40
11.49999999999994
  0
LINE
  5
4C3
330
1F
100
AcDbEntity
  8
Visible (ISO)
100
AcDbLine
 10
1267.783532709738
 20
75.6869470393002
 30
0.0
 11
1258.96904751265
 21
89.26006396835816
 31
0.0
  0
SPLINE
  5
4C4
330
1F
100
AcDbEntity
  8
Visible (ISO)
100
AcDbSpline
210
0.0
220
0.0
230
1.0
 70
    24
 71
     3
 72
     8
 73
     4
 74
     0
 42
0.0000000001
 43
0.0000000001
 40
-0.1439790587598839
 40
-0.1439790587598839
 40
-0.1439790587598839
 40
-0.1439790587598839
 40
0.0
 40
0.0
 40
0.0
 40
0.0
 10
1267.783532709738
 20
75.68694703930022
 30
0.0
 10
1267.881559941893
 20
76.14812890724933
 30
0.0
 10
1267.97957918511
 20
76.60927319019164
 30
0.0
 10
1268.077564242668
 20
77.07025664226093
 30
0.0
  0
LINE
  5
4C5
330
1F
100
AcDbEntity
  8
Visible (ISO)
100
AcDbLine
 10
1259.660389997703
 20
90.03156835640618
 30
0.0
 11
1268.077564242668
 21
77.07025664226091
 31
0.0
  0
SPLINE
  5
4C6
330
1F
100
AcDbEntity
  8
Visible (ISO)
100
AcDbSpline
210
0.0
220
0.0
230
1.0
 70
     8
 71
     3
 72
     8
 73
     4
 74
     0
 42
0.0000000001
 43
0.0000000001
 40
-0.1439790587597406
 40
-0.1439790587597406
 40
-0.1439790587597406
 40
-0.1439790587597406
 40
0.0
 40
0.0
 40
0.0
 40
0.0
 10
1258.96904751265
 20
89.26006396835818
 30
0.0
 10
1259.199832017658
 20
89.51681756315101
 30
0.0
 10
1259.430303567556
 20
89.77400317965829
 30
0.0
 10
1259.660389997702
 20
90.0315683564062
 30
0.0
  0
SPLINE
  5
4C7
330
1F
100
AcDbEntity
  8
Visible (ISO)
100
AcDbSpline
210
0.0
220
0.0
230
1.0
 70
    24
 71
     3
 72
     8
 73
     4
 74
     0
 42
0.0000000001
 43
0.0000000001
 40
-0.1439790587595967
 40
-0.1439790587595967
 40
-0.1439790587595967
 40
-0.1439790587595967
 40
0.0
 40
0.0
 40
0.0
 40
0.0
 10
1225.846327013581
 20
140.2645807710977
 30
0.0
 10
1226.307508881533
 20
140.1665535389414
 30
0.0
 10
1226.768653164474
 20
140.0685342957252
 30
0.0
 10
1227.229636616542
 20
139.9705492381671
 30
0.0
  0
LINE
  5
4C8
330
1F
100
AcDbEntity
  8
Visible (ISO)
100
AcDbLine
 10
1234.660812210669
 20
126.6914638420402
 30
0.0
 11
1225.846327013581
 21
140.2645807710977
 31
0.0
  0
SPLINE
  5
4C9
330
1F
100
AcDbEntity
  8
Visible (ISO)
100
AcDbSpline
210
0.0
220
0.0
230
1.0
 70
     8
 71
     3
 72
     8
 73
     4
 74
     0
 42
0.0000000001
 43
0.0000000001
 40
-0.1439790587593659
 40
-0.1439790587593659
 40
-0.1439790587593659
 40
-0.1439790587593659
 40
0.0
 40
0.0
 40
0.0
 40
0.0
 10
1234.660812210669
 20
126.6914638420402
 30
0.0
 10
1234.989236805769
 20
126.7978648830411
 30
0.0
 10
1235.317928782028
 20
126.90380430626
 30
0.0
 10
1235.646810861508
 20
127.0092375240218
 30
0.0
  0
LINE
  5
4CA
330
1F
100
AcDbEntity
  8
Visible (ISO)
100
AcDbLine
 10
1227.229636616542
 20
139.9705492381671
 30
0.0
 11
1235.646810861508
 21
127.0092375240222
 31
0.0
  0
LINE
  5
4CB
330
1F
100
AcDbEntity
  8
Visible (ISO)
100
AcDbLine
 10
1234.66081221067
 20
126.6914638420402
 30
0.0
 11
1258.969047512651
 21
89.26006396835816
 31
0.0
  0
LINE
  5
4CC
330
1F
100
AcDbEntity
  8
Visible (ISO)
100
AcDbLine
 10
1259.660389997702
 20
90.03156835640572
 30
0.0
 11
1235.646810861508
 21
127.0092375240218
 31
0.0
  0
LINE
  5
4CD
330
1F
100
AcDbEntity
  8
Visible (ISO)
100
AcDbLine
 10
1220.81430360591
 20
136.9967465610069
 30
0.0
 11
1229.628788802996
 21
123.4236296319494
 31
0.0
  0
SPLINE
  5
4CE
330
1F
100
AcDbEntity
  8
Visible (ISO)
100
AcDbSpline
210
0.0
220
0.0
230
1.0
 70
    24
 71
     3
 72
     8
 73
     4
 74
     0
 42
0.0000000001
 43
0.0000000001
 40
-0.1439790369046361
 40
-0.1439790369046361
 40
-0.1439790369046361
 40
-0.1439790369046361
 40
0.0
 40
0.0
 40
0.0
 40
0.0
 10
1261.368199699105
 20
72.71314436214051
 30
0.0
 10
1261.829183151174
 20
72.61515930458235
 30
0.0
 10
1262.290327434115
 20
72.51714006136662
 30
0.0
 10
1262.751509302066
 20
72.41911282921036
 30
0.0
  0
SPLINE
  5
4CF
330
1F
100
AcDbEntity
  8
Visible (ISO)
100
AcDbSpline
210
0.0
220
0.0
230
1.0
 70
    24
 71
     3
 72
     8
 73
     4
 74
     0
 42
0.0000000001
 43
0.0000000001
 40
-0.1439790369044937
 40
-0.1439790369044937
 40
-0.1439790369044937
 40
-0.1439790369044937
 40
0.0
 40
0.0
 40
0.0
 40
0.0
 10
1220.520272072979
 20
135.6134369580471
 30
0.0
 10
1220.618257130537
 20
136.074420410115
 30
0.0
 10
1220.716276373753
 20
136.5355646930564
 30
0.0
 10
1220.81430360591
 20
136.9967465610073
 30
0.0
  0
SPLINE
  5
4D0
330
1F
100
AcDbEntity
  8
Visible (ISO)
100
AcDbSpline
210
0.0
220
0.0
230
1.0
 70
     8
 71
     3
 72
     8
 73
     4
 74
     0
 42
0.0000000001
 43
0.0000000001
 40
-0.1439790369042721
 40
-0.1439790369042721
 40
-0.1439790369042721
 40
-0.1439790369042721
 40
0.0
 40
0.0
 40
0.0
 40
0.0
 10
1228.937446317944
 20
122.6521252439018
 30
0.0
 10
1229.167532748091
 20
122.9096904206498
 30
0.0
 10
1229.398004297988
 20
123.1668760371561
 30
0.0
 10
1229.628788802996
 20
123.4236296319499
 30
0.0
  0
SPLINE
  5
4D1
330
1F
100
AcDbEntity
  8
Visible (ISO)
100
AcDbSpline
210
0.0
220
0.0
230
1.0
 70
     8
 71
     3
 72
     8
 73
     4
 74
     0
 42
0.0000000001
 43
0.0000000001
 40
-0.1439790369052067
 40
-0.1439790369052067
 40
-0.1439790369052067
 40
-0.1439790369052067
 40
0.0
 40
0.0
 40
0.0
 40
0.0
 10
1252.95102545414
 20
85.67445607628577
 30
0.0
 10
1253.279907533618
 20
85.77988929404764
 30
0.0
 10
1253.608599509878
 20
85.88582871726648
 30
0.0
 10
1253.937024104978
 20
85.99222975826787
 30
0.0
  0
LINE
  5
4D2
330
1F
100
AcDbEntity
  8
Visible (ISO)
100
AcDbLine
 10
1253.937024104978
 20
85.99222975826785
 30
0.0
 11
1245.519642286823
 21
98.95386110709376
 31
0.0
  0
LINE
  5
4D3
330
1F
100
AcDbEntity
  8
Visible (ISO)
100
AcDbLine
 10
1238.046170621151
 20
110.4619982831239
 30
0.0
 11
1229.628788802996
 21
123.4236296319499
 31
0.0
  0
LINE
  5
4D4
330
1F
100
AcDbEntity
  8
Visible (ISO)
100
AcDbLine
 10
1253.937024104978
 20
85.99222975826739
 30
0.0
 11
1262.751509302066
 21
72.41911282921035
 31
0.0
  0
LINE
  5
4D5
330
1F
100
AcDbEntity
  8
Visible (ISO)
100
AcDbLine
 10
1225.846327013581
 20
140.2645807710977
 30
0.0
 11
1220.81430360591
 21
136.9967465610073
 31
0.0
  0
LINE
  5
4D6
330
1F
100
AcDbEntity
  8
Visible (ISO)
100
AcDbLine
 10
1234.66081221067
 20
126.6914638420402
 30
0.0
 11
1229.628788802996
 21
123.4236296319499
 31
0.0
  0
LINE
  5
4D7
330
1F
100
AcDbEntity
  8
Visible (ISO)
100
AcDbLine
 10
1258.96904751265
 20
89.26006396835816
 30
0.0
 11
1253.937024104978
 21
85.99222975826785
 31
0.0
  0
LINE
  5
4D8
330
1F
100
AcDbEntity
  8
Visible (ISO)
100
AcDbLine
 10
1267.783532709738
 20
75.6869470393002
 30
0.0
 11
1262.751509302066
 21
72.41911282921035
 31
0.0
  0
ELLIPSE
  5
4D9
330
1F
100
AcDbEntity
  8
Visible (ISO)
100
AcDbEllipse
 10
1345.526455708835
 20
500.637535237761
 30
0.0
 11
0.0000000000000901
 21
5.999999999999975
 31
0.0
210
0.0
220
0.0
230
1.0
 40
0.5446390350150259
 41
0.0
 42
6.283185307179585
  0
ELLIPSE
  5
4DA
330
1F
100
AcDbEntity
  8
Visible (ISO)
100
AcDbEllipse
 10
1344.268449856917
 20
500.637535237761
 30
0.0
 11
-0.0000000000013382
 21
7.49999999999997
 31
0.0
210
0.0
220
0.0
230
1.0
 40
0.5446390350150259
 41
5.576380160931844
 42
10.13158310701615
  0
LINE
  5
4DB
330
1F
100
AcDbEntity
  8
Visible (ISO)
100
AcDbLine
 10
1347.648612058179
 20
496.0748921436418
 30
0.0
 11
1346.921145293596
 21
494.9342313701119
 31
0.0
  0
LINE
  5
4DC
330
1F
100
AcDbEntity
  8
Visible (ISO)
100
AcDbLine
 10
1347.648612058179
 20
505.2001783318785
 30
0.0
 11
1346.921145293596
 21
506.3408391054074
 31
0.0
  0
ELLIPSE
  5
4DD
330
1F
100
AcDbEntity
  8
Visible (ISO)
100
AcDbEllipse
 10
1324.559691510199
 20
500.6375352377574
 30
0.0
 11
-0.0000000000000743
 21
-7.499999999999973
 31
0.0
210
0.0
220
0.0
230
1.0
 40
0.5446390350150259
 41
3.141592653591501
 42
6.283185307181294
  0
ELLIPSE
  5
4DE
330
1F
100
AcDbEntity
  8
Visible (ISO)
100
AcDbEllipse
 10
1320.366338670473
 20
500.6375352377565
 30
0.0
 11
-0.0000000000003362
 21
-24.9999999999999
 31
0.0
210
0.0
220
0.0
230
1.0
 40
0.5446390350150259
 41
3.141592653591488
 42
6.283185307181281
  0
ELLIPSE
  5
4DF
330
1F
100
AcDbEntity
  8
Visible (ISO)
100
AcDbEllipse
 10
1307.786280151291
 20
500.6375352377546
 30
0.0
 11
0.0000000000094619
 21
-52.99999999999979
 31
0.0
210
0.0
220
0.0
230
1.0
 40
0.5446390350150258
 41
2.902969484056345
 42
6.521808476712354
  0
ELLIPSE
  5
4E0
330
1F
100
AcDbEntity
  8
Visible (ISO)
100
AcDbEllipse
 10
1324.559691510199
 20
500.6375352377574
 30
0.0
 11
0.0000000000044603
 21
-24.99999999999991
 31
0.0
210
0.0
220
0.0
230
1.0
 40
0.5446390350150259
 41
1.875488980809938
 42
7.549288979958716
  0
ELLIPSE
  5
4E1
330
1F
100
AcDbEntity
  8
Visible (ISO)
100
AcDbEllipse
 10
1284.722839532792
 20
500.6375352377501
 30
0.0
 11
-0.0000000000007922
 21
-52.99999999999979
 31
0.0
210
0.0
220
0.0
230
1.0
 40
0.5446390350150259
 41
3.141592653591474
 42
6.283185307181268
  0
ELLIPSE
  5
4E2
330
1F
100
AcDbEntity
  8
Visible (ISO)
100
AcDbEllipse
 10
1278.013474989229
 20
500.6375352377492
 30
0.0
 11
0.000000000010883
 21
-60.99999999999976
 31
0.0
210
0.0
220
0.0
230
1.0
 40
0.5446390350150258
 41
2.623675979693878
 42
6.80110198107477
  0
ELLIPSE
  5
4E3
330
1F
100
AcDbEntity
  8
Visible (ISO)
100
AcDbEllipse
 10
1261.659398914294
 20
500.6375352377456
 30
0.0
 11
-0.0000000000009143
 21
-60.99999999999978
 31
0.0
210
0.0
220
0.0
230
1.0
 40
0.5446390350150259
 41
3.141592653591497
 42
6.283185307181289
  0
LINE
  5
4E4
330
1F
100
AcDbEntity
  8
Visible (ISO)
100
AcDbLine
 10
1344.268449856917
 20
493.137535237761
 30
0.0
 11
1324.559691510199
 21
493.1375352377574
 31
0.0
  0
LINE
  5
4E5
330
1F
100
AcDbEntity
  8
Visible (ISO)
100
AcDbLine
 10
1344.268449856917
 20
508.1375352377602
 30
0.0
 11
1324.559691510201
 21
508.1375352377574
 31
0.0
  0
LINE
  5
4E6
330
1F
100
AcDbEntity
  8
Visible (ISO)
100
AcDbLine
 10
1323.360401284973
 20
453.047984466368
 30
0.0
 11
1314.609162219933
 21
449.1393257317143
 31
0.0
  0
LINE
  5
4E7
330
1F
100
AcDbEntity
  8
Visible (ISO)
100
AcDbLine
 10
1323.360401284974
 20
548.2270860091378
 30
0.0
 11
1314.609162219934
 21
552.1357447437887
 31
0.0
  0
LINE
  5
4E8
330
1F
100
AcDbEntity
  8
Visible (ISO)
100
AcDbLine
 10
1324.559691510199
 20
475.6375352377574
 30
0.0
 11
1320.366338670472
 21
475.6375352377565
 31
0.0
  0
LINE
  5
4E9
330
1F
100
AcDbEntity
  8
Visible (ISO)
100
AcDbLine
 10
1324.559691510201
 20
525.6375352377574
 30
0.0
 11
1320.366338670473
 21
525.6375352377565
 31
0.0
  0
LINE
  5
4EA
330
1F
100
AcDbEntity
  8
Visible (ISO)
100
AcDbLine
 10
1307.786280151291
 20
447.6375352377547
 30
0.0
 11
1284.722839532792
 21
447.6375352377511
 31
0.0
  0
LINE
  5
4EB
330
1F
100
AcDbEntity
  8
Visible (ISO)
100
AcDbLine
 10
1307.786280151292
 20
553.6375352377538
 30
0.0
 11
1284.722839532794
 21
553.6375352377501
 31
0.0
  0
LINE
  5
4EC
330
1F
100
AcDbEntity
  8
Visible (ISO)
100
AcDbLine
 10
1278.013474989228
 20
439.6375352377492
 30
0.0
 11
1261.659398914293
 21
439.6375352377465
 31
0.0
  0
LINE
  5
4ED
330
1F
100
AcDbEntity
  8
Visible (ISO)
100
AcDbLine
 10
1278.013474989231
 20
561.6375352377483
 30
0.0
 11
1261.659398914295
 21
561.6375352377456
 31
0.0
  0
ELLIPSE
  5
4EE
330
1F
100
AcDbEntity
  8
Visible (ISO)
100
AcDbEllipse
 10
1229.370582048395
 20
500.6375352377411
 30
0.0
 11
0.000000000007945
 21
-44.49999999999991
 31
0.0
210
0.0
220
0.0
230
1.0
 40
0.5446390350150258
 41
5.237698949853445
 42
5.757875337710157
  0
LINE
  5
4EF
330
1F
100
AcDbEntity
  8
Visible (ISO)
100
AcDbLine
 10
1208.401979200316
 20
522.9534488421716
 30
0.0
 11
1208.401979200316
 21
478.3216216333296
 31
0.0
  0
ELLIPSE
  5
4F0
330
1F
100
AcDbEntity
  8
Visible (ISO)
100
AcDbEllipse
 10
1229.370582048395
 20
500.6375352377402
 30
0.0
 11
0.0000000000104514
 21
-44.49999999999984
 31
0.0
210
0.0
220
0.0
230
1.0
 40
0.544639035015026
 41
3.666902623058085
 42
4.187079010914957
  0
LINE
  5
4F1
330
1F
100
AcDbEntity
  8
Visible (ISO)
100
AcDbLine
 10
1229.628788802996
 20
462.1375352377483
 30
0.0
 11
1228.79011823505
 21
462.1375352377483
 31
0.0
  0
LINE
  5
4F2
330
1F
100
AcDbEntity
  8
Visible (ISO)
100
AcDbLine
 10
1228.79011823505
 20
462.1375352377483
 30
0.0
 11
1217.216464397403
 21
462.1375352377465
 31
0.0
  0
LINE
  5
4F3
330
1F
100
AcDbEntity
  8
Visible (ISO)
100
AcDbLine
 10
1228.790118235052
 20
539.1375352377483
 30
0.0
 11
1217.216464397404
 21
539.1375352377465
 31
0.0
  0
LINE
  5
4F4
330
1F
100
AcDbEntity
  8
Visible (ISO)
100
AcDbLine
 10
1228.790118235052
 20
539.1375352377483
 30
0.0
 11
1229.628788802997
 21
539.1375352377483
 31
0.0
  0
LINE
  5
4F5
330
1F
100
AcDbEntity
  8
Visible (ISO)
100
AcDbLine
 10
1219.975633037963
 20
478.3216216333314
 30
0.0
 11
1219.975633037964
 21
522.9534488421743
 31
0.0
  0
ELLIPSE
  5
4F6
330
1F
100
AcDbEntity
  8
Visible (ISO)
100
AcDbEllipse
 10
1240.944235886041
 20
500.6375352377428
 30
0.0
 11
-0.0000000000054456
 21
44.4999999999998
 31
0.0
210
0.0
220
0.0
230
1.0
 40
0.5446390350150259
 41
2.096106296263902
 42
2.616282684120774
  0
ELLIPSE
  5
4F7
330
1F
100
AcDbEntity
  8
Visible (ISO)
100
AcDbEllipse
 10
1240.944235886041
 20
500.6375352377428
 30
0.0
 11
-0.000000000007945
 21
44.49999999999993
 31
0.0
210
0.0
220
0.0
230
1.0
 40
0.5446390350150258
 41
0.5253099694687356
 42
1.045486357325444
  0
ELLIPSE
  5
4F8
330
1F
100
AcDbEntity
  8
Visible (ISO)
100
AcDbEllipse
 10
1240.944235886041
 20
500.6375352377428
 30
0.0
 11
0.0000000000077632
 21
-43.49999999999969
 31
0.0
210
0.0
220
0.0
230
1.0
 40
0.5446390350150259
 41
5.243847218323198
 42
5.576380160931934
  0
LINE
  5
4F9
330
1F
100
AcDbEntity
  8
Visible (ISO)
100
AcDbLine
 10
1220.520272072979
 20
522.6829429228011
 30
0.0
 11
1220.520272072977
 21
478.5921275527036
 31
0.0
  0
ELLIPSE
  5
4FA
330
1F
100
AcDbEntity
  8
Visible (ISO)
100
AcDbEllipse
 10
1240.944235886041
 20
500.6375352377428
 30
0.0
 11
0.0000000000102127
 21
-43.49999999999975
 31
0.0
210
0.0
220
0.0
230
1.0
 40
0.5446390350150259
 41
3.848397799836412
 42
4.180930742445275
  0
LINE
  5
4FB
330
1F
100
AcDbEntity
  8
Visible (ISO)
100
AcDbLine
 10
1219.975633037963
 20
478.3216216333314
 30
0.0
 11
1208.401979200316
 21
478.3216216333296
 31
0.0
  0
LINE
  5
4FC
330
1F
100
AcDbEntity
  8
Visible (ISO)
100
AcDbLine
 10
1219.975633037964
 20
522.9534488421743
 30
0.0
 11
1208.401979200316
 21
522.9534488421716
 31
0.0
  0
ELLIPSE
  5
4FD
330
1F
100
AcDbEntity
  8
Visible (ISO)
100
AcDbEllipse
 10
1208.0240757786
 20
525.3848582106786
 30
0.0
 11
0.0000000000001065
 21
4.99999999999998
 31
0.0
210
0.0
220
0.0
230
1.0
 40
0.5446390350150259
 41
0.0000000000016917
 42
3.141592653591484
  0
ELLIPSE
  5
4FE
330
1F
100
AcDbEntity
  8
Visible (ISO)
100
AcDbEllipse
 10
1208.024075778599
 20
475.8902122648162
 30
0.0
 11
-0.0000000000000436
 21
-4.99999999999998
 31
0.0
210
0.0
220
0.0
230
1.0
 40
0.5446390350150259
 41
3.141592653591406
 42
6.2831853071812
  0
LINE
  5
4FF
330
1F
100
AcDbEntity
  8
Visible (ISO)
100
AcDbLine
 10
1208.401979200316
 20
520.3848582106795
 30
0.0
 11
1208.0240757786
 21
520.3848582106795
 31
0.0
  0
LINE
  5
500
330
1F
100
AcDbEntity
  8
Visible (ISO)
100
AcDbLine
 10
1211.345195710056
 20
530.3848582106795
 30
0.0
 11
1208.0240757786
 21
530.3848582106787
 31
0.0
  0
LINE
  5
501
330
1F
100
AcDbEntity
  8
Visible (ISO)
100
AcDbLine
 10
1208.024075778599
 20
480.8902122648153
 30
0.0
 11
1208.401979200316
 21
480.8902122648153
 31
0.0
  0
LINE
  5
502
330
1F
100
AcDbEntity
  8
Visible (ISO)
100
AcDbLine
 10
1208.024075778599
 20
470.8902122648153
 30
0.0
 11
1211.345195710056
 21
470.8902122648161
 31
0.0
  0
LINE
  5
503
330
1F
100
AcDbEntity
  8
Visible (ISO)
100
AcDbLine
 10
1209.847268975514
 20
539.1375352377419
 30
0.0
 11
1217.216464397404
 21
539.1375352377438
 31
0.0
  0
LINE
  5
504
330
1F
100
AcDbEntity
  8
Visible (ISO)
100
AcDbLine
 10
1209.847268975514
 20
530.384858210674
 30
0.0
 11
1209.847268975514
 21
539.1375352377419
 31
0.0
  0
LINE
  5
505
330
1F
100
AcDbEntity
  8
Visible (ISO)
100
AcDbLine
 10
1209.847268975512
 20
462.1375352377429
 30
0.0
 11
1209.847268975513
 21
470.8902122648107
 31
0.0
  0
LINE
  5
506
330
1F
100
AcDbEntity
  8
Visible (ISO)
100
AcDbLine
 10
1217.216464397403
 20
462.1375352377437
 30
0.0
 11
1209.847268975512
 21
462.1375352377429
 31
0.0
  0
LINE
  5
507
330
1F
100
AcDbEntity
  8
Visible (ISO)
100
AcDbLine
 10
1205.703544235056
 20
462.1375352377401
 30
0.0
 11
1209.847268975512
 21
462.1375352377429
 31
0.0
  0
LINE
  5
508
330
1F
100
AcDbEntity
  8
Visible (ISO)
100
AcDbLine
 10
1209.847268975514
 20
539.1375352377419
 30
0.0
 11
1205.703544235057
 21
539.1375352377393
 31
0.0
  0
LINE
  5
509
330
1F
100
AcDbEntity
  8
Visible (ISO)
100
AcDbLine
 10
1205.703544235056
 20
462.1375352377401
 30
0.0
 11
1205.444180607984
 21
462.1375352377392
 31
0.0
  0
LINE
  5
50A
330
1F
100
AcDbEntity
  8
Visible (ISO)
100
AcDbLine
 10
1205.444180607984
 20
539.1375352377383
 30
0.0
 11
1205.703544235057
 21
539.1375352377393
 31
0.0
  0
LINE
  5
50B
330
1F
100
AcDbEntity
  8
Visible (ISO)
100
AcDbLine
 10
1205.444180607984
 20
462.1375352377392
 30
0.0
 11
1205.444180607984
 21
474.2896268674587
 31
0.0
  0
LINE
  5
50C
330
1F
100
AcDbEntity
  8
Visible (ISO)
100
AcDbLine
 10
1205.444180607984
 20
477.4907976621563
 30
0.0
 11
1205.444180607984
 21
484.2234336226012
 31
0.0
  0
SPLINE
  5
50D
330
1F
100
AcDbEntity
  8
Visible (ISO)
100
AcDbSpline
210
0.0
220
0.0
230
1.0
 70
     8
 71
     3
 72
    16
 73
    12
 74
     0
 42
0.0000000001
 43
0.0000000001
 40
0.0
 40
0.0
 40
0.0
 40
0.0
 40
0.2094395102393196
 40
0.2094395102393196
 40
0.4188790204786392
 40
0.4188790204786392
 40
0.6283185307179587
 40
0.6283185307179587
 40
0.8377580409572782
 40
0.8377580409572782
 40
1.047197551196597
 40
1.047197551196597
 40
1.047197551196597
 40
1.047197551196597
 10
1205.444180607984
 20
484.2234336226012
 30
0.0
 10
1205.444180607984
 20
484.5344466547669
 30
0.0
 10
1205.459898347695
 20
484.8454387976464
 30
0.0
 10
1205.523678285139
 20
485.4641495663547
 30
0.0
 10
1205.571690752497
 20
485.7718295717634
 30
0.0
 10
1205.703405399407
 20
486.3818284508008
 30
0.0
 10
1205.786976976721
 20
486.6841353198763
 30
0.0
 10
1205.998140682193
 20
487.283424360877
 30
0.0
 10
1206.125466386529
 20
487.5805384336675
 30
0.0
 10
1206.443209067401
 20
488.1704556824681
 30
0.0
 10
1206.633358930381
 20
488.4639765109271
 30
0.0
 10
1206.874539865579
 20
488.7510945305514
 30
0.0
  0
LINE
  5
50E
330
1F
100
AcDbEntity
  8
Visible (ISO)
100
AcDbLine
 10
1208.401979200316
 20
490.5694611295841
 30
0.0
 11
1206.874539865579
 21
488.7510945305514
 31
0.0
  0
LINE
  5
50F
330
1F
100
AcDbEntity
  8
Visible (ISO)
100
AcDbLine
 10
1206.874539865579
 20
512.5239759449271
 30
0.0
 11
1208.401979200316
 21
510.7056093458961
 31
0.0
  0
SPLINE
  5
510
330
1F
100
AcDbEntity
  8
Visible (ISO)
100
AcDbSpline
210
0.0
220
0.0
230
1.0
 70
     8
 71
     3
 72
    16
 73
    12
 74
     0
 42
0.0000000001
 43
0.0000000001
 40
-1.047197551196596
 40
-1.047197551196596
 40
-1.047197551196596
 40
-1.047197551196596
 40
-0.8377580409572772
 40
-0.8377580409572772
 40
-0.628318530717958
 40
-0.628318530717958
 40
-0.4188790204786387
 40
-0.4188790204786387
 40
-0.2094395102393193
 40
-0.2094395102393193
 40
0.0
 40
0.0
 40
0.0
 40
0.0
 10
1206.874539865579
 20
512.5239759449271
 30
0.0
 10
1206.633358930381
 20
512.8110939645514
 30
0.0
 10
1206.443209067401
 20
513.1046147930113
 30
0.0
 10
1206.125466386529
 20
513.694532041811
 30
0.0
 10
1205.998140682193
 20
513.9916461146015
 30
0.0
 10
1205.786976976722
 20
514.5909351556022
 30
0.0
 10
1205.703405399408
 20
514.8932420246776
 30
0.0
 10
1205.571690752498
 20
515.5032409037151
 30
0.0
 10
1205.523678285139
 20
515.8109209091237
 30
0.0
 10
1205.459898347695
 20
516.4296316778311
 30
0.0
 10
1205.444180607984
 20
516.7406238207115
 30
0.0
 10
1205.444180607984
 20
517.0516368528763
 30
0.0
  0
LINE
  5
511
330
1F
100
AcDbEntity
  8
Visible (ISO)
100
AcDbLine
 10
1205.444180607984
 20
517.0516368528763
 30
0.0
 11
1205.444180607984
 21
523.784272813322
 31
0.0
  0
LINE
  5
512
330
1F
100
AcDbEntity
  8
Visible (ISO)
100
AcDbLine
 10
1205.444180607984
 20
526.9854436080197
 30
0.0
 11
1205.444180607984
 21
539.1375352377383
 31
0.0
  0
LINE
  5
513
330
1F
100
AcDbEntity
  8
Visible (ISO)
100
AcDbLine
 10
1246.653211652914
 20
564.1375352377383
 30
0.0
 11
1196.153211652915
 21
564.1375352377393
 31
0.0
  0
LINE
  5
514
330
1F
100
AcDbEntity
  8
Visible (ISO)
100
AcDbLine
 10
1246.653211652914
 20
561.2875352377389
 30
0.0
 11
1196.153211652915
 21
561.2875352377398
 31
0.0
  0
LINE
  5
515
330
1F
100
AcDbEntity
  8
Visible (ISO)
100
AcDbLine
 10
1234.103211652914
 20
556.7197087976985
 30
0.0
 11
1208.703211652913
 21
556.7197087976985
 31
0.0
  0
LINE
  5
516
330
1F
100
AcDbEntity
  8
Visible (ISO)
100
AcDbLine
 10
1196.153211652914
 20
561.2875352377389
 30
0.0
 11
1196.153211652914
 21
564.1375352377393
 31
0.0
  0
LINE
  5
517
330
1F
100
AcDbEntity
  8
Visible (ISO)
100
AcDbLine
 10
1246.653211652914
 20
561.2875352377389
 30
0.0
 11
1246.653211652914
 21
564.1375352377383
 31
0.0
  0
LINE
  5
518
330
1F
100
AcDbEntity
  8
Visible (ISO)
100
AcDbLine
 10
1208.703211652914
 20
556.7197087976985
 30
0.0
 11
1196.153211652914
 21
561.2875352377389
 31
0.0
  0
LINE
  5
519
330
1F
100
AcDbEntity
  8
Visible (ISO)
100
AcDbLine
 10
1234.103211652914
 20
556.7197087976976
 30
0.0
 11
1246.653211652914
 21
561.2875352377389
 31
0.0
  0
LINE
  5
51A
330
1F
100
AcDbEntity
  8
Visible (ISO)
100
AcDbLine
 10
1208.703211652914
 20
539.1375352377393
 30
0.0
 11
1208.703211652914
 21
556.7197087976985
 31
0.0
  0
LINE
  5
51B
330
1F
100
AcDbEntity
  8
Visible (ISO)
100
AcDbLine
 10
1234.103211652914
 20
539.1375352377383
 30
0.0
 11
1234.103211652914
 21
556.7197087976976
 31
0.0
  0
LINE
  5
51C
330
1F
100
AcDbEntity
  8
Visible (ISO)
100
AcDbLine
 10
1246.653211652912
 20
437.1375352377392
 30
0.0
 11
1196.153211652912
 21
437.1375352377401
 31
0.0
  0
LINE
  5
51D
330
1F
100
AcDbEntity
  8
Visible (ISO)
100
AcDbLine
 10
1246.653211652912
 20
439.9875352377387
 30
0.0
 11
1196.153211652912
 21
439.9875352377396
 31
0.0
  0
LINE
  5
51E
330
1F
100
AcDbEntity
  8
Visible (ISO)
100
AcDbLine
 10
1234.103211652913
 20
444.5553616777799
 30
0.0
 11
1208.703211652912
 21
444.5553616777799
 31
0.0
  0
LINE
  5
51F
330
1F
100
AcDbEntity
  8
Visible (ISO)
100
AcDbLine
 10
1196.153211652912
 20
437.1375352377401
 30
0.0
 11
1196.153211652912
 21
439.9875352377396
 31
0.0
  0
LINE
  5
520
330
1F
100
AcDbEntity
  8
Visible (ISO)
100
AcDbLine
 10
1246.653211652912
 20
437.1375352377392
 30
0.0
 11
1246.653211652912
 21
439.9875352377396
 31
0.0
  0
LINE
  5
521
330
1F
100
AcDbEntity
  8
Visible (ISO)
100
AcDbLine
 10
1234.103211652913
 20
444.5553616777799
 30
0.0
 11
1246.653211652912
 21
439.9875352377396
 31
0.0
  0
LINE
  5
522
330
1F
100
AcDbEntity
  8
Visible (ISO)
100
AcDbLine
 10
1208.703211652913
 20
444.5553616777808
 30
0.0
 11
1196.153211652912
 21
439.9875352377396
 31
0.0
  0
LINE
  5
523
330
1F
100
AcDbEntity
  8
Visible (ISO)
100
AcDbLine
 10
1208.703211652913
 20
444.5553616777808
 30
0.0
 11
1208.703211652913
 21
462.1375352377392
 31
0.0
  0
LINE
  5
524
330
1F
100
AcDbEntity
  8
Visible (ISO)
100
AcDbLine
 10
1234.103211652913
 20
444.5553616777799
 30
0.0
 11
1234.103211652913
 21
462.1375352377392
 31
0.0
  0
LINE
  5
525
330
1F
100
AcDbEntity
  8
Visible (ISO)
100
AcDbLine
 10
1235.889568294807
 20
539.1375352377483
 30
0.0
 11
1234.66081221067
 21
539.1375352377492
 31
0.0
  0
SPLINE
  5
526
330
1F
100
AcDbEntity
  8
Visible (ISO)
100
AcDbSpline
210
0.0
220
0.0
230
1.0
 70
     8
 71
     3
 72
     8
 73
     4
 74
     0
 42
0.0000000001
 43
0.0000000001
 40
-0.1439790587595997
 40
-0.1439790587595997
 40
-0.1439790587595997
 40
-0.1439790587595997
 40
-0.0194731855161746
 40
-0.0194731855161746
 40
-0.0194731855161746
 40
-0.0194731855161746
 10
1234.66081221067
 20
539.1375352377492
 30
0.0
 10
1234.944817338635
 20
538.8492361018355
 30
0.0
 10
1235.229022412188
 20
538.560957283704
 30
0.0
 10
1235.513377459287
 20
538.272756396884
 30
0.0
  0
ELLIPSE
  5
527
330
1F
100
AcDbEntity
  8
Visible (ISO)
100
AcDbEllipse
 10
1246.81492986166
 20
500.6375352377438
 30
0.0
 11
0.0000000000104555
 21
-44.49999999999978
 31
0.0
210
0.0
220
0.0
230
1.0
 40
0.544639035015026
 41
3.666902623058085
 42
4.18707901091497
  0
SPLINE
  5
528
330
1F
100
AcDbEntity
  8
Visible (ISO)
100
AcDbSpline
210
0.0
220
0.0
230
1.0
 70
     8
 71
     3
 72
     8
 73
     4
 74
     0
 42
0.0000000001
 43
0.0000000001
 40
-0.1439790587594539
 40
-0.1439790587594539
 40
-0.1439790587594539
 40
-0.1439790587594539
 40
0.0
 40
0.0
 40
0.0
 40
0.0
 10
1225.846327013581
 20
522.9534488421752
 30
0.0
 10
1226.307508881533
 20
522.863811409111
 30
0.0
 10
1226.768653164474
 20
522.7736412045826
 30
0.0
 10
1227.229636616542
 20
522.6829429228021
 30
0.0
  0
ELLIPSE
  5
529
330
1F
100
AcDbEntity
  8
Visible (ISO)
100
AcDbEllipse
 10
1247.653600429605
 20
500.6375352377438
 30
0.0
 11
-0.0000000000077605
 21
43.49999999999981
 31
0.0
210
0.0
220
0.0
230
1.0
 40
0.544639035015026
 41
0.5489821960122008
 42
1.03933808885571
  0
LINE
  5
52A
330
1F
100
AcDbEntity
  8
Visible (ISO)
100
AcDbLine
 10
1225.846327013581
 20
522.9534488421752
 30
0.0
 11
1225.846327013581
 21
478.3216216333324
 31
0.0
  0
SPLINE
  5
52B
330
1F
100
AcDbEntity
  8
Visible (ISO)
100
AcDbSpline
210
0.0
220
0.0
230
1.0
 70
     8
 71
     3
 72
     8
 73
     4
 74
     0
 42
0.0000000001
 43
0.0000000001
 40
-0.1439790587595967
 40
-0.1439790587595967
 40
-0.1439790587595967
 40
-0.1439790587595967
 40
0.0
 40
0.0
 40
0.0
 40
0.0
 10
1225.84632701358
 20
478.3216216333324
 30
0.0
 10
1226.307508881532
 20
478.4112590663956
 30
0.0
 10
1226.768653164474
 20
478.5014292709241
 30
0.0
 10
1227.229636616541
 20
478.5921275527055
 30
0.0
  0
LINE
  5
52C
330
1F
100
AcDbEntity
  8
Visible (ISO)
100
AcDbLine
 10
1227.229636616541
 20
478.5921275527055
 30
0.0
 11
1227.229636616542
 21
522.6829429228021
 31
0.0
  0
ELLIPSE
  5
52D
330
1F
100
AcDbEntity
  8
Visible (ISO)
100
AcDbEllipse
 10
1246.81492986166
 20
500.6375352377438
 30
0.0
 11
0.0000000000079409
 21
-44.49999999999979
 31
0.0
210
0.0
220
0.0
230
1.0
 40
0.5446390350150259
 41
5.237698949853417
 42
5.757875337710132
  0
SPLINE
  5
52E
330
1F
100
AcDbEntity
  8
Visible (ISO)
100
AcDbSpline
210
0.0
220
0.0
230
1.0
 70
     8
 71
     3
 72
     8
 73
     4
 74
     0
 42
0.0000000001
 43
0.0000000001
 40
-0.1439790587593659
 40
-0.1439790587593659
 40
-0.1439790587593659
 40
-0.1439790587593659
 40
-0.0194731855161636
 40
-0.0194731855161636
 40
-0.0194731855161636
 40
-0.0194731855161636
 10
1234.660812210669
 20
462.1375352377501
 30
0.0
 10
1234.944817338635
 20
462.425834373664
 30
0.0
 10
1235.229022412186
 20
462.7141131917962
 30
0.0
 10
1235.513377459286
 20
463.0023140786154
 30
0.0
  0
ELLIPSE
  5
52F
330
1F
100
AcDbEntity
  8
Visible (ISO)
100
AcDbEllipse
 10
1247.653600429605
 20
500.6375352377438
 30
0.0
 11
-0.0000000000053083
 21
43.49999999999975
 31
0.0
210
0.0
220
0.0
230
1.0
 40
0.5446390350150259
 41
2.102254564733661
 42
2.592610457577283
  0
LINE
  5
530
330
1F
100
AcDbEntity
  8
Visible (ISO)
100
AcDbLine
 10
1234.660812210669
 20
462.1375352377501
 30
0.0
 11
1235.889568294807
 21
462.1375352377492
 31
0.0
  0
ELLIPSE
  5
531
330
1F
100
AcDbEntity
  8
Visible (ISO)
100
AcDbEllipse
 10
1241.782906453987
 20
500.6375352377428
 30
0.0
 11
-0.0000000000054373
 21
44.49999999999979
 31
0.0
210
0.0
220
0.0
230
1.0
 40
0.5446390350150259
 41
2.096106296263902
 42
2.616282684120774
  0
LINE
  5
532
330
1F
100
AcDbEntity
  8
Visible (ISO)
100
AcDbLine
 10
1220.814303605908
 20
478.3216216333314
 30
0.0
 11
1220.81430360591
 21
522.9534488421743
 31
0.0
  0
ELLIPSE
  5
533
330
1F
100
AcDbEntity
  8
Visible (ISO)
100
AcDbEllipse
 10
1241.782906453987
 20
500.6375352377428
 30
0.0
 11
-0.0000000000079492
 21
44.49999999999963
 31
0.0
210
0.0
220
0.0
230
1.0
 40
0.544639035015026
 41
0.5253099694687604
 42
1.045486357325457
  0
SPLINE
  5
534
330
1F
100
AcDbEntity
  8
Visible (ISO)
100
AcDbSpline
210
0.0
220
0.0
230
1.0
 70
     8
 71
     3
 72
     8
 73
     4
 74
     0
 42
0.0000000001
 43
0.0000000001
 40
-0.1439790369034835
 40
-0.1439790369034835
 40
-0.1439790369034835
 40
-0.1439790369034835
 40
0.0
 40
0.0
 40
0.0
 40
0.0
 10
1220.520272072979
 20
522.6829429228011
 30
0.0
 10
1220.618257130538
 20
522.7736412045817
 30
0.0
 10
1220.716276373754
 20
522.863811409111
 30
0.0
 10
1220.81430360591
 20
522.9534488421743
 30
0.0
  0
SPLINE
  5
535
330
1F
100
AcDbEntity
  8
Visible (ISO)
100
AcDbSpline
210
0.0
220
0.0
230
1.0
 70
     8
 71
     3
 72
     8
 73
     4
 74
     0
 42
0.0000000001
 43
0.0000000001
 40
-0.1439790369044937
 40
-0.1439790369044937
 40
-0.1439790369044937
 40
-0.1439790369044937
 40
0.0
 40
0.0
 40
0.0
 40
0.0
 10
1220.520272072977
 20
478.5921275527036
 30
0.0
 10
1220.618257130536
 20
478.5014292709231
 30
0.0
 10
1220.716276373752
 20
478.4112590663946
 30
0.0
 10
1220.814303605908
 20
478.3216216333314
 30
0.0
  0
LINE
  5
536
330
1F
100
AcDbEntity
  8
Visible (ISO)
100
AcDbLine
 10
1225.558602353304
 20
533.7166976701085
 30
0.0
 11
1226.043580196359
 21
534.4771381857956
 31
0.0
  0
LINE
  5
537
330
1F
100
AcDbEntity
  8
Visible (ISO)
100
AcDbLine
 10
1225.558602353303
 20
467.5583728053918
 30
0.0
 11
1226.043580196358
 21
466.7979322897056
 31
0.0
  0
LINE
  5
538
330
1F
100
AcDbEntity
  8
Visible (ISO)
100
AcDbLine
 10
1225.846327013581
 20
478.3216216333324
 30
0.0
 11
1220.814303605908
 21
478.3216216333314
 31
0.0
  0
LINE
  5
539
330
1F
100
AcDbEntity
  8
Visible (ISO)
100
AcDbLine
 10
1234.660812210669
 20
462.1375352377501
 30
0.0
 11
1229.628788802996
 21
462.1375352377492
 31
0.0
  0
LINE
  5
53A
330
1F
100
AcDbEntity
  8
Visible (ISO)
100
AcDbLine
 10
1225.846327013581
 20
522.9534488421752
 30
0.0
 11
1220.81430360591
 21
522.9534488421743
 31
0.0
  0
LINE
  5
53B
330
1F
100
AcDbEntity
  8
Visible (ISO)
100
AcDbLine
 10
1234.66081221067
 20
539.1375352377492
 30
0.0
 11
1229.628788802997
 21
539.1375352377483
 31
0.0
  0
SPLINE
  5
53C
330
1F
100
AcDbEntity
  8
Visible (ISO)
100
AcDbSpline
210
0.0
220
0.0
230
1.0
 70
     8
 71
     3
 72
    14
 73
    10
 74
     0
 42
0.0000000001
 43
0.0000000001
 40
3.380215823122904
 40
3.380215823122904
 40
3.380215823122904
 40
3.380215823122904
 40
3.658476753836219
 40
3.658476753836219
 40
3.986794502802428
 40
3.986794502802428
 40
4.330095407299003
 40
4.330095407299003
 40
4.551442018796608
 40
4.551442018796608
 40
4.551442018796608
 40
4.551442018796608
 10
1323.360401284974
 20
548.2270860091378
 30
0.0
 10
1326.311589442109
 20
546.9089655370237
 30
0.0
 10
1328.980188025563
 20
544.9198039581236
 30
0.0
 10
1334.105228846747
 20
539.5708736792232
 30
0.0
 10
1336.455783691006
 20
536.0213543290558
 30
0.0
 10
1340.423397666953
 20
527.8085823300982
 30
0.0
 10
1341.999369488659
 20
523.0950757423491
 30
0.0
 10
1343.802559195375
 20
514.8607890981377
 30
0.0
 10
1344.30943598763
 20
511.5121714013342
 30
0.0
 10
1344.610155284971
 20
508.1112472859897
 30
0.0
  0
SPLINE
  5
53D
330
1F
100
AcDbEntity
  8
Visible (ISO)
100
AcDbSpline
210
0.0
220
0.0
230
1.0
 70
     8
 71
     3
 72
    16
 73
    12
 74
     0
 42
0.0000000001
 43
0.0000000001
 40
4.873335941972792
 40
4.873335941972792
 40
4.873335941972792
 40
4.873335941972792
 40
5.005532499062852
 40
5.005532499062852
 40
5.343483915549175
 40
5.343483915549175
 40
5.685989903836116
 40
5.685989903836116
 40
6.02228967223542
 40
6.02228967223542
 40
6.044562137646474
 40
6.044562137646474
 40
6.044562137646474
 40
6.044562137646474
 10
1344.610155284971
 20
493.1638231894978
 30
0.0
 10
1344.43055436183
 20
491.1326628481167
 30
0.0
 10
1344.177493445786
 20
489.1200613991461
 30
0.0
 10
1343.020315223714
 20
482.0809883999429
 30
0.0
 10
1341.715778152384
 20
477.2420465469351
 30
0.0
 10
1338.193844479754
 20
468.3933769130247
 30
0.0
 10
1335.96847062716
 20
464.3923050343039
 30
0.0
 10
1330.661470657498
 20
457.7660714552051
 30
0.0
 10
1327.578142145457
 20
455.1001236340564
 30
0.0
 10
1323.831136732997
 20
453.2633503022391
 30
0.0
 10
1323.596619269233
 20
453.1534890104214
 30
0.0
 10
1323.360401284973
 20
453.047984466368
 30
0.0
  0
ELLIPSE
  5
53E
330
1F
100
AcDbEntity
  8
Visible (ISO)
100
AcDbEllipse
 10
1574.784207452815
 20
172.0797783264669
 30
0.0
 11
5.999999999999975
 21
0.0
 31
0.0
210
0.0
220
0.0
230
1.0
 40
0.8386705679454228
 41
0.0
 42
6.283185307179586
  0
ELLIPSE
  5
53F
330
1F
100
AcDbEntity
  8
Visible (ISO)
100
AcDbEllipse
 10
1574.784207452815
 20
171.2628197739444
 30
0.0
 11
-7.49999999999997
 21
0.0
 31
0.0
210
0.0
220
0.0
230
1.0
 40
0.838670567945423
 41
0.0
 42
6.283185307179586
  0
ELLIPSE
  5
540
330
1F
100
AcDbEntity
  8
Visible (ISO)
100
AcDbEllipse
 10
1574.784207452809
 20
158.4638024510912
 30
0.0
 11
7.49999999999997
 21
-0.0000000000000005
 31
0.0
210
0.0
220
0.0
230
1.0
 40
0.838670567945423
 41
3.14159265358935
 42
6.283185307179143
  0
ELLIPSE
  5
541
330
1F
100
AcDbEntity
  8
Visible (ISO)
100
AcDbEllipse
 10
1574.784207452808
 20
155.7406072760162
 30
0.0
 11
24.9999999999999
 21
0.0
 31
0.0
210
0.0
220
0.0
230
1.0
 40
0.838670567945423
 41
3.141592653589356
 42
6.283185307179149
  0
ELLIPSE
  5
542
330
1F
100
AcDbEntity
  8
Visible (ISO)
100
AcDbEllipse
 10
1574.784207452805
 20
147.5710217507906
 30
0.0
 11
52.99999999999979
 21
-0.0000000000227984
 31
0.0
210
0.0
220
0.0
230
1.0
 40
0.8386705679454228
 41
2.54664547273936
 42
6.878132488031079
  0
ELLIPSE
  5
543
330
1F
100
AcDbEntity
  8
Visible (ISO)
100
AcDbEllipse
 10
1574.784207452809
 20
158.4638024510912
 30
0.0
 11
24.9999999999999
 21
0.0
 31
0.0
210
0.0
220
0.0
230
1.0
 40
0.838670567945423
 41
0.0
 42
6.283185307179586
  0
ELLIPSE
  5
544
330
1F
100
AcDbEntity
  8
Visible (ISO)
100
AcDbEllipse
 10
1574.784207452799
 20
132.5934482878777
 30
0.0
 11
52.99999999999979
 21
0.0000000000000001
 31
0.0
210
0.0
220
0.0
230
1.0
 40
0.8386705679454228
 41
3.141592653589361
 42
6.283185307179153
  0
ELLIPSE
  5
545
330
1F
100
AcDbEntity
  8
Visible (ISO)
100
AcDbEllipse
 10
1574.784207452797
 20
128.2363360077578
 30
0.0
 11
60.99999999999978
 21
-0.0000000000262762
 31
0.0
210
0.0
220
0.0
230
1.0
 40
0.838670567945423
 41
2.602655705113704
 42
6.822122255656765
  0
ELLIPSE
  5
546
330
1F
100
AcDbEntity
  8
Visible (ISO)
100
AcDbEllipse
 10
1574.784207452792
 20
117.6158748249644
 30
0.0
 11
60.99999999999978
 21
0.0000000000000001
 31
0.0
210
0.0
220
0.0
230
1.0
 40
0.838670567945423
 41
3.141592653589361
 42
6.283185307179154
  0
LINE
  5
547
330
1F
100
AcDbEntity
  8
Visible (ISO)
100
AcDbLine
 10
1582.284207452816
 20
171.2628197739444
 30
0.0
 11
1582.28420745281
 21
158.4638024510917
 31
0.0
  0
LINE
  5
548
330
1F
100
AcDbEntity
  8
Visible (ISO)
100
AcDbLine
 10
1567.284207452815
 20
171.2628197739439
 30
0.0
 11
1567.284207452809
 21
158.4638024510908
 31
0.0
  0
LINE
  5
549
330
1F
100
AcDbEntity
  8
Visible (ISO)
100
AcDbLine
 10
1615.346182061369
 20
176.612024912389
 30
0.0
 11
1618.677646926629
 21
172.4834337599694
 31
0.0
  0
LINE
  5
54A
330
1F
100
AcDbEntity
  8
Visible (ISO)
100
AcDbLine
 10
1534.222232844236
 20
176.6120249123872
 30
0.0
 11
1530.89076797897
 21
172.4834337599676
 31
0.0
  0
LINE
  5
54B
330
1F
100
AcDbEntity
  8
Visible (ISO)
100
AcDbLine
 10
1599.784207452809
 20
158.4638024510921
 30
0.0
 11
1599.784207452809
 21
155.7406072760167
 31
0.0
  0
LINE
  5
54C
330
1F
100
AcDbEntity
  8
Visible (ISO)
100
AcDbLine
 10
1549.784207452809
 20
158.4638024510908
 30
0.0
 11
1549.784207452808
 21
155.7406072760158
 31
0.0
  0
LINE
  5
54D
330
1F
100
AcDbEntity
  8
Visible (ISO)
100
AcDbLine
 10
1627.784207452806
 20
147.571021750792
 30
0.0
 11
1627.784207452799
 21
132.5934482878786
 31
0.0
  0
LINE
  5
54E
330
1F
100
AcDbEntity
  8
Visible (ISO)
100
AcDbLine
 10
1521.784207452805
 20
147.5710217507897
 30
0.0
 11
1521.784207452799
 21
132.5934482878764
 31
0.0
  0
LINE
  5
54F
330
1F
100
AcDbEntity
  8
Visible (ISO)
100
AcDbLine
 10
1635.784207452797
 20
128.2363360077591
 30
0.0
 11
1635.784207452792
 21
117.6158748249657
 31
0.0
  0
LINE
  5
550
330
1F
100
AcDbEntity
  8
Visible (ISO)
100
AcDbLine
 10
1513.784207452797
 20
128.2363360077559
 30
0.0
 11
1513.784207452792
 21
117.615874824963
 31
0.0
  0
ELLIPSE
  5
551
330
1F
100
AcDbEntity
  8
Visible (ISO)
100
AcDbEllipse
 10
1574.784207452783
 20
96.64727197688616
 30
0.0
 11
44.49999999999963
 21
-0.000000000019168
 31
0.0
210
0.0
220
0.0
230
1.0
 40
0.838670567945423
 41
5.237698949854301
 42
5.757875337711013
  0
LINE
  5
552
330
1F
100
AcDbEntity
  8
Visible (ISO)
100
AcDbLine
 10
1552.468293848368
 20
64.35845511098739
 30
0.0
 11
1597.10012105721
 21
64.35845511098739
 31
0.0
  0
ELLIPSE
  5
553
330
1F
100
AcDbEntity
  8
Visible (ISO)
100
AcDbEllipse
 10
1574.784207452783
 20
96.64727197688616
 30
0.0
 11
44.49999999999978
 21
-0.0000000000152933
 31
0.0
210
0.0
220
0.0
230
1.0
 40
0.8386705679454228
 41
3.666902623059252
 42
4.187079010916001
  0
LINE
  5
554
330
1F
100
AcDbEntity
  8
Visible (ISO)
100
AcDbLine
 10
1536.284207452787
 20
77.93381553058077
 30
0.0
 11
1536.284207452787
 21
77.93157204004535
 31
0.0
  0
LINE
  5
555
330
1F
100
AcDbEntity
  8
Visible (ISO)
100
AcDbLine
 10
1613.284207452786
 20
77.93381553058168
 30
0.0
 11
1613.284207452786
 21
77.9315720400449
 31
0.0
  0
LINE
  5
556
330
1F
100
AcDbEntity
  8
Visible (ISO)
100
AcDbLine
 10
1552.46829384837
 20
70.00331240372259
 30
0.0
 11
1552.468293848368
 21
64.35845511098739
 31
0.0
  0
LINE
  5
557
330
1F
100
AcDbEntity
  8
Visible (ISO)
100
AcDbLine
 10
1597.100121057213
 20
70.00331240372304
 30
0.0
 11
1597.10012105721
 21
64.35845511098739
 31
0.0
  0
LINE
  5
558
330
1F
100
AcDbEntity
  8
Visible (ISO)
100
AcDbLine
 10
1536.284207452782
 20
77.10624774375799
 30
0.0
 11
1536.284207452782
 21
77.9315720400449
 31
0.0
  0
LINE
  5
559
330
1F
100
AcDbEntity
  8
Visible (ISO)
100
AcDbLine
 10
1613.284207452781
 20
77.10624774375799
 30
0.0
 11
1612.696738362759
 21
77.10624774375799
 31
0.0
  0
LINE
  5
55A
330
1F
100
AcDbEntity
  8
Visible (ISO)
100
AcDbLine
 10
1613.284207452781
 20
77.9315720400449
 30
0.0
 11
1613.284207452781
 21
77.10624774375799
 31
0.0
  0
LINE
  5
55B
330
1F
100
AcDbEntity
  8
Visible (ISO)
100
AcDbLine
 10
1536.871676542805
 20
77.10624774375799
 30
0.0
 11
1536.284207452782
 21
77.10624774375799
 31
0.0
  0
ELLIPSE
  5
55C
330
1F
100
AcDbEntity
  8
Visible (ISO)
100
AcDbEllipse
 10
1599.531530425718
 20
68.48137732128352
 30
0.0
 11
4.99999999999998
 21
0.0000000000000782
 31
0.0
210
0.0
220
0.0
230
1.0
 40
0.838670567945423
 41
4.317912257292924
 42
6.283185307179088
  0
LINE
  5
55D
330
1F
100
AcDbEntity
  8
Visible (ISO)
100
AcDbLine
 10
1604.531530425718
 20
68.4813773212835
 30
0.0
 11
1604.531530425718
 21
68.8906110952579
 31
0.0
  0
ELLIPSE
  5
55E
330
1F
100
AcDbEntity
  8
Visible (ISO)
100
AcDbEllipse
 10
1550.036884479855
 20
68.48137732128352
 30
0.0
 11
-4.999999999999984
 21
-0.0000000000001937
 31
0.0
210
0.0
220
0.0
230
1.0
 40
0.838670567945423
 41
0.0
 42
1.96527304988648
  0
LINE
  5
55F
330
1F
100
AcDbEntity
  8
Visible (ISO)
100
AcDbLine
 10
1545.036884479855
 20
68.89061109525744
 30
0.0
 11
1545.036884479855
 21
68.48137732128305
 31
0.0
  0
LINE
  5
560
330
1F
100
AcDbEntity
  8
Visible (ISO)
100
AcDbLine
 10
1638.28420745278
 20
66.22320114424372
 30
0.0
 11
1638.28420745278
 21
116.7232011442428
 31
0.0
  0
LINE
  5
561
330
1F
100
AcDbEntity
  8
Visible (ISO)
100
AcDbLine
 10
1635.434207452781
 20
66.22320114424372
 30
0.0
 11
1635.434207452785
 21
112.1434288718022
 31
0.0
  0
LINE
  5
562
330
1F
100
AcDbEntity
  8
Visible (ISO)
100
AcDbLine
 10
1630.866381012739
 20
78.77320114424344
 30
0.0
 11
1630.866381012743
 21
97.49145405397882
 31
0.0
  0
LINE
  5
563
330
1F
100
AcDbEntity
  8
Visible (ISO)
100
AcDbLine
 10
1635.774920443349
 20
116.7232011442428
 30
0.0
 11
1638.28420745278
 21
116.7232011442428
 31
0.0
  0
LINE
  5
564
330
1F
100
AcDbEntity
  8
Visible (ISO)
100
AcDbLine
 10
1635.434207452781
 20
66.22320114424372
 30
0.0
 11
1638.28420745278
 21
66.22320114424372
 31
0.0
  0
LINE
  5
565
330
1F
100
AcDbEntity
  8
Visible (ISO)
100
AcDbLine
 10
1630.866381012739
 20
78.77320114424344
 30
0.0
 11
1635.434207452781
 21
66.22320114424372
 31
0.0
  0
LINE
  5
566
330
1F
100
AcDbEntity
  8
Visible (ISO)
100
AcDbLine
 10
1614.482568093847
 20
78.77320114424344
 30
0.0
 11
1630.866381012739
 21
78.77320114424344
 31
0.0
  0
LINE
  5
567
330
1F
100
AcDbEntity
  8
Visible (ISO)
100
AcDbLine
 10
1511.28420745278
 20
66.22320114424372
 30
0.0
 11
1511.28420745278
 21
116.7232011442428
 31
0.0
  0
LINE
  5
568
330
1F
100
AcDbEntity
  8
Visible (ISO)
100
AcDbLine
 10
1514.134207452782
 20
66.22320114424372
 30
0.0
 11
1514.134207452786
 21
112.1434288718022
 31
0.0
  0
LINE
  5
569
330
1F
100
AcDbEntity
  8
Visible (ISO)
100
AcDbLine
 10
1518.702033892822
 20
78.77320114424344
 30
0.0
 11
1518.702033892825
 21
97.49145405397882
 31
0.0
  0
LINE
  5
56A
330
1F
100
AcDbEntity
  8
Visible (ISO)
100
AcDbLine
 10
1511.28420745278
 20
116.7232011442428
 30
0.0
 11
1513.793494462212
 21
116.7232011442428
 31
0.0
  0
LINE
  5
56B
330
1F
100
AcDbEntity
  8
Visible (ISO)
100
AcDbLine
 10
1511.28420745278
 20
66.22320114424372
 30
0.0
 11
1514.134207452782
 21
66.22320114424372
 31
0.0
  0
LINE
  5
56C
330
1F
100
AcDbEntity
  8
Visible (ISO)
100
AcDbLine
 10
1518.702033892822
 20
78.77320114424344
 30
0.0
 11
1514.134207452782
 21
66.22320114424372
 31
0.0
  0
LINE
  5
56D
330
1F
100
AcDbEntity
  8
Visible (ISO)
100
AcDbLine
 10
1518.702033892822
 20
78.77320114424344
 30
0.0
 11
1535.085846811715
 21
78.77320114424344
 31
0.0
  0
SPLINE
  5
56E
330
1F
100
AcDbEntity
  8
Visible (ISO)
100
AcDbSpline
210
0.0
220
0.0
230
1.0
 70
     8
 71
     3
 72
    18
 73
    14
 74
     0
 42
0.0000000001
 43
0.0000000001
 40
0.5949471808509353
 40
0.5949471808509353
 40
0.5949471808509353
 40
0.5949471808509353
 40
0.9128637775953677
 40
0.9128637775953677
 40
1.23813110430411
 40
1.23813110430411
 40
1.566986081947834
 40
1.566986081947834
 40
1.896778894709111
 40
1.896778894709111
 40
2.22567433688514
 40
2.22567433688514
 40
2.546645472738804
 40
2.546645472738804
 40
2.546645472738804
 40
2.546645472738804
 10
1534.222232844236
 20
176.6120249123872
 30
0.0
 10
1537.216712305391
 20
180.3229994864681
 30
0.0
 10
1540.882409717881
 20
183.5863387478269
 30
0.0
 10
1549.252797472731
 20
189.0113752462379
 30
0.0
 10
1553.978845751831
 20
191.1465458672913
 30
0.0
 10
1563.998742879131
 20
194.0499643939527
 30
0.0
 10
1569.297563906019
 20
194.8028472040718
 30
0.0
 10
1579.917360701333
 20
194.8367833559803
 30
0.0
 10
1585.237369821595
 20
194.1136047363914
 30
0.0
 10
1595.348218492663
 20
191.2471176784277
 30
0.0
 10
1600.139702927758
 20
189.1076352776984
 30
0.0
 10
1608.615460707715
 20
183.6489045469796
 30
0.0
 10
1612.322931675009
 20
180.3586544887124
 30
0.0
 10
1615.34618206137
 20
176.612024912389
 30
0.0
  0
ELLIPSE
  5
56F
330
1F
100
AcDbEntity
  8
Visible (ISO)
100
AcDbEllipse
 10
939.7434993640544
 20
147.5710217507906
 30
0.0
 11
52.99999999999979
 21
-0.0000000000256073
 31
0.0
210
0.0
220
0.0
230
1.0
 40
0.8386705679454232
 41
0.1563473089141469
 42
2.985245344676741
  0
ELLIPSE
  5
570
330
1F
100
AcDbEntity
  8
Visible (ISO)
100
AcDbEllipse
 10
939.7434993640453
 20
128.2363360077578
 30
0.0
 11
60.99999999999978
 21
-0.0000000000014793
 31
0.0
210
0.0
220
0.0
230
1.0
 40
0.838670567945423
 41
0.0
 42
3.141592653589334
  0
ELLIPSE
  5
571
330
1F
100
AcDbEntity
  8
Visible (ISO)
100
AcDbEllipse
 10
939.7434993639999
 20
117.6158748249244
 30
0.0
 11
60.99999999993754
 21
-0.000000000024164
 31
0.0
210
0.0
220
0.0
230
1.0
 40
0.838670567945423
 41
4.00376083281813
 42
4.029357224890155
  0
ELLIPSE
  5
572
330
1F
100
AcDbEntity
  8
Visible (ISO)
100
AcDbEllipse
 10
939.7434993640299
 20
117.6158748249748
 30
0.0
 11
61.00000000001555
 21
-0.0000000000294598
 31
0.0
210
0.0
220
0.0
230
1.0
 40
0.838670567945423
 41
5.395420735880281
 42
5.421017127952273
  0
ELLIPSE
  5
573
330
1F
100
AcDbEntity
  8
Visible (ISO)
100
AcDbEllipse
 10
939.74349936404
 20
117.6158748249644
 30
0.0
 11
60.99999999999978
 21
-0.0000000000294691
 31
0.0
210
0.0
220
0.0
230
1.0
 40
0.8386705679454228
 41
6.265735383424045
 42
9.442227884526072
  0
ELLIPSE
  5
574
330
1F
100
AcDbEntity
  8
Visible (ISO)
100
AcDbEllipse
 10
939.74349936404
 20
117.6158748249644
 30
0.0
 11
-27.89999999999991
 21
0.0000000000134774
 31
0.0
210
0.0
220
0.0
230
1.0
 40
0.838670567945423
 41
4.458482498442505
 42
4.966295462328009
  0
LINE
  5
575
330
1F
100
AcDbEntity
  8
Visible (ISO)
100
AcDbLine
 10
980.3054739726203
 20
176.6120249123872
 30
0.0
 11
983.6369388378798
 21
172.4834337599676
 31
0.0
  0
LINE
  5
576
330
1F
100
AcDbEntity
  8
Visible (ISO)
100
AcDbLine
 10
899.1815247554868
 20
176.612024912389
 30
0.0
 11
895.850059890221
 21
172.4834337599694
 31
0.0
  0
LINE
  5
577
330
1F
100
AcDbEntity
  8
Visible (ISO)
100
AcDbLine
 10
1000.743499364044
 20
128.2363360077559
 30
0.0
 11
1000.74349936404
 21
117.615874824963
 31
0.0
  0
LINE
  5
578
330
1F
100
AcDbEntity
  8
Visible (ISO)
100
AcDbLine
 10
878.7434993640454
 20
128.2363360077591
 30
0.0
 11
878.7434993640399
 21
117.6158748249657
 31
0.0
  0
ELLIPSE
  5
579
330
1F
100
AcDbEntity
  8
Visible (ISO)
100
AcDbEllipse
 10
968.4319552304533
 20
116.9011661927683
 30
0.0
 11
9.999999999999952
 21
-0.0000000000039656
 31
0.0
210
0.0
220
0.0
230
1.0
 40
0.838670567945423
 41
3.841308070499177
 42
4.71238898038519
  0
ELLIPSE
  5
57A
330
1F
100
AcDbEntity
  8
Visible (ISO)
100
AcDbEllipse
 10
968.4319552304542
 20
117.6140361755218
 30
0.0
 11
-0.000000000002341
 21
-16.77341135890839
 31
0.0
210
0.0
220
0.0
230
1.0
 40
0.5961816464179744
 41
5.412104397293358
 42
6.283185307179124
  0
ELLIPSE
  5
57B
330
1F
100
AcDbEntity
  8
Visible (ISO)
100
AcDbEllipse
 10
911.0550434975975
 20
116.9011661927683
 30
0.0
 11
9.999999999999953
 21
-0.0000000000000075
 31
0.0
210
0.0
220
0.0
230
1.0
 40
0.838670567945423
 41
4.712388980385028
 42
5.583469890270752
  0
ELLIPSE
  5
57C
330
1F
100
AcDbEntity
  8
Visible (ISO)
100
AcDbEllipse
 10
911.0550434975975
 20
117.6140361755218
 30
0.0
 11
-0.0000000000023433
 21
-16.77341135890839
 31
0.0
210
0.0
220
0.0
230
1.0
 40
0.5961816464179744
 41
0.0
 42
0.8710809098856779
  0
ELLIPSE
  5
57D
330
1F
100
AcDbEntity
  8
Visible (ISO)
100
AcDbEllipse
 10
939.7434993640299
 20
96.64727197688616
 30
0.0
 11
-27.49999999999983
 21
0.0000000000109066
 31
0.0
210
0.0
220
0.0
230
1.0
 40
0.838670567945423
 41
3.841308070499193
 42
4.152422145262816
  0
ELLIPSE
  5
57E
330
1F
100
AcDbEntity
  8
Visible (ISO)
100
AcDbEllipse
 10
939.7434993640199
 20
77.106247743758
 30
0.0
 11
-0.0000000000064431
 21
-46.1268812369981
 31
0.0
210
0.0
220
0.0
230
1.0
 40
0.5961816464179744
 41
2.27051174370356
 42
2.58162581846707
  0
LINE
  5
57F
330
1F
100
AcDbEntity
  8
Visible (ISO)
100
AcDbLine
 10
978.2434993640272
 20
108.514460513314
 30
0.0
 11
968.431955230455
 21
108.514460513314
 31
0.0
  0
LINE
  5
580
330
1F
100
AcDbEntity
  8
Visible (ISO)
100
AcDbLine
 10
901.2434993640273
 20
108.514460513314
 30
0.0
 11
911.0550434975994
 21
108.514460513314
 31
0.0
  0
ELLIPSE
  5
581
330
1F
100
AcDbEntity
  8
Visible (ISO)
100
AcDbEllipse
 10
939.743499364029
 20
96.64727197688616
 30
0.0
 11
27.49999999999983
 21
-0.000000000015675
 31
0.0
210
0.0
220
0.0
230
1.0
 40
0.8386705679454228
 41
2.130763161917922
 42
2.441877236681545
  0
ELLIPSE
  5
582
330
1F
100
AcDbEntity
  8
Visible (ISO)
100
AcDbEllipse
 10
939.7434993640199
 20
77.106247743758
 30
0.0
 11
-0.0000000000064387
 21
-46.1268812369981
 31
0.0
210
0.0
220
0.0
230
1.0
 40
0.5961816464179744
 41
3.701559488711762
 42
4.012673563475464
  0
LINE
  5
583
330
1F
100
AcDbEntity
  8
Visible (ISO)
100
AcDbLine
 10
901.2434993640235
 20
100.8406248166132
 30
0.0
 11
901.2434993640273
 21
108.514460513314
 31
0.0
  0
LINE
  5
584
330
1F
100
AcDbEntity
  8
Visible (ISO)
100
AcDbLine
 10
911.0550434975957
 20
100.8406248166128
 30
0.0
 11
901.2434993640235
 21
100.8406248166132
 31
0.0
  0
LINE
  5
585
330
1F
100
AcDbEntity
  8
Visible (ISO)
100
AcDbLine
 10
978.2434993640235
 20
100.8406248166132
 30
0.0
 11
968.4319552304513
 21
100.8406248166128
 31
0.0
  0
LINE
  5
586
330
1F
100
AcDbEntity
  8
Visible (ISO)
100
AcDbLine
 10
978.2434993640272
 20
108.514460513314
 30
0.0
 11
978.2434993640235
 21
100.8406248166132
 31
0.0
  0
LINE
  5
587
330
1F
100
AcDbEntity
  8
Visible (ISO)
100
AcDbLine
 10
978.2434993640254
 20
115.3629719137273
 30
0.0
 11
978.2434993640272
 21
108.514460513314
 31
0.0
  0
ELLIPSE
  5
588
330
1F
100
AcDbEntity
  8
Visible (ISO)
100
AcDbEllipse
 10
939.743499364029
 20
96.64727197688616
 30
0.0
 11
44.49999999999991
 21
-0.0000000000214773
 31
0.0
210
0.0
220
0.0
230
1.0
 40
0.838670567945423
 41
0.5253099694696717
 42
1.045486357326381
  0
LINE
  5
589
330
1F
100
AcDbEntity
  8
Visible (ISO)
100
AcDbLine
 10
917.4275857596022
 20
128.9360888427848
 30
0.0
 11
962.059412968445
 21
128.9360888427848
 31
0.0
  0
ELLIPSE
  5
58A
330
1F
100
AcDbEntity
  8
Visible (ISO)
100
AcDbEllipse
 10
939.743499364029
 20
96.64727197688616
 30
0.0
 11
44.49999999999984
 21
-0.0000000000253436
 31
0.0
210
0.0
220
0.0
230
1.0
 40
0.8386705679454228
 41
2.096106296264675
 42
2.616282684121422
  0
LINE
  5
58B
330
1F
100
AcDbEntity
  8
Visible (ISO)
100
AcDbLine
 10
901.2434993640273
 20
108.514460513314
 30
0.0
 11
901.2434993640253
 21
115.3629719137273
 31
0.0
  0
ELLIPSE
  5
58C
330
1F
100
AcDbEntity
  8
Visible (ISO)
100
AcDbEllipse
 10
939.7434993640217
 20
96.64727197687433
 30
0.0
 11
-44.49999999998352
 21
0.0000000000214995
 31
0.0
210
0.0
220
0.0
230
1.0
 40
0.838670567945423
 41
1.032193624375517
 42
1.04548635732639
  0
ELLIPSE
  5
58D
330
1F
100
AcDbEntity
  8
Visible (ISO)
100
AcDbEllipse
 10
939.743499364029
 20
96.64727197688616
 30
0.0
 11
-44.49999999999963
 21
0.0000000000214828
 31
0.0
210
0.0
220
0.0
230
1.0
 40
0.838670567945423
 41
0.5510657449416918
 42
0.8386342922673106
  0
LINE
  5
58E
330
1F
100
AcDbEntity
  8
Visible (ISO)
100
AcDbLine
 10
962.0594129684578
 20
64.35845511098739
 30
0.0
 11
917.4275857596148
 21
64.35845511098739
 31
0.0
  0
ELLIPSE
  5
58F
330
1F
100
AcDbEntity
  8
Visible (ISO)
100
AcDbEllipse
 10
939.743499364029
 20
96.64727197688616
 30
0.0
 11
-44.4999999999999
 21
0.000000000025363
 31
0.0
210
0.0
220
0.0
230
1.0
 40
0.838670567945423
 41
2.302958361323751
 42
2.590526908649387
  0
ELLIPSE
  5
590
330
1F
100
AcDbEntity
  8
Visible (ISO)
100
AcDbEllipse
 10
939.7434993639926
 20
96.64727197693846
 30
0.0
 11
-44.50000000007226
 21
0.0000000000253464
 31
0.0
210
0.0
220
0.0
230
1.0
 40
0.838670567945423
 41
2.096106296264657
 42
2.109399029215506
  0
LINE
  5
591
330
1F
100
AcDbEntity
  8
Visible (ISO)
100
AcDbLine
 10
978.243499364029
 20
122.8789905969341
 30
0.0
 11
978.2434993640254
 21
115.3629719137273
 31
0.0
  0
LINE
  5
592
330
1F
100
AcDbEntity
  8
Visible (ISO)
100
AcDbLine
 10
901.243499364029
 20
122.8789905969341
 30
0.0
 11
901.2434993640253
 21
115.3629719137273
 31
0.0
  0
LINE
  5
593
330
1F
100
AcDbEntity
  8
Visible (ISO)
100
AcDbLine
 10
962.0594129684477
 20
136.4521075259921
 30
0.0
 11
917.4275857596057
 21
136.4521075259921
 31
0.0
  0
ELLIPSE
  5
594
330
1F
100
AcDbEntity
  8
Visible (ISO)
100
AcDbEllipse
 10
939.7434993640327
 20
104.1632906600933
 30
0.0
 11
-44.49999999999982
 21
0.0000000000176359
 31
0.0
210
0.0
220
0.0
230
1.0
 40
0.838670567945423
 41
3.666902623059314
 42
4.187079010916056
  0
ELLIPSE
  5
595
330
1F
100
AcDbEntity
  8
Visible (ISO)
100
AcDbEllipse
 10
939.7434993640336
 20
104.1632906600933
 30
0.0
 11
-44.49999999999993
 21
0.0000000000214884
 31
0.0
210
0.0
220
0.0
230
1.0
 40
0.8386705679454228
 41
5.23769894985436
 42
5.757875337711066
  0
LINE
  5
596
330
1F
100
AcDbEntity
  8
Visible (ISO)
100
AcDbLine
 10
962.0594129684477
 20
136.4521075259921
 30
0.0
 11
962.059412968445
 21
128.9360888427848
 31
0.0
  0
LINE
  5
597
330
1F
100
AcDbEntity
  8
Visible (ISO)
100
AcDbLine
 10
917.4275857596057
 20
136.4521075259921
 30
0.0
 11
917.4275857596022
 21
128.9360888427848
 31
0.0
  0
LINE
  5
598
330
1F
100
AcDbEntity
  8
Visible (ISO)
100
AcDbLine
 10
925.1366516548177
 20
116.1882962100142
 30
0.0
 11
954.3503470732339
 21
116.1882962100142
 31
0.0
  0
LINE
  5
599
330
1F
100
AcDbEntity
  8
Visible (ISO)
100
AcDbLine
 10
978.2434993640217
 20
91.53366666861064
 30
0.0
 11
978.2434993640235
 21
100.8406248166132
 31
0.0
  0
LINE
  5
59A
330
1F
100
AcDbEntity
  8
Visible (ISO)
100
AcDbLine
 10
978.2434993640245
 20
78.47233063871261
 30
0.0
 11
978.2434993640217
 21
88.67953963433809
 31
0.0
  0
LINE
  5
59B
330
1F
100
AcDbEntity
  8
Visible (ISO)
100
AcDbLine
 10
901.2434993640235
 20
100.8406248166132
 30
0.0
 11
901.2434993640217
 21
91.53366666861064
 31
0.0
  0
LINE
  5
59C
330
1F
100
AcDbEntity
  8
Visible (ISO)
100
AcDbLine
 10
901.2434993640226
 20
88.67953963433809
 30
0.0
 11
901.2434993640244
 21
78.47233063871261
 31
0.0
  0
ELLIPSE
  5
59D
330
1F
100
AcDbEntity
  8
Visible (ISO)
100
AcDbEllipse
 10
964.4908223369567
 20
121.3819407118943
 30
0.0
 11
-4.99999999999998
 21
0.0
 31
0.0
210
0.0
220
0.0
230
1.0
 40
0.838670567945423
 41
3.141592653589295
 42
6.283185307179088
  0
ELLIPSE
  5
59E
330
1F
100
AcDbEntity
  8
Visible (ISO)
100
AcDbEllipse
 10
914.9961763910933
 20
121.3819407118943
 30
0.0
 11
-4.99999999999998
 21
0.0000000000001006
 31
0.0
210
0.0
220
0.0
230
1.0
 40
0.838670567945423
 41
3.141592653589414
 42
6.283185307179207
  0
ELLIPSE
  5
59F
330
1F
100
AcDbEntity
  8
Visible (ISO)
100
AcDbEllipse
 10
914.9961763910914
 20
117.9507147912994
 30
0.0
 11
4.99999999999998
 21
0.0
 31
0.0
210
0.0
220
0.0
230
1.0
 40
0.838670567945423
 41
0.0
 42
6.283185307179586
  0
ELLIPSE
  5
5A0
330
1F
100
AcDbEntity
  8
Visible (ISO)
100
AcDbEllipse
 10
964.4908223369547
 20
117.9507147912994
 30
0.0
 11
-4.99999999999998
 21
0.0
 31
0.0
210
0.0
220
0.0
230
1.0
 40
0.838670567945423
 41
0.0
 42
6.283185307179586
  0
LINE
  5
5A1
330
1F
100
AcDbEntity
  8
Visible (ISO)
100
AcDbLine
 10
919.9961763910923
 20
121.3819407118938
 30
0.0
 11
919.9961763910915
 21
117.9507147912994
 31
0.0
  0
LINE
  5
5A2
330
1F
100
AcDbEntity
  8
Visible (ISO)
100
AcDbLine
 10
909.9961763910933
 20
121.3819407118943
 30
0.0
 11
909.9961763910915
 21
117.9507147912994
 31
0.0
  0
LINE
  5
5A3
330
1F
100
AcDbEntity
  8
Visible (ISO)
100
AcDbLine
 10
959.4908223369548
 20
117.9507147912994
 30
0.0
 11
959.4908223369566
 21
121.3819407118943
 31
0.0
  0
LINE
  5
5A4
330
1F
100
AcDbEntity
  8
Visible (ISO)
100
AcDbLine
 10
969.4908223369548
 20
117.9507147912989
 30
0.0
 11
969.4908223369566
 21
121.3819407118938
 31
0.0
  0
ELLIPSE
  5
5A5
330
1F
100
AcDbEntity
  8
Visible (ISO)
100
AcDbEllipse
 10
964.4908223369666
 20
71.91260324187796
 30
0.0
 11
-4.99999999999998
 21
0.0
 31
0.0
210
0.0
220
0.0
230
1.0
 40
0.838670567945423
 41
3.141592653589295
 42
6.283185307179088
  0
ELLIPSE
  5
5A6
330
1F
100
AcDbEntity
  8
Visible (ISO)
100
AcDbEllipse
 10
964.4908223369649
 20
68.48137732128352
 30
0.0
 11
4.99999999999998
 21
0.0
 31
0.0
210
0.0
220
0.0
230
1.0
 40
0.838670567945423
 41
0.0
 42
6.283185307179586
  0
LINE
  5
5A7
330
1F
100
AcDbEntity
  8
Visible (ISO)
100
AcDbLine
 10
969.4908223369665
 20
71.91260324187794
 30
0.0
 11
969.4908223369647
 21
68.48137732128305
 31
0.0
  0
LINE
  5
5A8
330
1F
100
AcDbEntity
  8
Visible (ISO)
100
AcDbLine
 10
959.4908223369666
 20
71.9126032418784
 30
0.0
 11
959.4908223369648
 21
68.4813773212835
 31
0.0
  0
ELLIPSE
  5
5A9
330
1F
100
AcDbEntity
  8
Visible (ISO)
100
AcDbEllipse
 10
914.9961763911033
 20
71.91260324187796
 30
0.0
 11
-4.99999999999998
 21
0.0000000000000782
 31
0.0
210
0.0
220
0.0
230
1.0
 40
0.838670567945423
 41
3.141592653589322
 42
6.283185307179115
  0
ELLIPSE
  5
5AA
330
1F
100
AcDbEntity
  8
Visible (ISO)
100
AcDbEllipse
 10
914.9961763911015
 20
68.48137732128352
 30
0.0
 11
-4.99999999999998
 21
0.0
 31
0.0
210
0.0
220
0.0
230
1.0
 40
0.838670567945423
 41
0.0
 42
6.283185307179586
  0
LINE
  5
5AB
330
1F
100
AcDbEntity
  8
Visible (ISO)
100
AcDbLine
 10
909.9961763911014
 20
68.4813773212835
 30
0.0
 11
909.9961763911032
 21
71.9126032418784
 31
0.0
  0
LINE
  5
5AC
330
1F
100
AcDbEntity
  8
Visible (ISO)
100
AcDbLine
 10
919.9961763911014
 20
68.48137732128305
 30
0.0
 11
919.9961763911032
 21
71.91260324187794
 31
0.0
  0
LINE
  5
5AD
330
1F
100
AcDbEntity
  8
Visible (ISO)
100
AcDbLine
 10
978.2434993640217
 20
91.53366666861064
 30
0.0
 11
978.2434993640217
 21
88.67953963433809
 31
0.0
  0
LINE
  5
5AE
330
1F
100
AcDbEntity
  8
Visible (ISO)
100
AcDbLine
 10
978.2434993640245
 20
78.47233063871261
 30
0.0
 11
978.2434993640254
 21
77.10624774375753
 31
0.0
  0
LINE
  5
5AF
330
1F
100
AcDbEntity
  8
Visible (ISO)
100
AcDbLine
 10
901.2434993640253
 20
77.10624774375753
 30
0.0
 11
901.2434993640244
 21
78.47233063871261
 31
0.0
  0
LINE
  5
5B0
330
1F
100
AcDbEntity
  8
Visible (ISO)
100
AcDbLine
 10
901.2434993640226
 20
88.67953963433809
 30
0.0
 11
901.2434993640217
 21
91.53366666861064
 31
0.0
  0
LINE
  5
5B1
330
1F
100
AcDbEntity
  8
Visible (ISO)
100
AcDbLine
 10
956.1576009791624
 20
77.10624774375799
 30
0.0
 11
978.2434993640254
 21
77.10624774375799
 31
0.0
  0
LINE
  5
5B2
330
1F
100
AcDbEntity
  8
Visible (ISO)
100
AcDbLine
 10
956.1576009791624
 20
77.10624774375799
 30
0.0
 11
953.5595247678102
 21
77.10624774375799
 31
0.0
  0
LINE
  5
5B3
330
1F
100
AcDbEntity
  8
Visible (ISO)
100
AcDbLine
 10
948.4037534018735
 20
77.10624774375799
 30
0.0
 11
953.5595247678102
 21
77.10624774375799
 31
0.0
  0
LINE
  5
5B4
330
1F
100
AcDbEntity
  8
Visible (ISO)
100
AcDbLine
 10
931.0832453261847
 20
77.10624774375799
 30
0.0
 11
948.4037534018735
 21
77.10624774375799
 31
0.0
  0
LINE
  5
5B5
330
1F
100
AcDbEntity
  8
Visible (ISO)
100
AcDbLine
 10
925.9274739602416
 20
77.10624774375753
 30
0.0
 11
931.0832453261847
 21
77.10624774375753
 31
0.0
  0
LINE
  5
5B6
330
1F
100
AcDbEntity
  8
Visible (ISO)
100
AcDbLine
 10
925.9274739602416
 20
77.10624774375799
 30
0.0
 11
923.3293977488875
 21
77.10624774375799
 31
0.0
  0
LINE
  5
5B7
330
1F
100
AcDbEntity
  8
Visible (ISO)
100
AcDbLine
 10
901.2434993640253
 20
77.10624774375799
 30
0.0
 11
923.3293977488875
 21
77.10624774375799
 31
0.0
  0
LINE
  5
5B8
330
1F
100
AcDbEntity
  8
Visible (ISO)
100
AcDbLine
 10
876.2434993640273
 20
116.7232011442428
 30
0.0
 11
876.2434993640273
 21
66.22320114424372
 31
0.0
  0
LINE
  5
5B9
330
1F
100
AcDbEntity
  8
Visible (ISO)
100
AcDbLine
 10
879.0934993640275
 20
116.7232011442428
 30
0.0
 11
879.0934993640275
 21
66.22320114424372
 31
0.0
  0
LINE
  5
5BA
330
1F
100
AcDbEntity
  8
Visible (ISO)
100
AcDbLine
 10
883.6613258040689
 20
104.173201144243
 30
0.0
 11
883.6613258040689
 21
78.77320114424344
 31
0.0
  0
LINE
  5
5BB
330
1F
100
AcDbEntity
  8
Visible (ISO)
100
AcDbLine
 10
879.0934993640275
 20
66.22320114424372
 30
0.0
 11
876.2434993640273
 21
66.22320114424372
 31
0.0
  0
LINE
  5
5BC
330
1F
100
AcDbEntity
  8
Visible (ISO)
100
AcDbLine
 10
879.0934993640275
 20
116.7232011442428
 30
0.0
 11
876.2434993640273
 21
116.7232011442428
 31
0.0
  0
LINE
  5
5BD
330
1F
100
AcDbEntity
  8
Visible (ISO)
100
AcDbLine
 10
883.661325804068
 20
78.77320114424344
 30
0.0
 11
879.0934993640275
 21
66.22320114424372
 31
0.0
  0
LINE
  5
5BE
330
1F
100
AcDbEntity
  8
Visible (ISO)
100
AcDbLine
 10
883.661325804068
 20
104.173201144243
 30
0.0
 11
879.0934993640275
 21
116.7232011442428
 31
0.0
  0
LINE
  5
5BF
330
1F
100
AcDbEntity
  8
Visible (ISO)
100
AcDbLine
 10
901.2434993640273
 20
78.77320114424344
 30
0.0
 11
883.661325804068
 21
78.77320114424344
 31
0.0
  0
LINE
  5
5C0
330
1F
100
AcDbEntity
  8
Visible (ISO)
100
AcDbLine
 10
901.2434993640273
 20
104.173201144243
 30
0.0
 11
883.661325804068
 21
104.173201144243
 31
0.0
  0
LINE
  5
5C1
330
1F
100
AcDbEntity
  8
Visible (ISO)
100
AcDbLine
 10
1003.243499364027
 20
116.7232011442428
 30
0.0
 11
1003.243499364027
 21
66.22320114424372
 31
0.0
  0
LINE
  5
5C2
330
1F
100
AcDbEntity
  8
Visible (ISO)
100
AcDbLine
 10
1000.393499364027
 20
116.7232011442428
 30
0.0
 11
1000.393499364027
 21
66.22320114424372
 31
0.0
  0
LINE
  5
5C3
330
1F
100
AcDbEntity
  8
Visible (ISO)
100
AcDbLine
 10
995.8256729239856
 20
104.173201144243
 30
0.0
 11
995.8256729239856
 21
78.77320114424344
 31
0.0
  0
LINE
  5
5C4
330
1F
100
AcDbEntity
  8
Visible (ISO)
100
AcDbLine
 10
1003.243499364027
 20
66.22320114424372
 30
0.0
 11
1000.393499364027
 21
66.22320114424372
 31
0.0
  0
LINE
  5
5C5
330
1F
100
AcDbEntity
  8
Visible (ISO)
100
AcDbLine
 10
1003.243499364027
 20
116.7232011442428
 30
0.0
 11
1000.393499364027
 21
116.7232011442428
 31
0.0
  0
LINE
  5
5C6
330
1F
100
AcDbEntity
  8
Visible (ISO)
100
AcDbLine
 10
995.8256729239856
 20
104.173201144243
 30
0.0
 11
1000.393499364027
 21
116.7232011442428
 31
0.0
  0
LINE
  5
5C7
330
1F
100
AcDbEntity
  8
Visible (ISO)
100
AcDbLine
 10
995.8256729239856
 20
78.77320114424344
 30
0.0
 11
1000.393499364027
 21
66.22320114424372
 31
0.0
  0
LINE
  5
5C8
330
1F
100
AcDbEntity
  8
Visible (ISO)
100
AcDbLine
 10
995.8256729239856
 20
78.77320114424344
 30
0.0
 11
978.2434993640272
 21
78.77320114424344
 31
0.0
  0
LINE
  5
5C9
330
1F
100
AcDbEntity
  8
Visible (ISO)
100
AcDbLine
 10
995.8256729239856
 20
104.173201144243
 30
0.0
 11
978.2434993640272
 21
104.173201144243
 31
0.0
  0
ELLIPSE
  5
5CA
330
1F
100
AcDbEntity
  8
Visible (ISO)
100
AcDbEllipse
 10
939.7434993640345
 20
107.9757639051985
 30
0.0
 11
44.49999999999978
 21
-0.0000000000253492
 31
0.0
210
0.0
220
0.0
230
1.0
 40
0.8386705679454228
 41
2.096106296264686
 42
2.616282684121433
  0
LINE
  5
5CB
330
1F
100
AcDbEntity
  8
Visible (ISO)
100
AcDbLine
 10
917.4275857596075
 20
140.2645807710972
 30
0.0
 11
962.0594129684505
 21
140.2645807710972
 31
0.0
  0
ELLIPSE
  5
5CC
330
1F
100
AcDbEntity
  8
Visible (ISO)
100
AcDbEllipse
 10
939.7434993640354
 20
107.9757639051985
 30
0.0
 11
44.49999999999979
 21
-0.0000000000214773
 31
0.0
210
0.0
220
0.0
230
1.0
 40
0.8386705679454228
 41
0.5253099694696726
 42
1.045486357326383
  0
ELLIPSE
  5
5CD
330
1F
100
AcDbEntity
  8
Visible (ISO)
100
AcDbEllipse
 10
939.7434993640336
 20
104.7079296951082
 30
0.0
 11
-44.49999999999981
 21
0.0000000000176248
 31
0.0
210
0.0
220
0.0
230
1.0
 40
0.8386705679454228
 41
3.666902623059314
 42
4.187079010916058
  0
LINE
  5
5CE
330
1F
100
AcDbEntity
  8
Visible (ISO)
100
AcDbLine
 10
962.0594129684487
 20
136.9967465610069
 30
0.0
 11
917.4275857596057
 21
136.9967465610069
 31
0.0
  0
ELLIPSE
  5
5CF
330
1F
100
AcDbEntity
  8
Visible (ISO)
100
AcDbEllipse
 10
939.7434993640336
 20
104.7079296951086
 30
0.0
 11
-44.49999999999964
 21
0.0000000000215189
 31
0.0
210
0.0
220
0.0
230
1.0
 40
0.838670567945423
 41
5.237698949854359
 42
5.757875337711073
  0
LINE
  5
5D0
330
1F
100
AcDbEntity
  8
Visible (ISO)
100
AcDbLine
 10
901.2434993640299
 20
123.4236296319494
 30
0.0
 11
901.2434993640299
 21
122.8789905969341
 31
0.0
  0
SPLINE
  5
5D1
330
1F
100
AcDbEntity
  8
Visible (ISO)
100
AcDbSpline
210
0.0
220
0.0
230
1.0
 70
     8
 71
     3
 72
     8
 73
     4
 74
     0
 42
0.0000000001
 43
0.0000000001
 40
-0.0356516417342276
 40
-0.0356516417342276
 40
-0.0356516417342276
 40
-0.0356516417342276
 40
0.0
 40
0.0
 40
0.0
 40
0.0
 10
901.4911521512113
 20
123.2328213793329
 30
0.0
 10
901.4086037898614
 20
123.2964500882439
 30
0.0
 10
901.3260524099086
 20
123.3600531046135
 30
0.0
 10
901.2434993640299
 20
123.4236296319494
 30
0.0
  0
SPLINE
  5
5D2
330
1F
100
AcDbEntity
  8
Visible (ISO)
100
AcDbSpline
210
0.0
220
0.0
230
1.0
 70
     8
 71
     3
 72
     8
 73
     4
 74
     0
 42
0.0000000001
 43
0.0000000001
 40
-0.0566806053210888
 40
-0.0566806053210888
 40
-0.0566806053210888
 40
-0.0566806053210888
 40
0.0
 40
0.0
 40
0.0
 40
0.0
 10
917.5336965875576
 20
136.4521075259921
 30
0.0
 10
917.4982439345766
 20
136.6336430332693
 30
0.0
 10
917.4628735631268
 20
136.8151918847114
 30
0.0
 10
917.4275857596057
 20
136.9967465610069
 30
0.0
  0
SPLINE
  5
5D3
330
1F
100
AcDbEntity
  8
Visible (ISO)
100
AcDbSpline
210
0.0
220
0.0
230
1.0
 70
     8
 71
     3
 72
     8
 73
     4
 74
     0
 42
0.0000000001
 43
0.0000000001
 40
-0.0566806053212945
 40
-0.0566806053212945
 40
-0.0566806053212945
 40
-0.0566806053212945
 40
0.0
 40
0.0
 40
0.0
 40
0.0
 10
961.9533021404969
 20
136.4521075259921
 30
0.0
 10
961.9887547934776
 20
136.6336430332688
 30
0.0
 10
962.0241251649268
 20
136.8151918847105
 30
0.0
 10
962.0594129684487
 20
136.9967465610069
 30
0.0
  0
SPLINE
  5
5D4
330
1F
100
AcDbEntity
  8
Visible (ISO)
100
AcDbSpline
210
0.0
220
0.0
230
1.0
 70
     8
 71
     3
 72
     8
 73
     4
 74
     0
 42
0.0000000001
 43
0.0000000001
 40
-0.0356516417342275
 40
-0.0356516417342275
 40
-0.0356516417342275
 40
-0.0356516417342275
 40
0.0
 40
0.0
 40
0.0
 40
0.0
 10
977.9958465768476
 20
123.2328213793324
 30
0.0
 10
978.0783949381984
 20
123.2964500882439
 30
0.0
 10
978.1609463181503
 20
123.3600531046135
 30
0.0
 10
978.243499364029
 20
123.4236296319494
 30
0.0
  0
LINE
  5
5D5
330
1F
100
AcDbEntity
  8
Visible (ISO)
100
AcDbLine
 10
978.2434993640299
 20
122.8789905969341
 30
0.0
 11
978.243499364029
 21
123.4236296319494
 31
0.0
  0
LINE
  5
5D6
330
1F
100
AcDbEntity
  8
Visible (ISO)
100
AcDbLine
 10
962.0594129684505
 20
140.2645807710972
 30
0.0
 11
962.0594129684487
 21
136.9967465610069
 31
0.0
  0
LINE
  5
5D7
330
1F
100
AcDbEntity
  8
Visible (ISO)
100
AcDbLine
 10
978.2434993640308
 20
126.6914638420397
 30
0.0
 11
978.243499364029
 21
123.4236296319494
 31
0.0
  0
LINE
  5
5D8
330
1F
100
AcDbEntity
  8
Visible (ISO)
100
AcDbLine
 10
917.4275857596075
 20
140.2645807710972
 30
0.0
 11
917.4275857596057
 21
136.9967465610069
 31
0.0
  0
LINE
  5
5D9
330
1F
100
AcDbEntity
  8
Visible (ISO)
100
AcDbLine
 10
901.2434993640317
 20
126.6914638420397
 30
0.0
 11
901.2434993640299
 21
123.4236296319494
 31
0.0
  0
SPLINE
  5
5DA
330
1F
100
AcDbEntity
  8
Visible (ISO)
100
AcDbSpline
210
0.0
220
0.0
230
1.0
 70
     8
 71
     3
 72
    18
 73
    14
 74
     0
 42
0.0000000001
 43
0.0000000001
 40
0.5949471808509353
 40
0.5949471808509353
 40
0.5949471808509353
 40
0.5949471808509353
 40
0.9128637775953677
 40
0.9128637775953677
 40
1.23813110430411
 40
1.23813110430411
 40
1.566986081947834
 40
1.566986081947834
 40
1.896778894709111
 40
1.896778894709111
 40
2.22567433688514
 40
2.22567433688514
 40
2.546645472738804
 40
2.546645472738804
 40
2.546645472738804
 40
2.546645472738804
 10
980.3054739726203
 20
176.6120249123872
 30
0.0
 10
977.3109945114629
 20
180.3229994864681
 30
0.0
 10
973.6452970989722
 20
183.5863387478269
 30
0.0
 10
965.2749093441215
 20
189.0113752462379
 30
0.0
 10
960.5488610650199
 20
191.1465458672913
 30
0.0
 10
950.5289639377206
 20
194.0499643939527
 30
0.0
 10
945.2301429108301
 20
194.8028472040718
 30
0.0
 10
934.6103461155163
 20
194.8367833559803
 30
0.0
 10
929.2903369952554
 20
194.1136047363914
 30
0.0
 10
919.1794883241882
 20
191.2471176784277
 30
0.0
 10
914.3880038890939
 20
189.1076352776984
 30
0.0
 10
905.9122461091384
 20
183.6489045469796
 30
0.0
 10
902.2047751418458
 20
180.3586544887124
 30
0.0
 10
899.1815247554859
 20
176.612024912389
 30
0.0
  0
LINE
  5
5DB
330
1F
100
AcDbEntity
  8
0
  6
CENTER
100
AcDbLine
 10
1646.917351028547
 20
91.47320114424326
 30
0.0
 11
1502.651063877061
 21
91.47320114424326
 31
0.0
  0
LINE
  5
5DC
330
1F
100
AcDbEntity
  8
0
  6
CENTER
100
AcDbLine
 10
1574.784207452804
 20
53.24410938508425
 30
0.0
 11
1574.784207452804
 21
204.5491201611356
 31
0.0
  0
LINE
  5
5DD
330
1F
100
AcDbEntity
  8
0
  6
CENTER
100
AcDbLine
 10
1194.947604651378
 20
74.29272907479833
 30
0.0
 11
1355.454029827729
 21
178.526820341306
 31
0.0
  0
LINE
  5
5DE
330
1F
100
AcDbEntity
  8
0
  6
CENTER
100
AcDbLine
 10
1221.403211652913
 20
50.82764666155151
 30
0.0
 11
1221.403211652913
 21
132.118755626814
 31
0.0
  0
LINE
  5
5DF
330
1F
100
AcDbEntity
  8
0
  6
CENTER
100
AcDbLine
 10
1180.757657170282
 20
91.47320114418278
 30
0.0
 11
1262.048766135544
 21
91.47320114418278
 31
0.0
  0
LINE
  5
5E0
330
1F
100
AcDbEntity
  8
0
  6
CENTER
100
AcDbLine
 10
1202.679176831059
 20
500.6375352377288
 30
0.0
 11
1363.788536512923
 21
500.6375352377752
 31
0.0
  0
LINE
  5
5E1
330
1F
100
AcDbEntity
  8
0
  6
CENTER
100
AcDbLine
 10
1221.403211652914
 20
427.3214049688029
 30
0.0
 11
1221.403211652914
 21
573.9536655066647
 31
0.0
  0
LINE
  5
5E2
330
1F
100
AcDbEntity
  8
0
  6
CENTER
100
AcDbLine
 10
1011.876642939793
 20
91.47320114424326
 30
0.0
 11
867.6103557883079
 21
91.47320114424326
 31
0.0
  0
LINE
  5
5E3
330
1F
100
AcDbEntity
  8
0
  6
CENTER
100
AcDbLine
 10
939.7434993640509
 20
53.24410938508425
 30
0.0
 11
939.7434993640509
 21
203.2537480826439
 31
0.0
  0
VIEWPORT
  5
71
330
55
100
AcDbEntity
 67
     1
  8
0
100
AcDbViewport
 10
133.3499908447265
 20
101.5999970436096
 30
0.0
 40
381.3957395593834
 41
218.2856291881582
 68
     1
 69
     1
 12
133.3499908447265
 22
101.5999970436096
 13
0.0
 23
0.0
 14
10.0
 24
10.0
 15
10.0
 25
10.0
 16
0.0
 26
0.0
 36
1.0
 17
0.0
 27
0.0
 37
0.0
 42
50.0
 43
0.0
 44
0.0
 45
218.2856291881582
 50
0.0
 51
0.0
 72
   100
 90
    32800
  1

281
     0
 71
     1
 74
     0
110
0.0
120
0.0
130
0.0
111
1.0
121
0.0
131
0.0
112
0.0
122
1.0
132
0.0
 79
     0
146
0.0
  0
VIEWPORT
  5
73
330
55
100
AcDbEntity
 67
     1
  8
0
100
AcDbViewport
 10
133.349993944168
 20
101.599993944168
 30
0.0
 40
213.3599903106689
 41
162.5599903106689
 68
     2
 69
     2
 12
210.0
 22
148.5
 13
0.0
 23
0.0
 14
10.0
 24
10.0
 15
10.0
 25
10.0
 16
0.0
 26
0.0
 36
1.0
 17
0.0
 27
0.0
 37
0.0
 42
50.0
 43
0.0
 44
0.0
 45
324.0677920111345
 50
0.0
 51
0.0
 72
   100
 90
    32864
  1

281
     0
 71
     1
 74
     0
110
0.0
120
0.0
130
0.0
111
1.0
121
0.0
131
0.0
112
0.0
122
1.0
132
0.0
 79
     0
146
0.0
  0
ENDSEC
  0
SECTION
  2
OBJECTS
  0
DICTIONARY
  5
C
330
0
100
AcDbDictionary
281
     1
  3
ACAD_GROUP
350
D
  3
ACAD_LAYOUT
350
1A
  3
ACAD_MLINESTYLE
350
17
  3
ACAD_PLOTSETTINGS
350
19
  3
ACAD_PLOTSTYLENAME
350
E
  3
AcDbVariableDictionary
350
5E
  0
DICTIONARY
  5
332
330
2
100
AcDbDictionary
280
     1
281
     1
  3
ACAD_LAYERSTATES
360
333
  0
DICTIONARY
  5
2EA
330
1F
100
AcDbDictionary
280
     1
281
     1
  3
ACAD_LAYOUTSELFREF
360
321
  0
DICTIONARY
  5
2EC
330
55
100
AcDbDictionary
280
     1
281
     1
  3
ACAD_LAYOUTSELFREF
360
325
  0
DICTIONARY
  5
2EE
330
50
100
AcDbDictionary
280
     1
281
     1
  3
ACAD_LAYOUTSELFREF
360
324
  0
DICTIONARY
  5
D
102
{ACAD_REACTORS
330
C
102
}
330
C
100
AcDbDictionary
281
     1
  0
DICTIONARY
  5
1A
102
{ACAD_REACTORS
330
C
102
}
330
C
100
AcDbDictionary
281
     1
  3
Model
350
22
  3
ﾚｲｱｳﾄ1
350
51
  3
ﾚｲｱｳﾄ2
350
56
  0
DICTIONARY
  5
17
102
{ACAD_REACTORS
330
C
102
}
330
C
100
AcDbDictionary
281
     1
  3
Standard
350
18
  0
DICTIONARY
  5
19
102
{ACAD_REACTORS
330
C
102
}
330
C
100
AcDbDictionary
281
     1
  0
ACDBDICTIONARYWDFLT
  5
E
102
{ACAD_REACTORS
330
C
102
}
330
C
100
AcDbDictionary
281
     1
  3
Normal
350
F
100
AcDbDictionaryWithDefault
340
F
  0
DICTIONARY
  5
5E
102
{ACAD_REACTORS
330
C
102
}
330
C
100
AcDbDictionary
281
     1
  3
DIMASSOC
350
5F
  3
HIDETEXT
350
63
  0
DICTIONARY
  5
333
102
{ACAD_REACTORS
330
332
102
}
330
332
100
AcDbDictionary
281
     1
  0
XRECORD
  5
321
102
{ACAD_REACTORS
330
2EA
102
}
330
2EA
100
AcDbXrecord
280
     1
340
1F
  0
XRECORD
  5
325
102
{ACAD_REACTORS
330
2EC
102
}
330
2EC
100
AcDbXrecord
280
     1
340
55
  0
XRECORD
  5
324
102
{ACAD_REACTORS
330
2EE
102
}
330
2EE
100
AcDbXrecord
280
     1
340
50
  0
LAYOUT
  5
22
102
{ACAD_REACTORS
330
1A
102
}
330
1A
100
AcDbPlotSettings
  1

  2
none_device
  4
ANSI_A_(8.50_x_11.00_Inches)
  6

 40
6.349999904632568
 41
19.04999923706054
 42
6.350006103515625
 43
19.04998779296875
 44
215.8999938964843
 45
279.3999938964843
 46
0.0
 47
0.0
 48
0.0
 49
0.0
140
0.0
141
0.0
142
1.0
143
78.436453180766
 70
 11952
 72
     0
 73
     1
 74
     0
  7

 75
     0
147
0.0127491741332998
148
0.0
149
0.0
100
AcDbLayout
  1
Model
 70
     1
 71
     0
 10
0.0
 20
0.0
 11
12.0
 21
9.0
 12
0.0
 22
0.0
 32
0.0
 14
0.0
 24
0.0
 34
0.0
 15
0.0
 25
0.0
 35
0.0
146
0.0
 13
0.0
 23
0.0
 33
0.0
 16
1.0
 26
0.0
 36
0.0
 17
0.0
 27
1.0
 37
0.0
 76
     0
330
1F
  0
LAYOUT
  5
51
102
{ACAD_REACTORS
330
1A
102
}
330
1A
100
AcDbPlotSettings
  1

  2
none_device
  4
Letter_(8.50_x_11.00_Inches)
  6

 40
6.349999904632568
 41
6.349999904632568
 42
6.350006103515625
 43
6.350006103515625
 44
215.8999938964843
 45
279.3999938964843
 46
0.0
 47
0.0
 48
0.0
 49
0.0
140
0.0
141
0.0
142
1.0
143
1.0
 70
   688
 72
     1
 73
     1
 74
     5
  7

 75
    16
147
1.0
148
0.0
149
0.0
100
AcDbLayout
  1
ﾚｲｱｳﾄ1
 70
     1
 71
     1
 10
-6.350006103515625
 20
-6.349999904632568
 11
273.0499877929687
 21
209.5499939918517
 12
0.0
 22
0.0
 32
0.0
 14
26.66076962115562
 24
20.31135699206657
 34
-0.0015258207003583
 15
240.039213369355
 25
182.8886381005154
 35
0.0000000349246037
146
0.0
 13
0.0
 23
0.0
 33
0.0
 16
1.0
 26
0.0
 36
0.0
 17
0.0
 27
1.0
 37
0.0
 76
     0
330
50
331
6B
  0
LAYOUT
  5
56
102
{ACAD_REACTORS
330
1A
102
}
330
1A
100
AcDbPlotSettings
  1

  2
none_device
  4
Letter_(8.50_x_11.00_Inches)
  6

 40
6.349999904632568
 41
6.349999904632568
 42
6.350006103515625
 43
6.350006103515625
 44
215.8999938964843
 45
279.3999938964843
 46
0.0
 47
0.0
 48
0.0
 49
0.0
140
0.0
141
0.0
142
1.0
143
1.0
 70
   688
 72
     1
 73
     1
 74
     5
  7

 75
    16
147
1.0
148
0.0
149
0.0
100
AcDbLayout
  1
ﾚｲｱｳﾄ2
 70
     1
 71
     2
 10
-6.350006103515625
 20
-6.349999904632568
 11
273.0499877929687
 21
209.5499939918517
 12
0.0
 22
0.0
 32
0.0
 14
26.66076962115562
 24
20.31135699206657
 34
-0.0015258207003583
 15
240.039213369355
 25
182.8886381005154
 35
0.0000000349246037
146
0.0
 13
0.0
 23
0.0
 33
0.0
 16
1.0
 26
0.0
 36
0.0
 17
0.0
 27
1.0
 37
0.0
 76
     0
330
55
331
71
  0
MLINESTYLE
  5
18
102
{ACAD_REACTORS
330
17
102
}
330
17
100
AcDbMlineStyle
  2
STANDARD
 70
     0
  3

 62
   256
 51
90.0
 52
90.0
 71
     2
 49
0.5
 62
   256
  6
BYLAYER
 49
-0.5
 62
   256
  6
BYLAYER
  0
ACDBPLACEHOLDER
  5
F
102
{ACAD_REACTORS
330
E
102
}
330
E
  0
DICTIONARYVAR
  5
5F
102
{ACAD_REACTORS
330
5E
102
}
330
5E
100
DictionaryVariables
280
     0
  1
2
  0
DICTIONARYVAR
  5
63
102
{ACAD_REACTORS
330
5E
102
}
330
5E
100
DictionaryVariables
280
     0
  1
1
  0
ENDSEC
  0
EOF
