  0
SECTION
  2
HEADER
  9
$ACADVER
  1
AC1015
  9
$ACADMAINTVER
 70
    14
  9
$DWGCODEPAGE
  3
ANSI_932
  9
$INSBASE
 10
0.0
 20
0.0
 30
0.0
  9
$EXTMIN
 10
138.3941666535952
 20
22.59161232612723
 30
-0.0000000000112498
  9
$EXTMAX
 10
1482.523157647419
 20
871.9057710538486
 30
0.0000000000002956
  9
$LIMMIN
 10
0.0
 20
0.0
  9
$LIMMAX
 10
420.0
 20
297.0
  9
$ORTHOMODE
 70
     0
  9
$REGENMODE
 70
     1
  9
$FILLMODE
 70
     1
  9
$QTEXTMODE
 70
     0
  9
$MIRRTEXT
 70
     1
  9
$LTSCALE
 40
1.0
  9
$ATTMODE
 70
     1
  9
$TEXTSIZE
 40
2.5
  9
$TRACEWID
 40
1.0
  9
$TEXTSTYLE
  7
Standard
  9
$CLAYER
  8
0
  9
$CELTYPE
  6
ByLayer
  9
$CECOLOR
 62
   256
  9
$CELTSCALE
 40
1.0
  9
$DISPSILH
 70
     0
  9
$DIMSCALE
 40
1.0
  9
$DIMASZ
 40
2.5
  9
$DIMEXO
 40
0.625
  9
$DIMDLI
 40
3.75
  9
$DIMRND
 40
0.0
  9
$DIMDLE
 40
0.0
  9
$DIMEXE
 40
1.25
  9
$DIMTP
 40
0.0
  9
$DIMTM
 40
0.0
  9
$DIMTXT
 40
2.5
  9
$DIMCEN
 40
2.5
  9
$DIMTSZ
 40
0.0
  9
$DIMTOL
 70
     0
  9
$DIMLIM
 70
     0
  9
$DIMTIH
 70
     0
  9
$DIMTOH
 70
     0
  9
$DIMSE1
 70
     0
  9
$DIMSE2
 70
     0
  9
$DIMTAD
 70
     1
  9
$DIMZIN
 70
     8
  9
$DIMBLK
  1

  9
$DIMASO
 70
     1
  9
$DIMSHO
 70
     1
  9
$DIMPOST
  1

  9
$DIMAPOST
  1

  9
$DIMALT
 70
     0
  9
$DIMALTD
 70
     3
  9
$DIMALTF
 40
0.03937007874016
  9
$DIMLFAC
 40
1.0
  9
$DIMTOFL
 70
     1
  9
$DIMTVP
 40
0.0
  9
$DIMTIX
 70
     0
  9
$DIMSOXD
 70
     0
  9
$DIMSAH
 70
     0
  9
$DIMBLK1
  1

  9
$DIMBLK2
  1

  9
$DIMSTYLE
  2
ISO-25
  9
$DIMCLRD
 70
     0
  9
$DIMCLRE
 70
     0
  9
$DIMCLRT
 70
     0
  9
$DIMTFAC
 40
1.0
  9
$DIMGAP
 40
0.625
  9
$DIMJUST
 70
     0
  9
$DIMSD1
 70
     0
  9
$DIMSD2
 70
     0
  9
$DIMTOLJ
 70
     0
  9
$DIMTZIN
 70
     8
  9
$DIMALTZ
 70
     0
  9
$DIMALTTZ
 70
     0
  9
$DIMUPT
 70
     0
  9
$DIMDEC
 70
     2
  9
$DIMTDEC
 70
     2
  9
$DIMALTU
 70
     2
  9
$DIMALTTD
 70
     3
  9
$DIMTXSTY
  7
Standard
  9
$DIMAUNIT
 70
     0
  9
$DIMADEC
 70
     0
  9
$DIMALTRND
 40
0.0
  9
$DIMAZIN
 70
     0
  9
$DIMDSEP
 70
    44
  9
$DIMATFIT
 70
     3
  9
$DIMFRAC
 70
     0
  9
$DIMLDRBLK
  1

  9
$DIMLUNIT
 70
     2
  9
$DIMLWD
 70
    -2
  9
$DIMLWE
 70
    -2
  9
$DIMTMOVE
 70
     0
  9
$LUNITS
 70
     2
  9
$LUPREC
 70
     4
  9
$SKETCHINC
 40
1.0
  9
$FILLETRAD
 40
10.0
  9
$AUNITS
 70
     0
  9
$AUPREC
 70
     0
  9
$MENU
  1
.
  9
$ELEVATION
 40
0.0
  9
$PELEVATION
 40
0.0
  9
$THICKNESS
 40
0.0
  9
$LIMCHECK
 70
     0
  9
$CHAMFERA
 40
10.0
  9
$CHAMFERB
 40
10.0
  9
$CHAMFERC
 40
20.0
  9
$CHAMFERD
 40
0.0
  9
$SKPOLY
 70
     0
  9
$TDCREATE
 40
2454284.637725324
  9
$TDUCREATE
 40
2454284.262725324
  9
$TDUPDATE
 40
2456899.672596169
  9
$TDUUPDATE
 40
2456899.297596169
  9
$TDINDWG
 40
0.0020806134
  9
$TDUSRTIMER
 40
0.0020806134
  9
$USRTIMER
 70
     1
  9
$ANGBASE
 50
0.0
  9
$ANGDIR
 70
     0
  9
$PDMODE
 70
     0
  9
$PDSIZE
 40
0.0
  9
$PLINEWID
 40
0.0
  9
$SPLFRAME
 70
     0
  9
$SPLINETYPE
 70
     6
  9
$SPLINESEGS
 70
     8
  9
$HANDSEED
  5
5DC
  9
$SURFTAB1
 70
     6
  9
$SURFTAB2
 70
     6
  9
$SURFTYPE
 70
     6
  9
$SURFU
 70
     6
  9
$SURFV
 70
     6
  9
$UCSBASE
  2

  9
$UCSNAME
  2

  9
$UCSORG
 10
0.0
 20
0.0
 30
0.0
  9
$UCSXDIR
 10
1.0
 20
0.0
 30
0.0
  9
$UCSYDIR
 10
0.0
 20
1.0
 30
0.0
  9
$UCSORTHOREF
  2

  9
$UCSORTHOVIEW
 70
     0
  9
$UCSORGTOP
 10
0.0
 20
0.0
 30
0.0
  9
$UCSORGBOTTOM
 10
0.0
 20
0.0
 30
0.0
  9
$UCSORGLEFT
 10
0.0
 20
0.0
 30
0.0
  9
$UCSORGRIGHT
 10
0.0
 20
0.0
 30
0.0
  9
$UCSORGFRONT
 10
0.0
 20
0.0
 30
0.0
  9
$UCSORGBACK
 10
0.0
 20
0.0
 30
0.0
  9
$PUCSBASE
  2

  9
$PUCSNAME
  2

  9
$PUCSORG
 10
0.0
 20
0.0
 30
0.0
  9
$PUCSXDIR
 10
1.0
 20
0.0
 30
0.0
  9
$PUCSYDIR
 10
0.0
 20
1.0
 30
0.0
  9
$PUCSORTHOREF
  2

  9
$PUCSORTHOVIEW
 70
     0
  9
$PUCSORGTOP
 10
0.0
 20
0.0
 30
0.0
  9
$PUCSORGBOTTOM
 10
0.0
 20
0.0
 30
0.0
  9
$PUCSORGLEFT
 10
0.0
 20
0.0
 30
0.0
  9
$PUCSORGRIGHT
 10
0.0
 20
0.0
 30
0.0
  9
$PUCSORGFRONT
 10
0.0
 20
0.0
 30
0.0
  9
$PUCSORGBACK
 10
0.0
 20
0.0
 30
0.0
  9
$USERI1
 70
     0
  9
$USERI2
 70
     0
  9
$USERI3
 70
     0
  9
$USERI4
 70
     0
  9
$USERI5
 70
     0
  9
$USERR1
 40
0.0
  9
$USERR2
 40
0.0
  9
$USERR3
 40
0.0
  9
$USERR4
 40
0.0
  9
$USERR5
 40
0.0
  9
$WORLDVIEW
 70
     1
  9
$SHADEDGE
 70
     3
  9
$SHADEDIF
 70
    70
  9
$TILEMODE
 70
     1
  9
$MAXACTVP
 70
    48
  9
$PINSBASE
 10
0.0
 20
0.0
 30
0.0
  9
$PLIMCHECK
 70
     0
  9
$PEXTMIN
 10
26.66076962115562
 20
20.31135699206657
 30
-0.0015258207003583
  9
$PEXTMAX
 10
240.039213369355
 20
182.8886381005154
 30
0.0000000349246037
  9
$PLIMMIN
 10
-6.350006103515625
 20
-6.349999904632568
  9
$PLIMMAX
 10
273.0499877929687
 20
209.5499939918517
  9
$UNITMODE
 70
     0
  9
$VISRETAIN
 70
     1
  9
$PLINEGEN
 70
     0
  9
$PSLTSCALE
 70
     1
  9
$TREEDEPTH
 70
  3020
  9
$CMLSTYLE
  2
Standard
  9
$CMLJUST
 70
     0
  9
$CMLSCALE
 40
20.0
  9
$PROXYGRAPHICS
 70
     1
  9
$MEASUREMENT
 70
     1
  9
$CELWEIGHT
370
    -1
  9
$ENDCAPS
280
     0
  9
$JOINSTYLE
280
     0
  9
$LWDISPLAY
290
     0
  9
$INSUNITS
 70
     4
  9
$HYPERLINKBASE
  1

  9
$STYLESHEET
  1

  9
$XEDIT
290
     1
  9
$CEPSNTYPE
380
     0
  9
$PSTYLEMODE
290
     1
  9
$FINGERPRINTGUID
  2
{FDEAD578-A652-11D2-9A35-0060089B3A3F}
  9
$VERSIONGUID
  2
{B957A6F1-3D64-4B18-A9E4-061BB44B2525}
  9
$EXTNAMES
290
     1
  9
$PSVPSCALE
 40
0.0
  9
$OLESTARTUP
290
     0
  0
ENDSEC
  0
SECTION
  2
CLASSES
  0
CLASS
  1
ACDBDICTIONARYWDFLT
  2
AcDbDictionaryWithDefault
  3
AutoCAD 2000
 90
        0
280
     0
281
     0
  0
CLASS
  1
ACDBPLACEHOLDER
  2
AcDbPlaceHolder
  3
AutoCAD 2000
 90
        0
280
     0
281
     0
  0
CLASS
  1
LAYOUT
  2
AcDbLayout
  3
AutoCAD 2000
 90
        0
280
     0
281
     0
  0
CLASS
  1
DICTIONARYVAR
  2
AcDbDictionaryVar
  3
AutoCAD 2000
 90
        0
280
     0
281
     0
  0
CLASS
  1
LONG_TRANSACTION
  2
AcDbLongTransaction
  3
AutoCAD 2000
 90
    32768
280
     0
281
     0
  0
CLASS
  1
LWPOLYLINE
  2
AcDbPolyline
  3
AutoCAD 2000
 90
    32768
280
     0
281
     1
  0
CLASS
  1
HATCH
  2
AcDbHatch
  3
AutoCAD 2000
 90
    32768
280
     0
281
     1
  0
CLASS
  1
XRECORD
  2
AcDbXrecord
  3
AutoCAD 2000
 90
    32768
280
     0
281
     0
  0
ENDSEC
  0
SECTION
  2
TABLES
  0
TABLE
  2
VPORT
  5
8
330
0
100
AcDbSymbolTable
 70
     2
  0
VPORT
  5
5DB
330
8
100
AcDbSymbolTableRecord
100
AcDbViewportTableRecord
  2
*Active
 70
     0
 10
0.0
 20
0.0
 11
1.0
 21
1.0
 12
810.458662150507
 22
447.2486916899879
 13
0.0
 23
0.0
 14
10.0
 24
10.0
 15
10.0
 25
10.0
 16
0.0
 26
0.0
 36
1.0
 17
0.0
 27
0.0
 37
0.0
 40
854.7066295767862
 41
1.592161016949152
 42
50.0
 43
0.0
 44
0.0
 50
0.0
 51
0.0
 71
     0
 72
   100
 73
     1
 74
     3
 75
     0
 76
     0
 77
     0
 78
     0
281
     0
 65
     1
110
0.0
120
0.0
130
0.0
111
1.0
121
0.0
131
0.0
112
0.0
122
1.0
132
0.0
 79
     0
146
0.0
  0
ENDTAB
  0
TABLE
  2
LTYPE
  5
5
330
0
100
AcDbSymbolTable
 70
     3
  0
LTYPE
  5
14
330
5
100
AcDbSymbolTableRecord
100
AcDbLinetypeTableRecord
  2
ByBlock
 70
     0
  3

 72
    65
 73
     0
 40
0.0
  0
LTYPE
  5
15
330
5
100
AcDbSymbolTableRecord
100
AcDbLinetypeTableRecord
  2
ByLayer
 70
     0
  3

 72
    65
 73
     0
 40
0.0
  0
LTYPE
  5
16
330
5
100
AcDbSymbolTableRecord
100
AcDbLinetypeTableRecord
  2
Continuous
 70
     0
  3
Solid line
 72
    65
 73
     0
 40
0.0
  0
LTYPE
  5
86
330
5
100
AcDbSymbolTableRecord
100
AcDbLinetypeTableRecord
  2
HIDDEN
 70
     0
  3
Hidden __ __ __ __ __ __ __ __ __ __ __ __ __ _
 72
    65
 73
     2
 40
0.375
 49
0.25
 74
     0
 49
-0.125
 74
     0
  0
LTYPE
  5
303
330
5
100
AcDbSymbolTableRecord
100
AcDbLinetypeTableRecord
  2
CENTER
 70
     0
  3
Center ____ _ ____ _ ____ _ ____ _ ____ _ ____
 72
    65
 73
     4
 40
50.8
 49
31.75
 74
     0
 49
-6.349999999999999
 74
     0
 49
6.349999999999999
 74
     0
 49
-6.349999999999999
 74
     0
  0
ENDTAB
  0
TABLE
  2
LAYER
  5
2
102
{ACAD_XDICTIONARY
360
304
102
}
330
0
100
AcDbSymbolTable
 70
     2
  0
LAYER
  5
10
330
2
100
AcDbSymbolTableRecord
100
AcDbLayerTableRecord
  2
0
 70
     0
 62
     7
  6
Continuous
370
    -3
390
F
  0
LAYER
  5
316
330
2
100
AcDbSymbolTableRecord
100
AcDbLayerTableRecord
  2
Visible (ISO)
 70
     0
 62
     7
  6
Continuous
370
    35
390
F
  0
ENDTAB
  0
TABLE
  2
STYLE
  5
3
330
0
100
AcDbSymbolTable
 70
     1
  0
STYLE
  5
11
330
3
100
AcDbSymbolTableRecord
100
AcDbTextStyleTableRecord
  2
Standard
 70
     0
 40
0.0
 41
1.0
 50
0.0
 71
     0
 42
2.5
  3
txt
  4

  0
ENDTAB
  0
TABLE
  2
VIEW
  5
6
330
0
100
AcDbSymbolTable
 70
     0
  0
ENDTAB
  0
TABLE
  2
UCS
  5
7
330
0
100
AcDbSymbolTable
 70
     0
  0
ENDTAB
  0
TABLE
  2
APPID
  5
9
330
0
100
AcDbSymbolTable
 70
     1
  0
APPID
  5
12
330
9
100
AcDbSymbolTableRecord
100
AcDbRegAppTableRecord
  2
ACAD
 70
     0
  0
ENDTAB
  0
TABLE
  2
DIMSTYLE
  5
A
330
0
100
AcDbSymbolTable
 70
     1
100
AcDbDimStyleTable
 71
     0
  0
DIMSTYLE
105
27
330
A
100
AcDbSymbolTableRecord
100
AcDbDimStyleTableRecord
  2
ISO-25
 70
     0
 41
2.5
 42
0.625
 43
3.75
 44
1.25
 73
     0
 74
     0
 77
     1
 78
     8
140
2.5
141
2.5
143
0.03937007874016
147
0.625
171
     3
172
     1
271
     2
272
     2
274
     3
278
    44
283
     0
284
     8
340
11
  0
ENDTAB
  0
TABLE
  2
BLOCK_RECORD
  5
1
330
0
100
AcDbSymbolTable
 70
     1
  0
BLOCK_RECORD
  5
1F
102
{ACAD_XDICTIONARY
360
2BC
102
}
330
1
100
AcDbSymbolTableRecord
100
AcDbBlockTableRecord
  2
*Model_Space
340
22
  0
BLOCK_RECORD
  5
55
102
{ACAD_XDICTIONARY
360
2BE
102
}
330
1
100
AcDbSymbolTableRecord
100
AcDbBlockTableRecord
  2
*Paper_Space
340
56
  0
BLOCK_RECORD
  5
50
102
{ACAD_XDICTIONARY
360
2C0
102
}
330
1
100
AcDbSymbolTableRecord
100
AcDbBlockTableRecord
  2
*Paper_Space0
340
51
  0
ENDTAB
  0
ENDSEC
  0
SECTION
  2
BLOCKS
  0
BLOCK
  5
20
330
1F
100
AcDbEntity
  8
0
100
AcDbBlockBegin
  2
*Model_Space
 70
     0
 10
0.0
 20
0.0
 30
0.0
  3
*Model_Space
  1

  0
ENDBLK
  5
21
330
1F
100
AcDbEntity
  8
0
100
AcDbBlockEnd
  0
BLOCK
  5
57
330
55
100
AcDbEntity
 67
     1
  8
0
100
AcDbBlockBegin
  2
*Paper_Space
 70
     0
 10
0.0
 20
0.0
 30
0.0
  3
*Paper_Space
  1

  0
ENDBLK
  5
58
330
55
100
AcDbEntity
 67
     1
  8
0
100
AcDbBlockEnd
  0
BLOCK
  5
52
330
50
100
AcDbEntity
  8
0
100
AcDbBlockBegin
  2
*Paper_Space0
 70
     0
 10
0.0
 20
0.0
 30
0.0
  3
*Paper_Space0
  1

  0
VIEWPORT
  5
6B
330
50
100
AcDbEntity
  8
0
100
AcDbViewport
 10
133.3499908447265
 20
101.5999970436096
 30
0.0
 40
381.3957395593834
 41
218.2856291881582
 69
     0
 12
133.3499908447265
 22
101.5999970436096
 13
0.0
 23
0.0
 14
10.0
 24
10.0
 15
10.0
 25
10.0
 16
0.0
 26
0.0
 36
1.0
 17
0.0
 27
0.0
 37
0.0
 42
50.0
 43
0.0
 44
0.0
 45
218.2856291881582
 50
0.0
 51
0.0
 72
   100
 90
    32800
  1

281
     0
 71
     1
 74
     0
110
0.0
120
0.0
130
0.0
111
1.0
121
0.0
131
0.0
112
0.0
122
1.0
132
0.0
 79
     0
146
0.0
  0
VIEWPORT
  5
6D
330
50
100
AcDbEntity
  8
0
100
AcDbViewport
 10
133.349993944168
 20
101.599993944168
 30
0.0
 40
213.3599903106689
 41
162.5599903106689
 69
     0
 12
210.0
 22
148.5
 13
0.0
 23
0.0
 14
10.0
 24
10.0
 15
10.0
 25
10.0
 16
0.0
 26
0.0
 36
1.0
 17
0.0
 27
0.0
 37
0.0
 42
50.0
 43
0.0
 44
0.0
 45
324.0677920111345
 50
0.0
 51
0.0
 72
   100
 90
    32864
  1

281
     0
 71
     1
 74
     0
110
0.0
120
0.0
130
0.0
111
1.0
121
0.0
131
0.0
112
0.0
122
1.0
132
0.0
 79
     0
146
0.0
  0
ENDBLK
  5
53
330
50
100
AcDbEntity
  8
0
100
AcDbBlockEnd
  0
ENDSEC
  0
SECTION
  2
ENTITIES
  0
LINE
  5
19F
330
1F
100
AcDbEntity
  8
0
  6
Continuous
100
AcDbLine
 10
341.2451986449686
 20
441.4821611355572
 30
0.0
 11
328.7452229209195
 21
441.4821536532023
 31
0.0
  0
LINE
  5
1A0
330
1F
100
AcDbEntity
  8
0
  6
Continuous
100
AcDbLine
 10
328.745225569281
 20
441.232164913972
 30
0.0
 11
326.7452147022172
 21
441.2321788226228
 31
0.0
  0
LINE
  5
1A1
330
1F
100
AcDbEntity
  8
0
  6
Continuous
100
AcDbLine
 10
328.7452253946227
 20
431.7321451214642
 30
0.0
 11
326.7452145275589
 21
431.7321590301152
 31
0.0
  0
LINE
  5
1A2
330
1F
100
AcDbEntity
  8
0
  6
Continuous
100
AcDbLine
 10
326.7465968588389
 20
441.23220380907
 30
0.0
 11
323.4139033179381
 21
441.128071539677
 31
0.0
  0
LINE
  5
1A3
330
1F
100
AcDbEntity
  8
0
  6
Continuous
100
AcDbLine
 10
328.7452229209195
 20
441.4821536532023
 30
0.0
 11
328.7452333934926
 21
431.4821868391224
 31
0.0
  0
LINE
  5
1A4
330
1F
100
AcDbEntity
  8
0
  6
Continuous
100
AcDbLine
 10
326.7466009258998
 20
431.732149288939
 30
0.0
 11
323.4139062066592
 21
431.8362952300356
 31
0.0
  0
LINE
  5
1A5
330
1F
100
AcDbEntity
  8
0
  6
Continuous
100
AcDbLine
 10
341.2451986449686
 20
441.4821611355572
 30
0.0
 11
341.2452030164922
 21
431.4821806182955
 31
0.0
  0
LINE
  5
1A6
330
1F
100
AcDbEntity
  8
0
  6
Continuous
100
AcDbLine
 10
325.6812830880359
 20
441.1990003677004
 30
0.0
 11
325.6812752463028
 21
431.7654338840813
 31
0.0
  0
LINE
  5
1A7
330
1F
100
AcDbEntity
  8
0
  6
Continuous
100
AcDbLine
 10
341.2452030164922
 20
431.4821806182955
 30
0.0
 11
328.7452333934926
 21
431.4821868391224
 31
0.0
  0
ARC
  5
1A8
330
1F
100
AcDbEntity
  8
0
  6
HIDDEN
 48
10.0
100
AcDbCircle
 10
307.1812602402205
 20
420.2033383250326
 30
0.0
 40
9.999999749999998
100
AcDbArc
 50
325.8515399999984
 51
0.0
  0
ARC
  5
1A9
330
1F
100
AcDbEntity
  8
0
  6
HIDDEN
 48
10.0
100
AcDbCircle
 10
307.1812602402205
 20
452.7609583250327
 30
0.0
 40
9.999999749999998
100
AcDbArc
 50
0.0
 51
34.14846300000459
  0
ARC
  5
1AA
330
1F
100
AcDbEntity
  8
0
  6
HIDDEN
 48
10.0
100
AcDbCircle
 10
283.1812602402205
 20
436.4821483250326
 30
0.0
 40
39.0
100
AcDbArc
 50
34.14841999999452
 51
60.66789599999181
  0
ARC
  5
1AB
330
1F
100
AcDbEntity
  8
0
  6
HIDDEN
 48
10.0
100
AcDbCircle
 10
259.1812602402205
 20
452.7609583250327
 30
0.0
 40
9.999999749999998
100
AcDbArc
 50
145.8515399999984
 51
180.0
  0
ARC
  5
1AC
330
1F
100
AcDbEntity
  8
0
  6
HIDDEN
 48
10.0
100
AcDbCircle
 10
259.1812602402205
 20
420.2033383250326
 30
0.0
 40
9.999999749999998
100
AcDbArc
 50
180.0
 51
214.1484600000015
  0
ARC
  5
1AD
330
1F
100
AcDbEntity
  8
0
  6
HIDDEN
 48
10.0
100
AcDbCircle
 10
283.1812602402205
 20
436.4821483250326
 30
0.0
 40
39.0
100
AcDbArc
 50
214.1484199999945
 51
240.6679000000022
  0
ARC
  5
1AE
330
1F
100
AcDbEntity
  8
0
  6
HIDDEN
 48
10.0
100
AcDbCircle
 10
283.1812602402205
 20
436.4821483250326
 30
0.0
 40
39.0
100
AcDbArc
 50
299.3320999999977
 51
325.8515800000054
  0
ARC
  5
1AF
330
1F
100
AcDbEntity
  8
0
  6
HIDDEN
 48
10.0
100
AcDbCircle
 10
283.1812602402205
 20
436.4821483250326
 30
0.0
 40
39.0
100
AcDbArc
 50
119.3320999999977
 51
145.8515800000054
  0
LINE
  5
1B0
330
1F
100
AcDbEntity
  8
0
  6
HIDDEN
 48
10.0
100
AcDbLine
 10
264.0762762402205
 20
470.4821533250325
 30
0.0
 11
302.2862382402204
 21
470.4821533250325
 31
0.0
  0
LINE
  5
1B1
330
1F
100
AcDbEntity
  8
0
  6
HIDDEN
 48
10.0
100
AcDbLine
 10
264.0762762402205
 20
402.4821433250325
 30
0.0
 11
302.2862382402204
 21
402.4821433250325
 31
0.0
  0
LINE
  5
1B2
330
1F
100
AcDbEntity
  8
0
  6
HIDDEN
 48
10.0
100
AcDbLine
 10
249.1812642402205
 20
420.2033383250326
 30
0.0
 11
249.1812642402205
 21
452.7609583250327
 31
0.0
  0
LINE
  5
1B3
330
1F
100
AcDbEntity
  8
0
  6
HIDDEN
 48
10.0
100
AcDbLine
 10
317.1812562402203
 20
420.2033383250326
 30
0.0
 11
317.1812562402203
 21
452.7609583250327
 31
0.0
  0
ARC
  5
1B4
330
1F
100
AcDbEntity
  8
0
  6
Continuous
100
AcDbCircle
 10
283.1812585049607
 20
436.4821708769263
 30
0.0
 40
46.99998796724924
100
AcDbArc
 50
6.106833040825495
 51
353.8931655572086
  0
CIRCLE
  5
1B5
330
1F
100
AcDbEntity
  8
0
  6
Continuous
100
AcDbCircle
 10
283.1812602402205
 20
436.4821708769263
 30
0.0
 40
40.49999953070574
  0
CIRCLE
  5
1B6
330
1F
100
AcDbEntity
  8
0
  6
Continuous
100
AcDbCircle
 10
283.1812602402205
 20
436.4821708769263
 30
0.0
 40
25.00000622480888
  0
CIRCLE
  5
1B7
330
1F
100
AcDbEntity
  8
0
  6
Continuous
100
AcDbCircle
 10
283.1812602402205
 20
436.4821708769263
 30
0.0
 40
7.999963625647296
  0
CIRCLE
  5
1B8
330
1F
100
AcDbEntity
  8
0
  6
Continuous
100
AcDbCircle
 10
283.1812602402205
 20
436.4821708769263
 30
0.0
 40
7.499979572608935
  0
LINE
  5
1B9
330
1F
100
AcDbEntity
  8
0
100
AcDbLine
 10
291.181249587559
 20
187.1509558740209
 30
0.0
 11
290.6812653666757
 21
189.0169638347039
 31
0.0
  0
LINE
  5
1BA
330
1F
100
AcDbEntity
  8
0
100
AcDbLine
 10
291.1812359919479
 20
186.1509339022724
 30
0.0
 11
291.1812508271127
 21
187.1509235868174
 31
0.0
  0
LINE
  5
1BB
330
1F
100
AcDbEntity
  8
0
100
AcDbLine
 10
290.6812643088514
 20
209.6509283649285
 30
0.0
 11
290.6812544041301
 21
189.0169589538642
 31
0.0
  0
ARC
  5
1BC
330
1F
100
AcDbEntity
  8
0
100
AcDbCircle
 10
262.6812553724253
 20
161.6243468754197
 30
0.0
 40
19.99999949999999
100
AcDbArc
 50
159.9999919999998
 51
180.0000100000009
  0
ARC
  5
1BD
330
1F
100
AcDbEntity
  8
0
100
AcDbCircle
 10
312.256053727679
 20
173.1509303067438
 30
0.0
 40
8.000000249999999
100
AcDbArc
 50
20.00002999999951
 51
90.00005500000552
  0
ARC
  5
1BE
330
1F
100
AcDbEntity
  8
0
100
AcDbCircle
 10
254.1064545240581
 20
173.1509223994017
 30
0.0
 40
8.000000249999999
100
AcDbArc
 50
89.99997999999798
 51
160.0000550000063
  0
ARC
  5
1BF
330
1F
100
AcDbEntity
  8
0
100
AcDbCircle
 10
328.6812623850289
 20
128.7219378668413
 30
0.0
 40
4.99999995
100
AcDbArc
 50
179.9997699999898
 51
225.0000000000046
  0
ARC
  5
1C0
330
1F
100
AcDbEntity
  8
0
100
AcDbCircle
 10
303.6812563661508
 20
161.6243657356825
 30
0.0
 40
19.99999949999999
100
AcDbArc
 50
0.0
 51
20.00000999999196
  0
ARC
  5
1C1
330
1F
100
AcDbEntity
  8
0
100
AcDbCircle
 10
236.6812540167579
 20
107.650845813013
 30
0.0
 40
0.50000001
100
AcDbArc
 50
180.0019000000092
 51
270.0012399999946
  0
ARC
  5
1C2
330
1F
100
AcDbEntity
  8
0
100
AcDbCircle
 10
241.1812669833484
 20
118.0797793186938
 30
0.0
 40
4.99999995
100
AcDbArc
 50
135.0001409999815
 51
179.9997699999898
  0
ARC
  5
1C3
330
1F
100
AcDbEntity
  8
0
100
AcDbCircle
 10
325.1812607841729
 20
118.0797787747302
 30
0.0
 40
4.99999995
100
AcDbArc
 50
359.9997699999899
 51
45.0000000000046
  0
ARC
  5
1C4
330
1F
100
AcDbEntity
  8
0
100
AcDbCircle
 10
237.6812680541065
 20
128.7219293440865
 30
0.0
 40
4.99999995
100
AcDbArc
 50
315.000189999981
 51
359.9997699999899
  0
ARC
  5
1C5
330
1F
100
AcDbEntity
  8
0
100
AcDbCircle
 10
329.6812612048392
 20
107.6508559606137
 30
0.0
 40
0.50000001
100
AcDbArc
 50
270.0006400000123
 51
0.0016400000089476
  0
ARC
  5
1C6
330
1F
100
AcDbEntity
  8
0
100
AcDbCircle
 10
307.1812627543724
 20
185.1509390124764
 30
0.0
 40
1.000000035
100
AcDbArc
 50
0.000439999992177
 51
90.00010500001057
  0
ARC
  5
1C7
330
1F
100
AcDbEntity
  8
0
100
AcDbCircle
 10
259.1812583591486
 20
185.1509452030137
 30
0.0
 40
1.000000035
100
AcDbArc
 50
90.00010500001057
 51
180.0004399999921
  0
ARC
  5
1C8
330
1F
100
AcDbEntity
  8
0
100
AcDbCircle
 10
248.6812603127479
 20
101.1508493125185
 30
0.0
 40
2.000000099999999
100
AcDbArc
 50
180.0004399999921
 51
270.000099999984
  0
ARC
  5
1C9
330
1F
100
AcDbEntity
  8
0
100
AcDbCircle
 10
245.6812589487162
 20
102.1508548145833
 30
0.0
 40
1.000000035
100
AcDbArc
 50
359.9992399999886
 51
89.99957100000372
  0
ARC
  5
1CA
330
1F
100
AcDbEntity
  8
0
100
AcDbCircle
 10
320.6812571764207
 20
102.150835647691
 30
0.0
 40
1.000000035
100
AcDbArc
 50
89.99957100000372
 51
179.9992399999886
  0
ARC
  5
1CB
330
1F
100
AcDbEntity
  8
0
100
AcDbCircle
 10
261.1812478086148
 20
97.15082071844278
 30
0.0
 40
2.000000099999999
100
AcDbArc
 50
0.000439999992177
 51
90.00010500001057
  0
ARC
  5
1CC
330
1F
100
AcDbEntity
  8
0
100
AcDbCircle
 10
317.6812690389015
 20
101.150869101926
 30
0.0
 40
2.000000099999999
100
AcDbArc
 50
270.000249999999
 51
0.0004999999982176
  0
ARC
  5
1CD
330
1F
100
AcDbEntity
  8
0
100
AcDbCircle
 10
305.1812645969012
 20
97.15085998989174
 30
0.0
 40
2.000000099999999
100
AcDbArc
 50
90.00025499999962
 51
180.0004999999982
  0
ARC
  5
1CE
330
1F
100
AcDbEntity
  8
0
100
AcDbCircle
 10
236.6812513348524
 20
103.650832591339
 30
0.0
 40
0.50000001
100
AcDbArc
 50
180.0019000000092
 51
270.0012399999946
  0
ARC
  5
1CF
330
1F
100
AcDbEntity
  8
0
100
AcDbCircle
 10
329.6812583566325
 20
106.6508413101252
 30
0.0
 40
0.50000001
100
AcDbArc
 50
0.0016400000089476
 51
90.00063799999649
  0
ARC
  5
1D0
330
1F
100
AcDbEntity
  8
0
100
AcDbCircle
 10
236.6812566498238
 20
106.6508287221043
 30
0.0
 40
0.50000001
100
AcDbArc
 50
90.00123699998388
 51
180.0019000000092
  0
ARC
  5
1D1
330
1F
100
AcDbEntity
  8
0
100
AcDbCircle
 10
329.6812585229338
 20
103.6508427389395
 30
0.0
 40
0.50000001
100
AcDbArc
 50
270.0006400000123
 51
0.0016400000089476
  0
LINE
  5
1D2
330
1F
100
AcDbEntity
  8
0
100
AcDbLine
 10
249.2312796562723
 20
101.8508604320949
 30
0.0
 11
249.2312563642144
 21
103.1508225344713
 31
0.0
  0
LINE
  5
1D3
330
1F
100
AcDbEntity
  8
0
100
AcDbLine
 10
257.7312798944581
 20
101.1508278746856
 30
0.0
 11
249.2312689709499
 21
101.1508343430394
 31
0.0
  0
LINE
  5
1D4
330
1F
100
AcDbEntity
  8
0
100
AcDbLine
 10
257.731279617235
 20
101.8508588445805
 30
0.0
 11
249.2312796562723
 21
101.8508604320949
 31
0.0
  0
LINE
  5
1D5
330
1F
100
AcDbEntity
  8
0
100
AcDbLine
 10
257.7312723510567
 20
97.150833237033
 30
0.0
 11
249.2312627978667
 21
97.1508390952821
 31
0.0
  0
LINE
  5
1D6
330
1F
100
AcDbEntity
  8
0
100
AcDbLine
 10
249.2312723900941
 20
97.15083482454737
 30
0.0
 11
249.750892919917
 21
96.85083474498823
 31
0.0
  0
LINE
  5
1D7
330
1F
100
AcDbEntity
  8
0
100
AcDbLine
 10
249.2312627978667
 20
97.1508390952821
 30
0.0
 11
249.2312796562723
 21
101.8508604320949
 31
0.0
  0
LINE
  5
1D8
330
1F
100
AcDbEntity
  8
0
100
AcDbLine
 10
257.7312723510567
 20
97.150833237033
 30
0.0
 11
257.731279617235
 21
101.8508588445805
 31
0.0
  0
LINE
  5
1D9
330
1F
100
AcDbEntity
  8
0
100
AcDbLine
 10
257.2116648855931
 20
96.85082451662708
 30
0.0
 11
249.7509038824627
 21
96.85082986414853
 31
0.0
  0
LINE
  5
1DA
330
1F
100
AcDbEntity
  8
0
100
AcDbLine
 10
257.2116539230478
 20
96.85082939746678
 30
0.0
 11
257.7312723510567
 21
97.150833237033
 31
0.0
  0
LINE
  5
1DB
330
1F
100
AcDbEntity
  8
0
100
AcDbLine
 10
257.731279617235
 20
101.8508588445805
 30
0.0
 11
257.7312672877226
 21
103.1508160661172
 31
0.0
  0
LINE
  5
1DC
330
1F
100
AcDbEntity
  8
0
100
AcDbLine
 10
275.6812856199733
 20
189.0169589538635
 30
0.0
 11
290.6812544041324
 21
189.0169691201449
 31
0.0
  0
LINE
  5
1DD
330
1F
100
AcDbEntity
  8
0
100
AcDbLine
 10
275.6812757152499
 20
209.6509283649278
 30
0.0
 11
290.6812435955619
 21
209.6509321065228
 31
0.0
  0
LINE
  5
1DE
330
1F
100
AcDbEntity
  8
0
100
AcDbLine
 10
275.1812904365444
 20
187.1509558740202
 30
0.0
 11
275.6812746574278
 21
189.0169638347032
 31
0.0
  0
LINE
  5
1DF
330
1F
100
AcDbEntity
  8
0
100
AcDbLine
 10
275.1812891969907
 20
187.1509235868167
 30
0.0
 11
291.1812495875522
 21
187.1509204697355
 31
0.0
  0
LINE
  5
1E0
330
1F
100
AcDbEntity
  8
0
100
AcDbLine
 10
275.1813040321558
 20
186.1509339022717
 30
0.0
 11
275.1812891969907
 21
187.1509235868167
 31
0.0
  0
LINE
  5
1E1
330
1F
100
AcDbEntity
  8
0
100
AcDbLine
 10
277.1812684558797
 20
211.1509445672678
 30
0.0
 11
275.6812559110185
 21
209.6509207627954
 31
0.0
  0
LINE
  5
1E2
330
1F
100
AcDbEntity
  8
0
100
AcDbLine
 10
277.1812958622433
 20
211.1509323651686
 30
0.0
 11
289.1812383557671
 21
211.1509199663127
 31
0.0
  0
LINE
  5
1E3
330
1F
100
AcDbEntity
  8
0
100
AcDbLine
 10
289.1812178009942
 20
211.1509291178871
 30
0.0
 11
290.681223040789
 21
209.6509412580973
 31
0.0
  0
LINE
  5
1E4
330
1F
100
AcDbEntity
  8
0
100
AcDbLine
 10
275.6812757152499
 20
209.6509283649278
 30
0.0
 11
275.6812856199733
 21
189.0169589538635
 31
0.0
  0
LINE
  5
1E5
330
1F
100
AcDbEntity
  8
0
100
AcDbLine
 10
341.2451988109676
 20
165.150882256947
 30
0.0
 11
328.7452230869185
 21
165.1508747745921
 31
0.0
  0
LINE
  5
1E6
330
1F
100
AcDbEntity
  8
0
100
AcDbLine
 10
328.74522573528
 20
164.9008860353618
 30
0.0
 11
326.7452148682161
 21
164.9008999440126
 31
0.0
  0
LINE
  5
1E7
330
1F
100
AcDbEntity
  8
0
100
AcDbLine
 10
328.7452255606217
 20
155.400866242854
 30
0.0
 11
326.7452146935579
 21
155.400880151505
 31
0.0
  0
LINE
  5
1E8
330
1F
100
AcDbEntity
  8
0
100
AcDbLine
 10
326.7465970248379
 20
164.9009249304598
 30
0.0
 11
323.6812667447079
 21
164.8051466074333
 31
0.0
  0
LINE
  5
1E9
330
1F
100
AcDbEntity
  8
0
100
AcDbLine
 10
328.7452230869185
 20
165.1508747745921
 30
0.0
 11
328.7452335594916
 21
155.1509079605122
 31
0.0
  0
LINE
  5
1EA
330
1F
100
AcDbEntity
  8
0
100
AcDbLine
 10
326.7466010918988
 20
155.4008704103288
 30
0.0
 11
323.6812650985216
 21
155.496661452924
 31
0.0
  0
LINE
  5
1EB
330
1F
100
AcDbEntity
  8
0
100
AcDbLine
 10
323.681261263435
 20
164.8051490478534
 30
0.0
 11
323.6812598805377
 21
161.6243555654758
 31
0.0
  0
LINE
  5
1EC
330
1F
100
AcDbEntity
  8
0
100
AcDbLine
 10
341.2451988109676
 20
165.150882256947
 30
0.0
 11
341.2452031824912
 21
155.1509017396853
 31
0.0
  0
LINE
  5
1ED
330
1F
100
AcDbEntity
  8
0
100
AcDbLine
 10
325.6812832540349
 20
164.8677214890902
 30
0.0
 11
325.6812754123018
 21
155.4341550054711
 31
0.0
  0
LINE
  5
1EE
330
1F
100
AcDbEntity
  8
0
100
AcDbLine
 10
319.6812650708002
 20
102.1508448778205
 30
0.0
 11
319.6812512600477
 21
101.1508351081712
 31
0.0
  0
LINE
  5
1EF
330
1F
100
AcDbEntity
  8
0
100
AcDbLine
 10
249.1812585049621
 20
86.15079304398324
 30
0.0
 11
317.1812585049611
 21
86.15078371353286
 31
0.0
  0
LINE
  5
1F0
330
1F
100
AcDbEntity
  8
0
100
AcDbLine
 10
263.1812615983621
 20
86.15079112300776
 30
0.0
 11
263.1812708777781
 21
97.15083421615567
 31
0.0
  0
LINE
  5
1F1
330
1F
100
AcDbEntity
  8
0
100
AcDbLine
 10
236.6812648534846
 20
103.1508514522485
 30
0.0
 11
283.1812644673352
 21
103.1508254590552
 31
0.0
  0
LINE
  5
1F2
330
1F
100
AcDbEntity
  8
0
100
AcDbLine
 10
236.6812614343405
 20
107.1508509707408
 30
0.0
 11
283.1812561866952
 21
107.150843561569
 31
0.0
  0
LINE
  5
1F3
330
1F
100
AcDbEntity
  8
0
100
AcDbLine
 10
303.1812526653614
 20
86.15078563450873
 30
0.0
 11
303.1812627022877
 21
97.15085348420586
 31
0.0
  0
LINE
  5
1F4
330
1F
100
AcDbEntity
  8
0
100
AcDbLine
 10
330.1812479985046
 20
106.6508149200775
 30
0.0
 11
330.1812481648062
 21
103.6508163488921
 31
0.0
  0
LINE
  5
1F5
330
1F
100
AcDbEntity
  8
0
100
AcDbLine
 10
329.6812720415662
 20
103.150861599849
 30
0.0
 11
320.6812696168549
 21
103.150846027445
 31
0.0
  0
LINE
  5
1F6
330
1F
100
AcDbEntity
  8
0
100
AcDbLine
 10
236.18128345177
 20
106.6508477908922
 30
0.0
 11
236.1812584633312
 21
103.6508111606857
 31
0.0
  0
LINE
  5
1F7
330
1F
100
AcDbEntity
  8
0
100
AcDbLine
 10
329.6812747234716
 20
107.1508748215231
 30
0.0
 11
283.1812561866952
 21
107.150843561569
 31
0.0
  0
LINE
  5
1F8
330
1F
100
AcDbEntity
  8
0
100
AcDbLine
 10
308.6312595848192
 20
99.15083777392068
 30
0.0
 11
257.731270706867
 21
99.15081654762492
 31
0.0
  0
LINE
  5
1F9
330
1F
100
AcDbEntity
  8
0
100
AcDbLine
 10
329.6812720415662
 20
103.150861599849
 30
0.0
 11
283.1812644673352
 21
103.1508254590552
 31
0.0
  0
LINE
  5
1FA
330
1F
100
AcDbEntity
  8
0
100
AcDbLine
 10
283.1812639431282
 20
166.1509090692683
 30
0.0
 11
322.4751008771022
 21
166.1509108993988
 31
0.0
  0
LINE
  5
1FB
330
1F
100
AcDbEntity
  8
0
100
AcDbLine
 10
330.1812485878758
 20
118.0797533192941
 30
0.0
 11
330.1812508467116
 21
107.6508295705665
 31
0.0
  0
LINE
  5
1FC
330
1F
100
AcDbEntity
  8
0
100
AcDbLine
 10
308.631254302993
 20
101.8508371310157
 30
0.0
 11
308.6312506844024
 21
103.1508397328328
 31
0.0
  0
LINE
  5
1FD
330
1F
100
AcDbEntity
  8
0
100
AcDbLine
 10
317.1312953891956
 20
101.1508520650744
 30
0.0
 11
308.6312510890384
 21
101.1508241350373
 31
0.0
  0
LINE
  5
1FE
330
1F
100
AcDbEntity
  8
0
100
AcDbLine
 10
317.1312803000014
 20
101.8508239515073
 30
0.0
 11
308.631254302993
 21
101.8508371310157
 31
0.0
  0
LINE
  5
1FF
330
1F
100
AcDbEntity
  8
0
100
AcDbLine
 10
317.1312872260173
 20
97.15084128382011
 30
0.0
 11
308.6312612290091
 21
97.15085446332876
 31
0.0
  0
LINE
  5
200
330
1F
100
AcDbEntity
  8
0
100
AcDbLine
 10
308.631281783782
 20
97.15084531175433
 30
0.0
 11
309.1508785291835
 21
96.85080656306958
 31
0.0
  0
LINE
  5
201
330
1F
100
AcDbEntity
  8
0
100
AcDbLine
 10
308.6312612290091
 20
97.15085446332876
 30
0.0
 11
308.631254302993
 21
101.8508371310157
 31
0.0
  0
LINE
  5
202
330
1F
100
AcDbEntity
  8
0
100
AcDbLine
 10
317.1312872260173
 20
97.15084128382011
 30
0.0
 11
317.1312803000014
 21
101.8508239515073
 31
0.0
  0
LINE
  5
203
330
1F
100
AcDbEntity
  8
0
100
AcDbLine
 10
316.6116797605539
 20
96.85083256341398
 30
0.0
 11
309.1509132761505
 21
96.85084035135572
 31
0.0
  0
LINE
  5
204
330
1F
100
AcDbEntity
  8
0
100
AcDbLine
 10
316.611674279281
 20
96.85083500383383
 30
0.0
 11
317.1312872260173
 21
97.15084128382011
 31
0.0
  0
LINE
  5
205
330
1F
100
AcDbEntity
  8
0
100
AcDbLine
 10
317.1312803000014
 20
101.8508239515073
 30
0.0
 11
317.1312766814107
 21
103.1508265533242
 31
0.0
  0
LINE
  5
206
330
1F
100
AcDbEntity
  8
0
100
AcDbLine
 10
341.2452031824912
 20
155.1509017396853
 30
0.0
 11
328.7452335594916
 21
155.1509079605122
 31
0.0
  0
LINE
  5
207
330
1F
100
AcDbEntity
  8
0
100
AcDbLine
 10
283.1812526865858
 20
126.1508191822823
 30
0.0
 11
242.6812677290263
 21
126.1508442781963
 31
0.0
  0
LINE
  5
208
330
1F
100
AcDbEntity
  8
0
100
AcDbLine
 10
241.2167790285264
 20
125.1863725326851
 30
0.0
 11
237.6457286025647
 21
121.6153483321946
 31
0.0
  0
LINE
  5
209
330
1F
100
AcDbEntity
  8
0
100
AcDbLine
 10
258.1812574118416
 20
185.1509419501707
 30
0.0
 11
258.1812506189817
 21
181.1509305588114
 31
0.0
  0
LINE
  5
20A
330
1F
100
AcDbEntity
  8
0
100
AcDbLine
 10
236.1812785598681
 20
118.0797886305284
 30
0.0
 11
236.1812625155548
 21
107.6508237722549
 31
0.0
  0
LINE
  5
20B
330
1F
100
AcDbEntity
  8
0
100
AcDbLine
 10
259.1812566073881
 20
186.1509126429067
 30
0.0
 11
283.1812700120519
 21
186.1509291872538
 31
0.0
  0
LINE
  5
20C
330
1F
100
AcDbEntity
  8
0
100
AcDbLine
 10
236.6812614343405
 20
107.1508509707408
 30
0.0
 11
283.1812561866952
 21
107.150843561569
 31
0.0
  0
LINE
  5
20D
330
1F
100
AcDbEntity
  8
0
100
AcDbLine
 10
325.145719567354
 20
125.1863993166056
 30
0.0
 11
328.7167953799389
 21
121.6153209855957
 31
0.0
  0
LINE
  5
20E
330
1F
100
AcDbEntity
  8
0
100
AcDbLine
 10
307.1812588817529
 20
186.1509238161815
 30
0.0
 11
283.1812700120519
 21
186.1509291872538
 31
0.0
  0
LINE
  5
20F
330
1F
100
AcDbEntity
  8
0
100
AcDbLine
 10
323.6812598805377
 20
161.6243555654758
 30
0.0
 11
323.6812611396728
 21
128.7219036287102
 31
0.0
  0
LINE
  5
210
330
1F
100
AcDbEntity
  8
0
100
AcDbLine
 10
319.7735858494154
 20
175.8870713489644
 30
0.0
 11
322.4750971270027
 21
168.4647547345569
 31
0.0
  0
LINE
  5
211
330
1F
100
AcDbEntity
  8
0
100
AcDbLine
 10
312.2560468893907
 20
181.150929343728
 30
0.0
 11
308.1812637604102
 21
181.1509278234353
 31
0.0
  0
LINE
  5
212
330
1F
100
AcDbEntity
  8
0
100
AcDbLine
 10
246.5889368170505
 20
175.88712988147
 30
0.0
 11
243.8874251183851
 21
168.4647995051008
 31
0.0
  0
LINE
  5
213
330
1F
100
AcDbEntity
  8
0
100
AcDbLine
 10
328.7167982347043
 20
120.1508441498289
 30
0.0
 11
283.181259120238
 21
120.1508357430931
 31
0.0
  0
LINE
  5
214
330
1F
100
AcDbEntity
  8
0
100
AcDbLine
 10
254.1064681097782
 20
181.1509451821206
 30
0.0
 11
283.1812602402205
 21
181.150936042714
 31
0.0
  0
LINE
  5
215
330
1F
100
AcDbEntity
  8
0
100
AcDbLine
 10
283.1812639431282
 20
166.1509090692683
 30
0.0
 11
243.887437840935
 21
166.1509352556064
 31
0.0
  0
LINE
  5
216
330
1F
100
AcDbEntity
  8
0
100
AcDbLine
 10
283.1812526865858
 20
126.1508191822823
 30
0.0
 11
323.6812688999348
 21
126.1508458485708
 31
0.0
  0
LINE
  5
217
330
1F
100
AcDbEntity
  8
0
100
AcDbLine
 10
312.2560468893907
 20
181.150929343728
 30
0.0
 11
283.1812602402205
 21
181.150936042714
 31
0.0
  0
LINE
  5
218
330
1F
100
AcDbEntity
  8
0
100
AcDbLine
 10
237.6457369386027
 20
120.1508690560077
 30
0.0
 11
283.181259120238
 21
120.1508357430931
 31
0.0
  0
LINE
  5
219
330
1F
100
AcDbEntity
  8
0
100
AcDbLine
 10
248.6812559866527
 20
99.15081940143625
 30
0.0
 11
249.2312597833586
 21
99.15082301597898
 31
0.0
  0
LINE
  5
21A
330
1F
100
AcDbEntity
  8
0
100
AcDbLine
 10
246.6812770903827
 20
102.1508339924602
 30
0.0
 11
246.6812774718248
 21
101.1508671626717
 31
0.0
  0
LINE
  5
21B
330
1F
100
AcDbEntity
  8
0
100
AcDbLine
 10
242.6812553492159
 20
161.6243390717094
 30
0.0
 11
242.6812660698137
 21
128.7219157615173
 31
0.0
  0
LINE
  5
21C
330
1F
100
AcDbEntity
  8
0
100
AcDbLine
 10
317.6812688237607
 20
99.15083736052919
 30
0.0
 11
317.1312801005547
 21
99.15082703483188
 31
0.0
  0
LINE
  5
21D
330
1F
100
AcDbEntity
  8
0
100
AcDbLine
 10
308.1812664423155
 20
185.1509410451093
 30
0.0
 11
308.1812637604102
 21
181.1509278234353
 31
0.0
  0
ARC
  5
21E
330
1F
100
AcDbEntity
  8
0
100
AcDbCircle
 10
531.3361873318513
 20
97.15089430909927
 30
0.0
 40
2.000000099999999
100
AcDbArc
 50
90.0
 51
180.0
  0
ARC
  5
21F
330
1F
100
AcDbEntity
  8
0
100
AcDbCircle
 10
487.3361773318515
 20
97.1508943090995
 30
0.0
 40
2.000000099999999
100
AcDbArc
 50
0.0
 51
90.0
  0
ARC
  5
220
330
1F
100
AcDbEntity
  8
0
100
AcDbCircle
 10
546.8361823318514
 20
102.1509043090992
 30
0.0
 40
1.000000035
100
AcDbArc
 50
90.0
 51
180.0
  0
ARC
  5
221
330
1F
100
AcDbEntity
  8
0
100
AcDbCircle
 10
471.8361823318514
 20
102.1509043090994
 30
0.0
 40
1.000000035
100
AcDbArc
 50
0.0
 51
90.0
  0
ARC
  5
222
330
1F
100
AcDbEntity
  8
0
100
AcDbCircle
 10
543.8361823318514
 20
101.1508993090993
 30
0.0
 40
2.000000099999999
100
AcDbArc
 50
270.0
 51
0.0
  0
ARC
  5
223
330
1F
100
AcDbEntity
  8
0
100
AcDbCircle
 10
474.8361823318514
 20
101.1508993090995
 30
0.0
 40
2.000000099999999
100
AcDbArc
 50
180.0
 51
270.0
  0
ARC
  5
224
330
1F
100
AcDbEntity
  8
0
100
AcDbCircle
 10
533.3361823318514
 20
185.1510193090993
 30
0.0
 40
1.000000035
100
AcDbArc
 50
0.0
 51
90.0
  0
ARC
  5
225
330
1F
100
AcDbEntity
  8
0
100
AcDbCircle
 10
485.3361823318514
 20
185.1510193090995
 30
0.0
 40
1.000000035
100
AcDbArc
 50
90.0
 51
180.0
  0
ARC
  5
226
330
1F
100
AcDbEntity
  8
0
100
AcDbCircle
 10
551.3361823318514
 20
118.0798243090993
 30
0.0
 40
4.99999995
100
AcDbArc
 50
0.0
 51
45.0
  0
ARC
  5
227
330
1F
100
AcDbEntity
  8
0
100
AcDbCircle
 10
467.3361823318514
 20
118.0798243090995
 30
0.0
 40
4.99999995
100
AcDbArc
 50
135.0
 51
180.0
  0
ARC
  5
228
330
1F
100
AcDbEntity
  8
0
100
AcDbCircle
 10
463.8361873318513
 20
128.7219793090995
 30
0.0
 40
4.99999995
100
AcDbArc
 50
315.0
 51
0.0
  0
ARC
  5
229
330
1F
100
AcDbEntity
  8
0
100
AcDbCircle
 10
554.8361773318515
 20
128.7219793090993
 30
0.0
 40
4.99999995
100
AcDbArc
 50
180.0
 51
225.0
  0
ARC
  5
22A
330
1F
100
AcDbEntity
  8
0
100
AcDbCircle
 10
480.2613973318516
 20
173.1509893090995
 30
0.0
 40
8.000000249999999
100
AcDbArc
 50
90.0
 51
159.999929999994
  0
ARC
  5
22B
330
1F
100
AcDbEntity
  8
0
100
AcDbCircle
 10
538.4109673318514
 20
173.1509893090993
 30
0.0
 40
8.000000249999999
100
AcDbArc
 50
20.00007000000597
 51
90.0
  0
ARC
  5
22C
330
1F
100
AcDbEntity
  8
0
100
AcDbCircle
 10
488.8361773318515
 20
161.6244043090995
 30
0.0
 40
19.99999949999999
100
AcDbArc
 50
159.9999900000028
 51
180.0
  0
ARC
  5
22D
330
1F
100
AcDbEntity
  8
0
100
AcDbCircle
 10
529.8361873318513
 20
161.6244043090993
 30
0.0
 40
19.99999949999999
100
AcDbArc
 50
0.0
 51
20.00000999999711
  0
CIRCLE
  5
22E
330
1F
100
AcDbEntity
  8
0
100
AcDbCircle
 10
509.3361823318514
 20
115.6509043090992
 30
0.0
 40
4.793617799999999
  0
CIRCLE
  5
22F
330
1F
100
AcDbEntity
  8
0
100
AcDbCircle
 10
509.3361823318514
 20
115.6509043090992
 30
0.0
 40
4.19388735
  0
CIRCLE
  5
230
330
1F
100
AcDbEntity
  8
0
100
AcDbCircle
 10
509.3361823318514
 20
160.1509543090993
 30
0.0
 40
4.999969499999998
  0
LINE
  5
231
330
1F
100
AcDbEntity
  8
0
100
AcDbLine
 10
483.8877523318514
 20
99.15090430909948
 30
0.0
 11
509.3361823318514
 21
99.15090430909925
 31
0.0
  0
LINE
  5
232
330
1F
100
AcDbEntity
  8
0
100
AcDbLine
 10
483.8877523318514
 20
101.8508893090996
 30
0.0
 11
483.8877523318514
 21
103.1508943090994
 31
0.0
  0
LINE
  5
233
330
1F
100
AcDbEntity
  8
0
100
AcDbLine
 10
483.3681373318513
 20
96.85087930909947
 30
0.0
 11
475.9073773318514
 21
96.85087930909947
 31
0.0
  0
LINE
  5
234
330
1F
100
AcDbEntity
  8
0
100
AcDbLine
 10
483.8877523318514
 20
97.1508943090995
 30
0.0
 11
483.8877523318514
 21
101.8508893090996
 31
0.0
  0
LINE
  5
235
330
1F
100
AcDbEntity
  8
0
100
AcDbLine
 10
483.3681373318513
 20
96.85089430909954
 30
0.0
 11
483.8877523318514
 21
97.1508943090995
 31
0.0
  0
LINE
  5
236
330
1F
100
AcDbEntity
  8
0
100
AcDbLine
 10
475.3877623318515
 20
97.15090930909958
 30
0.0
 11
475.9073773318514
 21
96.85092430909946
 31
0.0
  0
LINE
  5
237
330
1F
100
AcDbEntity
  8
0
100
AcDbLine
 10
483.8877523318514
 20
97.1508943090995
 30
0.0
 11
475.3877473318516
 21
97.1508943090995
 31
0.0
  0
LINE
  5
238
330
1F
100
AcDbEntity
  8
0
100
AcDbLine
 10
475.3877473318516
 20
97.1508943090995
 30
0.0
 11
475.3877473318516
 21
101.8508893090996
 31
0.0
  0
LINE
  5
239
330
1F
100
AcDbEntity
  8
0
100
AcDbLine
 10
483.8877523318514
 20
101.8508893090996
 30
0.0
 11
475.3877473318516
 21
101.8508893090996
 31
0.0
  0
LINE
  5
23A
330
1F
100
AcDbEntity
  8
0
100
AcDbLine
 10
483.8877523318514
 20
101.1508843090995
 30
0.0
 11
475.3877473318516
 21
101.1508843090995
 31
0.0
  0
LINE
  5
23B
330
1F
100
AcDbEntity
  8
0
100
AcDbLine
 10
475.3877473318516
 20
101.8508893090996
 30
0.0
 11
475.3877473318516
 21
103.1508943090994
 31
0.0
  0
LINE
  5
23C
330
1F
100
AcDbEntity
  8
0
100
AcDbLine
 10
501.8362123318516
 20
189.0170143090991
 30
0.0
 11
516.8361523318512
 21
189.0170143090991
 31
0.0
  0
LINE
  5
23D
330
1F
100
AcDbEntity
  8
0
100
AcDbLine
 10
501.8362123318516
 20
209.6509843090992
 30
0.0
 11
516.8361523318512
 21
209.6509843090992
 31
0.0
  0
LINE
  5
23E
330
1F
100
AcDbEntity
  8
0
100
AcDbLine
 10
501.3361873318513
 20
187.1509843090992
 30
0.0
 11
501.8362123318516
 21
189.0170143090991
 31
0.0
  0
LINE
  5
23F
330
1F
100
AcDbEntity
  8
0
100
AcDbLine
 10
501.3362173318514
 20
187.1509843090992
 30
0.0
 11
517.3361473318514
 21
187.1509843090992
 31
0.0
  0
LINE
  5
240
330
1F
100
AcDbEntity
  8
0
100
AcDbLine
 10
501.3362173318514
 20
186.1509943090992
 30
0.0
 11
501.3362173318514
 21
187.1509843090992
 31
0.0
  0
LINE
  5
241
330
1F
100
AcDbEntity
  8
0
100
AcDbLine
 10
517.3361473318514
 20
187.1509843090992
 30
0.0
 11
516.8361373318516
 21
189.0170143090991
 31
0.0
  0
LINE
  5
242
330
1F
100
AcDbEntity
  8
0
100
AcDbLine
 10
517.3361473318514
 20
186.1509943090992
 30
0.0
 11
517.3361473318514
 21
187.1509843090992
 31
0.0
  0
LINE
  5
243
330
1F
100
AcDbEntity
  8
0
100
AcDbLine
 10
503.3362123318515
 20
211.1509843090992
 30
0.0
 11
515.3361523318513
 21
211.1509843090992
 31
0.0
  0
LINE
  5
244
330
1F
100
AcDbEntity
  8
0
100
AcDbLine
 10
501.8362123318516
 20
209.6509843090992
 30
0.0
 11
501.8362123318516
 21
189.0170143090991
 31
0.0
  0
LINE
  5
245
330
1F
100
AcDbEntity
  8
0
100
AcDbLine
 10
515.3361373318516
 20
211.1509843090992
 30
0.0
 11
516.8361373318516
 21
209.6509843090992
 31
0.0
  0
LINE
  5
246
330
1F
100
AcDbEntity
  8
0
100
AcDbLine
 10
503.3361823318514
 20
211.1509843090992
 30
0.0
 11
501.8361823318514
 21
209.6509843090992
 31
0.0
  0
LINE
  5
247
330
1F
100
AcDbEntity
  8
0
100
AcDbLine
 10
516.8361523318512
 20
209.6509843090992
 30
0.0
 11
516.8361523318512
 21
189.0170143090991
 31
0.0
  0
LINE
  5
248
330
1F
100
AcDbEntity
  8
0
100
AcDbLine
 10
543.2846923318516
 20
101.8508893090994
 30
0.0
 11
543.2846923318516
 21
103.1508943090992
 31
0.0
  0
LINE
  5
249
330
1F
100
AcDbEntity
  8
0
100
AcDbLine
 10
542.7650773318514
 20
96.85087930909924
 30
0.0
 11
535.3043173318515
 21
96.85087930909924
 31
0.0
  0
LINE
  5
24A
330
1F
100
AcDbEntity
  8
0
100
AcDbLine
 10
543.2846923318516
 20
97.15089430909927
 30
0.0
 11
543.2846923318516
 21
101.8508893090994
 31
0.0
  0
LINE
  5
24B
330
1F
100
AcDbEntity
  8
0
100
AcDbLine
 10
542.7651073318515
 20
96.85089430909933
 30
0.0
 11
543.2847073318517
 21
97.15089430909927
 31
0.0
  0
LINE
  5
24C
330
1F
100
AcDbEntity
  8
0
100
AcDbLine
 10
534.7847323318514
 20
97.15090930909935
 30
0.0
 11
535.3043323318515
 21
96.85092430909925
 31
0.0
  0
LINE
  5
24D
330
1F
100
AcDbEntity
  8
0
100
AcDbLine
 10
543.2846923318516
 20
97.15089430909927
 30
0.0
 11
534.7846873318513
 21
97.15089430909927
 31
0.0
  0
LINE
  5
24E
330
1F
100
AcDbEntity
  8
0
100
AcDbLine
 10
534.7846873318513
 20
97.15089430909927
 30
0.0
 11
534.7846873318513
 21
101.8508893090994
 31
0.0
  0
LINE
  5
24F
330
1F
100
AcDbEntity
  8
0
100
AcDbLine
 10
543.2846923318516
 20
101.8508893090994
 30
0.0
 11
534.7846873318513
 21
101.8508893090994
 31
0.0
  0
LINE
  5
250
330
1F
100
AcDbEntity
  8
0
100
AcDbLine
 10
543.2846923318516
 20
101.1508843090993
 30
0.0
 11
534.7846873318513
 21
101.1508843090993
 31
0.0
  0
LINE
  5
251
330
1F
100
AcDbEntity
  8
0
100
AcDbLine
 10
534.7846873318513
 20
101.8508893090994
 30
0.0
 11
534.7846873318513
 21
103.1508943090992
 31
0.0
  0
LINE
  5
252
330
1F
100
AcDbEntity
  8
0
100
AcDbLine
 10
556.3361773318518
 20
103.1508943090993
 30
0.0
 11
509.3361823318514
 21
103.1508943090992
 31
0.0
  0
LINE
  5
253
330
1F
100
AcDbEntity
  8
0
100
AcDbLine
 10
534.7846873318513
 20
99.15090430909925
 30
0.0
 11
509.3361823318514
 21
99.15090430909925
 31
0.0
  0
LINE
  5
254
330
1F
100
AcDbEntity
  8
0
100
AcDbLine
 10
556.3361773318518
 20
107.1508993090993
 30
0.0
 11
509.3361823318514
 21
107.1508993090993
 31
0.0
  0
LINE
  5
255
330
1F
100
AcDbEntity
  8
0
100
AcDbLine
 10
555.8361823318514
 20
103.1508943090992
 30
0.0
 11
546.8361823318514
 21
103.1508943090992
 31
0.0
  0
LINE
  5
256
330
1F
100
AcDbEntity
  8
0
100
AcDbLine
 10
529.3361773318515
 20
86.15088430909919
 30
0.0
 11
529.3361773318515
 21
97.15089430909927
 31
0.0
  0
LINE
  5
257
330
1F
100
AcDbEntity
  8
0
100
AcDbLine
 10
462.3361873318513
 20
107.1508993090996
 30
0.0
 11
509.3361823318514
 21
107.1508993090993
 31
0.0
  0
LINE
  5
258
330
1F
100
AcDbEntity
  8
0
100
AcDbLine
 10
462.3361873318513
 20
103.1508943090994
 30
0.0
 11
509.3361823318514
 21
103.1508943090992
 31
0.0
  0
LINE
  5
259
330
1F
100
AcDbEntity
  8
0
100
AcDbLine
 10
489.3361873318513
 20
86.1508843090994
 30
0.0
 11
489.3361873318513
 21
97.1508943090995
 31
0.0
  0
LINE
  5
25A
330
1F
100
AcDbEntity
  8
0
100
AcDbLine
 10
475.3361823318512
 20
86.15088430909953
 30
0.0
 11
543.3361823318514
 21
86.15088430909906
 31
0.0
  0
LINE
  5
25B
330
1F
100
AcDbEntity
  8
0
100
AcDbLine
 10
545.8361773318515
 20
102.1509043090992
 30
0.0
 11
545.8361773318515
 21
101.1508993090993
 31
0.0
  0
LINE
  5
25C
330
1F
100
AcDbEntity
  8
0
100
AcDbLine
 10
474.8361823318514
 20
99.15090430909948
 30
0.0
 11
475.3877473318516
 21
99.15090430909948
 31
0.0
  0
LINE
  5
25D
330
1F
100
AcDbEntity
  8
0
100
AcDbLine
 10
543.8361823318514
 20
99.15090430909925
 30
0.0
 11
543.2846923318516
 21
99.15090430909925
 31
0.0
  0
LINE
  5
25E
330
1F
100
AcDbEntity
  8
0
100
AcDbLine
 10
472.8361873318513
 20
102.1509043090994
 30
0.0
 11
472.8361873318513
 21
101.1508993090995
 31
0.0
  0
LINE
  5
25F
330
1F
100
AcDbEntity
  8
0
100
AcDbLine
 10
533.3361823318514
 20
186.1509943090992
 30
0.0
 11
509.3361823318514
 21
186.1509943090992
 31
0.0
  0
LINE
  5
260
330
1F
100
AcDbEntity
  8
0
100
AcDbLine
 10
551.3006323318514
 20
125.1864493090994
 30
0.0
 11
554.8717273318516
 21
121.6153693090992
 31
0.0
  0
LINE
  5
261
330
1F
100
AcDbEntity
  8
0
100
AcDbLine
 10
468.8361823318514
 20
161.6244043090995
 30
0.0
 11
468.8361823318514
 21
128.7219793090995
 31
0.0
  0
LINE
  5
262
330
1F
100
AcDbEntity
  8
0
100
AcDbLine
 10
462.8361823318514
 20
107.1508993090996
 30
0.0
 11
509.3361823318514
 21
107.1508993090993
 31
0.0
  0
LINE
  5
263
330
1F
100
AcDbEntity
  8
0
100
AcDbLine
 10
485.3361823318514
 20
186.1509943090994
 30
0.0
 11
509.3361823318514
 21
186.1509943090992
 31
0.0
  0
LINE
  5
264
330
1F
100
AcDbEntity
  8
0
100
AcDbLine
 10
462.3361873318513
 20
118.0798243090995
 30
0.0
 11
462.3361873318513
 21
103.1508943090994
 31
0.0
  0
LINE
  5
265
330
1F
100
AcDbEntity
  8
0
100
AcDbLine
 10
484.3361773318515
 20
185.1509743090995
 30
0.0
 11
484.3361773318515
 21
181.1509843090995
 31
0.0
  0
LINE
  5
266
330
1F
100
AcDbEntity
  8
0
100
AcDbLine
 10
467.3717023318513
 20
125.1864193090995
 30
0.0
 11
463.8006373318514
 21
121.6153843090995
 31
0.0
  0
LINE
  5
267
330
1F
100
AcDbEntity
  8
0
100
AcDbLine
 10
556.3361773318515
 20
118.0798243090993
 30
0.0
 11
556.3361773318518
 21
103.1508943090993
 31
0.0
  0
LINE
  5
268
330
1F
100
AcDbEntity
  8
0
100
AcDbLine
 10
509.3361823318514
 20
126.1509043090992
 30
0.0
 11
468.8361823318514
 21
126.1509043090994
 31
0.0
  0
LINE
  5
269
330
1F
100
AcDbEntity
  8
0
100
AcDbLine
 10
549.8361823318514
 20
161.6244043090993
 30
0.0
 11
549.8361823318514
 21
128.7219793090993
 31
0.0
  0
LINE
  5
26A
330
1F
100
AcDbEntity
  8
0
100
AcDbLine
 10
545.9285323318513
 20
175.8871393090993
 30
0.0
 11
548.6300173318514
 21
168.4648243090992
 31
0.0
  0
LINE
  5
26B
330
1F
100
AcDbEntity
  8
0
100
AcDbLine
 10
538.4109673318514
 20
181.1509843090992
 30
0.0
 11
534.3361873318513
 21
181.1509843090992
 31
0.0
  0
LINE
  5
26C
330
1F
100
AcDbEntity
  8
0
100
AcDbLine
 10
472.7438323318515
 20
175.8871543090994
 30
0.0
 11
470.0423473318514
 21
168.4648393090996
 31
0.0
  0
LINE
  5
26D
330
1F
100
AcDbEntity
  8
0
100
AcDbLine
 10
554.8717273318516
 20
120.1509043090992
 30
0.0
 11
510.9880723318515
 21
120.1509043090992
 31
0.0
  0
LINE
  5
26E
330
1F
100
AcDbEntity
  8
0
100
AcDbLine
 10
480.2613973318516
 20
181.1509843090995
 30
0.0
 11
509.3361823318514
 21
181.1509843090992
 31
0.0
  0
LINE
  5
26F
330
1F
100
AcDbEntity
  8
0
100
AcDbLine
 10
509.3361823318514
 20
166.1509543090993
 30
0.0
 11
470.0423473318514
 21
166.1509543090995
 31
0.0
  0
LINE
  5
270
330
1F
100
AcDbEntity
  8
0
100
AcDbLine
 10
509.3361823318514
 20
126.1509043090992
 30
0.0
 11
549.8361823318514
 21
126.1509043090992
 31
0.0
  0
LINE
  5
271
330
1F
100
AcDbEntity
  8
0
100
AcDbLine
 10
538.4109673318514
 20
181.1509843090992
 30
0.0
 11
509.3361823318514
 21
181.1509843090992
 31
0.0
  0
LINE
  5
272
330
1F
100
AcDbEntity
  8
0
100
AcDbLine
 10
463.8006373318514
 20
120.1509043090994
 30
0.0
 11
507.6842923318513
 21
120.1509043090992
 31
0.0
  0
LINE
  5
273
330
1F
100
AcDbEntity
  8
0
100
AcDbLine
 10
509.3361823318514
 20
166.1509543090993
 30
0.0
 11
548.6300173318514
 21
166.1509543090993
 31
0.0
  0
LINE
  5
274
330
1F
100
AcDbEntity
  8
0
100
AcDbLine
 10
534.3361873318513
 20
185.1509743090993
 30
0.0
 11
534.3361873318513
 21
181.1509843090992
 31
0.0
  0
CIRCLE
  5
275
330
1F
100
AcDbEntity
  8
0
100
AcDbCircle
 10
509.3361823318514
 20
82.4008843090993
 30
0.0
 40
3.500015258788379
  0
LINE
  5
276
330
1F
100
AcDbEntity
  8
0
100
AcDbLine
 10
325.1812734321788
 20
78.9008690503108
 30
0.0
 11
317.1812581733902
 21
78.90086975766047
 31
0.0
  0
LINE
  5
277
330
1F
100
AcDbEntity
  8
0
100
AcDbLine
 10
325.1812740511122
 20
85.90089956788778
 30
0.0
 11
317.1812587923219
 21
85.90090027523695
 31
0.0
  0
LINE
  5
278
330
1F
100
AcDbEntity
  8
0
100
AcDbLine
 10
325.1812734321788
 20
78.9008690503108
 30
0.0
 11
325.1812740511122
 21
85.90089956788778
 31
0.0
  0
LINE
  5
279
330
1F
100
AcDbEntity
  8
0
  6
Continuous
100
AcDbLine
 10
300.181258504961
 20
490.4821708769263
 30
0.0
 11
300.181258504961
 21
487.6320829056063
 31
0.0
  0
LINE
  5
27A
330
1F
100
AcDbEntity
  8
0
  6
Continuous
100
AcDbLine
 10
300.181258504961
 20
487.6320829056063
 30
0.0
 11
294.0312951260547
 21
485.3936792137032
 31
0.0
  0
LINE
  5
27B
330
1F
100
AcDbEntity
  8
0
  6
Continuous
100
AcDbLine
 10
294.0312951260547
 20
482.2126374636833
 30
0.0
 11
294.0312951260547
 21
485.3936792137032
 31
0.0
  0
LINE
  5
27C
330
1F
100
AcDbEntity
  8
0
  6
HIDDEN
 48
10.0
100
AcDbLine
 10
294.0312951260546
 20
470.4821533250325
 30
0.0
 11
294.0312951260547
 21
482.2126374636833
 31
0.0
  0
LINE
  5
27D
330
1F
100
AcDbEntity
  8
0
  6
Continuous
100
AcDbLine
 10
300.181258504961
 20
382.4821708769263
 30
0.0
 11
300.181258504961
 21
385.3322574993079
 31
0.0
  0
LINE
  5
27E
330
1F
100
AcDbEntity
  8
0
  6
Continuous
100
AcDbLine
 10
300.181258504961
 20
385.3322574993079
 30
0.0
 11
294.0312951260547
 21
387.5706611912102
 31
0.0
  0
LINE
  5
27F
330
1F
100
AcDbEntity
  8
0
  6
HIDDEN
 48
10.0
100
AcDbLine
 10
294.0312951260547
 20
390.7517042901694
 30
0.0
 11
294.0312951260547
 21
402.4821433250324
 31
0.0
  0
LINE
  5
280
330
1F
100
AcDbEntity
  8
0
  6
Continuous
100
AcDbLine
 10
294.0312951260547
 20
387.5706611912102
 30
0.0
 11
294.0312951260547
 21
390.7517042901694
 31
0.0
  0
LINE
  5
281
330
1F
100
AcDbEntity
  8
0
  6
Continuous
100
AcDbLine
 10
266.1812585049607
 20
490.4821708769263
 30
0.0
 11
266.1812585049607
 21
487.6322003880122
 31
0.0
  0
LINE
  5
282
330
1F
100
AcDbEntity
  8
0
  6
Continuous
100
AcDbLine
 10
266.1812585049607
 20
487.6322003880122
 30
0.0
 11
272.3312829190239
 21
485.3937744811282
 31
0.0
  0
LINE
  5
283
330
1F
100
AcDbEntity
  8
0
  6
Continuous
100
AcDbLine
 10
272.3312829190239
 20
482.2126519448764
 30
0.0
 11
272.3312829190239
 21
485.3937744811282
 31
0.0
  0
LINE
  5
284
330
1F
100
AcDbEntity
  8
0
  6
HIDDEN
 48
10.0
100
AcDbLine
 10
272.3312829190239
 20
470.4821533250325
 30
0.0
 11
272.3312829190239
 21
482.2126519448764
 31
0.0
  0
LINE
  5
285
330
1F
100
AcDbEntity
  8
0
  6
Continuous
100
AcDbLine
 10
266.1812585049607
 20
382.4821708769263
 30
0.0
 11
266.1812585049607
 21
385.3321562549673
 31
0.0
  0
LINE
  5
286
330
1F
100
AcDbEntity
  8
0
  6
Continuous
100
AcDbLine
 10
266.1812585049607
 20
385.3321562549673
 30
0.0
 11
272.3312829190239
 21
387.5705821618501
 31
0.0
  0
LINE
  5
287
330
1F
100
AcDbEntity
  8
0
  6
HIDDEN
 48
10.0
100
AcDbLine
 10
272.3312829190239
 20
390.7516898089761
 30
0.0
 11
272.3312829190239
 21
402.4821433250326
 31
0.0
  0
LINE
  5
288
330
1F
100
AcDbEntity
  8
0
  6
Continuous
100
AcDbLine
 10
272.3312829190239
 20
387.5705821618501
 30
0.0
 11
272.3312829190239
 21
390.7516898089761
 31
0.0
  0
LINE
  5
289
330
1F
100
AcDbEntity
  8
0
  6
Continuous
100
AcDbLine
 10
300.181258504961
 20
490.4821708769263
 30
0.0
 11
266.1812585049607
 21
490.4821708769263
 31
0.0
  0
LINE
  5
28A
330
1F
100
AcDbEntity
  8
0
  6
Continuous
100
AcDbLine
 10
300.181258504961
 20
382.4821708769263
 30
0.0
 11
266.1812585049607
 21
382.4821708769263
 31
0.0
  0
LINE
  5
28B
330
1F
100
AcDbEntity
  8
0
100
AcDbLine
 10
563.3361823318513
 20
75.45084219728313
 30
0.0
 11
560.4861213893644
 21
75.45084219728313
 31
0.0
  0
LINE
  5
28C
330
1F
100
AcDbEntity
  8
0
100
AcDbLine
 10
560.4861213893644
 20
75.45084219728313
 30
0.0
 11
558.2477010362245
 21
69.30083304200866
 31
0.0
  0
LINE
  5
28D
330
1F
100
AcDbEntity
  8
0
100
AcDbLine
 10
522.2312323806796
 20
46.2508452490411
 30
0.0
 11
543.3361823318531
 21
46.2508452490411
 31
0.0
  0
LINE
  5
28E
330
1F
100
AcDbEntity
  8
0
100
AcDbLine
 10
543.3361823318514
 20
86.15088430909906
 30
0.0
 11
543.3361823318531
 21
46.2508452490411
 31
0.0
  0
LINE
  5
28F
330
1F
100
AcDbEntity
  8
0
100
AcDbLine
 10
528.4411628006031
 20
86.15088430909919
 30
0.0
 11
528.441162800604
 21
66.65086966310366
 31
0.0
  0
LINE
  5
290
330
1F
100
AcDbEntity
  8
0
100
AcDbLine
 10
543.3361823318531
 20
69.30083304200866
 30
0.0
 11
558.2477010362245
 21
69.30083304200866
 31
0.0
  0
LINE
  5
291
330
1F
100
AcDbEntity
  8
0
100
AcDbLine
 10
543.3361823318531
 20
47.60082083497775
 30
0.0
 11
558.2477918065213
 21
47.60082083497775
 31
0.0
  0
LINE
  5
292
330
1F
100
AcDbEntity
  8
0
100
AcDbLine
 10
514.4947391203584
 20
53.65085291248971
 30
0.0
 11
517.0350757634414
 21
49.25086085731374
 31
0.0
  0
ARC
  5
293
330
1F
100
AcDbEntity
  8
0
100
AcDbCircle
 10
509.2985846756014
 20
50.65086966310241
 30
0.0
 40
6.0
100
AcDbArc
 50
30.00000333930641
 51
89.64090098315267
  0
LINE
  5
294
330
1F
100
AcDbEntity
  8
0
100
AcDbLine
 10
490.2312018631015
 20
86.1508843090994
 30
0.0
 11
490.2312018631014
 21
66.65086966310241
 31
0.0
  0
ARC
  5
295
330
1F
100
AcDbEntity
  8
0
100
AcDbCircle
 10
496.4411322830242
 20
52.25084524904111
 30
0.0
 40
6.0
100
AcDbArc
 50
269.9999974955313
 51
330.0000016696631
  0
LINE
  5
296
330
1F
100
AcDbEntity
  8
0
100
AcDbLine
 10
504.1776218316182
 20
53.65085979203081
 30
0.0
 11
501.6372775591413
 21
49.25085452235578
 31
0.0
  0
ARC
  5
297
330
1F
100
AcDbEntity
  8
0
100
AcDbCircle
 10
509.3737799881031
 20
50.65086966310241
 30
0.0
 40
6.0
100
AcDbArc
 50
90.3590990168473
 51
149.9999966606935
  0
LINE
  5
298
330
1F
100
AcDbEntity
  8
0
100
AcDbLine
 10
475.3361823318512
 20
86.15088430909953
 30
0.0
 11
475.3361823318527
 21
46.2508452490411
 31
0.0
  0
LINE
  5
299
330
1F
100
AcDbEntity
  8
0
100
AcDbLine
 10
455.3361823318514
 20
75.45084219728313
 30
0.0
 11
458.1862744015293
 21
75.45084219728313
 31
0.0
  0
LINE
  5
29A
330
1F
100
AcDbEntity
  8
0
100
AcDbLine
 10
458.1862744015293
 20
75.45084219728313
 30
0.0
 11
460.4246947546685
 21
69.30083304200866
 31
0.0
  0
LINE
  5
29B
330
1F
100
AcDbEntity
  8
0
100
AcDbLine
 10
460.4246947546685
 20
69.30083304200866
 30
0.0
 11
475.3361823318514
 21
69.30083304200866
 31
0.0
  0
LINE
  5
29C
330
1F
100
AcDbEntity
  8
0
100
AcDbLine
 10
460.4245877463077
 20
47.60082083497775
 30
0.0
 11
475.2276007888834
 21
47.60082083497775
 31
0.0
  0
LINE
  5
29D
330
1F
100
AcDbEntity
  8
0
100
AcDbLine
 10
496.4411322830242
 20
46.2508452490411
 30
0.0
 11
475.3361823318527
 21
46.2508452490411
 31
0.0
  0
LINE
  5
29E
330
1F
100
AcDbEntity
  8
0
100
AcDbLine
 10
475.3361823318514
 20
66.65086966310241
 30
0.0
 11
543.3361823318531
 21
66.65086966310241
 31
0.0
  0
LINE
  5
29F
330
1F
100
AcDbEntity
  8
0
100
AcDbLine
 10
475.3361823318514
 20
78.65088492189238
 30
0.0
 11
543.3361823318526
 21
78.65088492189238
 31
0.0
  0
ARC
  5
2A0
330
1F
100
AcDbEntity
  8
0
100
AcDbCircle
 10
522.2312323806796
 20
52.25084524904111
 30
0.0
 40
6.0
100
AcDbArc
 50
210.0000051605285
 51
269.9999974955313
  0
LINE
  5
2A1
330
1F
100
AcDbEntity
  8
0
100
AcDbLine
 10
563.3361823318513
 20
41.45079642091594
 30
0.0
 11
560.4862177134053
 21
41.45079642091594
 31
0.0
  0
LINE
  5
2A2
330
1F
100
AcDbEntity
  8
0
100
AcDbLine
 10
455.3361823318514
 20
41.45079642091594
 30
0.0
 11
458.1861618394245
 21
41.45079642091594
 31
0.0
  0
LINE
  5
2A3
330
1F
100
AcDbEntity
  8
0
100
AcDbLine
 10
455.3361823318514
 20
75.45084219728313
 30
0.0
 11
455.3361823318514
 21
41.45079642091594
 31
0.0
  0
LINE
  5
2A4
330
1F
100
AcDbEntity
  8
0
100
AcDbLine
 10
458.1861618394245
 20
41.45079642091594
 30
0.0
 11
460.4245877463077
 21
47.60082083497775
 31
0.0
  0
LINE
  5
2A5
330
1F
100
AcDbEntity
  8
0
100
AcDbLine
 10
563.3361823318513
 20
75.45084219728313
 30
0.0
 11
563.3361823318513
 21
41.45079642091594
 31
0.0
  0
LINE
  5
2A6
330
1F
100
AcDbEntity
  8
0
100
AcDbLine
 10
560.4862177134053
 20
41.45079642091594
 30
0.0
 11
558.2477918065213
 21
47.60082083497775
 31
0.0
  0
LINE
  5
2A7
330
1F
100
AcDbEntity
  8
0
100
AcDbLine
 10
298.072865281621
 20
66.65086966310366
 30
0.0
 11
317.1812585049638
 21
66.65086966310366
 31
0.0
  0
LINE
  5
2A8
330
1F
100
AcDbEntity
  8
0
100
AcDbLine
 10
317.1812585049611
 20
86.15078371353286
 30
0.0
 11
317.1812585049638
 21
46.25084524904184
 31
0.0
  0
LINE
  5
2A9
330
1F
100
AcDbEntity
  8
0
100
AcDbLine
 10
302.286238973712
 20
86.15078575731587
 30
0.0
 11
302.2862389737123
 21
66.65086966310468
 31
0.0
  0
LINE
  5
2AA
330
1F
100
AcDbEntity
  8
0
100
AcDbLine
 10
296.0763085537901
 20
46.25084524904184
 30
0.0
 11
317.1812585049638
 21
46.25084524904184
 31
0.0
  0
LINE
  5
2AB
330
1F
100
AcDbEntity
  8
0
100
AcDbLine
 10
270.2862084561342
 20
46.25084524904184
 30
0.0
 11
249.1812585049621
 21
46.25084524904184
 31
0.0
  0
LINE
  5
2AC
330
1F
100
AcDbEntity
  8
0
100
AcDbLine
 10
249.1812585049621
 20
66.65086966310366
 30
0.0
 11
268.2896517283028
 21
66.65086966310366
 31
0.0
  0
LINE
  5
2AD
330
1F
100
AcDbEntity
  8
0
100
AcDbLine
 10
249.1812585049621
 20
86.15079304398324
 30
0.0
 11
249.1812585049621
 21
46.25084524904184
 31
0.0
  0
LINE
  5
2AE
330
1F
100
AcDbEntity
  8
0
100
AcDbLine
 10
264.0762780362122
 20
86.15079100020034
 30
0.0
 11
264.0762780362122
 21
66.65086966310366
 31
0.0
  0
CIRCLE
  5
2AF
330
1F
100
AcDbEntity
  8
0
100
AcDbCircle
 10
283.1812585049622
 20
58.45081930910385
 30
0.0
 40
9.199999999999999
  0
LINE
  5
2B0
330
1F
100
AcDbEntity
  8
0
100
AcDbLine
 10
249.1812585049621
 20
78.65088492189238
 30
0.0
 11
317.1812585049618
 21
78.65088492189238
 31
0.0
  0
CIRCLE
  5
2B1
330
1F
100
AcDbEntity
  8
0
100
AcDbCircle
 10
283.1812585049622
 20
58.45081930910385
 30
0.0
 40
17.00002288818359
  0
TEXT
  5
2B2
330
1F
100
AcDbEntity
  8
0
100
AcDbText
 10
138.4499514755842
 20
823.8924605645642
 30
0.0
 40
48.000002
  1
DHC2S08RD000 15A
 41
1.32095
100
AcDbText
  0
LINE
  5
310
330
1F
100
AcDbEntity
  8
0
  6
CENTER
100
AcDbLine
 10
576.1661930666621
 20
58.45084186099348
 30
0.0
 11
442.5061715970407
 21
58.45084186099325
 31
0.0
  0
LINE
  5
311
330
1F
100
AcDbEntity
  8
0
  6
CENTER
100
AcDbLine
 10
509.3361823318514
 20
43.9693294497132
 30
0.0
 11
509.3361823318514
 21
218.4386088188688
 31
0.0
  0
LINE
  5
312
330
1F
100
AcDbEntity
  8
0
  6
CENTER
100
AcDbLine
 10
315.8277237902286
 20
58.45084186099768
 30
0.0
 11
250.5347932196957
 21
58.45084186099746
 31
0.0
  0
LINE
  5
313
330
1F
100
AcDbEntity
  8
0
  6
CENTER
100
AcDbLine
 10
283.1812585049622
 20
33.65456004563919
 30
0.0
 11
283.1812585049622
 21
222.1538028373315
 31
0.0
  0
LINE
  5
314
330
1F
100
AcDbEntity
  8
0
  6
CENTER
100
AcDbLine
 10
345.541778420471
 20
436.4821708769264
 30
0.0
 11
236.6532280225492
 21
436.4821708769262
 31
0.0
  0
LINE
  5
315
330
1F
100
AcDbEntity
  8
0
  6
CENTER
100
AcDbLine
 10
283.1812602402205
 20
370.1770662629933
 30
0.0
 11
283.1812602402205
 21
502.7872754908594
 31
0.0
  0
LINE
  5
477
330
1F
100
AcDbEntity
  8
Visible (ISO)
100
AcDbLine
 10
1216.826709971074
 20
126.0408000045277
 30
0.0
 11
1221.707549687983
 21
115.0782545128164
 31
0.0
  0
LINE
  5
478
330
1F
100
AcDbEntity
  8
Visible (ISO)
100
AcDbLine
 10
1220.947336466133
 20
113.0978313617384
 30
0.0
 11
1214.846286819996
 21
126.8010132263776
 31
0.0
  0
LINE
  5
479
330
1F
100
AcDbEntity
  8
Visible (ISO)
100
AcDbLine
 10
1221.707549687983
 20
115.0782545128164
 30
0.0
 11
1220.947336466134
 21
113.0978313617384
 31
0.0
  0
LINE
  5
47A
330
1F
100
AcDbEntity
  8
Visible (ISO)
100
AcDbLine
 10
1216.826709971074
 20
126.0408000045273
 30
0.0
 11
1214.846286819996
 21
126.8010132263776
 31
0.0
  0
LINE
  5
47B
330
1F
100
AcDbEntity
  8
Visible (ISO)
100
AcDbLine
 10
1179.317332905942
 20
136.5304401918266
 30
0.0
 11
1204.40419929456
 21
80.18441574096971
 31
0.0
  0
ARC
  5
47C
330
1F
100
AcDbEntity
  8
Visible (ISO)
100
AcDbCircle
 10
1173.836060160086
 20
134.0900203333718
 30
0.0
 40
5.999999999999969
100
AcDbArc
 50
24.00000000000265
 51
93.99999999998344
  0
ARC
  5
47D
330
1F
100
AcDbEntity
  8
Visible (ISO)
100
AcDbCircle
 10
1198.922926548704
 20
77.74399588251447
 30
0.0
 40
5.999999999999968
100
AcDbArc
 50
314.0000000000115
 51
24.00000000000265
  0
LINE
  5
47E
330
1F
100
AcDbEntity
  8
Visible (ISO)
100
AcDbLine
 10
1161.684750191042
 20
139.2549693547863
 30
0.0
 11
1194.630418280181
 21
65.25778728573562
 31
0.0
  0
LINE
  5
47F
330
1F
100
AcDbEntity
  8
Visible (ISO)
100
AcDbLine
 10
1186.260077311568
 20
133.2297476228419
 30
0.0
 11
1206.596909465357
 21
87.55247474071177
 31
0.0
  0
LINE
  5
480
330
1F
100
AcDbEntity
  8
Visible (ISO)
100
AcDbLine
 10
1125.599704614159
 20
123.1888719532927
 30
0.0
 11
1158.545372703298
 21
49.19168988424201
 31
0.0
  0
LINE
  5
481
330
1F
100
AcDbEntity
  8
Visible (ISO)
100
AcDbLine
 10
1117.017870959489
 20
126.4831292479763
 30
0.0
 11
1155.251115408615
 21
40.60985622957253
 31
0.0
  0
LINE
  5
482
330
1F
100
AcDbEntity
  8
Visible (ISO)
100
AcDbLine
 10
1101.487598179565
 20
119.5686063156878
 30
0.0
 11
1139.720842628691
 21
33.69533329728403
 31
0.0
  0
LINE
  5
483
330
1F
100
AcDbEntity
  8
Visible (ISO)
100
AcDbLine
 10
1220.947336466134
 20
113.0978313617384
 30
0.0
 11
1199.479018211532
 21
103.5395202494574
 31
0.0
  0
LINE
  5
484
330
1F
100
AcDbEntity
  8
Visible (ISO)
100
AcDbLine
 10
1214.846286819996
 20
126.8010132263776
 30
0.0
 11
1193.377968565395
 21
117.2427021140966
 31
0.0
  0
LINE
  5
485
330
1F
100
AcDbEntity
  8
Visible (ISO)
100
AcDbLine
 10
1203.090876771457
 20
73.42795708048254
 30
0.0
 11
1194.630418280181
 21
65.25778728573607
 31
0.0
  0
LINE
  5
486
330
1F
100
AcDbEntity
  8
Visible (ISO)
100
AcDbLine
 10
1173.417521317621
 20
140.0754046349308
 30
0.0
 11
1161.684750191042
 21
139.2549693547863
 31
0.0
  0
LINE
  5
487
330
1F
100
AcDbEntity
  8
Visible (ISO)
100
AcDbLine
 10
1206.596909465358
 20
87.55247474071223
 30
0.0
 11
1202.029182177145
 21
85.51879152533331
 31
0.0
  0
LINE
  5
488
330
1F
100
AcDbEntity
  8
Visible (ISO)
100
AcDbLine
 10
1186.260077311568
 20
133.2297476228419
 30
0.0
 11
1181.692350023355
 21
131.196064407463
 31
0.0
  0
LINE
  5
489
330
1F
100
AcDbEntity
  8
Visible (ISO)
100
AcDbLine
 10
1194.630418280181
 20
65.25778728573607
 30
0.0
 11
1158.545372703298
 21
49.19168988424201
 31
0.0
  0
LINE
  5
48A
330
1F
100
AcDbEntity
  8
Visible (ISO)
100
AcDbLine
 10
1161.684750191042
 20
139.2549693547863
 30
0.0
 11
1125.599704614159
 21
123.1888719532922
 31
0.0
  0
LINE
  5
48B
330
1F
100
AcDbEntity
  8
Visible (ISO)
100
AcDbLine
 10
1158.545372703298
 20
49.19168988424201
 30
0.0
 11
1155.251115408614
 21
40.60985622957253
 31
0.0
  0
LINE
  5
48C
330
1F
100
AcDbEntity
  8
Visible (ISO)
100
AcDbLine
 10
1125.599704614159
 20
123.1888719532922
 30
0.0
 11
1117.017870959489
 21
126.4831292479767
 31
0.0
  0
LINE
  5
48D
330
1F
100
AcDbEntity
  8
Visible (ISO)
100
AcDbLine
 10
1155.251115408614
 20
40.60985622957253
 30
0.0
 11
1139.720842628691
 21
33.69533329728403
 31
0.0
  0
LINE
  5
48E
330
1F
100
AcDbEntity
  8
Visible (ISO)
100
AcDbLine
 10
1117.017870959489
 20
126.4831292479767
 30
0.0
 11
1101.487598179566
 21
119.5686063156878
 31
0.0
  0
LINE
  5
48F
330
1F
100
AcDbEntity
  8
Visible (ISO)
100
AcDbLine
 10
1128.738953265643
 20
58.36106065363413
 30
0.0
 11
1113.391389577248
 21
51.52788504996045
 31
0.0
  0
LINE
  5
490
330
1F
100
AcDbEntity
  8
Visible (ISO)
100
AcDbLine
 10
1112.469487542612
 20
94.90287895933773
 30
0.0
 11
1097.121923854216
 21
88.0697033556645
 31
0.0
  0
LINE
  5
491
330
1F
100
AcDbEntity
  8
Visible (ISO)
100
AcDbLine
 10
1101.08885706475
 20
30.72553677437065
 30
0.0
 11
1095.030503855241
 21
44.33282087223154
 31
0.0
  0
LINE
  5
492
330
1F
100
AcDbEntity
  8
Visible (ISO)
100
AcDbLine
 10
1093.316774000697
 20
48.18192114607256
 30
0.0
 11
1095.030503855241
 21
44.33282087223199
 31
0.0
  0
LINE
  5
493
330
1F
100
AcDbEntity
  8
Visible (ISO)
100
AcDbLine
 10
1079.489118545107
 20
79.23934379620653
 30
0.0
 11
1081.202848399649
 21
75.39024352236549
 31
0.0
  0
LINE
  5
494
330
1F
100
AcDbEntity
  8
Visible (ISO)
100
AcDbLine
 10
1079.489118545107
 20
79.23934379620653
 30
0.0
 11
1073.430765335596
 21
92.84662789406695
 31
0.0
  0
LINE
  5
495
330
1F
100
AcDbEntity
  8
Visible (ISO)
100
AcDbLine
 10
1105.993049346951
 20
49.21366058914157
 30
0.0
 11
1095.03050385524
 21
44.33282087223199
 31
0.0
  0
LINE
  5
496
330
1F
100
AcDbEntity
  8
Visible (ISO)
100
AcDbLine
 10
1105.993049346951
 20
49.21366058914157
 30
0.0
 11
1090.451664036818
 21
84.12018351311564
 31
0.0
  0
LINE
  5
497
330
1F
100
AcDbEntity
  8
Visible (ISO)
100
AcDbLine
 10
1090.451664036818
 20
84.12018351311564
 30
0.0
 11
1079.489118545107
 21
79.23934379620653
 31
0.0
  0
LINE
  5
498
330
1F
100
AcDbEntity
  8
Visible (ISO)
100
AcDbLine
 10
1084.393310827307
 20
97.727467610977
 30
0.0
 11
1090.451664036818
 21
84.12018351311564
 31
0.0
  0
LINE
  5
499
330
1F
100
AcDbEntity
  8
Visible (ISO)
100
AcDbLine
 10
1105.993049346951
 20
49.21366058914157
 30
0.0
 11
1112.051402556461
 21
35.60637649128023
 31
0.0
  0
LINE
  5
49A
330
1F
100
AcDbEntity
  8
Visible (ISO)
100
AcDbLine
 10
1084.393310827307
 20
97.727467610977
 30
0.0
 11
1073.430765335596
 21
92.84662789406741
 31
0.0
  0
LINE
  5
49B
330
1F
100
AcDbEntity
  8
Visible (ISO)
100
AcDbLine
 10
1112.051402556461
 20
35.60637649128023
 30
0.0
 11
1101.08885706475
 21
30.7255367743711
 31
0.0
  0
LINE
  5
49C
330
1F
100
AcDbEntity
  8
Visible (ISO)
100
AcDbLine
 10
1091.659624548303
 20
46.30148682717719
 30
0.0
 11
1094.153997300308
 21
46.30148682717719
 31
0.0
  0
LINE
  5
49D
330
1F
100
AcDbEntity
  8
Visible (ISO)
100
AcDbLine
 10
1080.365625100038
 20
77.27067784126131
 30
0.0
 11
1078.696563948004
 21
75.41699763779672
 31
0.0
  0
LINE
  5
49E
330
1F
100
AcDbEntity
  8
Visible (ISO)
100
AcDbLine
 10
1069.805337036238
 20
85.50033516146106
 30
0.0
 11
1073.262598502382
 21
77.73519877149886
 31
0.0
  0
LINE
  5
49F
330
1F
100
AcDbEntity
  8
Visible (ISO)
100
AcDbLine
 10
1069.805337036238
 20
85.50033516146106
 30
0.0
 11
1075.560673419386
 21
88.06277601283829
 31
0.0
  0
LINE
  5
4A0
330
1F
100
AcDbEntity
  8
Visible (ISO)
100
AcDbLine
 10
1073.262598502382
 20
77.73519877149886
 30
0.0
 11
1079.017934885531
 21
80.29763962287654
 31
0.0
  0
LINE
  5
4A1
330
1F
100
AcDbEntity
  8
Visible (ISO)
100
AcDbLine
 10
1093.203612597812
 20
32.94694780422253
 30
0.0
 11
1089.746351131667
 21
40.71208419418428
 31
0.0
  0
LINE
  5
4A2
330
1F
100
AcDbEntity
  8
Visible (ISO)
100
AcDbLine
 10
1098.958948980961
 20
35.50938865559976
 30
0.0
 11
1093.203612597812
 21
32.94694780422253
 31
0.0
  0
LINE
  5
4A3
330
1F
100
AcDbEntity
  8
Visible (ISO)
100
AcDbLine
 10
1095.501687514816
 20
43.27452504556197
 30
0.0
 11
1089.746351131667
 21
40.71208419418428
 31
0.0
  0
CIRCLE
  5
4A4
330
1F
100
AcDbEntity
  8
Visible (ISO)
100
AcDbCircle
 10
1079.768738447504
 20
58.45084186099768
 30
0.0
 40
16.9999999999999
  0
CIRCLE
  5
4A5
330
1F
100
AcDbEntity
  8
Visible (ISO)
100
AcDbCircle
 10
1079.768738447504
 20
58.45084186099768
 30
0.0
 40
9.199999999999944
  0
LINE
  5
4A6
330
1F
100
AcDbEntity
  8
Visible (ISO)
100
AcDbLine
 10
1118.172157122667
 20
38.33151199988799
 30
0.0
 11
1112.113803913157
 21
51.93879609774933
 31
0.0
  0
SPLINE
  5
4A7
330
1F
100
AcDbEntity
  8
Visible (ISO)
100
AcDbSpline
210
0.0
220
0.0
230
1.0
 70
    24
 71
     3
 72
     8
 73
     4
 74
     0
 42
0.0000000001
 43
0.0000000001
 40
-0.1438477767740453
 40
-0.1438477767740453
 40
-0.1438477767740453
 40
-0.1438477767740453
 40
0.0
 40
0.0
 40
0.0
 40
0.0
 10
1118.172157122667
 20
38.33151199988845
 30
0.0
 10
1118.34112296495
 20
38.77168306792657
 30
0.0
 10
1118.510078803163
 20
39.2118280744736
 30
0.0
 10
1118.678965937234
 20
39.65179410060648
 30
0.0
  0
LINE
  5
4A8
330
1F
100
AcDbEntity
  8
Visible (ISO)
100
AcDbLine
 10
1112.920162269414
 20
52.58627891222534
 30
0.0
 11
1118.678965937234
 21
39.65179410060648
 31
0.0
  0
SPLINE
  5
4A9
330
1F
100
AcDbEntity
  8
Visible (ISO)
100
AcDbSpline
210
0.0
220
0.0
230
1.0
 70
     8
 71
     3
 72
     8
 73
     4
 74
     0
 42
0.0000000001
 43
0.0000000001
 40
-0.143847776773972
 40
-0.143847776773972
 40
-0.143847776773972
 40
-0.143847776773972
 40
0.0
 40
0.0
 40
0.0
 40
0.0
 10
1112.113803913157
 20
51.93879609774933
 30
0.0
 10
1112.382883542545
 20
52.15410791837587
 30
0.0
 10
1112.651704123664
 20
52.36995303993865
 30
0.0
 10
1112.920162269414
 20
52.58627891222534
 30
0.0
  0
SPLINE
  5
4AA
330
1F
100
AcDbEntity
  8
Visible (ISO)
100
AcDbSpline
210
0.0
220
0.0
230
1.0
 70
    24
 71
     3
 72
     8
 73
     4
 74
     0
 42
0.0000000001
 43
0.0000000001
 40
-0.1438477767740034
 40
-0.1438477767740034
 40
-0.1438477767740034
 40
-0.1438477767740034
 40
0.0
 40
0.0
 40
0.0
 40
0.0
 10
1090.514065393512
 20
100.4526031195847
 30
0.0
 10
1090.954236461552
 20
100.2836372773018
 30
0.0
 10
1091.394381468098
 20
100.1146814390882
 30
0.0
 10
1091.83434749423
 20
99.94579430501801
 30
0.0
  0
LINE
  5
4AB
330
1F
100
AcDbEntity
  8
Visible (ISO)
100
AcDbLine
 10
1096.572418603024
 20
86.84531902172386
 30
0.0
 11
1090.514065393513
 21
100.4526031195847
 31
0.0
  0
SPLINE
  5
4AC
330
1F
100
AcDbEntity
  8
Visible (ISO)
100
AcDbSpline
210
0.0
220
0.0
230
1.0
 70
     8
 71
     3
 72
     8
 73
     4
 74
     0
 42
0.0000000001
 43
0.0000000001
 40
-0.1438477767741397
 40
-0.1438477767741397
 40
-0.1438477767741397
 40
-0.1438477767741397
 40
0.0
 40
0.0
 40
0.0
 40
0.0
 10
1096.572418603024
 20
86.84531902172386
 30
0.0
 10
1096.912475883957
 20
86.90121242685256
 30
0.0
 10
1097.252756147597
 20
86.9565564736232
 30
0.0
 10
1097.593151162051
 20
87.0113094933996
 30
0.0
  0
LINE
  5
4AD
330
1F
100
AcDbEntity
  8
Visible (ISO)
100
AcDbLine
 10
1091.83434749423
 20
99.94579430501801
 30
0.0
 11
1097.593151162051
 21
87.0113094933996
 31
0.0
  0
LINE
  5
4AE
330
1F
100
AcDbEntity
  8
Visible (ISO)
100
AcDbLine
 10
1096.572418603024
 20
86.84531902172386
 30
0.0
 11
1112.113803913157
 21
51.93879609774933
 31
0.0
  0
LINE
  5
4AF
330
1F
100
AcDbEntity
  8
Visible (ISO)
100
AcDbLine
 10
1112.920162269414
 20
52.58627891222534
 30
0.0
 11
1097.593151162051
 21
87.0113094933996
 31
0.0
  0
LINE
  5
4B0
330
1F
100
AcDbEntity
  8
Visible (ISO)
100
AcDbLine
 10
1085.306856284949
 20
98.13420425405286
 30
0.0
 11
1091.36520949446
 21
84.52692015619152
 31
0.0
  0
SPLINE
  5
4B1
330
1F
100
AcDbEntity
  8
Visible (ISO)
100
AcDbSpline
210
0.0
220
0.0
230
1.0
 70
    24
 71
     3
 72
     8
 73
     4
 74
     0
 42
0.0000000001
 43
0.0000000001
 40
-0.1438477443679524
 40
-0.1438477443679524
 40
-0.1438477443679524
 40
-0.1438477443679524
 40
0.0
 40
0.0
 40
0.0
 40
0.0
 10
1111.644665913385
 20
36.51992194892284
 30
0.0
 10
1112.084631939519
 20
36.3510348148535
 30
0.0
 10
1112.524776946064
 20
36.1820789766399
 30
0.0
 10
1112.964948014104
 20
36.01311313435656
 30
0.0
  0
SPLINE
  5
4B2
330
1F
100
AcDbEntity
  8
Visible (ISO)
100
AcDbSpline
210
0.0
220
0.0
230
1.0
 70
    24
 71
     3
 72
     8
 73
     4
 74
     0
 42
0.0000000001
 43
0.0000000001
 40
-0.1438477443678875
 40
-0.1438477443678875
 40
-0.1438477443678875
 40
-0.1438477443678875
 40
0.0
 40
0.0
 40
0.0
 40
0.0
 10
1084.800047470384
 20
96.81392215333438
 30
0.0
 10
1084.968934604453
 20
97.25388817946679
 30
0.0
 10
1085.137890442666
 20
97.69403318601291
 30
0.0
 10
1085.306856284949
 20
98.13420425405286
 30
0.0
  0
SPLINE
  5
4B3
330
1F
100
AcDbEntity
  8
Visible (ISO)
100
AcDbSpline
210
0.0
220
0.0
230
1.0
 70
     8
 71
     3
 72
     8
 73
     4
 74
     0
 42
0.0000000001
 43
0.0000000001
 40
-0.1438477443679163
 40
-0.1438477443679163
 40
-0.1438477443679163
 40
-0.1438477443679163
 40
0.0
 40
0.0
 40
0.0
 40
0.0
 10
1090.558851138203
 20
83.87943734171598
 30
0.0
 10
1090.827309283952
 20
84.09576321400221
 30
0.0
 10
1091.096129865071
 20
84.31160833556452
 30
0.0
 10
1091.365209494461
 20
84.52692015619197
 30
0.0
  0
SPLINE
  5
4B4
330
1F
100
AcDbEntity
  8
Visible (ISO)
100
AcDbSpline
210
0.0
220
0.0
230
1.0
 70
     8
 71
     3
 72
     8
 73
     4
 74
     0
 42
0.0000000001
 43
0.0000000001
 40
-0.1438477443668809
 40
-0.1438477443668809
 40
-0.1438477443668809
 40
-0.1438477443668809
 40
0.0
 40
0.0
 40
0.0
 40
0.0
 10
1105.885862245566
 20
49.4544067605417
 30
0.0
 10
1106.22625726002
 20
49.5091597803181
 30
0.0
 10
1106.566537523662
 20
49.56450382708874
 30
0.0
 10
1106.906594804594
 20
49.62039723221744
 30
0.0
  0
LINE
  5
4B5
330
1F
100
AcDbEntity
  8
Visible (ISO)
100
AcDbLine
 10
1106.906594804594
 20
49.62039723221744
 30
0.0
 11
1091.365209494461
 21
84.52692015619197
 31
0.0
  0
LINE
  5
4B6
330
1F
100
AcDbEntity
  8
Visible (ISO)
100
AcDbLine
 10
1106.906594804594
 20
49.62039723221699
 30
0.0
 11
1112.964948014103
 21
36.0131131343561
 31
0.0
  0
LINE
  5
4B7
330
1F
100
AcDbEntity
  8
Visible (ISO)
100
AcDbLine
 10
1090.514065393512
 20
100.4526031195847
 30
0.0
 11
1085.306856284949
 21
98.13420425405286
 31
0.0
  0
LINE
  5
4B8
330
1F
100
AcDbEntity
  8
Visible (ISO)
100
AcDbLine
 10
1096.572418603024
 20
86.84531902172386
 30
0.0
 11
1091.365209494461
 21
84.52692015619197
 31
0.0
  0
LINE
  5
4B9
330
1F
100
AcDbEntity
  8
Visible (ISO)
100
AcDbLine
 10
1112.113803913157
 20
51.93879609774933
 30
0.0
 11
1106.906594804594
 21
49.62039723221744
 31
0.0
  0
LINE
  5
4BA
330
1F
100
AcDbEntity
  8
Visible (ISO)
100
AcDbLine
 10
1118.172157122667
 20
38.33151199988845
 30
0.0
 11
1112.964948014104
 21
36.01311313435656
 31
0.0
  0
ELLIPSE
  5
4BB
330
1F
100
AcDbEntity
  8
Visible (ISO)
100
AcDbEllipse
 10
1219.267129829528
 20
428.9767543492081
 30
0.0
 11
-0.0000000000000005
 21
5.999999999999971
 31
0.0
210
0.0
220
0.0
230
1.0
 40
0.4067366430757994
 41
0.0
 42
6.283185307179585
  0
ELLIPSE
  5
4BC
330
1F
100
AcDbEntity
  8
Visible (ISO)
100
AcDbEllipse
 10
1217.896811643063
 20
428.9767543492081
 30
0.0
 11
-0.0000000000009959
 21
7.499999999999962
 31
0.0
210
0.0
220
0.0
230
1.0
 40
0.4067366430757994
 41
5.821755667209547
 42
9.886207600738789
  0
LINE
  5
4BD
330
1F
100
AcDbEntity
  8
Visible (ISO)
100
AcDbLine
 10
1220.353674754708
 20
423.6042529727511
 30
0.0
 11
1219.25499279954
 21
422.2611276286371
 31
0.0
  0
LINE
  5
4BE
330
1F
100
AcDbEntity
  8
Visible (ISO)
100
AcDbLine
 10
1220.353674754708
 20
434.3492557256633
 30
0.0
 11
1219.25499279954
 21
435.6923810697773
 31
0.0
  0
ELLIPSE
  5
4BF
330
1F
100
AcDbEntity
  8
Visible (ISO)
100
AcDbEllipse
 10
1196.428493388463
 20
428.9767543492054
 30
0.0
 11
0.000000000000008
 21
-7.499999999999968
 31
0.0
210
0.0
220
0.0
230
1.0
 40
0.4067366430757994
 41
3.141592653593054
 42
6.283185307182847
  0
ELLIPSE
  5
4C0
330
1F
100
AcDbEntity
  8
Visible (ISO)
100
AcDbEllipse
 10
1191.86076610025
 20
428.9767543492045
 30
0.0
 11
0.0000000000000079
 21
-24.99999999999989
 31
0.0
210
0.0
220
0.0
230
1.0
 40
0.4067366430757994
 41
3.141592653593042
 42
6.283185307182905
  0
ELLIPSE
  5
4C1
330
1F
100
AcDbEntity
  8
Visible (ISO)
100
AcDbEllipse
 10
1178.157584235611
 20
428.9767543492026
 30
0.0
 11
0.0000000000053783
 21
-40.49999999999982
 31
0.0
210
0.0
220
0.0
230
1.0
 40
0.4067366430757993
 41
2.978824905942628
 42
6.445953054826093
  0
ELLIPSE
  5
4C2
330
1F
100
AcDbEntity
  8
Visible (ISO)
100
AcDbEllipse
 10
1196.428493388463
 20
428.9767543492054
 30
0.0
 11
0.0000000000033196
 21
-24.99999999999989
 31
0.0
210
0.0
220
0.0
230
1.0
 40
0.4067366430757994
 41
1.875488980809938
 42
7.549288979958747
  0
ELLIPSE
  5
4C3
330
1F
100
AcDbEntity
  8
Visible (ISO)
100
AcDbEllipse
 10
1142.072538658728
 20
428.9767543491981
 30
0.0
 11
0.0000000000000128
 21
-40.49999999999982
 31
0.0
210
0.0
220
0.0
230
1.0
 40
0.4067366430757994
 41
3.141592653593074
 42
6.283185307182867
  0
ELLIPSE
  5
4C4
330
1F
100
AcDbEntity
  8
Visible (ISO)
100
AcDbEllipse
 10
1136.134493184052
 20
428.9767543491972
 30
0.0
 11
0.0000000000062395
 21
-46.99999999999978
 31
0.0
210
0.0
220
0.0
230
1.0
 40
0.4067366430757994
 41
2.680163013619647
 42
6.744614947149079
  0
ELLIPSE
  5
4C5
330
1F
100
AcDbEntity
  8
Visible (ISO)
100
AcDbEllipse
 10
1120.604220404127
 20
428.9767543491953
 30
0.0
 11
0.0000000000000148
 21
-46.9999999999998
 31
0.0
210
0.0
220
0.0
230
1.0
 40
0.4067366430757994
 41
3.14159265359307
 42
6.283185307182863
  0
ELLIPSE
  5
4C6
330
1F
100
AcDbEntity
  8
Visible (ISO)
100
AcDbEllipse
 10
1105.256656715732
 20
428.9767543491936
 30
0.0
 11
0.0000000000026555
 21
-19.99999999999991
 31
0.0
210
0.0
220
0.0
230
1.0
 40
0.4067366430757994
 41
3.399651621462518
 42
6.025126339306291
  0
LINE
  5
4C7
330
1F
100
AcDbEntity
  8
Visible (ISO)
100
AcDbLine
 10
1217.896811643063
 20
421.4767543492081
 30
0.0
 11
1196.428493388463
 21
421.4767543492054
 31
0.0
  0
LINE
  5
4C8
330
1F
100
AcDbEntity
  8
Visible (ISO)
100
AcDbLine
 10
1217.896811643063
 20
436.4767543492072
 30
0.0
 11
1196.428493388463
 21
436.4767543492044
 31
0.0
  0
LINE
  5
4C9
330
1F
100
AcDbEntity
  8
Visible (ISO)
100
AcDbLine
 10
1190.658482505407
 20
392.981535007647
 30
0.0
 11
1180.827006809583
 21
389.0120610718405
 31
0.0
  0
LINE
  5
4CA
330
1F
100
AcDbEntity
  8
Visible (ISO)
100
AcDbLine
 10
1190.658482505407
 20
464.9719736907574
 30
0.0
 11
1180.827006809583
 21
468.9414476265612
 31
0.0
  0
LINE
  5
4CB
330
1F
100
AcDbEntity
  8
Visible (ISO)
100
AcDbLine
 10
1196.428493388463
 20
403.9767543492054
 30
0.0
 11
1191.86076610025
 21
403.9767543492045
 31
0.0
  0
LINE
  5
4CC
330
1F
100
AcDbEntity
  8
Visible (ISO)
100
AcDbLine
 10
1196.428493388463
 20
453.9767543492054
 30
0.0
 11
1191.86076610025
 21
453.9767543492045
 31
0.0
  0
LINE
  5
4CD
330
1F
100
AcDbEntity
  8
Visible (ISO)
100
AcDbLine
 10
1178.157584235611
 20
388.4767543492026
 30
0.0
 11
1142.072538658728
 21
388.4767543491981
 31
0.0
  0
LINE
  5
4CE
330
1F
100
AcDbEntity
  8
Visible (ISO)
100
AcDbLine
 10
1178.157584235611
 20
469.4767543492027
 30
0.0
 11
1142.072538658728
 21
469.4767543491972
 31
0.0
  0
LINE
  5
4CF
330
1F
100
AcDbEntity
  8
Visible (ISO)
100
AcDbLine
 10
1145.941966149932
 20
388.4767543491926
 30
0.0
 11
1144.645761764634
 21
386.8921602336186
 31
0.0
  0
LINE
  5
4D0
330
1F
100
AcDbEntity
  8
Visible (ISO)
100
AcDbLine
 10
1145.941966149932
 20
469.4767543491917
 30
0.0
 11
1144.645761764634
 21
471.0613484647648
 31
0.0
  0
LINE
  5
4D1
330
1F
100
AcDbEntity
  8
Visible (ISO)
100
AcDbLine
 10
1136.134493184052
 20
381.9767543491972
 30
0.0
 11
1120.604220404127
 21
381.9767543491954
 31
0.0
  0
LINE
  5
4D2
330
1F
100
AcDbEntity
  8
Visible (ISO)
100
AcDbLine
 10
1136.134493184052
 20
475.9767543491972
 30
0.0
 11
1120.604220404127
 21
475.9767543491953
 31
0.0
  0
ELLIPSE
  5
4D3
330
1F
100
AcDbEntity
  8
Visible (ISO)
100
AcDbEllipse
 10
1089.002505359506
 20
410.3177082856937
 30
0.0
 11
-16.45120049422627
 21
-0.0000000000053888
 31
0.0
210
0.0
220
0.0
230
1.0
 40
0.6078583750474359
 41
5.95472844118816
 42
6.047011617054969
  0
ELLIPSE
  5
4D4
330
1F
100
AcDbEntity
  8
Visible (ISO)
100
AcDbEllipse
 10
1089.002505359506
 20
447.6358004127034
 30
0.0
 11
-16.45120049422627
 21
-0.0000000000053899
 31
0.0
210
0.0
220
0.0
230
1.0
 40
0.6078583750474359
 41
0.2361736901266638
 42
0.3284568659934533
  0
ELLIPSE
  5
4D5
330
1F
100
AcDbEntity
  8
Visible (ISO)
100
AcDbEllipse
 10
1087.259811200173
 20
428.9767543491908
 30
0.0
 11
0.000000000005175
 21
-38.99999999999973
 31
0.0
210
0.0
220
0.0
230
1.0
 40
0.4067366430757995
 41
5.224330879368509
 42
5.771243408195108
  0
LINE
  5
4D6
330
1F
100
AcDbEntity
  8
Visible (ISO)
100
AcDbLine
 10
1073.430765335595
 20
448.0817275237424
 30
0.0
 11
1073.430765335595
 21
409.8717811746574
 31
0.0
  0
ELLIPSE
  5
4D7
330
1F
100
AcDbEntity
  8
Visible (ISO)
100
AcDbEllipse
 10
1087.259811200173
 20
428.9767543491908
 30
0.0
 11
0.0000000000068154
 21
-38.99999999999986
 31
0.0
210
0.0
220
0.0
230
1.0
 40
0.4067366430757994
 41
3.653534552572725
 42
4.200447081399708
  0
LINE
  5
4D8
330
1F
100
AcDbEntity
  8
Visible (ISO)
100
AcDbLine
 10
1091.36520949446
 20
394.9767543491972
 30
0.0
 11
1090.451664036817
 21
394.9767543491981
 31
0.0
  0
LINE
  5
4D9
330
1F
100
AcDbEntity
  8
Visible (ISO)
100
AcDbLine
 10
1090.451664036817
 20
394.9767543491981
 30
0.0
 11
1079.489118545106
 21
394.9767543491963
 31
0.0
  0
LINE
  5
4DA
330
1F
100
AcDbEntity
  8
Visible (ISO)
100
AcDbLine
 10
1090.451664036817
 20
462.9767543491972
 30
0.0
 11
1079.489118545106
 21
462.9767543491953
 31
0.0
  0
LINE
  5
4DB
330
1F
100
AcDbEntity
  8
Visible (ISO)
100
AcDbLine
 10
1090.451664036817
 20
462.9767543491972
 30
0.0
 11
1091.36520949446
 21
462.9767543491963
 31
0.0
  0
LINE
  5
4DC
330
1F
100
AcDbEntity
  8
Visible (ISO)
100
AcDbLine
 10
1084.393310827307
 20
409.8717811746584
 30
0.0
 11
1084.393310827307
 21
448.0817275237442
 31
0.0
  0
ELLIPSE
  5
4DD
330
1F
100
AcDbEntity
  8
Visible (ISO)
100
AcDbEllipse
 10
1098.222356691884
 20
428.9767543491926
 30
0.0
 11
-0.0000000000035347
 21
38.99999999999982
 31
0.0
210
0.0
220
0.0
230
1.0
 40
0.4067366430757994
 41
2.08273822577923
 42
2.629650754606167
  0
ELLIPSE
  5
4DE
330
1F
100
AcDbEntity
  8
Visible (ISO)
100
AcDbEllipse
 10
1098.222356691884
 20
428.9767543491926
 30
0.0
 11
-0.0000000000051792
 21
38.9999999999997
 31
0.0
210
0.0
220
0.0
230
1.0
 40
0.4067366430757995
 41
0.5119418989838121
 42
1.058854427810462
  0
ELLIPSE
  5
4DF
330
1F
100
AcDbEntity
  8
Visible (ISO)
100
AcDbEllipse
 10
1098.222356691884
 20
428.9767543491926
 30
0.0
 11
0.0000000000050474
 21
-38.0
 31
0.0
210
0.0
220
0.0
230
1.0
 40
0.4067366430757992
 41
5.231176391947913
 42
5.764397895615712
  0
LINE
  5
4E0
330
1F
100
AcDbEntity
  8
Visible (ISO)
100
AcDbLine
 10
1084.800047470382
 20
447.8181980306182
 30
0.0
 11
1084.800047470382
 21
410.1353106677844
 31
0.0
  0
ELLIPSE
  5
4E1
330
1F
100
AcDbEntity
  8
Visible (ISO)
100
AcDbEllipse
 10
1098.222356691884
 20
428.9767543491926
 30
0.0
 11
0.0000000000066447
 21
-37.99999999999974
 31
0.0
210
0.0
220
0.0
230
1.0
 40
0.4067366430757994
 41
3.66038006515216
 42
4.193601568820305
  0
LINE
  5
4E2
330
1F
100
AcDbEntity
  8
Visible (ISO)
100
AcDbLine
 10
1084.393310827307
 20
409.8717811746584
 30
0.0
 11
1073.430765335595
 21
409.8717811746574
 31
0.0
  0
LINE
  5
4E3
330
1F
100
AcDbEntity
  8
Visible (ISO)
100
AcDbLine
 10
1084.393310827307
 20
448.0817275237442
 30
0.0
 11
1073.430765335595
 21
448.0817275237424
 31
0.0
  0
LINE
  5
4E4
330
1F
100
AcDbEntity
  8
Visible (ISO)
100
AcDbLine
 10
1072.55130486528
 20
394.9767543491926
 30
0.0
 11
1072.55130486528
 21
404.1575508392244
 31
0.0
  0
LINE
  5
4E5
330
1F
100
AcDbEntity
  8
Visible (ISO)
100
AcDbLine
 10
1079.489118545106
 20
394.9767543491944
 30
0.0
 11
1072.55130486528
 21
394.9767543491926
 31
0.0
  0
LINE
  5
4E6
330
1F
100
AcDbEntity
  8
Visible (ISO)
100
AcDbLine
 10
1072.55130486528
 20
462.9767543491927
 30
0.0
 11
1079.489118545106
 21
462.9767543491936
 31
0.0
  0
LINE
  5
4E7
330
1F
100
AcDbEntity
  8
Visible (ISO)
100
AcDbLine
 10
1072.55130486528
 20
453.7959578591627
 30
0.0
 11
1072.55130486528
 21
462.9767543491927
 31
0.0
  0
ELLIPSE
  5
4E8
330
1F
100
AcDbEntity
  8
Visible (ISO)
100
AcDbEllipse
 10
1071.53396776931
 20
449.5459578591663
 30
0.0
 11
0.0000000000000069
 21
4.249999999999978
 31
0.0
210
0.0
220
0.0
230
1.0
 40
0.4067366430757994
 41
0.0000000000033148
 42
3.141592653593107
  0
ELLIPSE
  5
4E9
330
1F
100
AcDbEntity
  8
Visible (ISO)
100
AcDbEllipse
 10
1071.53396776931
 20
408.4075508392271
 30
0.0
 11
0.0000000000000004
 21
-4.249999999999978
 31
0.0
210
0.0
220
0.0
230
1.0
 40
0.4067366430757994
 41
3.141592653593082
 42
6.283185307182876
  0
LINE
  5
4EA
330
1F
100
AcDbEntity
  8
Visible (ISO)
100
AcDbLine
 10
1073.430765335595
 20
445.2959578591664
 30
0.0
 11
1071.53396776931
 21
445.2959578591654
 31
0.0
  0
LINE
  5
4EB
330
1F
100
AcDbEntity
  8
Visible (ISO)
100
AcDbLine
 10
1075.023815885052
 20
453.7959578591664
 30
0.0
 11
1071.53396776931
 21
453.7959578591654
 31
0.0
  0
LINE
  5
4EC
330
1F
100
AcDbEntity
  8
Visible (ISO)
100
AcDbLine
 10
1071.53396776931
 20
412.6575508392281
 30
0.0
 11
1073.430765335595
 21
412.6575508392281
 31
0.0
  0
LINE
  5
4ED
330
1F
100
AcDbEntity
  8
Visible (ISO)
100
AcDbLine
 10
1071.53396776931
 20
404.1575508392271
 30
0.0
 11
1075.023815885052
 21
404.1575508392281
 31
0.0
  0
LINE
  5
4EE
330
1F
100
AcDbEntity
  8
Visible (ISO)
100
AcDbLine
 10
1072.55130486528
 20
462.9767543491927
 30
0.0
 11
1066.727165999574
 21
462.9767543491908
 31
0.0
  0
LINE
  5
4EF
330
1F
100
AcDbEntity
  8
Visible (ISO)
100
AcDbLine
 10
1066.727165999574
 20
394.9767543491917
 30
0.0
 11
1072.55130486528
 21
394.9767543491926
 31
0.0
  0
LINE
  5
4F0
330
1F
100
AcDbEntity
  8
Visible (ISO)
100
AcDbLine
 10
1066.727165999574
 20
394.9767543491917
 30
0.0
 11
1065.956600476006
 21
394.9767543491908
 31
0.0
  0
LINE
  5
4F1
330
1F
100
AcDbEntity
  8
Visible (ISO)
100
AcDbLine
 10
1065.956600476006
 20
462.9767543491899
 30
0.0
 11
1066.727165999574
 21
462.9767543491908
 31
0.0
  0
LINE
  5
4F2
330
1F
100
AcDbEntity
  8
Visible (ISO)
100
AcDbLine
 10
1065.956600476006
 20
394.9767543491908
 30
0.0
 11
1065.956600476006
 21
416.112652734053
 31
0.0
  0
SPLINE
  5
4F3
330
1F
100
AcDbEntity
  8
Visible (ISO)
100
AcDbSpline
210
0.0
220
0.0
230
1.0
 70
     8
 71
     3
 72
    16
 73
    12
 74
     0
 42
0.0000000001
 43
0.0000000001
 40
0.0000000000000001
 40
0.0000000000000001
 40
0.0000000000000001
 40
0.0000000000000001
 40
0.2094395102393196
 40
0.2094395102393196
 40
0.4188790204786392
 40
0.4188790204786392
 40
0.6283185307179587
 40
0.6283185307179587
 40
0.8377580409572781
 40
0.8377580409572781
 40
1.047197551196597
 40
1.047197551196597
 40
1.047197551196597
 40
1.047197551196597
 10
1065.956600476006
 20
416.112652734053
 30
0.0
 10
1065.956600476006
 20
416.4754971846916
 30
0.0
 10
1065.984352207926
 20
416.8383514384778
 30
0.0
 10
1066.096304619867
 20
417.5574330874898
 30
0.0
 10
1066.180495202156
 20
417.9136928826066
 30
0.0
 10
1066.408309329336
 20
418.6122739026023
 30
0.0
 10
1066.551933933486
 20
418.9546672741854
 30
0.0
 10
1066.903888152481
 20
419.6160371386578
 30
0.0
 10
1067.112293991917
 20
419.935140728695
 30
0.0
 10
1067.600521785784
 20
420.5353175288156
 30
0.0
 10
1067.880610864658
 20
420.8165003749237
 30
0.0
 10
1068.198140260531
 20
421.066789844028
 30
0.0
  0
LINE
  5
4F4
330
1F
100
AcDbEntity
  8
Visible (ISO)
100
AcDbLine
 10
1071.333981883505
 20
423.5385866137541
 30
0.0
 11
1068.198140260531
 21
421.066789844028
 31
0.0
  0
SPLINE
  5
4F5
330
1F
100
AcDbEntity
  8
Visible (ISO)
100
AcDbSpline
210
0.0
220
0.0
230
1.0
 70
     8
 71
     3
 72
    14
 73
    10
 74
     0
 42
0.0000000001
 43
0.0000000001
 40
-1.047197551196597
 40
-1.047197551196597
 40
-1.047197551196597
 40
-1.047197551196597
 40
-0.7139074422004688
 40
-0.7139074422004688
 40
-0.4373149372040642
 40
-0.4373149372040642
 40
-0.1805657251432187
 40
-0.1805657251432187
 40
-0.1507759968143802
 40
-0.1507759968143802
 40
-0.1507759968143802
 40
-0.1507759968143802
 10
1071.333981883505
 20
434.4149220846294
 30
0.0
 10
1071.674339776673
 20
434.1466382737645
 30
0.0
 10
1072.028082408224
 20
433.7609767121595
 30
0.0
 10
1072.606885635415
 20
432.8488421138582
 30
0.0
 10
1072.842773328228
 20
432.3590983991526
 30
0.0
 10
1073.201073228862
 20
431.3127407258435
 30
0.0
 10
1073.330446244401
 20
430.7639286607146
 30
0.0
 10
1073.415281395378
 20
430.1294695491534
 30
0.0
 10
1073.423383617477
 20
430.0632467357756
 30
0.0
 10
1073.430765335595
 20
429.9968052129953
 30
0.0
  0
SPLINE
  5
4F6
330
1F
100
AcDbEntity
  8
Visible (ISO)
100
AcDbSpline
210
0.0
220
0.0
230
1.0
 70
     8
 71
     3
 72
    14
 73
    10
 74
     0
 42
0.0000000001
 43
0.0000000001
 40
0.1506820946898428
 40
0.1506820946898428
 40
0.1506820946898428
 40
0.1506820946898428
 40
0.3131786707381535
 40
0.3131786707381535
 40
0.5645955144234929
 40
0.5645955144234929
 40
0.8288561812678507
 40
0.8288561812678507
 40
1.047197551196596
 40
1.047197551196596
 40
1.047197551196596
 40
1.047197551196596
 10
1073.430765335595
 20
427.9573532506557
 30
0.0
 10
1073.390402733925
 20
427.5949443588134
 30
0.0
 10
1073.328787492463
 20
427.239011205279
 30
0.0
 10
1073.121768883008
 20
426.3662335238369
 30
0.0
 10
1072.948947392244
 20
425.8681739171334
 30
0.0
 10
1072.525913258389
 20
424.9562948708672
 30
0.0
 10
1072.272337282417
 20
424.5486297920479
 30
0.0
 10
1071.785565616461
 20
423.9394439697254
 30
0.0
 10
1071.556953422878
 20
423.7143417688367
 30
0.0
 10
1071.333981883505
 20
423.5385866137541
 30
0.0
  0
LINE
  5
4F7
330
1F
100
AcDbEntity
  8
Visible (ISO)
100
AcDbLine
 10
1068.198140260531
 20
436.8867188543528
 30
0.0
 11
1071.333981883505
 21
434.4149220846294
 31
0.0
  0
SPLINE
  5
4F8
330
1F
100
AcDbEntity
  8
Visible (ISO)
100
AcDbSpline
210
0.0
220
0.0
230
1.0
 70
     8
 71
     3
 72
    16
 73
    12
 74
     0
 42
0.0000000001
 43
0.0000000001
 40
-1.047197551196596
 40
-1.047197551196596
 40
-1.047197551196596
 40
-1.047197551196596
 40
-0.837758040957277
 40
-0.837758040957277
 40
-0.6283185307179578
 40
-0.6283185307179578
 40
-0.4188790204786385
 40
-0.4188790204786385
 40
-0.2094395102393192
 40
-0.2094395102393192
 40
0.0
 40
0.0
 40
0.0
 40
0.0
 10
1068.198140260531
 20
436.8867188543528
 30
0.0
 10
1067.880610864658
 20
437.1370083234579
 30
0.0
 10
1067.600521785784
 20
437.4181911695651
 30
0.0
 10
1067.112293991917
 20
438.0183679696857
 30
0.0
 10
1066.903888152481
 20
438.337471559723
 30
0.0
 10
1066.551933933486
 20
438.9988414241953
 30
0.0
 10
1066.408309329336
 20
439.3412347957784
 30
0.0
 10
1066.180495202156
 20
440.0398158157742
 30
0.0
 10
1066.096304619867
 20
440.396075610891
 30
0.0
 10
1065.984352207926
 20
441.1151572599029
 30
0.0
 10
1065.956600476006
 20
441.4780115136892
 30
0.0
 10
1065.956600476006
 20
441.8408559643276
 30
0.0
  0
LINE
  5
4F9
330
1F
100
AcDbEntity
  8
Visible (ISO)
100
AcDbLine
 10
1065.956600476006
 20
441.8408559643276
 30
0.0
 11
1065.956600476006
 21
462.9767543491899
 31
0.0
  0
LINE
  5
4FA
330
1F
100
AcDbEntity
  8
Visible (ISO)
100
AcDbLine
 10
1096.768738447503
 20
482.9767543491899
 30
0.0
 11
1062.768738447503
 21
482.9767543491899
 31
0.0
  0
LINE
  5
4FB
330
1F
100
AcDbEntity
  8
Visible (ISO)
100
AcDbLine
 10
1096.768738447503
 20
480.1267543491896
 30
0.0
 11
1062.768738447503
 21
480.1267543491896
 31
0.0
  0
LINE
  5
4FC
330
1F
100
AcDbEntity
  8
Visible (ISO)
100
AcDbLine
 10
1090.618738447503
 20
477.8883374084527
 30
0.0
 11
1068.918738447504
 21
477.8883374084527
 31
0.0
  0
LINE
  5
4FD
330
1F
100
AcDbEntity
  8
Visible (ISO)
100
AcDbLine
 10
1062.768738447503
 20
480.1267543491896
 30
0.0
 11
1062.768738447503
 21
482.9767543491899
 31
0.0
  0
LINE
  5
4FE
330
1F
100
AcDbEntity
  8
Visible (ISO)
100
AcDbLine
 10
1096.768738447503
 20
480.1267543491896
 30
0.0
 11
1096.768738447503
 21
482.9767543491899
 31
0.0
  0
LINE
  5
4FF
330
1F
100
AcDbEntity
  8
Visible (ISO)
100
AcDbLine
 10
1068.918738447504
 20
477.8883374084527
 30
0.0
 11
1062.768738447503
 21
480.1267543491896
 31
0.0
  0
LINE
  5
500
330
1F
100
AcDbEntity
  8
Visible (ISO)
100
AcDbLine
 10
1090.618738447503
 20
477.8883374084527
 30
0.0
 11
1096.768738447503
 21
480.1267543491896
 31
0.0
  0
LINE
  5
501
330
1F
100
AcDbEntity
  8
Visible (ISO)
100
AcDbLine
 10
1068.918738447504
 20
462.9767543491899
 30
0.0
 11
1068.918738447504
 21
477.8883374084527
 31
0.0
  0
LINE
  5
502
330
1F
100
AcDbEntity
  8
Visible (ISO)
100
AcDbLine
 10
1090.618738447503
 20
462.9767543491899
 30
0.0
 11
1090.618738447503
 21
477.8883374084527
 31
0.0
  0
LINE
  5
503
330
1F
100
AcDbEntity
  8
Visible (ISO)
100
AcDbLine
 10
1096.768738447503
 20
374.9767543491908
 30
0.0
 11
1062.768738447503
 21
374.9767543491908
 31
0.0
  0
LINE
  5
504
330
1F
100
AcDbEntity
  8
Visible (ISO)
100
AcDbLine
 10
1096.768738447503
 20
377.8267543491894
 30
0.0
 11
1062.768738447503
 21
377.8267543491894
 31
0.0
  0
LINE
  5
505
330
1F
100
AcDbEntity
  8
Visible (ISO)
100
AcDbLine
 10
1090.618738447503
 20
380.0651712899272
 30
0.0
 11
1068.918738447504
 21
380.0651712899272
 31
0.0
  0
LINE
  5
506
330
1F
100
AcDbEntity
  8
Visible (ISO)
100
AcDbLine
 10
1062.768738447503
 20
374.9767543491908
 30
0.0
 11
1062.768738447503
 21
377.8267543491894
 31
0.0
  0
LINE
  5
507
330
1F
100
AcDbEntity
  8
Visible (ISO)
100
AcDbLine
 10
1096.768738447503
 20
374.9767543491908
 30
0.0
 11
1096.768738447503
 21
377.8267543491894
 31
0.0
  0
LINE
  5
508
330
1F
100
AcDbEntity
  8
Visible (ISO)
100
AcDbLine
 10
1090.618738447503
 20
380.0651712899272
 30
0.0
 11
1096.768738447503
 21
377.8267543491894
 31
0.0
  0
LINE
  5
509
330
1F
100
AcDbEntity
  8
Visible (ISO)
100
AcDbLine
 10
1068.918738447504
 20
380.0651712899272
 30
0.0
 11
1062.768738447503
 21
377.8267543491894
 31
0.0
  0
LINE
  5
50A
330
1F
100
AcDbEntity
  8
Visible (ISO)
100
AcDbLine
 10
1068.918738447504
 20
380.0651712899272
 30
0.0
 11
1068.918738447504
 21
394.9767543491899
 31
0.0
  0
LINE
  5
50B
330
1F
100
AcDbEntity
  8
Visible (ISO)
100
AcDbLine
 10
1090.618738447503
 20
380.0651712899272
 30
0.0
 11
1090.618738447503
 21
394.9767543491899
 31
0.0
  0
LINE
  5
50C
330
1F
100
AcDbEntity
  8
Visible (ISO)
100
AcDbLine
 10
1107.405632004148
 20
462.9767543491908
 30
0.0
 11
1096.572418603022
 21
462.9767543491981
 31
0.0
  0
SPLINE
  5
50D
330
1F
100
AcDbEntity
  8
Visible (ISO)
100
AcDbSpline
210
0.0
220
0.0
230
1.0
 70
     8
 71
     3
 72
     8
 73
     4
 74
     0
 42
0.0000000001
 43
0.0000000001
 40
-0.1438477767740034
 40
-0.1438477767740034
 40
-0.1438477767740034
 40
-0.1438477767740034
 40
0.0
 40
0.0
 40
0.0
 40
0.0
 10
1096.572418603022
 20
462.9767543491981
 30
0.0
 10
1096.912475883955
 20
462.6433626688905
 30
0.0
 10
1097.252756147596
 20
462.3099907279184
 30
0.0
 10
1097.593151162051
 20
461.9767543491981
 30
0.0
  0
LINE
  5
50E
330
1F
100
AcDbEntity
  8
Visible (ISO)
100
AcDbLine
 10
1097.593151162051
 20
461.9767543491981
 30
0.0
 11
1106.992208780601
 21
461.9767543491917
 31
0.0
  0
ELLIPSE
  5
50F
330
1F
100
AcDbEntity
  8
Visible (ISO)
100
AcDbEllipse
 10
1104.343111258089
 20
428.9767543491936
 30
0.0
 11
0.0000000000068209
 21
-38.9999999999998
 31
0.0
210
0.0
220
0.0
230
1.0
 40
0.4067366430757994
 41
3.653534552572724
 42
4.200447081399696
  0
SPLINE
  5
510
330
1F
100
AcDbEntity
  8
Visible (ISO)
100
AcDbSpline
210
0.0
220
0.0
230
1.0
 70
     8
 71
     3
 72
     8
 73
     4
 74
     0
 42
0.0000000001
 43
0.0000000001
 40
-0.1438477767740748
 40
-0.1438477767740748
 40
-0.1438477767740748
 40
-0.1438477767740748
 40
0.0
 40
0.0
 40
0.0
 40
0.0
 10
1090.514065393512
 20
448.0817275237451
 30
0.0
 10
1090.95423646155
 20
447.9944749332126
 30
0.0
 10
1091.394381468097
 20
447.906629783608
 30
0.0
 10
1091.83434749423
 20
447.8181980306191
 30
0.0
  0
ELLIPSE
  5
511
330
1F
100
AcDbEntity
  8
Visible (ISO)
100
AcDbEllipse
 10
1105.256656715732
 20
428.9767543491936
 30
0.0
 11
-0.0000000000050432
 21
37.99999999999988
 31
0.0
210
0.0
220
0.0
230
1.0
 40
0.4067366430757994
 41
0.518787411563217
 42
1.052008915231063
  0
LINE
  5
512
330
1F
100
AcDbEntity
  8
Visible (ISO)
100
AcDbLine
 10
1090.514065393512
 20
448.0817275237451
 30
0.0
 11
1090.514065393512
 21
409.8717811746593
 31
0.0
  0
SPLINE
  5
513
330
1F
100
AcDbEntity
  8
Visible (ISO)
100
AcDbSpline
210
0.0
220
0.0
230
1.0
 70
     8
 71
     3
 72
     8
 73
     4
 74
     0
 42
0.0000000001
 43
0.0000000001
 40
-0.1438477767740034
 40
-0.1438477767740034
 40
-0.1438477767740034
 40
-0.1438477767740034
 40
0.0
 40
0.0
 40
0.0
 40
0.0
 10
1090.514065393512
 20
409.8717811746593
 30
0.0
 10
1090.954236461551
 20
409.9590337651926
 30
0.0
 10
1091.394381468097
 20
410.0468789147954
 30
0.0
 10
1091.83434749423
 20
410.1353106677853
 30
0.0
  0
LINE
  5
514
330
1F
100
AcDbEntity
  8
Visible (ISO)
100
AcDbLine
 10
1091.83434749423
 20
410.1353106677853
 30
0.0
 11
1091.83434749423
 21
447.8181980306191
 31
0.0
  0
ELLIPSE
  5
515
330
1F
100
AcDbEntity
  8
Visible (ISO)
100
AcDbEllipse
 10
1104.343111258089
 20
428.9767543491936
 30
0.0
 11
0.000000000005175
 21
-38.9999999999997
 31
0.0
210
0.0
220
0.0
230
1.0
 40
0.4067366430757994
 41
5.224330879368509
 42
5.771243408195109
  0
SPLINE
  5
516
330
1F
100
AcDbEntity
  8
Visible (ISO)
100
AcDbSpline
210
0.0
220
0.0
230
1.0
 70
     8
 71
     3
 72
     8
 73
     4
 74
     0
 42
0.0000000001
 43
0.0000000001
 40
-0.1438477767741397
 40
-0.1438477767741397
 40
-0.1438477767741397
 40
-0.1438477767741397
 40
0.0
 40
0.0
 40
0.0
 40
0.0
 10
1096.572418603022
 20
394.9767543491981
 30
0.0
 10
1096.912475883955
 20
395.3101460295048
 30
0.0
 10
1097.252756147596
 20
395.6435179704777
 30
0.0
 10
1097.593151162051
 20
395.9767543491981
 30
0.0
  0
ELLIPSE
  5
517
330
1F
100
AcDbEntity
  8
Visible (ISO)
100
AcDbEllipse
 10
1105.256656715732
 20
428.9767543491936
 30
0.0
 11
-0.00000000000345
 21
37.99999999999988
 31
0.0
210
0.0
220
0.0
230
1.0
 40
0.4067366430757995
 41
2.089583738358632
 42
2.622805242026776
  0
LINE
  5
518
330
1F
100
AcDbEntity
  8
Visible (ISO)
100
AcDbLine
 10
1096.572418603022
 20
394.9767543491981
 30
0.0
 11
1107.405632004148
 21
394.9767543491917
 31
0.0
  0
LINE
  5
519
330
1F
100
AcDbEntity
  8
Visible (ISO)
100
AcDbLine
 10
1106.992208780601
 20
395.9767543491917
 30
0.0
 11
1097.593151162051
 21
395.9767543491981
 31
0.0
  0
ELLIPSE
  5
51A
330
1F
100
AcDbEntity
  8
Visible (ISO)
100
AcDbEllipse
 10
1099.135902149526
 20
428.9767543491926
 30
0.0
 11
-0.000000000003543
 21
38.9999999999997
 31
0.0
210
0.0
220
0.0
230
1.0
 40
0.4067366430757994
 41
2.082738225779214
 42
2.629650754606165
  0
LINE
  5
51B
330
1F
100
AcDbEntity
  8
Visible (ISO)
100
AcDbLine
 10
1085.306856284949
 20
409.8717811746584
 30
0.0
 11
1085.306856284949
 21
448.0817275237442
 31
0.0
  0
ELLIPSE
  5
51C
330
1F
100
AcDbEntity
  8
Visible (ISO)
100
AcDbEllipse
 10
1099.135902149526
 20
428.9767543491926
 30
0.0
 11
-0.0000000000051806
 21
38.99999999999962
 31
0.0
210
0.0
220
0.0
230
1.0
 40
0.4067366430757995
 41
0.511941898983773
 42
1.058854427810462
  0
SPLINE
  5
51D
330
1F
100
AcDbEntity
  8
Visible (ISO)
100
AcDbSpline
210
0.0
220
0.0
230
1.0
 70
     8
 71
     3
 72
     8
 73
     4
 74
     0
 42
0.0000000001
 43
0.0000000001
 40
-0.1438477443675057
 40
-0.1438477443675057
 40
-0.1438477443675057
 40
-0.1438477443675057
 40
0.0
 40
0.0
 40
0.0
 40
0.0
 10
1090.558851138203
 20
461.9767543491972
 30
0.0
 10
1090.827309283952
 20
462.3099907279184
 30
0.0
 10
1091.096129865071
 20
462.6433626688895
 30
0.0
 10
1091.36520949446
 20
462.9767543491981
 30
0.0
  0
SPLINE
  5
51E
330
1F
100
AcDbEntity
  8
Visible (ISO)
100
AcDbSpline
210
0.0
220
0.0
230
1.0
 70
     8
 71
     3
 72
     8
 73
     4
 74
     0
 42
0.0000000001
 43
0.0000000001
 40
-0.143847744367653
 40
-0.143847744367653
 40
-0.143847744367653
 40
-0.143847744367653
 40
0.0
 40
0.0
 40
0.0
 40
0.0
 10
1084.800047470382
 20
447.8181980306182
 30
0.0
 10
1084.968934604453
 20
447.9066297836071
 30
0.0
 10
1085.137890442666
 20
447.9944749332108
 30
0.0
 10
1085.306856284949
 20
448.0817275237442
 30
0.0
  0
SPLINE
  5
51F
330
1F
100
AcDbEntity
  8
Visible (ISO)
100
AcDbSpline
210
0.0
220
0.0
230
1.0
 70
     8
 71
     3
 72
     8
 73
     4
 74
     0
 42
0.0000000001
 43
0.0000000001
 40
-0.1438477443678875
 40
-0.1438477443678875
 40
-0.1438477443678875
 40
-0.1438477443678875
 40
0.0
 40
0.0
 40
0.0
 40
0.0
 10
1084.800047470382
 20
410.1353106677844
 30
0.0
 10
1084.968934604453
 20
410.0468789147954
 30
0.0
 10
1085.137890442666
 20
409.9590337651917
 30
0.0
 10
1085.306856284949
 20
409.8717811746584
 30
0.0
  0
SPLINE
  5
520
330
1F
100
AcDbEntity
  8
Visible (ISO)
100
AcDbSpline
210
0.0
220
0.0
230
1.0
 70
     8
 71
     3
 72
     8
 73
     4
 74
     0
 42
0.0000000001
 43
0.0000000001
 40
-0.1438477443679163
 40
-0.1438477443679163
 40
-0.1438477443679163
 40
-0.1438477443679163
 40
0.0
 40
0.0
 40
0.0
 40
0.0
 10
1090.558851138203
 20
395.9767543491972
 30
0.0
 10
1090.827309283952
 20
395.6435179704777
 30
0.0
 10
1091.096129865071
 20
395.3101460295066
 30
0.0
 10
1091.36520949446
 20
394.9767543491981
 30
0.0
  0
LINE
  5
521
330
1F
100
AcDbEntity
  8
Visible (ISO)
100
AcDbLine
 10
1090.514065393512
 20
409.8717811746593
 30
0.0
 11
1085.306856284949
 21
409.8717811746584
 31
0.0
  0
LINE
  5
522
330
1F
100
AcDbEntity
  8
Visible (ISO)
100
AcDbLine
 10
1096.572418603022
 20
394.9767543491981
 30
0.0
 11
1091.36520949446
 21
394.9767543491981
 31
0.0
  0
LINE
  5
523
330
1F
100
AcDbEntity
  8
Visible (ISO)
100
AcDbLine
 10
1090.514065393512
 20
448.0817275237451
 30
0.0
 11
1085.306856284949
 21
448.0817275237442
 31
0.0
  0
LINE
  5
524
330
1F
100
AcDbEntity
  8
Visible (ISO)
100
AcDbLine
 10
1096.572418603022
 20
462.9767543491981
 30
0.0
 11
1091.36520949446
 21
462.9767543491972
 31
0.0
  0
SPLINE
  5
525
330
1F
100
AcDbEntity
  8
Visible (ISO)
100
AcDbSpline
210
0.0
220
0.0
230
1.0
 70
     8
 71
     3
 72
    12
 73
     8
 74
     0
 42
0.0000000001
 43
0.0000000001
 40
3.304360401236616
 40
3.304360401236616
 40
3.304360401236616
 40
3.304360401236616
 40
3.518141483095139
 40
3.518141483095139
 40
3.830550985037779
 40
3.830550985037779
 40
4.038963951233654
 40
4.038963951233654
 40
4.038963951233654
 40
4.038963951233654
 10
1190.658482505407
 20
464.9719736907574
 30
0.0
 10
1192.401243576317
 20
464.268331138881
 30
0.0
 10
1193.894920999529
 20
463.2011274674406
 30
0.0
 10
1197.04375508983
 20
460.1399307379526
 30
0.0
 10
1198.501350311289
 20
457.9335280575115
 30
0.0
 10
1200.555457493826
 20
453.7742404175588
 30
0.0
 10
1201.270644573942
 20
451.9756275697674
 30
0.0
 10
1201.891593623117
 20
450.0621446493406
 30
0.0
  0
SPLINE
  5
526
330
1F
100
AcDbEntity
  8
Visible (ISO)
100
AcDbSpline
210
0.0
220
0.0
230
1.0
 70
     8
 71
     3
 72
    12
 73
     8
 74
     0
 42
0.0000000001
 43
0.0000000001
 40
5.385814009535723
 40
5.385814009535723
 40
5.385814009535723
 40
5.385814009535723
 40
5.590680816178847
 40
5.590680816178847
 40
5.963662170445966
 40
5.963662170445966
 40
6.120417559532763
 40
6.120417559532763
 40
6.120417559532763
 40
6.120417559532763
 10
1201.891593623117
 20
407.8913640490537
 30
0.0
 10
1201.281210060546
 20
406.0104391592595
 30
0.0
 10
1200.579710151526
 20
404.2404874846071
 30
0.0
 10
1198.310920263349
 20
399.6132015309359
 30
0.0
 10
1196.536260748817
 20
397.0210283222614
 30
0.0
 10
1193.084306326082
 20
394.2130331572681
 30
0.0
 10
1191.936365409641
 20
393.4974822609693
 30
0.0
 10
1190.658482505407
 20
392.981535007647
 30
0.0
  0
ELLIPSE
  5
527
330
1F
100
AcDbEntity
  8
Visible (ISO)
100
AcDbEllipse
 10
1417.361934653061
 20
120.5595272586716
 30
0.0
 11
5.999999999999971
 21
0.0
 31
0.0
210
0.0
220
0.0
230
1.0
 40
0.9135454576426003
 41
0.0
 42
6.283185307179586
  0
ELLIPSE
  5
528
330
1F
100
AcDbEntity
  8
Visible (ISO)
100
AcDbEllipse
 10
1417.36193465306
 20
119.949422294058
 30
0.0
 11
-7.499999999999965
 21
0.0
 31
0.0
210
0.0
220
0.0
230
1.0
 40
0.9135454576426003
 41
0.0
 42
6.283185307179586
  0
ELLIPSE
  5
529
330
1F
100
AcDbEntity
  8
Visible (ISO)
100
AcDbEllipse
 10
1417.361934653054
 20
110.3911111817766
 30
0.0
 11
7.499999999999968
 21
0.0
 31
0.0
210
0.0
220
0.0
230
1.0
 40
0.9135454576426003
 41
3.141592653589494
 42
6.283185307179287
  0
ELLIPSE
  5
52A
330
1F
100
AcDbEntity
  8
Visible (ISO)
100
AcDbEllipse
 10
1417.361934653052
 20
108.3574279663977
 30
0.0
 11
24.99999999999989
 21
0.0
 31
0.0
210
0.0
220
0.0
230
1.0
 40
0.9135454576426003
 41
3.14159265358951
 42
6.283185307179302
  0
ELLIPSE
  5
52B
330
1F
100
AcDbEntity
  8
Visible (ISO)
100
AcDbEllipse
 10
1417.361934653048
 20
102.2563783202605
 30
0.0
 11
40.49999999999982
 21
-0.0000000000267147
 31
0.0
210
0.0
220
0.0
230
1.0
 40
0.9135454576426006
 41
2.184552362139314
 42
7.240225598631487
  0
ELLIPSE
  5
52C
330
1F
100
AcDbEntity
  8
Visible (ISO)
100
AcDbEllipse
 10
1417.361934653054
 20
110.3911111817766
 30
0.0
 11
24.99999999999989
 21
0.0
 31
0.0
210
0.0
220
0.0
230
1.0
 40
0.9135454576426003
 41
0.0
 42
6.283185307179586
  0
ELLIPSE
  5
52D
330
1F
100
AcDbEntity
  8
Visible (ISO)
100
AcDbEllipse
 10
1417.361934653038
 20
86.19028091876691
 30
0.0
 11
40.49999999999982
 21
0.0
 31
0.0
210
0.0
220
0.0
230
1.0
 40
0.9135454576426004
 41
3.141592653589505
 42
6.283185307179299
  0
ELLIPSE
  5
52E
330
1F
100
AcDbEntity
  8
Visible (ISO)
100
AcDbEllipse
 10
1417.361934653035
 20
83.54649273877397
 30
0.0
 11
46.9999999999998
 21
-0.0000000000310058
 31
0.0
210
0.0
220
0.0
230
1.0
 40
0.9135454576426006
 41
2.602559473475752
 42
6.822218487295063
  0
ELLIPSE
  5
52F
330
1F
100
AcDbEntity
  8
Visible (ISO)
100
AcDbEllipse
 10
1417.361934653031
 20
76.63196980648547
 30
0.0
 11
46.9999999999998
 21
0.0000000000000041
 31
0.0
210
0.0
220
0.0
230
1.0
 40
0.9135454576426004
 41
3.141592653589508
 42
6.283185307179302
  0
LINE
  5
530
330
1F
100
AcDbEntity
  8
Visible (ISO)
100
AcDbLine
 10
1424.861934653059
 20
119.949422294058
 30
0.0
 11
1424.861934653054
 21
110.3911111817766
 31
0.0
  0
LINE
  5
531
330
1F
100
AcDbEntity
  8
Visible (ISO)
100
AcDbLine
 10
1409.86193465306
 20
119.949422294058
 30
0.0
 11
1409.861934653053
 21
110.3911111817766
 31
0.0
  0
LINE
  5
532
330
1F
100
AcDbEntity
  8
Visible (ISO)
100
AcDbLine
 10
1438.370778004471
 20
133.9935094955295
 30
0.0
 11
1440.687587226092
 21
132.5023761427584
 31
0.0
  0
LINE
  5
533
330
1F
100
AcDbEntity
  8
Visible (ISO)
100
AcDbLine
 10
1396.353091301624
 20
133.9935094955295
 30
0.0
 11
1394.036282079996
 21
132.5023761427584
 31
0.0
  0
LINE
  5
534
330
1F
100
AcDbEntity
  8
Visible (ISO)
100
AcDbLine
 10
1442.361934653054
 20
110.3911111817766
 30
0.0
 11
1442.361934653052
 21
108.3574279663977
 31
0.0
  0
LINE
  5
535
330
1F
100
AcDbEntity
  8
Visible (ISO)
100
AcDbLine
 10
1392.361934653054
 20
110.3911111817766
 30
0.0
 11
1392.361934653052
 21
108.3574279663977
 31
0.0
  0
LINE
  5
536
330
1F
100
AcDbEntity
  8
Visible (ISO)
100
AcDbLine
 10
1457.861934653048
 20
102.2563783202605
 30
0.0
 11
1457.861934653037
 21
86.19028091876691
 31
0.0
  0
LINE
  5
537
330
1F
100
AcDbEntity
  8
Visible (ISO)
100
AcDbLine
 10
1376.861934653048
 20
102.2563783202605
 30
0.0
 11
1376.861934653038
 21
86.19028091876691
 31
0.0
  0
LINE
  5
538
330
1F
100
AcDbEntity
  8
Visible (ISO)
100
AcDbLine
 10
1464.361934653035
 20
83.54649273877397
 30
0.0
 11
1464.36193465303
 21
76.63196980648547
 31
0.0
  0
LINE
  5
539
330
1F
100
AcDbEntity
  8
Visible (ISO)
100
AcDbLine
 10
1370.361934653035
 20
83.54649273877397
 30
0.0
 11
1370.361934653031
 21
76.63196980648547
 31
0.0
  0
ELLIPSE
  5
53A
330
1F
100
AcDbEntity
  8
Visible (ISO)
100
AcDbEllipse
 10
1417.361934653022
 20
61.78608233421858
 30
0.0
 11
38.99999999999981
 21
-0.0000000000257044
 31
0.0
210
0.0
220
0.0
230
1.0
 40
0.9135454576426003
 41
5.224330879369544
 42
5.771243408196163
  0
LINE
  5
53B
330
1F
100
AcDbEntity
  8
Visible (ISO)
100
AcDbLine
 10
1398.256961478482
 20
30.72553677437065
 30
0.0
 11
1436.466907827568
 21
30.72553677437065
 31
0.0
  0
ELLIPSE
  5
53C
330
1F
100
AcDbEntity
  8
Visible (ISO)
100
AcDbEllipse
 10
1417.361934653022
 20
61.78608233421858
 30
0.0
 11
38.99999999999986
 21
-0.0000000000220518
 31
0.0
210
0.0
220
0.0
230
1.0
 40
0.9135454576426006
 41
3.653534552574532
 42
4.200447081401165
  0
LINE
  5
53D
330
1F
100
AcDbEntity
  8
Visible (ISO)
100
AcDbLine
 10
1383.361934653025
 20
46.98745489650685
 30
0.0
 11
1383.361934653023
 21
44.33282087223154
 31
0.0
  0
LINE
  5
53E
330
1F
100
AcDbEntity
  8
Visible (ISO)
100
AcDbLine
 10
1451.361934653026
 20
46.98745489650685
 30
0.0
 11
1451.361934653024
 21
44.33282087223154
 31
0.0
  0
ELLIPSE
  5
53F
330
1F
100
AcDbEntity
  8
Visible (ISO)
100
AcDbEllipse
 10
1417.361934653025
 20
66.66692205112861
 30
0.0
 11
-38.99999999999988
 21
0.0000000000257211
 31
0.0
210
0.0
220
0.0
230
1.0
 40
0.9135454576426003
 41
0.7325568869465134
 42
1.058854427811503
  0
LINE
  5
540
330
1F
100
AcDbEntity
  8
Visible (ISO)
100
AcDbLine
 10
1436.466907827572
 20
35.60637649128023
 30
0.0
 11
1431.227802956077
 21
35.60637649128023
 31
0.0
  0
LINE
  5
541
330
1F
100
AcDbEntity
  8
Visible (ISO)
100
AcDbLine
 10
1403.49606634998
 20
35.60637649128023
 30
0.0
 11
1398.256961478486
 21
35.60637649128023
 31
0.0
  0
ELLIPSE
  5
542
330
1F
100
AcDbEntity
  8
Visible (ISO)
100
AcDbEllipse
 10
1417.361934653024
 20
66.66692205112861
 30
0.0
 11
-39.0000000000001
 21
0.0000000000294625
 31
0.0
210
0.0
220
0.0
230
1.0
 40
0.9135454576426004
 41
2.082738225779838
 42
2.409035766644846
  0
LINE
  5
543
330
1F
100
AcDbEntity
  8
Visible (ISO)
100
AcDbLine
 10
1398.256961478486
 20
35.60637649128023
 30
0.0
 11
1398.256961478482
 21
30.72553677437065
 31
0.0
  0
LINE
  5
544
330
1F
100
AcDbEntity
  8
Visible (ISO)
100
AcDbLine
 10
1436.466907827572
 20
35.60637649128023
 30
0.0
 11
1436.466907827568
 21
30.72553677437065
 31
0.0
  0
LINE
  5
545
330
1F
100
AcDbEntity
  8
Visible (ISO)
100
AcDbLine
 10
1471.361934653019
 20
41.45084186099768
 30
0.0
 11
1471.361934653019
 21
75.45084186099723
 31
0.0
  0
LINE
  5
546
330
1F
100
AcDbEntity
  8
Visible (ISO)
100
AcDbLine
 10
1468.511934653019
 20
41.45084186099768
 30
0.0
 11
1468.511934653019
 21
75.45084186099723
 31
0.0
  0
LINE
  5
547
330
1F
100
AcDbEntity
  8
Visible (ISO)
100
AcDbLine
 10
1466.273517712282
 20
47.60084186099732
 30
0.0
 11
1466.273517712282
 21
69.30084186099759
 31
0.0
  0
LINE
  5
548
330
1F
100
AcDbEntity
  8
Visible (ISO)
100
AcDbLine
 10
1468.511934653019
 20
75.45084186099723
 30
0.0
 11
1471.361934653019
 21
75.45084186099723
 31
0.0
  0
LINE
  5
549
330
1F
100
AcDbEntity
  8
Visible (ISO)
100
AcDbLine
 10
1468.511934653019
 20
41.45084186099722
 30
0.0
 11
1471.361934653019
 21
41.45084186099722
 31
0.0
  0
LINE
  5
54A
330
1F
100
AcDbEntity
  8
Visible (ISO)
100
AcDbLine
 10
1466.273517712282
 20
69.30084186099759
 30
0.0
 11
1468.511934653019
 21
75.45084186099723
 31
0.0
  0
LINE
  5
54B
330
1F
100
AcDbEntity
  8
Visible (ISO)
100
AcDbLine
 10
1466.273517712282
 20
47.60084186099732
 30
0.0
 11
1468.511934653019
 21
41.45084186099722
 31
0.0
  0
LINE
  5
54C
330
1F
100
AcDbEntity
  8
Visible (ISO)
100
AcDbLine
 10
1463.671768179807
 20
69.30084186099759
 30
0.0
 11
1466.273517712282
 21
69.30084186099759
 31
0.0
  0
LINE
  5
54D
330
1F
100
AcDbEntity
  8
Visible (ISO)
100
AcDbLine
 10
1451.990323216131
 20
47.60084186099732
 30
0.0
 11
1466.273517712282
 21
47.60084186099732
 31
0.0
  0
LINE
  5
54E
330
1F
100
AcDbEntity
  8
Visible (ISO)
100
AcDbLine
 10
1363.361934653019
 20
41.45084186099768
 30
0.0
 11
1363.361934653019
 21
75.45084186099723
 31
0.0
  0
LINE
  5
54F
330
1F
100
AcDbEntity
  8
Visible (ISO)
100
AcDbLine
 10
1366.21193465302
 20
41.45084186099768
 30
0.0
 11
1366.21193465302
 21
75.45084186099723
 31
0.0
  0
LINE
  5
550
330
1F
100
AcDbEntity
  8
Visible (ISO)
100
AcDbLine
 10
1368.450351593757
 20
47.60084186099732
 30
0.0
 11
1368.450351593757
 21
69.30084186099759
 31
0.0
  0
LINE
  5
551
330
1F
100
AcDbEntity
  8
Visible (ISO)
100
AcDbLine
 10
1363.361934653019
 20
75.45084186099723
 30
0.0
 11
1366.21193465302
 21
75.45084186099723
 31
0.0
  0
LINE
  5
552
330
1F
100
AcDbEntity
  8
Visible (ISO)
100
AcDbLine
 10
1363.361934653019
 20
41.45084186099722
 30
0.0
 11
1366.21193465302
 21
41.45084186099722
 31
0.0
  0
LINE
  5
553
330
1F
100
AcDbEntity
  8
Visible (ISO)
100
AcDbLine
 10
1368.450351593757
 20
47.60084186099732
 30
0.0
 11
1366.21193465302
 21
41.45084186099722
 31
0.0
  0
LINE
  5
554
330
1F
100
AcDbEntity
  8
Visible (ISO)
100
AcDbLine
 10
1368.450351593757
 20
69.30084186099759
 30
0.0
 11
1366.21193465302
 21
75.45084186099723
 31
0.0
  0
LINE
  5
555
330
1F
100
AcDbEntity
  8
Visible (ISO)
100
AcDbLine
 10
1368.450351593757
 20
69.30084186099759
 30
0.0
 11
1371.052101126233
 21
69.30084186099759
 31
0.0
  0
LINE
  5
556
330
1F
100
AcDbEntity
  8
Visible (ISO)
100
AcDbLine
 10
1368.450351593757
 20
47.60084186099732
 30
0.0
 11
1382.733546089908
 21
47.60084186099732
 31
0.0
  0
LINE
  5
557
330
1F
100
AcDbEntity
  8
Visible (ISO)
100
AcDbLine
 10
1436.466907827572
 20
36.0131131343561
 30
0.0
 11
1432.595214875787
 21
36.0131131343561
 31
0.0
  0
LINE
  5
558
330
1F
100
AcDbEntity
  8
Visible (ISO)
100
AcDbLine
 10
1402.12865443027
 20
36.0131131343561
 30
0.0
 11
1398.256961478486
 21
36.0131131343561
 31
0.0
  0
ELLIPSE
  5
559
330
1F
100
AcDbEntity
  8
Visible (ISO)
100
AcDbEllipse
 10
1417.361934653025
 20
67.07365869420403
 30
0.0
 11
-38.99999999999976
 21
0.0000000000294376
 31
0.0
210
0.0
220
0.0
230
1.0
 40
0.9135454576426004
 41
2.082738225779843
 42
2.353669146486639
  0
ELLIPSE
  5
55A
330
1F
100
AcDbEntity
  8
Visible (ISO)
100
AcDbEllipse
 10
1417.361934653025
 20
67.07365869420448
 30
0.0
 11
-39.00000000000023
 21
0.0000000000257322
 31
0.0
210
0.0
220
0.0
230
1.0
 40
0.9135454576426003
 41
0.7879235071046935
 42
1.058854427811467
  0
LINE
  5
55B
330
1F
100
AcDbEntity
  8
Visible (ISO)
100
AcDbLine
 10
1398.256961478487
 20
37.40266419113152
 30
0.0
 11
1398.256961478486
 21
36.0131131343561
 31
0.0
  0
LINE
  5
55C
330
1F
100
AcDbEntity
  8
Visible (ISO)
100
AcDbLine
 10
1436.466907827573
 20
37.40266419113152
 30
0.0
 11
1436.466907827572
 21
36.0131131343561
 31
0.0
  0
SPLINE
  5
55D
330
1F
100
AcDbEntity
  8
Visible (ISO)
100
AcDbSpline
210
0.0
220
0.0
230
1.0
 70
     8
 71
     3
 72
    16
 73
    12
 74
     0
 42
0.0000000001
 43
0.0000000001
 40
0.957040291451168
 40
0.957040291451168
 40
0.957040291451168
 40
0.957040291451168
 40
1.202542705588659
 40
1.202542705588659
 40
1.448045119726151
 40
1.448045119726151
 40
1.693547533863643
 40
1.693547533863643
 40
1.939049948001134
 40
1.939049948001134
 40
2.184552362138626
 40
2.184552362138626
 40
2.184552362138626
 40
2.184552362138626
 10
1396.353091301624
 20
133.9935094955295
 30
0.0
 10
1398.815276902675
 20
135.5782092783916
 30
0.0
 10
1401.478735396088
 20
136.8776185438406
 30
0.0
 10
1407.05236467089
 20
138.8423031640101
 30
0.0
 10
1409.962355301561
 20
139.5076289772078
 30
0.0
 10
1415.865458136801
 20
140.1729408605789
 30
0.0
 10
1418.858411169295
 20
140.1729408605789
 30
0.0
 10
1424.761514004534
 20
139.5076289772078
 30
0.0
 10
1427.671504635203
 20
138.8423031640101
 30
0.0
 10
1433.245133910007
 20
136.8776185438406
 30
0.0
 10
1435.90859240342
 20
135.5782092783916
 30
0.0
 10
1438.370778004473
 20
133.9935094955295
 30
0.0
  0
ELLIPSE
  5
55E
330
1F
100
AcDbEntity
  8
Visible (ISO)
100
AcDbEllipse
 10
862.0783697984775
 20
102.2563783202605
 30
0.0
 11
40.49999999999982
 21
-0.0000000000272581
 31
0.0
210
0.0
220
0.0
230
1.0
 40
0.9135454576426003
 41
0.0901191200907126
 42
3.051473533500554
  0
ELLIPSE
  5
55F
330
1F
100
AcDbEntity
  8
Visible (ISO)
100
AcDbEllipse
 10
862.0783697984647
 20
83.54649273877397
 30
0.0
 11
46.9999999999998
 21
-0.0000000000000053
 31
0.0
210
0.0
220
0.0
230
1.0
 40
0.9135454576426004
 41
0.0
 42
3.141592653589498
  0
ELLIPSE
  5
560
330
1F
100
AcDbEntity
  8
Visible (ISO)
100
AcDbEllipse
 10
862.078369798462
 20
76.63196980648684
 30
0.0
 11
47.0000000000022
 21
-0.0000000000272171
 31
0.0
210
0.0
220
0.0
230
1.0
 40
0.9135454576426004
 41
3.884101983446925
 42
3.903668644305056
  0
ELLIPSE
  5
561
330
1F
100
AcDbEntity
  8
Visible (ISO)
100
AcDbEllipse
 10
862.0783697984739
 20
76.63196980647319
 30
0.0
 11
46.99999999998071
 21
-0.0000000000316469
 31
0.0
210
0.0
220
0.0
230
1.0
 40
0.9135454576426004
 41
5.521109316465684
 42
5.54067597732383
  0
ELLIPSE
  5
562
330
1F
100
AcDbEntity
  8
Visible (ISO)
100
AcDbEllipse
 10
862.0783697984602
 20
76.63196980648547
 30
0.0
 11
46.9999999999998
 21
-0.0000000000316316
 31
0.0
210
0.0
220
0.0
230
1.0
 40
0.9135454576426004
 41
6.111601665705174
 42
9.596361602245265
  0
LINE
  5
563
330
1F
100
AcDbEntity
  8
Visible (ISO)
100
AcDbLine
 10
883.0872131499004
 20
133.9935094955295
 30
0.0
 11
885.4040223715205
 21
132.5023761427584
 31
0.0
  0
LINE
  5
564
330
1F
100
AcDbEntity
  8
Visible (ISO)
100
AcDbLine
 10
841.0695264470527
 20
133.9935094955295
 30
0.0
 11
838.7527172254262
 21
132.5023761427584
 31
0.0
  0
LINE
  5
565
330
1F
100
AcDbEntity
  8
Visible (ISO)
100
AcDbLine
 10
909.0783697984647
 20
83.54649273877397
 30
0.0
 11
909.0783697984603
 21
76.63196980648547
 31
0.0
  0
LINE
  5
566
330
1F
100
AcDbEntity
  8
Visible (ISO)
100
AcDbLine
 10
815.0783697984648
 20
83.54649273877397
 30
0.0
 11
815.0783697984602
 21
76.63196980648547
 31
0.0
  0
ELLIPSE
  5
567
330
1F
100
AcDbEntity
  8
Visible (ISO)
100
AcDbEllipse
 10
882.647573308423
 20
39.39195685058086
 30
0.0
 11
-4.249999999999981
 21
0.0
 31
0.0
210
0.0
220
0.0
230
1.0
 40
0.9135454576426004
 41
3.141592653589464
 42
6.283185307179257
  0
ELLIPSE
  5
568
330
1F
100
AcDbEntity
  8
Visible (ISO)
100
AcDbEllipse
 10
882.6475733084212
 20
36.82951599920318
 30
0.0
 11
4.249999999999981
 21
0.0
 31
0.0
210
0.0
220
0.0
230
1.0
 40
0.9135454576426004
 41
0.0
 42
6.283185307179586
  0
LINE
  5
569
330
1F
100
AcDbEntity
  8
Visible (ISO)
100
AcDbLine
 10
886.8975733084221
 20
39.39195685058086
 30
0.0
 11
886.8975733084212
 21
36.82951599920318
 31
0.0
  0
LINE
  5
56A
330
1F
100
AcDbEntity
  8
Visible (ISO)
100
AcDbLine
 10
878.3975733084231
 20
39.39195685058086
 30
0.0
 11
878.3975733084211
 21
36.82951599920318
 31
0.0
  0
ELLIPSE
  5
56B
330
1F
100
AcDbEntity
  8
Visible (ISO)
100
AcDbEllipse
 10
841.5091662884838
 20
39.39195685058086
 30
0.0
 11
-4.249999999999978
 21
-0.0000000000000162
 31
0.0
210
0.0
220
0.0
230
1.0
 40
0.9135454576426004
 41
3.141592653589459
 42
6.283185307179252
  0
ELLIPSE
  5
56C
330
1F
100
AcDbEntity
  8
Visible (ISO)
100
AcDbEllipse
 10
841.509166288483
 20
36.82951599920318
 30
0.0
 11
-4.249999999999981
 21
0.0
 31
0.0
210
0.0
220
0.0
230
1.0
 40
0.9135454576426004
 41
0.0
 42
6.283185307179586
  0
LINE
  5
56D
330
1F
100
AcDbEntity
  8
Visible (ISO)
100
AcDbLine
 10
837.2591662884829
 20
36.82951599920318
 30
0.0
 11
837.2591662884847
 21
39.39195685058041
 31
0.0
  0
LINE
  5
56E
330
1F
100
AcDbEntity
  8
Visible (ISO)
100
AcDbLine
 10
845.7591662884828
 20
36.82951599920318
 30
0.0
 11
845.7591662884837
 21
39.39195685058041
 31
0.0
  0
LINE
  5
56F
330
1F
100
AcDbEntity
  8
Visible (ISO)
100
AcDbLine
 10
828.078369798453
 20
44.33282087223154
 30
0.0
 11
828.078369798453
 21
46.30148682717674
 31
0.0
  0
ELLIPSE
  5
570
330
1F
100
AcDbEntity
  8
Visible (ISO)
100
AcDbEllipse
 10
862.0783697984503
 20
61.78608233421858
 30
0.0
 11
-38.99999999999982
 21
0.0000000000262679
 31
0.0
210
0.0
220
0.0
230
1.0
 40
0.9135454576426003
 41
0.5119418989848779
 42
1.058854427811501
  0
LINE
  5
571
330
1F
100
AcDbEntity
  8
Visible (ISO)
100
AcDbLine
 10
881.1833429729972
 20
30.72553677437065
 30
0.0
 11
842.9733966239114
 21
30.72553677437065
 31
0.0
  0
ELLIPSE
  5
572
330
1F
100
AcDbEntity
  8
Visible (ISO)
100
AcDbEllipse
 10
862.0783697984503
 20
61.78608233421858
 30
0.0
 11
-38.99999999999986
 21
0.0000000000299094
 31
0.0
210
0.0
220
0.0
230
1.0
 40
0.9135454576426004
 41
2.082738225779873
 42
2.629650754606522
  0
LINE
  5
573
330
1F
100
AcDbEntity
  8
Visible (ISO)
100
AcDbLine
 10
896.0783697984521
 20
46.30148682717674
 30
0.0
 11
896.0783697984529
 21
44.33282087223154
 31
0.0
  0
LINE
  5
574
330
1F
100
AcDbEntity
  8
Visible (ISO)
100
AcDbLine
 10
896.0783697984474
 20
79.23934379620607
 30
0.0
 11
896.0783697984483
 21
72.93133691745845
 31
0.0
  0
ELLIPSE
  5
575
330
1F
100
AcDbEntity
  8
Visible (ISO)
100
AcDbEllipse
 10
862.0783697984503
 20
61.78608233421858
 30
0.0
 11
38.99999999999971
 21
-0.0000000000262096
 31
0.0
210
0.0
220
0.0
230
1.0
 40
0.9135454576426006
 41
0.5119418989848672
 42
1.058854427811493
  0
LINE
  5
576
330
1F
100
AcDbEntity
  8
Visible (ISO)
100
AcDbLine
 10
842.9733966239032
 20
92.84662789406695
 30
0.0
 11
881.183342972989
 21
92.84662789406695
 31
0.0
  0
ELLIPSE
  5
577
330
1F
100
AcDbEntity
  8
Visible (ISO)
100
AcDbEllipse
 10
862.0783697984503
 20
61.78608233421858
 30
0.0
 11
38.99999999999986
 21
-0.0000000000299233
 31
0.0
210
0.0
220
0.0
230
1.0
 40
0.9135454576426004
 41
2.082738225779873
 42
2.629650754606522
  0
LINE
  5
578
330
1F
100
AcDbEntity
  8
Visible (ISO)
100
AcDbLine
 10
828.0783697984492
 20
72.93133691745845
 30
0.0
 11
828.0783697984483
 21
79.23934379620607
 31
0.0
  0
LINE
  5
579
330
1F
100
AcDbEntity
  8
Visible (ISO)
100
AcDbLine
 10
896.0783697984512
 20
84.12018351311564
 30
0.0
 11
896.0783697984474
 21
79.23934379620607
 31
0.0
  0
LINE
  5
57A
330
1F
100
AcDbEntity
  8
Visible (ISO)
100
AcDbLine
 10
828.0783697984512
 20
84.12018351311564
 30
0.0
 11
828.0783697984483
 21
79.23934379620607
 31
0.0
  0
LINE
  5
57B
330
1F
100
AcDbEntity
  8
Visible (ISO)
100
AcDbLine
 10
881.1833429729928
 20
97.727467610977
 30
0.0
 11
842.9733966239068
 21
97.727467610977
 31
0.0
  0
ELLIPSE
  5
57C
330
1F
100
AcDbEntity
  8
Visible (ISO)
100
AcDbEllipse
 10
862.0783697984538
 20
66.66692205112861
 30
0.0
 11
-38.99999999999982
 21
0.0000000000225736
 31
0.0
210
0.0
220
0.0
230
1.0
 40
0.9135454576426003
 41
3.653534552574534
 42
4.200447081401179
  0
ELLIPSE
  5
57D
330
1F
100
AcDbEntity
  8
Visible (ISO)
100
AcDbEllipse
 10
862.0783697984538
 20
66.66692205112861
 30
0.0
 11
-38.99999999999971
 21
0.0000000000262373
 31
0.0
210
0.0
220
0.0
230
1.0
 40
0.9135454576426003
 41
5.224330879369563
 42
5.77124340819619
  0
LINE
  5
57E
330
1F
100
AcDbEntity
  8
Visible (ISO)
100
AcDbLine
 10
881.1833429729928
 20
97.727467610977
 30
0.0
 11
881.183342972989
 21
92.84662789406695
 31
0.0
  0
LINE
  5
57F
330
1F
100
AcDbEntity
  8
Visible (ISO)
100
AcDbLine
 10
842.9733966239068
 20
97.727467610977
 30
0.0
 11
842.9733966239032
 21
92.84662789406695
 31
0.0
  0
ELLIPSE
  5
580
330
1F
100
AcDbEntity
  8
Visible (ISO)
100
AcDbEllipse
 10
880.7374158619527
 20
82.06679149388458
 30
0.0
 11
9.999999999999928
 21
-0.000000000005787
 31
0.0
210
0.0
220
0.0
230
1.0
 40
0.9135454576426004
 41
4.013437499640339
 42
4.712388980385333
  0
ELLIPSE
  5
581
330
1F
100
AcDbEntity
  8
Visible (ISO)
100
AcDbEllipse
 10
880.7374158619554
 20
86.8629051465083
 30
0.0
 11
-0.0000000000049107
 21
-18.27090915285192
 31
0.0
210
0.0
220
0.0
230
1.0
 40
0.5473181392530239
 41
5.584233826433875
 42
6.2831853071786
  0
ELLIPSE
  5
582
330
1F
100
AcDbEntity
  8
Visible (ISO)
100
AcDbEllipse
 10
843.4193237349431
 20
82.06679149388458
 30
0.0
 11
9.999999999999928
 21
-0.0000000000000041
 31
0.0
210
0.0
220
0.0
230
1.0
 40
0.9135454576426004
 41
4.712388980384929
 42
5.411340461129828
  0
ELLIPSE
  5
583
330
1F
100
AcDbEntity
  8
Visible (ISO)
100
AcDbEllipse
 10
843.4193237349459
 20
86.8629051465083
 30
0.0
 11
-0.0000000000049096
 21
-18.27090915285192
 31
0.0
210
0.0
220
0.0
230
1.0
 40
0.5473181392530239
 41
0.0
 42
0.6989514807442765
  0
ELLIPSE
  5
584
330
1F
100
AcDbEntity
  8
Visible (ISO)
100
AcDbEllipse
 10
882.6475733084166
 20
84.18020781785719
 30
0.0
 11
-4.249999999999981
 21
0.0
 31
0.0
210
0.0
220
0.0
230
1.0
 40
0.9135454576426004
 41
3.141592653589464
 42
6.283185307179257
  0
ELLIPSE
  5
585
330
1F
100
AcDbEntity
  8
Visible (ISO)
100
AcDbEllipse
 10
841.5091662884783
 20
84.18020781785719
 30
0.0
 11
-4.249999999999978
 21
-0.0000000000000041
 31
0.0
210
0.0
220
0.0
230
1.0
 40
0.9135454576426004
 41
3.141592653589462
 42
6.283185307179255
  0
ELLIPSE
  5
586
330
1F
100
AcDbEntity
  8
Visible (ISO)
100
AcDbEllipse
 10
841.5091662884766
 20
81.61776696647951
 30
0.0
 11
4.249999999999981
 21
0.0
 31
0.0
210
0.0
220
0.0
230
1.0
 40
0.9135454576426004
 41
0.0
 42
6.283185307179586
  0
ELLIPSE
  5
587
330
1F
100
AcDbEntity
  8
Visible (ISO)
100
AcDbEllipse
 10
882.6475733084148
 20
81.61776696647951
 30
0.0
 11
-4.249999999999981
 21
0.0
 31
0.0
210
0.0
220
0.0
230
1.0
 40
0.9135454576426004
 41
0.0
 42
6.283185307179586
  0
LINE
  5
588
330
1F
100
AcDbEntity
  8
Visible (ISO)
100
AcDbLine
 10
845.7591662884784
 20
84.18020781785719
 30
0.0
 11
845.7591662884764
 21
81.61776696647951
 31
0.0
  0
LINE
  5
589
330
1F
100
AcDbEntity
  8
Visible (ISO)
100
AcDbLine
 10
837.2591662884783
 20
84.18020781785719
 30
0.0
 11
837.2591662884765
 21
81.61776696647951
 31
0.0
  0
LINE
  5
58A
330
1F
100
AcDbEntity
  8
Visible (ISO)
100
AcDbLine
 10
878.3975733084147
 20
81.61776696647951
 30
0.0
 11
878.3975733084167
 21
84.18020781785719
 31
0.0
  0
LINE
  5
58B
330
1F
100
AcDbEntity
  8
Visible (ISO)
100
AcDbLine
 10
886.8975733084148
 20
81.61776696647951
 30
0.0
 11
886.8975733084166
 21
84.18020781785719
 31
0.0
  0
LINE
  5
58C
330
1F
100
AcDbEntity
  8
Visible (ISO)
100
AcDbLine
 10
896.0783697984483
 20
72.93133691745845
 30
0.0
 11
880.7374158619536
 21
72.93133691745845
 31
0.0
  0
LINE
  5
58D
330
1F
100
AcDbEntity
  8
Visible (ISO)
100
AcDbLine
 10
828.0783697984492
 20
72.93133691745845
 30
0.0
 11
843.4193237349441
 21
72.93133691745845
 31
0.0
  0
ELLIPSE
  5
58E
330
1F
100
AcDbEntity
  8
Visible (ISO)
100
AcDbEllipse
 10
862.0783697984503
 20
61.78608233421858
 30
0.0
 11
19.00000000000035
 21
-0.0000000000145925
 31
0.0
210
0.0
220
0.0
230
1.0
 40
0.9135454576426001
 41
2.039609266675403
 42
2.269747807540733
  0
ELLIPSE
  5
58F
330
1F
100
AcDbEntity
  8
Visible (ISO)
100
AcDbEllipse
 10
862.0783697984503
 20
61.78608233421858
 30
0.0
 11
-19.00000000000035
 21
0.0000000000109843
 31
0.0
210
0.0
220
0.0
230
1.0
 40
0.9135454576426003
 41
4.013437499640327
 42
4.243576040505654
  0
LINE
  5
590
330
1F
100
AcDbEntity
  8
Visible (ISO)
100
AcDbLine
 10
896.0783697984457
 20
68.59199599365604
 30
0.0
 11
880.7374158619509
 21
68.59199599365604
 31
0.0
  0
LINE
  5
591
330
1F
100
AcDbEntity
  8
Visible (ISO)
100
AcDbLine
 10
896.0783697984483
 20
72.93133691745845
 30
0.0
 11
896.0783697984457
 21
68.59199599365604
 31
0.0
  0
ELLIPSE
  5
592
330
1F
100
AcDbEntity
  8
Visible (ISO)
100
AcDbEllipse
 10
862.0783697984402
 20
46.30148682717719
 30
0.0
 11
-0.0000000000093294
 21
-34.71472739041864
 31
0.0
210
0.0
220
0.0
230
1.0
 40
0.547318139253024
 41
3.610405593468618
 42
3.840544134334071
  0
LINE
  5
593
330
1F
100
AcDbEntity
  8
Visible (ISO)
100
AcDbLine
 10
828.0783697984466
 20
68.59199599365604
 30
0.0
 11
828.0783697984492
 21
72.93133691745845
 31
0.0
  0
LINE
  5
594
330
1F
100
AcDbEntity
  8
Visible (ISO)
100
AcDbLine
 10
843.4193237349413
 20
68.59199599365604
 30
0.0
 11
828.0783697984466
 21
68.59199599365604
 31
0.0
  0
ELLIPSE
  5
595
330
1F
100
AcDbEntity
  8
Visible (ISO)
100
AcDbEllipse
 10
862.0783697984402
 20
46.30148682717719
 30
0.0
 11
-0.0000000000093294
 21
-34.71472739041864
 31
0.0
210
0.0
220
0.0
230
1.0
 40
0.547318139253024
 41
2.442641172844082
 42
2.672779713709267
  0
LINE
  5
596
330
1F
100
AcDbEntity
  8
Visible (ISO)
100
AcDbLine
 10
853.4936449921429
 20
77.27067784126086
 30
0.0
 11
870.6630946047539
 21
77.27067784126086
 31
0.0
  0
LINE
  5
597
330
1F
100
AcDbEntity
  8
Visible (ISO)
100
AcDbLine
 10
828.0783697984466
 20
68.59199599365604
 30
0.0
 11
828.0783697984448
 21
62.12363448129974
 31
0.0
  0
LINE
  5
598
330
1F
100
AcDbEntity
  8
Visible (ISO)
100
AcDbLine
 10
896.0783697984439
 20
62.12363448129974
 30
0.0
 11
896.0783697984457
 21
68.59199599365604
 31
0.0
  0
LINE
  5
599
330
1F
100
AcDbEntity
  8
Visible (ISO)
100
AcDbLine
 10
896.0783697984457
 20
48.08127689794912
 30
0.0
 11
896.0783697984439
 21
58.89603273299565
 31
0.0
  0
LINE
  5
59A
330
1F
100
AcDbEntity
  8
Visible (ISO)
100
AcDbLine
 10
828.0783697984439
 20
58.89603273299565
 30
0.0
 11
828.0783697984457
 21
48.08127689794912
 31
0.0
  0
LINE
  5
59B
330
1F
100
AcDbEntity
  8
Visible (ISO)
100
AcDbLine
 10
896.0783697984439
 20
62.12363448129974
 30
0.0
 11
896.0783697984439
 21
58.89603273299565
 31
0.0
  0
LINE
  5
59C
330
1F
100
AcDbEntity
  8
Visible (ISO)
100
AcDbLine
 10
896.0783697984457
 20
48.08127689794912
 30
0.0
 11
896.0783697984465
 21
46.30148682717674
 31
0.0
  0
LINE
  5
59D
330
1F
100
AcDbEntity
  8
Visible (ISO)
100
AcDbLine
 10
828.0783697984466
 20
46.30148682717674
 30
0.0
 11
828.0783697984457
 21
48.08127689794912
 31
0.0
  0
LINE
  5
59E
330
1F
100
AcDbEntity
  8
Visible (ISO)
100
AcDbLine
 10
828.0783697984439
 20
58.89603273299565
 30
0.0
 11
828.0783697984448
 21
62.12363448129974
 31
0.0
  0
LINE
  5
59F
330
1F
100
AcDbEntity
  8
Visible (ISO)
100
AcDbLine
 10
874.9424714135843
 20
46.30148682717719
 30
0.0
 11
896.0783697984465
 21
46.30148682717719
 31
0.0
  0
LINE
  5
5A0
330
1F
100
AcDbEntity
  8
Visible (ISO)
100
AcDbLine
 10
874.9424714135843
 20
46.30148682717674
 30
0.0
 11
872.3443952022313
 21
46.30148682717674
 31
0.0
  0
LINE
  5
5A1
330
1F
100
AcDbEntity
  8
Visible (ISO)
100
AcDbLine
 10
869.8725984325077
 20
46.30148682717674
 30
0.0
 11
872.3443952022313
 21
46.30148682717674
 31
0.0
  0
LINE
  5
5A2
330
1F
100
AcDbEntity
  8
Visible (ISO)
100
AcDbLine
 10
854.284141164388
 20
46.30148682717674
 30
0.0
 11
869.8725984325077
 21
46.30148682717674
 31
0.0
  0
LINE
  5
5A3
330
1F
100
AcDbEntity
  8
Visible (ISO)
100
AcDbLine
 10
851.8123443946629
 20
46.30148682717719
 30
0.0
 11
854.284141164388
 21
46.30148682717719
 31
0.0
  0
LINE
  5
5A4
330
1F
100
AcDbEntity
  8
Visible (ISO)
100
AcDbLine
 10
851.8123443946629
 20
46.30148682717674
 30
0.0
 11
849.2142681833088
 21
46.30148682717674
 31
0.0
  0
LINE
  5
5A5
330
1F
100
AcDbEntity
  8
Visible (ISO)
100
AcDbLine
 10
828.0783697984466
 20
46.30148682717719
 30
0.0
 11
849.2142681833088
 21
46.30148682717719
 31
0.0
  0
LINE
  5
5A6
330
1F
100
AcDbEntity
  8
Visible (ISO)
100
AcDbLine
 10
808.0783697984484
 20
75.45084186099723
 30
0.0
 11
808.0783697984484
 21
41.45084186099768
 31
0.0
  0
LINE
  5
5A7
330
1F
100
AcDbEntity
  8
Visible (ISO)
100
AcDbLine
 10
810.9283697984487
 20
75.45084186099723
 30
0.0
 11
810.9283697984487
 21
41.45084186099768
 31
0.0
  0
LINE
  5
5A8
330
1F
100
AcDbEntity
  8
Visible (ISO)
100
AcDbLine
 10
813.1667867391856
 20
69.30084186099759
 30
0.0
 11
813.1667867391856
 21
47.60084186099732
 31
0.0
  0
LINE
  5
5A9
330
1F
100
AcDbEntity
  8
Visible (ISO)
100
AcDbLine
 10
810.9283697984487
 20
41.45084186099722
 30
0.0
 11
808.0783697984484
 21
41.45084186099722
 31
0.0
  0
LINE
  5
5AA
330
1F
100
AcDbEntity
  8
Visible (ISO)
100
AcDbLine
 10
810.9283697984487
 20
75.45084186099723
 30
0.0
 11
808.0783697984484
 21
75.45084186099723
 31
0.0
  0
LINE
  5
5AB
330
1F
100
AcDbEntity
  8
Visible (ISO)
100
AcDbLine
 10
813.1667867391856
 20
47.60084186099732
 30
0.0
 11
810.9283697984487
 21
41.45084186099722
 31
0.0
  0
LINE
  5
5AC
330
1F
100
AcDbEntity
  8
Visible (ISO)
100
AcDbLine
 10
813.1667867391856
 20
69.30084186099759
 30
0.0
 11
810.9283697984487
 21
75.45084186099723
 31
0.0
  0
LINE
  5
5AD
330
1F
100
AcDbEntity
  8
Visible (ISO)
100
AcDbLine
 10
828.0783697984483
 20
47.60084186099732
 30
0.0
 11
813.1667867391856
 21
47.60084186099732
 31
0.0
  0
LINE
  5
5AE
330
1F
100
AcDbEntity
  8
Visible (ISO)
100
AcDbLine
 10
828.0783697984483
 20
69.30084186099759
 30
0.0
 11
813.1667867391856
 21
69.30084186099759
 31
0.0
  0
LINE
  5
5AF
330
1F
100
AcDbEntity
  8
Visible (ISO)
100
AcDbLine
 10
916.0783697984484
 20
75.45084186099723
 30
0.0
 11
916.0783697984484
 21
41.45084186099768
 31
0.0
  0
LINE
  5
5B0
330
1F
100
AcDbEntity
  8
Visible (ISO)
100
AcDbLine
 10
913.228369798448
 20
75.45084186099723
 30
0.0
 11
913.228369798448
 21
41.45084186099768
 31
0.0
  0
LINE
  5
5B1
330
1F
100
AcDbEntity
  8
Visible (ISO)
100
AcDbLine
 10
910.9899528577111
 20
69.30084186099759
 30
0.0
 11
910.9899528577111
 21
47.60084186099732
 31
0.0
  0
LINE
  5
5B2
330
1F
100
AcDbEntity
  8
Visible (ISO)
100
AcDbLine
 10
916.0783697984475
 20
41.45084186099722
 30
0.0
 11
913.228369798448
 21
41.45084186099722
 31
0.0
  0
LINE
  5
5B3
330
1F
100
AcDbEntity
  8
Visible (ISO)
100
AcDbLine
 10
916.0783697984475
 20
75.45084186099723
 30
0.0
 11
913.228369798448
 21
75.45084186099723
 31
0.0
  0
LINE
  5
5B4
330
1F
100
AcDbEntity
  8
Visible (ISO)
100
AcDbLine
 10
910.9899528577111
 20
69.30084186099759
 30
0.0
 11
913.228369798448
 21
75.45084186099723
 31
0.0
  0
LINE
  5
5B5
330
1F
100
AcDbEntity
  8
Visible (ISO)
100
AcDbLine
 10
910.9899528577111
 20
47.60084186099732
 30
0.0
 11
913.228369798448
 21
41.45084186099722
 31
0.0
  0
LINE
  5
5B6
330
1F
100
AcDbEntity
  8
Visible (ISO)
100
AcDbLine
 10
910.9899528577111
 20
47.60084186099732
 30
0.0
 11
896.0783697984483
 21
47.60084186099732
 31
0.0
  0
LINE
  5
5B7
330
1F
100
AcDbEntity
  8
Visible (ISO)
100
AcDbLine
 10
910.9899528577111
 20
69.30084186099759
 30
0.0
 11
896.0783697984483
 21
69.30084186099759
 31
0.0
  0
ELLIPSE
  5
5B8
330
1F
100
AcDbEntity
  8
Visible (ISO)
100
AcDbEllipse
 10
862.0783697984556
 20
69.39205755973637
 30
0.0
 11
38.9999999999998
 21
-0.0000000000299372
 31
0.0
210
0.0
220
0.0
230
1.0
 40
0.9135454576426003
 41
2.082738225779879
 42
2.629650754606526
  0
LINE
  5
5B9
330
1F
100
AcDbEntity
  8
Visible (ISO)
100
AcDbLine
 10
842.9733966239087
 20
100.4526031195843
 30
0.0
 11
881.1833429729945
 21
100.4526031195843
 31
0.0
  0
ELLIPSE
  5
5BA
330
1F
100
AcDbEntity
  8
Visible (ISO)
100
AcDbEllipse
 10
862.0783697984556
 20
69.39205755973637
 30
0.0
 11
38.9999999999997
 21
-0.0000000000262457
 31
0.0
210
0.0
220
0.0
230
1.0
 40
0.9135454576426004
 41
0.511941898984869
 42
1.058854427811494
  0
ELLIPSE
  5
5BB
330
1F
100
AcDbEntity
  8
Visible (ISO)
100
AcDbEllipse
 10
862.0783697984538
 20
67.07365869420403
 30
0.0
 11
-38.9999999999997
 21
0.000000000022532
 31
0.0
210
0.0
220
0.0
230
1.0
 40
0.9135454576426004
 41
3.653534552574534
 42
4.200447081401183
  0
LINE
  5
5BC
330
1F
100
AcDbEntity
  8
Visible (ISO)
100
AcDbLine
 10
881.1833429729928
 20
98.1342042540524
 30
0.0
 11
842.9733966239068
 21
98.1342042540524
 31
0.0
  0
ELLIPSE
  5
5BD
330
1F
100
AcDbEntity
  8
Visible (ISO)
100
AcDbEllipse
 10
862.0783697984538
 20
67.07365869420448
 30
0.0
 11
-38.99999999999962
 21
0.0000000000262457
 31
0.0
210
0.0
220
0.0
230
1.0
 40
0.9135454576426006
 41
5.22433087936956
 42
5.771243408196189
  0
LINE
  5
5BE
330
1F
100
AcDbEntity
  8
Visible (ISO)
100
AcDbLine
 10
828.0783697984521
 20
84.52692015619152
 30
0.0
 11
828.0783697984521
 21
84.12018351311564
 31
0.0
  0
SPLINE
  5
5BF
330
1F
100
AcDbEntity
  8
Visible (ISO)
100
AcDbSpline
210
0.0
220
0.0
230
1.0
 70
     8
 71
     3
 72
     8
 73
     4
 74
     0
 42
0.0000000001
 43
0.0000000001
 40
-0.0259507643397218
 40
-0.0259507643397218
 40
-0.0259507643397218
 40
-0.0259507643397218
 40
0.0
 40
0.0
 40
0.0
 40
0.0
 10
828.2588031576274
 20
84.41033880278713
 30
0.0
 10
828.1986598003618
 20
84.44921640490212
 30
0.0
 10
828.1385151206219
 20
84.48807695888456
 30
0.0
 10
828.0783697984521
 20
84.52692015619152
 30
0.0
  0
SPLINE
  5
5C0
330
1F
100
AcDbEntity
  8
Visible (ISO)
100
AcDbSpline
210
0.0
220
0.0
230
1.0
 70
     8
 71
     3
 72
     8
 73
     4
 74
     0
 42
0.0000000001
 43
0.0000000001
 40
-0.0443084237213385
 40
-0.0443084237213385
 40
-0.0443084237213385
 40
-0.0443084237213385
 40
0.0
 40
0.0
 40
0.0
 40
0.0
 10
843.0541925448892
 20
97.727467610977
 30
0.0
 10
843.0272044663192
 20
97.86304103999658
 30
0.0
 10
843.0002724346408
 20
97.99862141069082
 30
0.0
 10
842.9733966239068
 20
98.1342042540524
 30
0.0
  0
SPLINE
  5
5C1
330
1F
100
AcDbEntity
  8
Visible (ISO)
100
AcDbSpline
210
0.0
220
0.0
230
1.0
 70
     8
 71
     3
 72
     8
 73
     4
 74
     0
 42
0.0000000001
 43
0.0000000001
 40
-0.0443084237213672
 40
-0.0443084237213672
 40
-0.0443084237213672
 40
-0.0443084237213672
 40
0.0
 40
0.0
 40
0.0
 40
0.0
 10
881.1025470520103
 20
97.727467610977
 30
0.0
 10
881.1295351305803
 20
97.86304103999658
 30
0.0
 10
881.1564671622587
 20
97.99862141069036
 30
0.0
 10
881.1833429729928
 20
98.1342042540524
 30
0.0
  0
SPLINE
  5
5C2
330
1F
100
AcDbEntity
  8
Visible (ISO)
100
AcDbSpline
210
0.0
220
0.0
230
1.0
 70
     8
 71
     3
 72
     8
 73
     4
 74
     0
 42
0.0000000001
 43
0.0000000001
 40
-0.0259507643397414
 40
-0.0259507643397414
 40
-0.0259507643397414
 40
-0.0259507643397414
 40
0.0
 40
0.0
 40
0.0
 40
0.0
 10
895.8979364392758
 20
84.41033880278713
 30
0.0
 10
895.9580797965413
 20
84.44921640490168
 30
0.0
 10
896.0182244762805
 20
84.48807695888456
 30
0.0
 10
896.0783697984512
 20
84.52692015619152
 30
0.0
  0
LINE
  5
5C3
330
1F
100
AcDbEntity
  8
Visible (ISO)
100
AcDbLine
 10
896.0783697984512
 20
84.12018351311564
 30
0.0
 11
896.0783697984512
 21
84.52692015619152
 31
0.0
  0
LINE
  5
5C4
330
1F
100
AcDbEntity
  8
Visible (ISO)
100
AcDbLine
 10
881.1833429729945
 20
100.4526031195843
 30
0.0
 11
881.1833429729928
 21
98.1342042540524
 31
0.0
  0
LINE
  5
5C5
330
1F
100
AcDbEntity
  8
Visible (ISO)
100
AcDbLine
 10
896.0783697984529
 20
86.84531902172341
 30
0.0
 11
896.0783697984512
 21
84.52692015619152
 31
0.0
  0
LINE
  5
5C6
330
1F
100
AcDbEntity
  8
Visible (ISO)
100
AcDbLine
 10
842.9733966239087
 20
100.4526031195843
 30
0.0
 11
842.9733966239068
 21
98.1342042540524
 31
0.0
  0
LINE
  5
5C7
330
1F
100
AcDbEntity
  8
Visible (ISO)
100
AcDbLine
 10
828.078369798453
 20
86.84531902172341
 30
0.0
 11
828.0783697984521
 21
84.52692015619152
 31
0.0
  0
SPLINE
  5
5C8
330
1F
100
AcDbEntity
  8
Visible (ISO)
100
AcDbSpline
210
0.0
220
0.0
230
1.0
 70
     8
 71
     3
 72
    16
 73
    12
 74
     0
 42
0.0000000001
 43
0.0000000001
 40
0.957040291451168
 40
0.957040291451168
 40
0.957040291451168
 40
0.957040291451168
 40
1.202542705588659
 40
1.202542705588659
 40
1.448045119726151
 40
1.448045119726151
 40
1.693547533863643
 40
1.693547533863643
 40
1.939049948001134
 40
1.939049948001134
 40
2.184552362138626
 40
2.184552362138626
 40
2.184552362138626
 40
2.184552362138626
 10
883.0872131499013
 20
133.9935094955295
 30
0.0
 10
880.6250275488487
 20
135.5782092783916
 30
0.0
 10
877.9615690554368
 20
136.8776185438406
 30
0.0
 10
872.3879397806326
 20
138.8423031640101
 30
0.0
 10
869.4779491499625
 20
139.5076289772078
 30
0.0
 10
863.5748463147224
 20
140.1729408605789
 30
0.0
 10
860.5818932822298
 20
140.1729408605789
 30
0.0
 10
854.6787904469898
 20
139.5076289772078
 30
0.0
 10
851.7687998163196
 20
138.8423031640101
 30
0.0
 10
846.1951705415163
 20
136.8776185438406
 30
0.0
 10
843.5317120481045
 20
135.5782092783916
 30
0.0
 10
841.0695264470527
 20
133.9935094955295
 30
0.0
  0
LINE
  5
5C9
330
1F
100
AcDbEntity
  8
0
  6
CENTER
100
AcDbLine
 10
1054.17313114687
 20
47.05494327286089
 30
0.0
 11
1234.016631802444
 21
127.1264286310425
 31
0.0
  0
LINE
  5
5CA
330
1F
100
AcDbEntity
  8
0
  6
CENTER
100
AcDbLine
 10
1079.768738447504
 20
36.92264487180603
 30
0.0
 11
1079.768738447504
 21
79.97903885022481
 31
0.0
  0
LINE
  5
5CB
330
1F
100
AcDbEntity
  8
0
  6
CENTER
100
AcDbLine
 10
1058.240541458294
 20
58.45084186101542
 30
0.0
 11
1101.296935436713
 21
58.45084186101542
 31
0.0
  0
LINE
  5
5CC
330
1F
100
AcDbEntity
  8
0
  6
CENTER
100
AcDbLine
 10
862.0783697984338
 20
147.4561111685731
 30
0.0
 11
862.0783697984492
 21
22.64313001252515
 31
0.0
  0
LINE
  5
5CD
330
1F
100
AcDbEntity
  8
0
  6
CENTER
100
AcDbLine
 10
927.1485237250477
 20
58.45084186099768
 30
0.0
 11
788.5514503318359
 21
58.45084186099768
 31
0.0
  0
LINE
  5
5CE
330
1F
100
AcDbEntity
  8
0
  6
CENTER
100
AcDbLine
 10
1061.595018063403
 20
428.9767543491826
 30
0.0
 11
1225.665532016909
 21
428.9767543492163
 31
0.0
  0
LINE
  5
5CF
330
1F
100
AcDbEntity
  8
0
  6
CENTER
100
AcDbLine
 10
1079.768738447503
 20
363.0053565792233
 30
0.0
 11
1079.768738447503
 21
494.9481521191493
 31
0.0
  0
LINE
  5
5D0
330
1F
100
AcDbEntity
  8
0
  6
CENTER
100
AcDbLine
 10
1417.361934653004
 20
151.1121483782686
 30
0.0
 11
1417.36193465302
 21
22.64313001252378
 31
0.0
  0
LINE
  5
5D1
330
1F
100
AcDbEntity
  8
0
  6
CENTER
100
AcDbLine
 10
1482.432088579618
 20
58.45084186099632
 30
0.0
 11
1343.835015186406
 21
58.45084186099632
 31
0.0
  0
VIEWPORT
  5
71
330
55
100
AcDbEntity
 67
     1
  8
0
100
AcDbViewport
 10
133.3499908447265
 20
101.5999970436096
 30
0.0
 40
381.3957395593834
 41
218.2856291881582
 68
     1
 69
     1
 12
133.3499908447265
 22
101.5999970436096
 13
0.0
 23
0.0
 14
10.0
 24
10.0
 15
10.0
 25
10.0
 16
0.0
 26
0.0
 36
1.0
 17
0.0
 27
0.0
 37
0.0
 42
50.0
 43
0.0
 44
0.0
 45
218.2856291881582
 50
0.0
 51
0.0
 72
   100
 90
    32800
  1

281
     0
 71
     1
 74
     0
110
0.0
120
0.0
130
0.0
111
1.0
121
0.0
131
0.0
112
0.0
122
1.0
132
0.0
 79
     0
146
0.0
  0
VIEWPORT
  5
73
330
55
100
AcDbEntity
 67
     1
  8
0
100
AcDbViewport
 10
133.349993944168
 20
101.599993944168
 30
0.0
 40
213.3599903106689
 41
162.5599903106689
 68
     2
 69
     2
 12
210.0
 22
148.5
 13
0.0
 23
0.0
 14
10.0
 24
10.0
 15
10.0
 25
10.0
 16
0.0
 26
0.0
 36
1.0
 17
0.0
 27
0.0
 37
0.0
 42
50.0
 43
0.0
 44
0.0
 45
324.0677920111345
 50
0.0
 51
0.0
 72
   100
 90
    32864
  1

281
     0
 71
     1
 74
     0
110
0.0
120
0.0
130
0.0
111
1.0
121
0.0
131
0.0
112
0.0
122
1.0
132
0.0
 79
     0
146
0.0
  0
ENDSEC
  0
SECTION
  2
OBJECTS
  0
DICTIONARY
  5
C
330
0
100
AcDbDictionary
281
     1
  3
ACAD_GROUP
350
D
  3
ACAD_LAYOUT
350
1A
  3
ACAD_MLINESTYLE
350
17
  3
ACAD_PLOTSETTINGS
350
19
  3
ACAD_PLOTSTYLENAME
350
E
  3
AcDbVariableDictionary
350
5E
  0
DICTIONARY
  5
304
330
2
100
AcDbDictionary
280
     1
281
     1
  3
ACAD_LAYERSTATES
360
305
  0
DICTIONARY
  5
2BC
330
1F
100
AcDbDictionary
280
     1
281
     1
  3
ACAD_LAYOUTSELFREF
360
2F3
  0
DICTIONARY
  5
2BE
330
55
100
AcDbDictionary
280
     1
281
     1
  3
ACAD_LAYOUTSELFREF
360
2F7
  0
DICTIONARY
  5
2C0
330
50
100
AcDbDictionary
280
     1
281
     1
  3
ACAD_LAYOUTSELFREF
360
2F6
  0
DICTIONARY
  5
D
102
{ACAD_REACTORS
330
C
102
}
330
C
100
AcDbDictionary
281
     1
  0
DICTIONARY
  5
1A
102
{ACAD_REACTORS
330
C
102
}
330
C
100
AcDbDictionary
281
     1
  3
Model
350
22
  3
ﾚｲｱｳﾄ1
350
51
  3
ﾚｲｱｳﾄ2
350
56
  0
DICTIONARY
  5
17
102
{ACAD_REACTORS
330
C
102
}
330
C
100
AcDbDictionary
281
     1
  3
Standard
350
18
  0
DICTIONARY
  5
19
102
{ACAD_REACTORS
330
C
102
}
330
C
100
AcDbDictionary
281
     1
  0
ACDBDICTIONARYWDFLT
  5
E
102
{ACAD_REACTORS
330
C
102
}
330
C
100
AcDbDictionary
281
     1
  3
Normal
350
F
100
AcDbDictionaryWithDefault
340
F
  0
DICTIONARY
  5
5E
102
{ACAD_REACTORS
330
C
102
}
330
C
100
AcDbDictionary
281
     1
  3
DIMASSOC
350
5F
  3
HIDETEXT
350
63
  0
DICTIONARY
  5
305
102
{ACAD_REACTORS
330
304
102
}
330
304
100
AcDbDictionary
281
     1
  0
XRECORD
  5
2F3
102
{ACAD_REACTORS
330
2BC
102
}
330
2BC
100
AcDbXrecord
280
     1
340
1F
  0
XRECORD
  5
2F7
102
{ACAD_REACTORS
330
2BE
102
}
330
2BE
100
AcDbXrecord
280
     1
340
55
  0
XRECORD
  5
2F6
102
{ACAD_REACTORS
330
2C0
102
}
330
2C0
100
AcDbXrecord
280
     1
340
50
  0
LAYOUT
  5
22
102
{ACAD_REACTORS
330
1A
102
}
330
1A
100
AcDbPlotSettings
  1

  2
none_device
  4
ANSI_A_(8.50_x_11.00_Inches)
  6

 40
6.349999904632568
 41
19.04999923706054
 42
6.350006103515625
 43
19.04998779296875
 44
215.8999938964843
 45
279.3999938964843
 46
0.0
 47
0.0
 48
0.0
 49
0.0
140
0.0
141
0.0
142
1.0
143
78.436453180766
 70
 11952
 72
     0
 73
     1
 74
     0
  7

 75
     0
147
0.0127491741332998
148
0.0
149
0.0
100
AcDbLayout
  1
Model
 70
     1
 71
     0
 10
0.0
 20
0.0
 11
12.0
 21
9.0
 12
0.0
 22
0.0
 32
0.0
 14
0.0
 24
0.0
 34
0.0
 15
0.0
 25
0.0
 35
0.0
146
0.0
 13
0.0
 23
0.0
 33
0.0
 16
1.0
 26
0.0
 36
0.0
 17
0.0
 27
1.0
 37
0.0
 76
     0
330
1F
  0
LAYOUT
  5
51
102
{ACAD_REACTORS
330
1A
102
}
330
1A
100
AcDbPlotSettings
  1

  2
none_device
  4
Letter_(8.50_x_11.00_Inches)
  6

 40
6.349999904632568
 41
6.349999904632568
 42
6.350006103515625
 43
6.350006103515625
 44
215.8999938964843
 45
279.3999938964843
 46
0.0
 47
0.0
 48
0.0
 49
0.0
140
0.0
141
0.0
142
1.0
143
1.0
 70
   688
 72
     1
 73
     1
 74
     5
  7

 75
    16
147
1.0
148
0.0
149
0.0
100
AcDbLayout
  1
ﾚｲｱｳﾄ1
 70
     1
 71
     1
 10
-6.350006103515625
 20
-6.349999904632568
 11
273.0499877929687
 21
209.5499939918517
 12
0.0
 22
0.0
 32
0.0
 14
26.66076962115562
 24
20.31135699206657
 34
-0.0015258207003583
 15
240.039213369355
 25
182.8886381005154
 35
0.0000000349246037
146
0.0
 13
0.0
 23
0.0
 33
0.0
 16
1.0
 26
0.0
 36
0.0
 17
0.0
 27
1.0
 37
0.0
 76
     0
330
50
331
6B
  0
LAYOUT
  5
56
102
{ACAD_REACTORS
330
1A
102
}
330
1A
100
AcDbPlotSettings
  1

  2
none_device
  4
Letter_(8.50_x_11.00_Inches)
  6

 40
6.349999904632568
 41
6.349999904632568
 42
6.350006103515625
 43
6.350006103515625
 44
215.8999938964843
 45
279.3999938964843
 46
0.0
 47
0.0
 48
0.0
 49
0.0
140
0.0
141
0.0
142
1.0
143
1.0
 70
   688
 72
     1
 73
     1
 74
     5
  7

 75
    16
147
1.0
148
0.0
149
0.0
100
AcDbLayout
  1
ﾚｲｱｳﾄ2
 70
     1
 71
     2
 10
-6.350006103515625
 20
-6.349999904632568
 11
273.0499877929687
 21
209.5499939918517
 12
0.0
 22
0.0
 32
0.0
 14
26.66076962115562
 24
20.31135699206657
 34
-0.0015258207003583
 15
240.039213369355
 25
182.8886381005154
 35
0.0000000349246037
146
0.0
 13
0.0
 23
0.0
 33
0.0
 16
1.0
 26
0.0
 36
0.0
 17
0.0
 27
1.0
 37
0.0
 76
     0
330
55
331
71
  0
MLINESTYLE
  5
18
102
{ACAD_REACTORS
330
17
102
}
330
17
100
AcDbMlineStyle
  2
STANDARD
 70
     0
  3

 62
   256
 51
90.0
 52
90.0
 71
     2
 49
0.5
 62
   256
  6
BYLAYER
 49
-0.5
 62
   256
  6
BYLAYER
  0
ACDBPLACEHOLDER
  5
F
102
{ACAD_REACTORS
330
E
102
}
330
E
  0
DICTIONARYVAR
  5
5F
102
{ACAD_REACTORS
330
5E
102
}
330
5E
100
DictionaryVariables
280
     0
  1
2
  0
DICTIONARYVAR
  5
63
102
{ACAD_REACTORS
330
5E
102
}
330
5E
100
DictionaryVariables
280
     0
  1
1
  0
ENDSEC
  0
EOF
