  0
SECTION
  2
HEADER
  9
$ACADVER
  1
AC1015
  9
$ACADMAINTVER
 70
    14
  9
$DWGCODEPAGE
  3
ANSI_932
  9
$INSBASE
 10
0.0
 20
0.0
 30
0.0
  9
$EXTMIN
 10
157.6430951047814
 20
41.94244215527146
 30
-0.0000000000112498
  9
$EXTMAX
 10
1225.047406213857
 20
674.0102898763023
 30
0.0000000000002956
  9
$LIMMIN
 10
0.0
 20
0.0
  9
$LIMMAX
 10
420.0
 20
297.0
  9
$ORTHOMODE
 70
     0
  9
$REGENMODE
 70
     1
  9
$FILLMODE
 70
     1
  9
$QTEXTMODE
 70
     0
  9
$MIRRTEXT
 70
     1
  9
$LTSCALE
 40
1.0
  9
$ATTMODE
 70
     1
  9
$TEXTSIZE
 40
2.5
  9
$TRACEWID
 40
1.0
  9
$TEXTSTYLE
  7
Standard
  9
$CLAYER
  8
0
  9
$CELTYPE
  6
ByLayer
  9
$CECOLOR
 62
   256
  9
$CELTSCALE
 40
1.0
  9
$DISPSILH
 70
     0
  9
$DIMSCALE
 40
1.0
  9
$DIMASZ
 40
2.5
  9
$DIMEXO
 40
0.625
  9
$DIMDLI
 40
3.75
  9
$DIMRND
 40
0.0
  9
$DIMDLE
 40
0.0
  9
$DIMEXE
 40
1.25
  9
$DIMTP
 40
0.0
  9
$DIMTM
 40
0.0
  9
$DIMTXT
 40
2.5
  9
$DIMCEN
 40
2.5
  9
$DIMTSZ
 40
0.0
  9
$DIMTOL
 70
     0
  9
$DIMLIM
 70
     0
  9
$DIMTIH
 70
     0
  9
$DIMTOH
 70
     0
  9
$DIMSE1
 70
     0
  9
$DIMSE2
 70
     0
  9
$DIMTAD
 70
     1
  9
$DIMZIN
 70
     8
  9
$DIMBLK
  1

  9
$DIMASO
 70
     1
  9
$DIMSHO
 70
     1
  9
$DIMPOST
  1

  9
$DIMAPOST
  1

  9
$DIMALT
 70
     0
  9
$DIMALTD
 70
     3
  9
$DIMALTF
 40
0.03937007874016
  9
$DIMLFAC
 40
1.0
  9
$DIMTOFL
 70
     1
  9
$DIMTVP
 40
0.0
  9
$DIMTIX
 70
     0
  9
$DIMSOXD
 70
     0
  9
$DIMSAH
 70
     0
  9
$DIMBLK1
  1

  9
$DIMBLK2
  1

  9
$DIMSTYLE
  2
ISO-25
  9
$DIMCLRD
 70
     0
  9
$DIMCLRE
 70
     0
  9
$DIMCLRT
 70
     0
  9
$DIMTFAC
 40
1.0
  9
$DIMGAP
 40
0.625
  9
$DIMJUST
 70
     0
  9
$DIMSD1
 70
     0
  9
$DIMSD2
 70
     0
  9
$DIMTOLJ
 70
     0
  9
$DIMTZIN
 70
     8
  9
$DIMALTZ
 70
     0
  9
$DIMALTTZ
 70
     0
  9
$DIMUPT
 70
     0
  9
$DIMDEC
 70
     2
  9
$DIMTDEC
 70
     2
  9
$DIMALTU
 70
     2
  9
$DIMALTTD
 70
     3
  9
$DIMTXSTY
  7
Standard
  9
$DIMAUNIT
 70
     0
  9
$DIMADEC
 70
     0
  9
$DIMALTRND
 40
0.0
  9
$DIMAZIN
 70
     0
  9
$DIMDSEP
 70
    44
  9
$DIMATFIT
 70
     3
  9
$DIMFRAC
 70
     0
  9
$DIMLDRBLK
  1

  9
$DIMLUNIT
 70
     2
  9
$DIMLWD
 70
    -2
  9
$DIMLWE
 70
    -2
  9
$DIMTMOVE
 70
     0
  9
$LUNITS
 70
     2
  9
$LUPREC
 70
     4
  9
$SKETCHINC
 40
1.0
  9
$FILLETRAD
 40
10.0
  9
$AUNITS
 70
     0
  9
$AUPREC
 70
     0
  9
$MENU
  1
.
  9
$ELEVATION
 40
0.0
  9
$PELEVATION
 40
0.0
  9
$THICKNESS
 40
0.0
  9
$LIMCHECK
 70
     0
  9
$CHAMFERA
 40
10.0
  9
$CHAMFERB
 40
10.0
  9
$CHAMFERC
 40
20.0
  9
$CHAMFERD
 40
0.0
  9
$SKPOLY
 70
     0
  9
$TDCREATE
 40
2454284.636518553
  9
$TDUCREATE
 40
2454284.261518553
  9
$TDUPDATE
 40
2456899.672614861
  9
$TDUUPDATE
 40
2456899.297614861
  9
$TDINDWG
 40
0.0018558912
  9
$TDUSRTIMER
 40
0.0018558912
  9
$USRTIMER
 70
     1
  9
$ANGBASE
 50
0.0
  9
$ANGDIR
 70
     0
  9
$PDMODE
 70
     0
  9
$PDSIZE
 40
0.0
  9
$PLINEWID
 40
0.0
  9
$SPLFRAME
 70
     0
  9
$SPLINETYPE
 70
     6
  9
$SPLINESEGS
 70
     8
  9
$HANDSEED
  5
57E
  9
$SURFTAB1
 70
     6
  9
$SURFTAB2
 70
     6
  9
$SURFTYPE
 70
     6
  9
$SURFU
 70
     6
  9
$SURFV
 70
     6
  9
$UCSBASE
  2

  9
$UCSNAME
  2

  9
$UCSORG
 10
0.0
 20
0.0
 30
0.0
  9
$UCSXDIR
 10
1.0
 20
0.0
 30
0.0
  9
$UCSYDIR
 10
0.0
 20
1.0
 30
0.0
  9
$UCSORTHOREF
  2

  9
$UCSORTHOVIEW
 70
     0
  9
$UCSORGTOP
 10
0.0
 20
0.0
 30
0.0
  9
$UCSORGBOTTOM
 10
0.0
 20
0.0
 30
0.0
  9
$UCSORGLEFT
 10
0.0
 20
0.0
 30
0.0
  9
$UCSORGRIGHT
 10
0.0
 20
0.0
 30
0.0
  9
$UCSORGFRONT
 10
0.0
 20
0.0
 30
0.0
  9
$UCSORGBACK
 10
0.0
 20
0.0
 30
0.0
  9
$PUCSBASE
  2

  9
$PUCSNAME
  2

  9
$PUCSORG
 10
0.0
 20
0.0
 30
0.0
  9
$PUCSXDIR
 10
1.0
 20
0.0
 30
0.0
  9
$PUCSYDIR
 10
0.0
 20
1.0
 30
0.0
  9
$PUCSORTHOREF
  2

  9
$PUCSORTHOVIEW
 70
     0
  9
$PUCSORGTOP
 10
0.0
 20
0.0
 30
0.0
  9
$PUCSORGBOTTOM
 10
0.0
 20
0.0
 30
0.0
  9
$PUCSORGLEFT
 10
0.0
 20
0.0
 30
0.0
  9
$PUCSORGRIGHT
 10
0.0
 20
0.0
 30
0.0
  9
$PUCSORGFRONT
 10
0.0
 20
0.0
 30
0.0
  9
$PUCSORGBACK
 10
0.0
 20
0.0
 30
0.0
  9
$USERI1
 70
     0
  9
$USERI2
 70
     0
  9
$USERI3
 70
     0
  9
$USERI4
 70
     0
  9
$USERI5
 70
     0
  9
$USERR1
 40
0.0
  9
$USERR2
 40
0.0
  9
$USERR3
 40
0.0
  9
$USERR4
 40
0.0
  9
$USERR5
 40
0.0
  9
$WORLDVIEW
 70
     1
  9
$SHADEDGE
 70
     3
  9
$SHADEDIF
 70
    70
  9
$TILEMODE
 70
     1
  9
$MAXACTVP
 70
    48
  9
$PINSBASE
 10
0.0
 20
0.0
 30
0.0
  9
$PLIMCHECK
 70
     0
  9
$PEXTMIN
 10
26.66076962115562
 20
20.31135699206657
 30
-0.0015258207003583
  9
$PEXTMAX
 10
240.039213369355
 20
182.8886381005154
 30
0.0000000349246037
  9
$PLIMMIN
 10
-6.350006103515625
 20
-6.349999904632568
  9
$PLIMMAX
 10
273.0499877929687
 20
209.5499939918517
  9
$UNITMODE
 70
     0
  9
$VISRETAIN
 70
     1
  9
$PLINEGEN
 70
     0
  9
$PSLTSCALE
 70
     1
  9
$TREEDEPTH
 70
  3020
  9
$CMLSTYLE
  2
Standard
  9
$CMLJUST
 70
     0
  9
$CMLSCALE
 40
20.0
  9
$PROXYGRAPHICS
 70
     1
  9
$MEASUREMENT
 70
     1
  9
$CELWEIGHT
370
    -1
  9
$ENDCAPS
280
     0
  9
$JOINSTYLE
280
     0
  9
$LWDISPLAY
290
     0
  9
$INSUNITS
 70
     4
  9
$HYPERLINKBASE
  1

  9
$STYLESHEET
  1

  9
$XEDIT
290
     1
  9
$CEPSNTYPE
380
     0
  9
$PSTYLEMODE
290
     1
  9
$FINGERPRINTGUID
  2
{FDEAD578-A652-11D2-9A35-0060089B3A3F}
  9
$VERSIONGUID
  2
{2F65C0A2-B1BF-4793-A18F-4F6E5014E602}
  9
$EXTNAMES
290
     1
  9
$PSVPSCALE
 40
0.0
  9
$OLESTARTUP
290
     0
  0
ENDSEC
  0
SECTION
  2
CLASSES
  0
CLASS
  1
ACDBDICTIONARYWDFLT
  2
AcDbDictionaryWithDefault
  3
AutoCAD 2000
 90
        0
280
     0
281
     0
  0
CLASS
  1
ACDBPLACEHOLDER
  2
AcDbPlaceHolder
  3
AutoCAD 2000
 90
        0
280
     0
281
     0
  0
CLASS
  1
LAYOUT
  2
AcDbLayout
  3
AutoCAD 2000
 90
        0
280
     0
281
     0
  0
CLASS
  1
DICTIONARYVAR
  2
AcDbDictionaryVar
  3
AutoCAD 2000
 90
        0
280
     0
281
     0
  0
CLASS
  1
LONG_TRANSACTION
  2
AcDbLongTransaction
  3
AutoCAD 2000
 90
    32768
280
     0
281
     0
  0
CLASS
  1
LWPOLYLINE
  2
AcDbPolyline
  3
AutoCAD 2000
 90
    32768
280
     0
281
     1
  0
CLASS
  1
HATCH
  2
AcDbHatch
  3
AutoCAD 2000
 90
    32768
280
     0
281
     1
  0
CLASS
  1
XRECORD
  2
AcDbXrecord
  3
AutoCAD 2000
 90
    32768
280
     0
281
     0
  0
ENDSEC
  0
SECTION
  2
TABLES
  0
TABLE
  2
VPORT
  5
8
330
0
100
AcDbSymbolTable
 70
     2
  0
VPORT
  5
57D
330
8
100
AcDbSymbolTableRecord
100
AcDbViewportTableRecord
  2
*Active
 70
     0
 10
0.0
 20
0.0
 11
1.0
 21
1.0
 12
691.3452506593195
 22
357.9763660157868
 13
0.0
 23
0.0
 14
10.0
 24
10.0
 15
10.0
 25
10.0
 16
0.0
 26
0.0
 36
1.0
 17
0.0
 27
0.0
 37
0.0
 40
673.0857530487652
 41
1.592161016949152
 42
50.0
 43
0.0
 44
0.0
 50
0.0
 51
0.0
 71
     0
 72
   100
 73
     1
 74
     3
 75
     0
 76
     0
 77
     0
 78
     0
281
     0
 65
     1
110
0.0
120
0.0
130
0.0
111
1.0
121
0.0
131
0.0
112
0.0
122
1.0
132
0.0
 79
     0
146
0.0
  0
ENDTAB
  0
TABLE
  2
LTYPE
  5
5
330
0
100
AcDbSymbolTable
 70
     3
  0
LTYPE
  5
14
330
5
100
AcDbSymbolTableRecord
100
AcDbLinetypeTableRecord
  2
ByBlock
 70
     0
  3

 72
    65
 73
     0
 40
0.0
  0
LTYPE
  5
15
330
5
100
AcDbSymbolTableRecord
100
AcDbLinetypeTableRecord
  2
ByLayer
 70
     0
  3

 72
    65
 73
     0
 40
0.0
  0
LTYPE
  5
16
330
5
100
AcDbSymbolTableRecord
100
AcDbLinetypeTableRecord
  2
Continuous
 70
     0
  3
Solid line
 72
    65
 73
     0
 40
0.0
  0
LTYPE
  5
86
330
5
100
AcDbSymbolTableRecord
100
AcDbLinetypeTableRecord
  2
HIDDEN
 70
     0
  3
Hidden __ __ __ __ __ __ __ __ __ __ __ __ __ _
 72
    65
 73
     2
 40
0.375
 49
0.25
 74
     0
 49
-0.125
 74
     0
  0
LTYPE
  5
2D7
330
5
100
AcDbSymbolTableRecord
100
AcDbLinetypeTableRecord
  2
CENTER
 70
     0
  3
Center ____ _ ____ _ ____ _ ____ _ ____ _ ____
 72
    65
 73
     4
 40
50.8
 49
31.75
 74
     0
 49
-6.349999999999999
 74
     0
 49
6.349999999999999
 74
     0
 49
-6.349999999999999
 74
     0
  0
ENDTAB
  0
TABLE
  2
LAYER
  5
2
102
{ACAD_XDICTIONARY
360
2D8
102
}
330
0
100
AcDbSymbolTable
 70
     2
  0
LAYER
  5
10
330
2
100
AcDbSymbolTableRecord
100
AcDbLayerTableRecord
  2
0
 70
     0
 62
     7
  6
Continuous
370
    -3
390
F
  0
LAYER
  5
2EA
330
2
100
AcDbSymbolTableRecord
100
AcDbLayerTableRecord
  2
Visible (ISO)
 70
     0
 62
     7
  6
Continuous
370
    35
390
F
  0
ENDTAB
  0
TABLE
  2
STYLE
  5
3
330
0
100
AcDbSymbolTable
 70
     1
  0
STYLE
  5
11
330
3
100
AcDbSymbolTableRecord
100
AcDbTextStyleTableRecord
  2
Standard
 70
     0
 40
0.0
 41
1.0
 50
0.0
 71
     0
 42
2.5
  3
txt
  4

  0
ENDTAB
  0
TABLE
  2
VIEW
  5
6
330
0
100
AcDbSymbolTable
 70
     0
  0
ENDTAB
  0
TABLE
  2
UCS
  5
7
330
0
100
AcDbSymbolTable
 70
     0
  0
ENDTAB
  0
TABLE
  2
APPID
  5
9
330
0
100
AcDbSymbolTable
 70
     1
  0
APPID
  5
12
330
9
100
AcDbSymbolTableRecord
100
AcDbRegAppTableRecord
  2
ACAD
 70
     0
  0
ENDTAB
  0
TABLE
  2
DIMSTYLE
  5
A
330
0
100
AcDbSymbolTable
 70
     1
100
AcDbDimStyleTable
 71
     0
  0
DIMSTYLE
105
27
330
A
100
AcDbSymbolTableRecord
100
AcDbDimStyleTableRecord
  2
ISO-25
 70
     0
 41
2.5
 42
0.625
 43
3.75
 44
1.25
 73
     0
 74
     0
 77
     1
 78
     8
140
2.5
141
2.5
143
0.03937007874016
147
0.625
171
     3
172
     1
271
     2
272
     2
274
     3
278
    44
283
     0
284
     8
340
11
  0
ENDTAB
  0
TABLE
  2
BLOCK_RECORD
  5
1
330
0
100
AcDbSymbolTable
 70
     1
  0
BLOCK_RECORD
  5
1F
102
{ACAD_XDICTIONARY
360
290
102
}
330
1
100
AcDbSymbolTableRecord
100
AcDbBlockTableRecord
  2
*Model_Space
340
22
  0
BLOCK_RECORD
  5
55
102
{ACAD_XDICTIONARY
360
292
102
}
330
1
100
AcDbSymbolTableRecord
100
AcDbBlockTableRecord
  2
*Paper_Space
340
56
  0
BLOCK_RECORD
  5
50
102
{ACAD_XDICTIONARY
360
294
102
}
330
1
100
AcDbSymbolTableRecord
100
AcDbBlockTableRecord
  2
*Paper_Space0
340
51
  0
ENDTAB
  0
ENDSEC
  0
SECTION
  2
BLOCKS
  0
BLOCK
  5
20
330
1F
100
AcDbEntity
  8
0
100
AcDbBlockBegin
  2
*Model_Space
 70
     0
 10
0.0
 20
0.0
 30
0.0
  3
*Model_Space
  1

  0
ENDBLK
  5
21
330
1F
100
AcDbEntity
  8
0
100
AcDbBlockEnd
  0
BLOCK
  5
57
330
55
100
AcDbEntity
 67
     1
  8
0
100
AcDbBlockBegin
  2
*Paper_Space
 70
     0
 10
0.0
 20
0.0
 30
0.0
  3
*Paper_Space
  1

  0
ENDBLK
  5
58
330
55
100
AcDbEntity
 67
     1
  8
0
100
AcDbBlockEnd
  0
BLOCK
  5
52
330
50
100
AcDbEntity
  8
0
100
AcDbBlockBegin
  2
*Paper_Space0
 70
     0
 10
0.0
 20
0.0
 30
0.0
  3
*Paper_Space0
  1

  0
VIEWPORT
  5
6B
330
50
100
AcDbEntity
  8
0
100
AcDbViewport
 10
133.3499908447265
 20
101.5999970436096
 30
0.0
 40
381.3957395593834
 41
218.2856291881582
 69
     0
 12
133.3499908447265
 22
101.5999970436096
 13
0.0
 23
0.0
 14
10.0
 24
10.0
 15
10.0
 25
10.0
 16
0.0
 26
0.0
 36
1.0
 17
0.0
 27
0.0
 37
0.0
 42
50.0
 43
0.0
 44
0.0
 45
218.2856291881582
 50
0.0
 51
0.0
 72
   100
 90
    32800
  1

281
     0
 71
     1
 74
     0
110
0.0
120
0.0
130
0.0
111
1.0
121
0.0
131
0.0
112
0.0
122
1.0
132
0.0
 79
     0
146
0.0
  0
VIEWPORT
  5
6D
330
50
100
AcDbEntity
  8
0
100
AcDbViewport
 10
133.349993944168
 20
101.599993944168
 30
0.0
 40
213.3599903106689
 41
162.5599903106689
 69
     0
 12
210.0
 22
148.5
 13
0.0
 23
0.0
 14
10.0
 24
10.0
 15
10.0
 25
10.0
 16
0.0
 26
0.0
 36
1.0
 17
0.0
 27
0.0
 37
0.0
 42
50.0
 43
0.0
 44
0.0
 45
324.0677920111345
 50
0.0
 51
0.0
 72
   100
 90
    32864
  1

281
     0
 71
     1
 74
     0
110
0.0
120
0.0
130
0.0
111
1.0
121
0.0
131
0.0
112
0.0
122
1.0
132
0.0
 79
     0
146
0.0
  0
ENDBLK
  5
53
330
50
100
AcDbEntity
  8
0
100
AcDbBlockEnd
  0
ENDSEC
  0
SECTION
  2
ENTITIES
  0
CIRCLE
  5
189
330
1F
100
AcDbEntity
  8
0
  6
Continuous
100
AcDbCircle
 10
283.1812602402205
 20
436.4821708769263
 30
0.0
 40
41.00000082836152
  0
CIRCLE
  5
18A
330
1F
100
AcDbEntity
  8
0
  6
Continuous
100
AcDbCircle
 10
283.1812602402205
 20
436.4821708769263
 30
0.0
 40
34.50000252149607
  0
CIRCLE
  5
18B
330
1F
100
AcDbEntity
  8
0
  6
Continuous
100
AcDbCircle
 10
283.1812602402205
 20
436.4821708769263
 30
0.0
 40
24.9999961309154
  0
CIRCLE
  5
18C
330
1F
100
AcDbEntity
  8
0
  6
Continuous
100
AcDbCircle
 10
283.1812602402205
 20
436.4821708769263
 30
0.0
 40
7.99996500596751
  0
CIRCLE
  5
18D
330
1F
100
AcDbEntity
  8
0
  6
Continuous
100
AcDbCircle
 10
283.1812602402205
 20
436.4821708769263
 30
0.0
 40
7.49996403308819
  0
LINE
  5
18E
330
1F
100
AcDbEntity
  8
0
100
AcDbLine
 10
291.1812245104504
 20
184.3656540737956
 30
0.0
 11
291.1812259819257
 21
185.3656560214425
 31
0.0
  0
LINE
  5
18F
330
1F
100
AcDbEntity
  8
0
100
AcDbLine
 10
291.1812395946232
 20
185.3656437610719
 30
0.0
 11
290.6812330594297
 21
187.2316943773147
 31
0.0
  0
LINE
  5
190
330
1F
100
AcDbEntity
  8
0
100
AcDbLine
 10
289.1812195812937
 20
209.3656926852027
 30
0.0
 11
290.681229906664
 21
207.8656750015795
 31
0.0
  0
ARC
  5
191
330
1F
100
AcDbEntity
  8
0
100
AcDbCircle
 10
309.4486199093982
 20
174.3656599211565
 30
0.0
 40
5.0
100
AcDbArc
 50
20.00003000000312
 51
89.99994399999957
  0
ARC
  5
192
330
1F
100
AcDbEntity
  8
0
100
AcDbCircle
 10
319.1812564026399
 20
123.7945577396906
 30
0.0
 40
5.0
100
AcDbArc
 50
359.9999699999969
 51
44.99992999999559
  0
ARC
  5
193
330
1F
100
AcDbEntity
  8
0
100
AcDbCircle
 10
322.6812600814405
 20
134.4367180540152
 30
0.0
 40
5.0
100
AcDbArc
 50
179.9999699999969
 51
224.9999299999955
  0
ARC
  5
194
330
1F
100
AcDbEntity
  8
0
100
AcDbCircle
 10
258.681247773199
 20
164.6024034551198
 30
0.0
 40
10.0
100
AcDbArc
 50
159.9999659999967
 51
179.9999699999969
  0
ARC
  5
195
330
1F
100
AcDbEntity
  8
0
100
AcDbCircle
 10
307.1812580068483
 20
183.3656532049542
 30
0.0
 40
1.0
100
AcDbArc
 50
359.9996400000028
 51
89.99991300000166
  0
ARC
  5
196
330
1F
100
AcDbEntity
  8
0
100
AcDbCircle
 10
307.6812594858304
 20
164.6024104548123
 30
0.0
 40
10.0
100
AcDbArc
 50
359.9999699999969
 51
19.99997000000263
  0
ARC
  5
197
330
1F
100
AcDbEntity
  8
0
100
AcDbCircle
 10
247.1812431734417
 20
123.7945486736825
 30
0.0
 40
5.0
100
AcDbArc
 50
134.9999280000029
 51
179.9999699999969
  0
ARC
  5
198
330
1F
100
AcDbEntity
  8
0
100
AcDbCircle
 10
259.1812467699528
 20
183.3656585695432
 30
0.0
 40
1.0
100
AcDbArc
 50
89.99991300000166
 51
179.9996400000028
  0
ARC
  5
199
330
1F
100
AcDbEntity
  8
0
100
AcDbCircle
 10
243.681242673897
 20
134.4366967635367
 30
0.0
 40
5.0
100
AcDbArc
 50
314.9999299999909
 51
359.9999699999969
  0
ARC
  5
19A
330
1F
100
AcDbEntity
  8
0
100
AcDbCircle
 10
256.9138836583783
 20
174.3656568817004
 30
0.0
 40
5.0
100
AcDbArc
 50
89.99994399999957
 51
159.9999659999967
  0
ARC
  5
19B
330
1F
100
AcDbEntity
  8
0
100
AcDbCircle
 10
310.6812570736333
 20
107.8655942119019
 30
0.0
 40
3.0
100
AcDbArc
 50
317.4488700000069
 51
0.0001900000060949
  0
ARC
  5
19C
330
1F
100
AcDbEntity
  8
0
100
AcDbCircle
 10
255.6812496416671
 20
107.8655951793659
 30
0.0
 40
3.0
100
AcDbArc
 50
180.000190000006
 51
222.5520299999995
  0
ARC
  5
19D
330
1F
100
AcDbEntity
  8
0
100
AcDbCircle
 10
264.6812533017544
 20
102.8655933774702
 30
0.0
 40
2.0
100
AcDbArc
 50
359.8415699999984
 51
89.99991300000166
  0
ARC
  5
19E
330
1F
100
AcDbEntity
  8
0
100
AcDbCircle
 10
301.6812571900416
 20
102.8655902248965
 30
0.0
 40
2.0
100
AcDbArc
 50
89.9998099999939
 51
179.9996400000028
  0
LINE
  5
19F
330
1F
100
AcDbEntity
  8
0
100
AcDbLine
 10
290.6812255260911
 20
207.8656532272275
 30
0.0
 11
290.6812230205263
 21
187.2317318430286
 31
0.0
  0
LINE
  5
1A0
330
1F
100
AcDbEntity
  8
0
100
AcDbLine
 10
275.1812890500623
 20
184.3656555955447
 30
0.0
 11
275.1812877688067
 21
185.3656575431918
 31
0.0
  0
LINE
  5
1A1
330
1F
100
AcDbEntity
  8
0
100
AcDbLine
 10
275.1812877688067
 20
185.3656575431918
 30
0.0
 11
291.1812395946232
 21
185.3656437610719
 31
0.0
  0
LINE
  5
1A2
330
1F
100
AcDbEntity
  8
0
100
AcDbLine
 10
275.181278313621
 20
185.3656607988734
 30
0.0
 11
275.6812821549169
 21
187.23169994152
 31
0.0
  0
LINE
  5
1A3
330
1F
100
AcDbEntity
  8
0
100
AcDbLine
 10
277.1812889676667
 20
209.3656654609544
 30
0.0
 11
289.1812293483333
 21
209.365667107321
 31
0.0
  0
LINE
  5
1A4
330
1F
100
AcDbEntity
  8
0
100
AcDbLine
 10
277.1812987347114
 20
209.3656938265116
 30
0.0
 11
275.6812881240086
 21
207.8656764282195
 31
0.0
  0
LINE
  5
1A5
330
1F
100
AcDbEntity
  8
0
100
AcDbLine
 10
289.1812152728216
 20
209.3656508014951
 30
0.0
 11
290.6812222704095
 21
207.8656437720417
 31
0.0
  0
LINE
  5
1A6
330
1F
100
AcDbEntity
  8
0
100
AcDbLine
 10
275.6812848683269
 20
207.8656669730337
 30
0.0
 11
275.6812850987395
 21
187.2316777754672
 31
0.0
  0
LINE
  5
1A7
330
1F
100
AcDbEntity
  8
0
100
AcDbLine
 10
275.6812848683269
 20
207.8656669730337
 30
0.0
 11
290.6812255260911
 21
207.8656532272275
 31
0.0
  0
LINE
  5
1A8
330
1F
100
AcDbEntity
  8
0
100
AcDbLine
 10
275.6812850987395
 20
187.2316777754672
 30
0.0
 11
290.6812330594297
 21
187.2316943773147
 31
0.0
  0
LINE
  5
1A9
330
1F
100
AcDbEntity
  8
0
100
AcDbLine
 10
304.3912657164594
 20
107.5655904577572
 30
0.0
 11
304.3912654603668
 21
108.8655755824245
 31
0.0
  0
LINE
  5
1AA
330
1F
100
AcDbEntity
  8
0
100
AcDbLine
 10
312.8912650961974
 20
107.5655913980365
 30
0.0
 11
312.8912657856235
 21
108.8655761971356
 31
0.0
  0
LINE
  5
1AB
330
1F
100
AcDbEntity
  8
0
100
AcDbLine
 10
304.3912585459957
 20
102.8655583481727
 30
0.0
 11
304.9108766168999
 21
102.5655736586206
 31
0.0
  0
LINE
  5
1AC
330
1F
100
AcDbEntity
  8
0
100
AcDbLine
 10
312.8912676927782
 20
102.8655876540096
 30
0.0
 11
304.3912683130402
 21
102.8655867137301
 31
0.0
  0
LINE
  5
1AD
330
1F
100
AcDbEntity
  8
0
100
AcDbLine
 10
304.3912683130402
 20
102.8655867137301
 30
0.0
 11
304.3912657164594
 21
107.5655904577572
 31
0.0
  0
LINE
  5
1AE
330
1F
100
AcDbEntity
  8
0
100
AcDbLine
 10
312.8912650961974
 20
107.5655913980365
 30
0.0
 11
304.3912657164594
 21
107.5655904577572
 31
0.0
  0
LINE
  5
1AF
330
1F
100
AcDbEntity
  8
0
100
AcDbLine
 10
312.8912691863861
 20
106.8655931656214
 30
0.0
 11
304.3912665509665
 21
106.8655827701561
 31
0.0
  0
LINE
  5
1B0
330
1F
100
AcDbEntity
  8
0
100
AcDbLine
 10
312.3716525136749
 20
102.5655619829838
 30
0.0
 11
312.8912780934827
 21
102.8655840727599
 31
0.0
  0
LINE
  5
1B1
330
1F
100
AcDbEntity
  8
0
100
AcDbLine
 10
312.8912676927782
 20
102.8655876540096
 30
0.0
 11
312.8912650961974
 21
107.5655913980365
 31
0.0
  0
LINE
  5
1B2
330
1F
100
AcDbEntity
  8
0
100
AcDbLine
 10
312.371659132305
 20
102.5655597040067
 30
0.0
 11
304.9108907996785
 21
102.5655687750984
 31
0.0
  0
LINE
  5
1B3
330
1F
100
AcDbEntity
  8
0
100
AcDbLine
 10
259.1812581995646
 20
184.3656667166949
 30
0.0
 11
283.1812612446528
 21
184.3656596323753
 31
0.0
  0
LINE
  5
1B4
330
1F
100
AcDbEntity
  8
0
100
AcDbLine
 10
256.9138961624723
 20
179.365660108574
 30
0.0
 11
283.1812563047078
 21
179.3656538009568
 31
0.0
  0
LINE
  5
1B5
330
1F
100
AcDbEntity
  8
0
100
AcDbLine
 10
308.1812590089771
 20
183.3656548117778
 30
0.0
 11
308.1812537332948
 21
179.3656506024383
 31
0.0
  0
LINE
  5
1B6
330
1F
100
AcDbEntity
  8
0
100
AcDbLine
 10
252.2154220191977
 20
176.0757972495205
 30
0.0
 11
249.2843209272971
 21
168.0226431143346
 31
0.0
  0
LINE
  5
1B7
330
1F
100
AcDbEntity
  8
0
100
AcDbLine
 10
247.2168003937891
 20
130.901171298346
 30
0.0
 11
243.6457235861514
 21
127.3300927373857
 31
0.0
  0
LINE
  5
1B8
330
1F
100
AcDbEntity
  8
0
100
AcDbLine
 10
314.1470540861526
 20
176.0757896827117
 30
0.0
 11
317.0781710213345
 21
168.022623380549
 31
0.0
  0
LINE
  5
1B9
330
1F
100
AcDbEntity
  8
0
100
AcDbLine
 10
242.181260016225
 20
112.8655669867195
 30
0.0
 11
283.1812553587437
 21
112.8655750984632
 31
0.0
  0
LINE
  5
1BA
330
1F
100
AcDbEntity
  8
0
100
AcDbLine
 10
309.4486215936619
 20
179.3656562973892
 30
0.0
 11
308.1812537332948
 21
179.3656506024383
 31
0.0
  0
LINE
  5
1BB
330
1F
100
AcDbEntity
  8
0
100
AcDbLine
 10
307.1812576711113
 20
184.3656548270332
 30
0.0
 11
283.1812612446528
 21
184.3656596323753
 31
0.0
  0
LINE
  5
1BC
330
1F
100
AcDbEntity
  8
0
100
AcDbLine
 10
258.1812575331729
 20
183.365663487792
 30
0.0
 11
258.1812659138766
 21
179.3656651523886
 31
0.0
  0
LINE
  5
1BD
330
1F
100
AcDbEntity
  8
0
100
AcDbLine
 10
242.1812588569398
 20
123.7945546664132
 30
0.0
 11
242.1812604235187
 21
108.8655687559863
 31
0.0
  0
LINE
  5
1BE
330
1F
100
AcDbEntity
  8
0
100
AcDbLine
 10
248.6812537184608
 20
164.6024030415728
 30
0.0
 11
248.6812683786822
 21
134.4367188245044
 31
0.0
  0
LINE
  5
1BF
330
1F
100
AcDbEntity
  8
0
100
AcDbLine
 10
283.1812602402205
 20
166.3657174713225
 30
0.0
 11
249.284320118538
 21
166.3657219526317
 31
0.0
  0
LINE
  5
1C0
330
1F
100
AcDbEntity
  8
0
100
AcDbLine
 10
283.1812570702827
 20
131.865592555963
 30
0.0
 11
248.6812644065476
 21
131.8656020114281
 31
0.0
  0
LINE
  5
1C1
330
1F
100
AcDbEntity
  8
0
100
AcDbLine
 10
324.1812600486391
 20
123.7945556674869
 30
0.0
 11
324.1812629687188
 21
108.8655780442629
 31
0.0
  0
LINE
  5
1C2
330
1F
100
AcDbEntity
  8
0
100
AcDbLine
 10
317.6812605783245
 20
164.6024190212726
 30
0.0
 11
317.6812649451087
 21
134.4367171961053
 31
0.0
  0
LINE
  5
1C3
330
1F
100
AcDbEntity
  8
0
100
AcDbLine
 10
319.1457053051742
 20
130.9011704267357
 30
0.0
 11
322.7167768283789
 21
127.3300854661847
 31
0.0
  0
LINE
  5
1C4
330
1F
100
AcDbEntity
  8
0
100
AcDbLine
 10
324.1812629687188
 20
108.8655780442629
 30
0.0
 11
283.1812576472102
 21
108.8655682845785
 31
0.0
  0
LINE
  5
1C5
330
1F
100
AcDbEntity
  8
0
100
AcDbLine
 10
283.1812653815338
 20
125.8656441125569
 30
0.0
 11
322.7167805004951
 21
125.8656285731549
 31
0.0
  0
LINE
  5
1C6
330
1F
100
AcDbEntity
  8
0
100
AcDbLine
 10
324.1812621863271
 20
112.865574627055
 30
0.0
 11
283.1812553587437
 21
112.8655750984632
 31
0.0
  0
LINE
  5
1C7
330
1F
100
AcDbEntity
  8
0
100
AcDbLine
 10
283.1812570702827
 20
131.865592555963
 30
0.0
 11
317.6812642286554
 21
131.8656098382146
 31
0.0
  0
LINE
  5
1C8
330
1F
100
AcDbEntity
  8
0
100
AcDbLine
 10
299.6812660779706
 20
91.86560780231104
 30
0.0
 11
299.6812534020138
 21
102.8655664730367
 31
0.0
  0
LINE
  5
1C9
330
1F
100
AcDbEntity
  8
0
100
AcDbLine
 10
253.4712662578312
 20
107.5655801445859
 30
0.0
 11
253.4712767143017
 21
108.8655933092422
 31
0.0
  0
LINE
  5
1CA
330
1F
100
AcDbEntity
  8
0
100
AcDbLine
 10
266.6812561517482
 20
91.86558032307926
 30
0.0
 11
266.6812554132787
 21
102.8655754017691
 31
0.0
  0
LINE
  5
1CB
330
1F
100
AcDbEntity
  8
0
100
AcDbLine
 10
261.9712618554949
 20
107.5655823871382
 30
0.0
 11
261.9712723119655
 21
108.8655955517942
 31
0.0
  0
LINE
  5
1CC
330
1F
100
AcDbEntity
  8
0
100
AcDbLine
 10
261.9712648333873
 20
104.8655603723523
 30
0.0
 11
283.1812556272095
 21
104.865573530425
 31
0.0
  0
LINE
  5
1CD
330
1F
100
AcDbEntity
  8
0
100
AcDbLine
 10
304.3912639667589
 20
104.8655700708122
 30
0.0
 11
283.1812556272095
 21
104.865573530425
 31
0.0
  0
LINE
  5
1CE
330
1F
100
AcDbEntity
  8
0
100
AcDbLine
 10
323.6812595793992
 20
108.8655779252417
 30
0.0
 11
313.6812589060309
 21
108.8655797906717
 31
0.0
  0
LINE
  5
1CF
330
1F
100
AcDbEntity
  8
0
100
AcDbLine
 10
242.681248698962
 20
112.865567085641
 30
0.0
 11
283.1812553587437
 21
112.8655750984632
 31
0.0
  0
LINE
  5
1D0
330
1F
100
AcDbEntity
  8
0
100
AcDbLine
 10
313.6812589060309
 20
108.8655797906717
 30
0.0
 11
313.6812592417679
 21
107.8655781685927
 31
0.0
  0
LINE
  5
1D1
330
1F
100
AcDbEntity
  8
0
100
AcDbLine
 10
283.1812602402205
 20
166.3657174713225
 30
0.0
 11
317.0781842880872
 21
166.3657185246722
 31
0.0
  0
LINE
  5
1D2
330
1F
100
AcDbEntity
  8
0
100
AcDbLine
 10
242.1812604235187
 20
108.8655687559863
 30
0.0
 11
283.1812576472102
 21
108.8655682845785
 31
0.0
  0
LINE
  5
1D3
330
1F
100
AcDbEntity
  8
0
100
AcDbLine
 10
258.1812743575853
 20
91.86557324511261
 30
0.0
 11
308.1812743575853
 21
91.86561488029969
 31
0.0
  0
LINE
  5
1D4
330
1F
100
AcDbEntity
  8
0
100
AcDbLine
 10
252.6812623733599
 20
108.8655864463153
 30
0.0
 11
252.6812627090968
 21
107.865584824236
 31
0.0
  0
LINE
  5
1D5
330
1F
100
AcDbEntity
  8
0
100
AcDbLine
 10
253.471268854412
 20
102.8655764005586
 30
0.0
 11
253.9908705396415
 21
102.5655656244264
 31
0.0
  0
LINE
  5
1D6
330
1F
100
AcDbEntity
  8
0
100
AcDbLine
 10
261.9712653975943
 20
102.8655783175429
 30
0.0
 11
253.471268854412
 21
102.8655764005586
 31
0.0
  0
LINE
  5
1D7
330
1F
100
AcDbEntity
  8
0
100
AcDbLine
 10
253.471268854412
 20
102.8655764005586
 30
0.0
 11
253.4712662578312
 21
107.5655801445859
 31
0.0
  0
LINE
  5
1D8
330
1F
100
AcDbEntity
  8
0
100
AcDbLine
 10
261.9712618554949
 20
107.5655823871382
 30
0.0
 11
253.4712662578312
 21
107.5655801445859
 31
0.0
  0
LINE
  5
1D9
330
1F
100
AcDbEntity
  8
0
100
AcDbLine
 10
261.9712706732765
 20
106.8655825268822
 30
0.0
 11
253.4712642557826
 21
106.8655734336894
 31
0.0
  0
LINE
  5
1DA
330
1F
100
AcDbEntity
  8
0
100
AcDbLine
 10
261.4516703862399
 20
102.5655774308245
 30
0.0
 11
261.971286199003
 21
102.8655711550434
 31
0.0
  0
LINE
  5
1DB
330
1F
100
AcDbEntity
  8
0
100
AcDbLine
 10
261.9712653975943
 20
102.8655783175429
 30
0.0
 11
261.9712618554949
 21
107.5655823871382
 31
0.0
  0
LINE
  5
1DC
330
1F
100
AcDbEntity
  8
0
100
AcDbLine
 10
261.4516530550466
 20
102.5655516698125
 30
0.0
 11
253.9908913410503
 21
102.5655584619269
 31
0.0
  0
LINE
  5
1DD
330
1F
100
AcDbEntity
  8
0
100
AcDbLine
 10
309.4486215936619
 20
179.3656562973892
 30
0.0
 11
283.1812563047078
 21
179.3656538009568
 31
0.0
  0
LINE
  5
1DE
330
1F
100
AcDbEntity
  8
0
100
AcDbLine
 10
283.1812653815338
 20
125.8656441125569
 30
0.0
 11
243.6457202205119
 21
125.8656276914428
 31
0.0
  0
LINE
  5
1DF
330
1F
100
AcDbEntity
  8
0
100
AcDbLine
 10
335.245194379474
 20
164.8656317108746
 30
0.0
 11
322.7452249226228
 21
164.8656338121954
 31
0.0
  0
LINE
  5
1E0
330
1F
100
AcDbEntity
  8
0
100
AcDbLine
 10
335.245194379474
 20
164.8656317108746
 30
0.0
 11
335.245191956465
 21
154.8656386328407
 31
0.0
  0
LINE
  5
1E1
330
1F
100
AcDbEntity
  8
0
100
AcDbLine
 10
322.7452249226228
 20
164.8656338121954
 30
0.0
 11
322.745224809777
 21
154.8656505149156
 31
0.0
  0
LINE
  5
1E2
330
1F
100
AcDbEntity
  8
0
100
AcDbLine
 10
322.745223178452
 20
155.115630300831
 30
0.0
 11
320.7452079369347
 21
155.1156316451376
 31
0.0
  0
LINE
  5
1E3
330
1F
100
AcDbEntity
  8
0
100
AcDbLine
 10
320.7451750708653
 20
164.6156361209377
 30
0.0
 11
317.6812597428029
 21
164.5198931672127
 31
0.0
  0
LINE
  5
1E4
330
1F
100
AcDbEntity
  8
0
100
AcDbLine
 10
335.245191956465
 20
154.8656386328407
 30
0.0
 11
322.745224809777
 21
154.8656505149156
 31
0.0
  0
LINE
  5
1E5
330
1F
100
AcDbEntity
  8
0
100
AcDbLine
 10
320.7466057828055
 20
155.1156368337185
 30
0.0
 11
317.6812522234013
 21
155.2114271264017
 31
0.0
  0
LINE
  5
1E6
330
1F
100
AcDbEntity
  8
0
100
AcDbLine
 10
322.7452190970659
 20
164.6156354414765
 30
0.0
 11
320.7452076376227
 21
164.6156354835106
 31
0.0
  0
LINE
  5
1E7
330
1F
100
AcDbEntity
  8
0
100
AcDbLine
 10
319.6812721272715
 20
164.582451069959
 30
0.0
 11
319.6812696883077
 21
155.148898481849
 31
0.0
  0
CIRCLE
  5
1E8
330
1F
100
AcDbEntity
  8
0
100
AcDbCircle
 10
490.023926401222
 20
121.3655899983718
 30
0.0
 40
4.7936192
  0
CIRCLE
  5
1E9
330
1F
100
AcDbEntity
  8
0
100
AcDbCircle
 10
490.023926401222
 20
121.3655899983718
 30
0.0
 40
4.1938467
  0
CIRCLE
  5
1EA
330
1F
100
AcDbEntity
  8
0
100
AcDbCircle
 10
490.023926401222
 20
159.8656499983719
 30
0.0
 40
5.0
  0
ARC
  5
1EB
330
1F
100
AcDbEntity
  8
0
100
AcDbCircle
 10
516.2912864012217
 20
174.3656499983719
 30
0.0
 40
5.0
100
AcDbArc
 50
20.0001700000038
 51
90.0
  0
ARC
  5
1EC
330
1F
100
AcDbEntity
  8
0
100
AcDbCircle
 10
526.0239264012219
 20
123.7945399983718
 30
0.0
 40
5.0
100
AcDbArc
 50
0.0
 51
44.99999999999539
  0
ARC
  5
1ED
330
1F
100
AcDbEntity
  8
0
100
AcDbCircle
 10
529.5239264012219
 20
134.436689998372
 30
0.0
 40
5.0
100
AcDbArc
 50
180.0
 51
224.9999999999953
  0
ARC
  5
1EE
330
1F
100
AcDbEntity
  8
0
100
AcDbCircle
 10
465.5239264012219
 20
164.602399998372
 30
0.0
 40
10.0
100
AcDbArc
 50
160.0000300000045
 51
180.0
  0
ARC
  5
1EF
330
1F
100
AcDbEntity
  8
0
100
AcDbCircle
 10
514.0239264012219
 20
183.3656499983719
 30
0.0
 40
1.0
100
AcDbArc
 50
0.0
 51
90.0
  0
ARC
  5
1F0
330
1F
100
AcDbEntity
  8
0
100
AcDbCircle
 10
514.5239264012219
 20
164.602399998372
 30
0.0
 40
10.0
100
AcDbArc
 50
0.0
 51
19.99996999999539
  0
ARC
  5
1F1
330
1F
100
AcDbEntity
  8
0
100
AcDbCircle
 10
454.0239264012219
 20
123.7945399983718
 30
0.0
 40
5.0
100
AcDbArc
 50
135.0000000000046
 51
180.0
  0
ARC
  5
1F2
330
1F
100
AcDbEntity
  8
0
100
AcDbCircle
 10
466.0239264012219
 20
183.3656499983719
 30
0.0
 40
1.0
100
AcDbArc
 50
90.0
 51
180.0
  0
ARC
  5
1F3
330
1F
100
AcDbEntity
  8
0
100
AcDbCircle
 10
450.5239264012219
 20
134.436689998372
 30
0.0
 40
5.0
100
AcDbArc
 50
315.0000000000046
 51
0.0
  0
ARC
  5
1F4
330
1F
100
AcDbEntity
  8
0
100
AcDbCircle
 10
463.7565664012218
 20
174.3656499983719
 30
0.0
 40
5.0
100
AcDbArc
 50
90.0
 51
159.9998299999962
  0
ARC
  5
1F5
330
1F
100
AcDbEntity
  8
0
100
AcDbCircle
 10
517.5239264012219
 20
107.8655899983718
 30
0.0
 40
3.0
100
AcDbArc
 50
317.3314609999994
 51
0.0
  0
ARC
  5
1F6
330
1F
100
AcDbEntity
  8
0
100
AcDbCircle
 10
462.5239264012219
 20
107.8655899983718
 30
0.0
 40
3.0
100
AcDbArc
 50
180.0
 51
222.6693599999927
  0
ARC
  5
1F7
330
1F
100
AcDbEntity
  8
0
100
AcDbCircle
 10
471.5239264012219
 20
102.8655899983718
 30
0.0
 40
2.0
100
AcDbArc
 50
359.8417570000044
 51
90.0
  0
ARC
  5
1F8
330
1F
100
AcDbEntity
  8
0
100
AcDbCircle
 10
508.5239264012219
 20
102.8655899983718
 30
0.0
 40
2.0
100
AcDbArc
 50
90.0
 51
180.0
  0
LINE
  5
1F9
330
1F
100
AcDbEntity
  8
0
100
AcDbLine
 10
496.0238764012218
 20
209.3656499983719
 30
0.0
 11
497.5238764012218
 21
207.865619998372
 31
0.0
  0
LINE
  5
1FA
330
1F
100
AcDbEntity
  8
0
100
AcDbLine
 10
482.5239564012218
 20
207.8656499983719
 30
0.0
 11
497.5238964012218
 21
207.8656499983719
 31
0.0
  0
LINE
  5
1FB
330
1F
100
AcDbEntity
  8
0
100
AcDbLine
 10
498.0238764012218
 20
185.3656499983719
 30
0.0
 11
497.5238764012218
 21
187.2316699983718
 31
0.0
  0
LINE
  5
1FC
330
1F
100
AcDbEntity
  8
0
100
AcDbLine
 10
498.0238964012218
 20
184.3656499983719
 30
0.0
 11
498.0238964012218
 21
185.3656499983719
 31
0.0
  0
LINE
  5
1FD
330
1F
100
AcDbEntity
  8
0
100
AcDbLine
 10
482.0239564012219
 20
184.3656499983719
 30
0.0
 11
482.0239564012219
 21
185.3656499983719
 31
0.0
  0
LINE
  5
1FE
330
1F
100
AcDbEntity
  8
0
100
AcDbLine
 10
497.5238964012218
 20
207.8656499983719
 30
0.0
 11
497.5238964012218
 21
187.2316699983718
 31
0.0
  0
LINE
  5
1FF
330
1F
100
AcDbEntity
  8
0
100
AcDbLine
 10
482.0239564012219
 20
185.3656499983719
 30
0.0
 11
498.0238964012218
 21
185.3656499983719
 31
0.0
  0
LINE
  5
200
330
1F
100
AcDbEntity
  8
0
100
AcDbLine
 10
466.0239264012219
 20
184.3656499983719
 30
0.0
 11
490.023926401222
 21
184.3656499983719
 31
0.0
  0
LINE
  5
201
330
1F
100
AcDbEntity
  8
0
100
AcDbLine
 10
463.7565664012218
 20
179.3656499983719
 30
0.0
 11
490.023926401222
 21
179.3656499983719
 31
0.0
  0
LINE
  5
202
330
1F
100
AcDbEntity
  8
0
100
AcDbLine
 10
515.023926401222
 20
183.3656499983719
 30
0.0
 11
515.023926401222
 21
179.3656499983719
 31
0.0
  0
LINE
  5
203
330
1F
100
AcDbEntity
  8
0
100
AcDbLine
 10
459.0581064012218
 20
176.0757899983718
 30
0.0
 11
456.1269864012218
 21
168.0226299983719
 31
0.0
  0
LINE
  5
204
330
1F
100
AcDbEntity
  8
0
100
AcDbLine
 10
454.0594664012218
 20
130.9011399983719
 30
0.0
 11
450.4883864012218
 21
127.330059998372
 31
0.0
  0
LINE
  5
205
330
1F
100
AcDbEntity
  8
0
100
AcDbLine
 10
520.9897364012219
 20
176.0757599983719
 30
0.0
 11
523.9208364012219
 21
168.0225999983717
 31
0.0
  0
LINE
  5
206
330
1F
100
AcDbEntity
  8
0
100
AcDbLine
 10
449.0239264012219
 20
112.8655899983718
 30
0.0
 11
490.023926401222
 21
112.8655899983718
 31
0.0
  0
LINE
  5
207
330
1F
100
AcDbEntity
  8
0
100
AcDbLine
 10
516.2912864012217
 20
179.3656499983719
 30
0.0
 11
515.023926401222
 21
179.3656499983719
 31
0.0
  0
LINE
  5
208
330
1F
100
AcDbEntity
  8
0
100
AcDbLine
 10
514.0239264012219
 20
184.3656499983719
 30
0.0
 11
490.023926401222
 21
184.3656499983719
 31
0.0
  0
LINE
  5
209
330
1F
100
AcDbEntity
  8
0
100
AcDbLine
 10
465.023926401222
 20
183.3656499983719
 30
0.0
 11
465.023926401222
 21
179.3656499983719
 31
0.0
  0
LINE
  5
20A
330
1F
100
AcDbEntity
  8
0
100
AcDbLine
 10
449.0239264012219
 20
123.7945399983718
 30
0.0
 11
449.0239264012219
 21
108.8655899983719
 31
0.0
  0
LINE
  5
20B
330
1F
100
AcDbEntity
  8
0
100
AcDbLine
 10
455.5239264012219
 20
164.602399998372
 30
0.0
 11
455.5239264012219
 21
134.436689998372
 31
0.0
  0
LINE
  5
20C
330
1F
100
AcDbEntity
  8
0
100
AcDbLine
 10
490.023926401222
 20
166.365709998372
 30
0.0
 11
456.1269864012218
 21
166.365709998372
 31
0.0
  0
LINE
  5
20D
330
1F
100
AcDbEntity
  8
0
100
AcDbLine
 10
490.023926401222
 20
131.8655899983719
 30
0.0
 11
455.5239264012219
 21
131.8655899983719
 31
0.0
  0
LINE
  5
20E
330
1F
100
AcDbEntity
  8
0
100
AcDbLine
 10
531.0239264012219
 20
123.7945399983718
 30
0.0
 11
531.0239264012219
 21
108.8655899983719
 31
0.0
  0
LINE
  5
20F
330
1F
100
AcDbEntity
  8
0
100
AcDbLine
 10
524.5239264012219
 20
164.602399998372
 30
0.0
 11
524.5239264012219
 21
134.436689998372
 31
0.0
  0
LINE
  5
210
330
1F
100
AcDbEntity
  8
0
100
AcDbLine
 10
525.9883764012219
 20
130.9011399983719
 30
0.0
 11
529.5594464012218
 21
127.330059998372
 31
0.0
  0
LINE
  5
211
330
1F
100
AcDbEntity
  8
0
100
AcDbLine
 10
531.0239264012219
 20
108.8655899983719
 30
0.0
 11
490.023926401222
 21
108.8655899983718
 31
0.0
  0
LINE
  5
212
330
1F
100
AcDbEntity
  8
0
100
AcDbLine
 10
491.6757364012218
 20
125.865619998372
 30
0.0
 11
529.5594464012218
 21
125.865619998372
 31
0.0
  0
LINE
  5
213
330
1F
100
AcDbEntity
  8
0
100
AcDbLine
 10
531.0239264012219
 20
112.8655899983718
 30
0.0
 11
490.023926401222
 21
112.8655899983718
 31
0.0
  0
LINE
  5
214
330
1F
100
AcDbEntity
  8
0
100
AcDbLine
 10
490.023926401222
 20
131.8655899983719
 30
0.0
 11
524.5239264012219
 21
131.8655899983719
 31
0.0
  0
LINE
  5
215
330
1F
100
AcDbEntity
  8
0
100
AcDbLine
 10
506.5239264012219
 20
91.86558999837194
 30
0.0
 11
506.5239264012219
 21
102.8655899983718
 31
0.0
  0
LINE
  5
216
330
1F
100
AcDbEntity
  8
0
100
AcDbLine
 10
460.3180964012218
 20
107.5655699983719
 30
0.0
 11
460.3180964012218
 21
108.8655899983718
 31
0.0
  0
LINE
  5
217
330
1F
100
AcDbEntity
  8
0
100
AcDbLine
 10
473.523926401222
 20
91.86558999837194
 30
0.0
 11
473.523926401222
 21
102.8655899983718
 31
0.0
  0
LINE
  5
218
330
1F
100
AcDbEntity
  8
0
100
AcDbLine
 10
468.8180964012218
 20
107.5655699983719
 30
0.0
 11
468.8180964012218
 21
108.8655899983718
 31
0.0
  0
LINE
  5
219
330
1F
100
AcDbEntity
  8
0
100
AcDbLine
 10
468.8180964012218
 20
104.8655899983718
 30
0.0
 11
490.023926401222
 21
104.8655899983718
 31
0.0
  0
LINE
  5
21A
330
1F
100
AcDbEntity
  8
0
100
AcDbLine
 10
511.2297664012218
 20
104.8655899983718
 30
0.0
 11
490.023926401222
 21
104.8655899983718
 31
0.0
  0
LINE
  5
21B
330
1F
100
AcDbEntity
  8
0
100
AcDbLine
 10
511.2297664012218
 20
104.8655899983718
 30
0.0
 11
508.5239264012219
 21
104.8655899983718
 31
0.0
  0
LINE
  5
21C
330
1F
100
AcDbEntity
  8
0
100
AcDbLine
 10
530.5239264012219
 20
108.8655899983718
 30
0.0
 11
520.5239264012219
 21
108.8655899983718
 31
0.0
  0
LINE
  5
21D
330
1F
100
AcDbEntity
  8
0
100
AcDbLine
 10
449.5239264012219
 20
112.8655899983718
 30
0.0
 11
490.023926401222
 21
112.8655899983718
 31
0.0
  0
LINE
  5
21E
330
1F
100
AcDbEntity
  8
0
100
AcDbLine
 10
520.5239264012219
 20
108.8655899983718
 30
0.0
 11
520.5239264012219
 21
107.8655899983718
 31
0.0
  0
LINE
  5
21F
330
1F
100
AcDbEntity
  8
0
100
AcDbLine
 10
490.023926401222
 20
166.365709998372
 30
0.0
 11
523.9208564012218
 21
166.365709998372
 31
0.0
  0
LINE
  5
220
330
1F
100
AcDbEntity
  8
0
100
AcDbLine
 10
449.0239264012219
 20
108.8655899983719
 30
0.0
 11
490.023926401222
 21
108.8655899983718
 31
0.0
  0
LINE
  5
221
330
1F
100
AcDbEntity
  8
0
100
AcDbLine
 10
465.0239264012212
 20
91.86558999837188
 30
0.0
 11
515.023926401221
 21
91.86558999837188
 31
0.0
  0
LINE
  5
222
330
1F
100
AcDbEntity
  8
0
100
AcDbLine
 10
459.5239264012219
 20
108.8655899983718
 30
0.0
 11
459.5239264012219
 21
107.8655899983718
 31
0.0
  0
LINE
  5
223
330
1F
100
AcDbEntity
  8
0
100
AcDbLine
 10
482.5239564012218
 20
207.8656499983719
 30
0.0
 11
482.5239564012218
 21
187.2316699983718
 31
0.0
  0
LINE
  5
224
330
1F
100
AcDbEntity
  8
0
100
AcDbLine
 10
484.0239564012218
 20
209.3656799983719
 30
0.0
 11
482.5239464012219
 21
207.8656499983719
 31
0.0
  0
LINE
  5
225
330
1F
100
AcDbEntity
  8
0
100
AcDbLine
 10
484.0239564012218
 20
209.3656499983719
 30
0.0
 11
496.0238964012217
 21
209.3656499983719
 31
0.0
  0
LINE
  5
226
330
1F
100
AcDbEntity
  8
0
100
AcDbLine
 10
482.5239564012218
 20
187.2316699983718
 30
0.0
 11
497.5238964012218
 21
187.2316699983718
 31
0.0
  0
LINE
  5
227
330
1F
100
AcDbEntity
  8
0
100
AcDbLine
 10
482.0239564012219
 20
185.3656499983719
 30
0.0
 11
482.5239564012218
 21
187.2316699983718
 31
0.0
  0
LINE
  5
228
330
1F
100
AcDbEntity
  8
0
100
AcDbLine
 10
460.3180964012218
 20
102.8655599983719
 30
0.0
 11
460.8377264012218
 21
102.5655499983718
 31
0.0
  0
LINE
  5
229
330
1F
100
AcDbEntity
  8
0
100
AcDbLine
 10
468.8180964012218
 20
102.8655899983718
 30
0.0
 11
460.3180964012218
 21
102.8655899983718
 31
0.0
  0
LINE
  5
22A
330
1F
100
AcDbEntity
  8
0
100
AcDbLine
 10
460.3180964012218
 20
102.8655899983718
 30
0.0
 11
460.3180964012218
 21
107.5655699983719
 31
0.0
  0
LINE
  5
22B
330
1F
100
AcDbEntity
  8
0
100
AcDbLine
 10
468.8180964012218
 20
107.5655699983719
 30
0.0
 11
460.3180964012218
 21
107.5655699983719
 31
0.0
  0
LINE
  5
22C
330
1F
100
AcDbEntity
  8
0
100
AcDbLine
 10
468.8180964012218
 20
106.8655599983719
 30
0.0
 11
460.3180964012218
 21
106.8655599983719
 31
0.0
  0
LINE
  5
22D
330
1F
100
AcDbEntity
  8
0
100
AcDbLine
 10
468.2984964012217
 20
102.5655499983718
 30
0.0
 11
468.8181164012218
 21
102.8655599983719
 31
0.0
  0
LINE
  5
22E
330
1F
100
AcDbEntity
  8
0
100
AcDbLine
 10
468.8180964012218
 20
102.8655899983718
 30
0.0
 11
468.8180964012218
 21
107.5655699983719
 31
0.0
  0
LINE
  5
22F
330
1F
100
AcDbEntity
  8
0
100
AcDbLine
 10
468.2985064012217
 20
102.5655699983719
 30
0.0
 11
460.8377264012218
 21
102.5655699983719
 31
0.0
  0
LINE
  5
230
330
1F
100
AcDbEntity
  8
0
100
AcDbLine
 10
511.2297664012218
 20
107.5655699983719
 30
0.0
 11
511.2297664012218
 21
108.8655899983718
 31
0.0
  0
LINE
  5
231
330
1F
100
AcDbEntity
  8
0
100
AcDbLine
 10
519.7297864012219
 20
106.8655599983719
 30
0.0
 11
511.2297664012218
 21
106.8655599983719
 31
0.0
  0
LINE
  5
232
330
1F
100
AcDbEntity
  8
0
100
AcDbLine
 10
519.7297864012219
 20
107.5655699983719
 30
0.0
 11
511.2297664012218
 21
107.5655699983719
 31
0.0
  0
LINE
  5
233
330
1F
100
AcDbEntity
  8
0
100
AcDbLine
 10
511.2297664012218
 20
102.8655899983718
 30
0.0
 11
511.2297664012218
 21
107.5655699983719
 31
0.0
  0
LINE
  5
234
330
1F
100
AcDbEntity
  8
0
100
AcDbLine
 10
519.7297864012219
 20
102.8655899983718
 30
0.0
 11
511.2297664012218
 21
102.8655899983718
 31
0.0
  0
LINE
  5
235
330
1F
100
AcDbEntity
  8
0
100
AcDbLine
 10
511.2297964012217
 20
102.8655899983718
 30
0.0
 11
511.7494064012218
 21
102.5655799983719
 31
0.0
  0
LINE
  5
236
330
1F
100
AcDbEntity
  8
0
100
AcDbLine
 10
519.2101764012217
 20
102.5655699983719
 30
0.0
 11
519.7297664012218
 21
102.8655599983719
 31
0.0
  0
LINE
  5
237
330
1F
100
AcDbEntity
  8
0
100
AcDbLine
 10
519.7297864012219
 20
102.8655899983718
 30
0.0
 11
519.7297864012219
 21
107.5655699983719
 31
0.0
  0
LINE
  5
238
330
1F
100
AcDbEntity
  8
0
100
AcDbLine
 10
519.2101764012217
 20
102.5655699983719
 30
0.0
 11
511.7494064012218
 21
102.5655699983719
 31
0.0
  0
LINE
  5
239
330
1F
100
AcDbEntity
  8
0
100
AcDbLine
 10
516.2912864012217
 20
179.3656499983719
 30
0.0
 11
490.023926401222
 21
179.3656499983719
 31
0.0
  0
LINE
  5
23A
330
1F
100
AcDbEntity
  8
0
100
AcDbLine
 10
519.7297864012219
 20
107.5655699983719
 30
0.0
 11
519.7297864012219
 21
108.8655899983718
 31
0.0
  0
LINE
  5
23B
330
1F
100
AcDbEntity
  8
0
100
AcDbLine
 10
488.3721064012219
 20
125.865619998372
 30
0.0
 11
450.4883764012219
 21
125.865619998372
 31
0.0
  0
LINE
  5
23C
330
1F
100
AcDbEntity
  8
0
  6
HIDDEN
 48
10.0
100
AcDbLine
 10
291.8312602402201
 20
411.4821708769263
 30
0.0
 11
291.8312602402201
 21
397.3712847866387
 31
0.0
  0
LINE
  5
23D
330
1F
100
AcDbEntity
  8
0
  6
HIDDEN
 48
10.0
100
AcDbLine
 10
274.5312602402203
 20
411.4821708769264
 30
0.0
 11
274.5312602402203
 21
397.3714388038786
 31
0.0
  0
LINE
  5
23E
330
1F
100
AcDbEntity
  8
0
  6
HIDDEN
 48
10.0
100
AcDbLine
 10
291.8312602402201
 20
475.5930707047833
 30
0.0
 11
291.8312602402202
 21
461.4821708769263
 31
0.0
  0
LINE
  5
23F
330
1F
100
AcDbEntity
  8
0
  6
HIDDEN
 48
10.0
100
AcDbLine
 10
274.5312602402203
 20
475.5929166875456
 30
0.0
 11
274.5312602402203
 21
461.4821708769263
 31
0.0
  0
LINE
  5
240
330
1F
100
AcDbEntity
  8
0
100
AcDbLine
 10
316.1812602402205
 20
432.9821708769253
 30
0.0
 11
316.1812602402205
 21
439.9821708769252
 31
0.0
  0
LINE
  5
241
330
1F
100
AcDbEntity
  8
0
100
AcDbLine
 10
308.1812602402205
 20
432.9821708769253
 30
0.0
 11
316.1812602402205
 21
432.9821708769253
 31
0.0
  0
LINE
  5
242
330
1F
100
AcDbEntity
  8
0
100
AcDbLine
 10
308.1812602402205
 20
439.9821708769252
 30
0.0
 11
316.1812602402205
 21
439.9821708769252
 31
0.0
  0
LINE
  5
243
330
1F
100
AcDbEntity
  8
0
100
AcDbLine
 10
322.7452236855479
 20
441.4821556181378
 30
0.0
 11
322.7452236855479
 21
431.482186135716
 31
0.0
  0
LINE
  5
244
330
1F
100
AcDbEntity
  8
0
100
AcDbLine
 10
335.2451931679695
 20
441.4821556181378
 30
0.0
 11
335.2451931679695
 21
431.482186135716
 31
0.0
  0
LINE
  5
245
330
1F
100
AcDbEntity
  8
0
100
AcDbLine
 10
322.7452236855479
 20
431.7321556181378
 30
0.0
 11
317.3527034205211
 21
431.7321556181378
 31
0.0
  0
LINE
  5
246
330
1F
100
AcDbEntity
  8
0
100
AcDbLine
 10
335.2451931679695
 20
431.482186135716
 30
0.0
 11
322.7452236855479
 21
431.482186135716
 31
0.0
  0
LINE
  5
247
330
1F
100
AcDbEntity
  8
0
100
AcDbLine
 10
322.7452236855479
 20
441.232186135716
 30
0.0
 11
317.352703420521
 21
441.232186135716
 31
0.0
  0
LINE
  5
248
330
1F
100
AcDbEntity
  8
0
100
AcDbLine
 10
335.2451931679695
 20
441.4821556181378
 30
0.0
 11
322.7452236855479
 21
441.4821556181378
 31
0.0
  0
LINE
  5
249
330
1F
100
AcDbEntity
  8
0
  6
HIDDEN
 48
10.0
100
AcDbLine
 10
308.1812602402205
 20
452.1426323027066
 30
0.0
 11
308.1812602402205
 21
420.8217094511446
 31
0.0
  0
LINE
  5
24A
330
1F
100
AcDbEntity
  8
0
  6
HIDDEN
 48
10.0
100
AcDbLine
 10
267.5207988144393
 20
461.4821708769263
 30
0.0
 11
298.8417216660014
 21
461.4821708769263
 31
0.0
  0
LINE
  5
24B
330
1F
100
AcDbEntity
  8
0
100
AcDbLine
 10
266.1812602402205
 20
481.4821708769253
 30
0.0
 11
300.1812602402206
 21
481.4821708769253
 31
0.0
  0
LINE
  5
24C
330
1F
100
AcDbEntity
  8
0
100
AcDbLine
 10
266.1812602402205
 20
481.4821708769253
 30
0.0
 11
266.1812602402205
 21
478.6320682524949
 31
0.0
  0
LINE
  5
24D
330
1F
100
AcDbEntity
  8
0
  6
HIDDEN
 48
10.0
100
AcDbLine
 10
272.9232542392066
 20
476.1781830293934
 30
0.0
 11
274.5312602402203
 21
475.5929166875456
 31
0.0
  0
LINE
  5
24E
330
1F
100
AcDbEntity
  8
0
100
AcDbLine
 10
266.1812602402205
 20
478.6320682524949
 30
0.0
 11
272.9232542392066
 21
476.1781830293934
 31
0.0
  0
LINE
  5
24F
330
1F
100
AcDbEntity
  8
0
  6
HIDDEN
 48
10.0
100
AcDbLine
 10
293.4390187766545
 20
476.1782469768869
 30
0.0
 11
291.8312602402201
 21
475.5930707047833
 31
0.0
  0
LINE
  5
250
330
1F
100
AcDbEntity
  8
0
100
AcDbLine
 10
300.1812602402206
 20
478.6322222697325
 30
0.0
 11
293.4390187766545
 21
476.1782469768869
 31
0.0
  0
LINE
  5
251
330
1F
100
AcDbEntity
  8
0
100
AcDbLine
 10
300.1812602402206
 20
481.4821708769253
 30
0.0
 11
300.1812602402206
 21
478.6322222697325
 31
0.0
  0
ARC
  5
252
330
1F
100
AcDbEntity
  8
0
  6
HIDDEN
 48
10.0
100
AcDbCircle
 10
283.1812602402205
 20
436.4821708769263
 30
0.0
 40
29.5
100
AcDbArc
 50
122.0637859781562
 51
147.9362147050923
  0
LINE
  5
253
330
1F
100
AcDbEntity
  8
0
100
AcDbLine
 10
266.1812602402205
 20
391.4821708769264
 30
0.0
 11
300.1812602402206
 21
391.4821708769264
 31
0.0
  0
LINE
  5
254
330
1F
100
AcDbEntity
  8
0
  6
HIDDEN
 48
10.0
100
AcDbLine
 10
267.5207988144393
 20
411.4821708769264
 30
0.0
 11
298.8417216660014
 21
411.4821708769264
 31
0.0
  0
LINE
  5
255
330
1F
100
AcDbEntity
  8
0
100
AcDbLine
 10
266.1812602402205
 20
391.4821708769264
 30
0.0
 11
266.1812602402205
 21
394.3322872389289
 31
0.0
  0
LINE
  5
256
330
1F
100
AcDbEntity
  8
0
  6
HIDDEN
 48
10.0
100
AcDbLine
 10
272.9232321667257
 20
396.7861644283044
 30
0.0
 11
274.5312602402203
 21
397.3714388038786
 31
0.0
  0
LINE
  5
257
330
1F
100
AcDbEntity
  8
0
100
AcDbLine
 10
266.1812602402205
 20
394.3322872389289
 30
0.0
 11
272.9232321667257
 21
396.7861644283044
 31
0.0
  0
LINE
  5
258
330
1F
100
AcDbEntity
  8
0
  6
HIDDEN
 48
10.0
100
AcDbLine
 10
293.4390408493682
 20
396.7861004807242
 30
0.0
 11
291.8312602402201
 21
397.3712847866387
 31
0.0
  0
LINE
  5
259
330
1F
100
AcDbEntity
  8
0
100
AcDbLine
 10
300.1812602402206
 20
394.33213322169
 30
0.0
 11
293.4390408493682
 21
396.7861004807242
 31
0.0
  0
LINE
  5
25A
330
1F
100
AcDbEntity
  8
0
100
AcDbLine
 10
300.1812602402206
 20
391.4821708769264
 30
0.0
 11
300.1812602402206
 21
394.33213322169
 31
0.0
  0
ARC
  5
25B
330
1F
100
AcDbEntity
  8
0
  6
HIDDEN
 48
10.0
100
AcDbCircle
 10
283.1812602402205
 20
436.4821708769263
 30
0.0
 40
29.5
100
AcDbArc
 50
212.0637852949076
 51
237.936214021846
  0
LINE
  5
25C
330
1F
100
AcDbEntity
  8
0
  6
HIDDEN
 48
10.0
100
AcDbLine
 10
258.1812602402205
 20
452.1426323027066
 30
0.0
 11
258.1812602402205
 21
420.8217094511446
 31
0.0
  0
ARC
  5
25D
330
1F
100
AcDbEntity
  8
0
  6
HIDDEN
 48
10.0
100
AcDbCircle
 10
283.1812602402205
 20
436.4821708769263
 30
0.0
 40
29.5
100
AcDbArc
 50
302.0637877993893
 51
327.9362131112378
  0
ARC
  5
25E
330
1F
100
AcDbEntity
  8
0
  6
HIDDEN
 48
10.0
100
AcDbCircle
 10
283.1812602402205
 20
436.4821708769263
 30
0.0
 40
29.5
100
AcDbArc
 50
32.06378688878564
 51
57.93621220061066
  0
LINE
  5
25F
330
1F
100
AcDbEntity
  8
0
100
AcDbLine
 10
308.1812743575853
 20
84.56559779133966
 30
0.0
 11
316.1812743575854
 21
84.56559779133966
 31
0.0
  0
LINE
  5
260
330
1F
100
AcDbEntity
  8
0
100
AcDbLine
 10
316.1812743575854
 20
84.56559779133966
 30
0.0
 11
316.1812743575854
 21
91.56559779133965
 31
0.0
  0
LINE
  5
261
330
1F
100
AcDbEntity
  8
0
100
AcDbLine
 10
308.1812743575853
 20
91.56559779133965
 30
0.0
 11
316.1812743575854
 21
91.56559779133965
 31
0.0
  0
CIRCLE
  5
262
330
1F
100
AcDbEntity
  8
0
100
AcDbCircle
 10
490.023926401221
 20
88.06559779133966
 30
0.0
 40
3.5
  0
LINE
  5
263
330
1F
100
AcDbEntity
  8
0
100
AcDbLine
 10
529.1346915261981
 20
77.41560999837185
 30
0.0
 11
515.023926401221
 21
77.41560999837185
 31
0.0
  0
LINE
  5
264
330
1F
100
AcDbEntity
  8
0
100
AcDbLine
 10
529.1348150337529
 20
60.11560999837161
 30
0.0
 11
515.023926401221
 21
60.11560999837161
 31
0.0
  0
LINE
  5
265
330
1F
100
AcDbEntity
  8
0
100
AcDbLine
 10
515.023926401221
 20
91.86558999837188
 30
0.0
 11
515.023926401221
 21
59.26560999837085
 31
0.0
  0
LINE
  5
266
330
1F
100
AcDbEntity
  8
0
100
AcDbLine
 10
535.0239264012219
 20
85.76562525716088
 30
0.0
 11
535.0239264012219
 21
51.76559473958298
 31
0.0
  0
LINE
  5
267
330
1F
100
AcDbEntity
  8
0
100
AcDbLine
 10
535.0239264012219
 20
51.76559473958298
 30
0.0
 11
532.1739721524477
 21
51.76559473958298
 31
0.0
  0
LINE
  5
268
330
1F
100
AcDbEntity
  8
0
100
AcDbLine
 10
535.0239264012219
 20
85.76562525716088
 30
0.0
 11
532.1738486448928
 21
85.76562525716088
 31
0.0
  0
LINE
  5
269
330
1F
100
AcDbEntity
  8
0
100
AcDbLine
 10
532.1739721524477
 20
51.76559473958298
 30
0.0
 11
529.1348150337529
 21
60.11560999837161
 31
0.0
  0
LINE
  5
26A
330
1F
100
AcDbEntity
  8
0
100
AcDbLine
 10
532.1738486448928
 20
85.76562525716088
 30
0.0
 11
529.1346915261981
 21
77.41560999837185
 31
0.0
  0
ARC
  5
26B
330
1F
100
AcDbEntity
  8
0
100
AcDbCircle
 10
500.3980413914558
 20
65.26560999837085
 30
0.0
 40
6.0
100
AcDbArc
 50
210.0000051605322
 51
269.9999974955313
  0
LINE
  5
26C
330
1F
100
AcDbEntity
  8
0
100
AcDbLine
 10
494.3358670191862
 20
63.76563601436567
 30
0.0
 11
495.2018872334798
 21
62.26564502974913
 31
0.0
  0
ARC
  5
26D
330
1F
100
AcDbEntity
  8
0
100
AcDbCircle
 10
479.649811410987
 20
65.26560999837085
 30
0.0
 40
6.0
100
AcDbArc
 50
269.9999974955313
 51
330.0000016696572
  0
LINE
  5
26E
330
1F
100
AcDbEntity
  8
0
100
AcDbLine
 10
485.7119885829989
 20
63.76563923041487
 30
0.0
 11
484.8459607393096
 21
62.26563503129899
 31
0.0
  0
ARC
  5
26F
330
1F
100
AcDbEntity
  8
0
100
AcDbCircle
 10
490.042114877784
 20
61.26560999837193
 30
0.0
 40
5.0
100
AcDbArc
 50
90.00000865141489
 51
149.9999966606935
  0
ARC
  5
270
330
1F
100
AcDbEntity
  8
0
100
AcDbCircle
 10
490.005737924659
 20
61.26560999837193
 30
0.0
 40
5.0
100
AcDbArc
 50
30.00000333930641
 51
90.00000500896346
  0
LINE
  5
271
330
1F
100
AcDbEntity
  8
0
100
AcDbLine
 10
515.023926401221
 20
59.26560999837085
 30
0.0
 11
500.3980413914558
 21
59.26560999837085
 31
0.0
  0
LINE
  5
272
330
1F
100
AcDbEntity
  8
0
100
AcDbLine
 10
465.0239264012212
 20
91.86558999837188
 30
0.0
 11
465.0239264012212
 21
59.26560999837085
 31
0.0
  0
LINE
  5
273
330
1F
100
AcDbEntity
  8
0
100
AcDbLine
 10
445.0239264012219
 20
85.76562525716088
 30
0.0
 11
445.0239264012219
 21
51.76559473958298
 31
0.0
  0
LINE
  5
274
330
1F
100
AcDbEntity
  8
0
100
AcDbLine
 10
445.0239264012219
 20
51.76559473958298
 30
0.0
 11
447.8738700304711
 21
51.76559473958298
 31
0.0
  0
LINE
  5
275
330
1F
100
AcDbEntity
  8
0
100
AcDbLine
 10
447.8738700304711
 20
51.76559473958298
 30
0.0
 11
450.9130271491651
 21
60.11560999837161
 31
0.0
  0
LINE
  5
276
330
1F
100
AcDbEntity
  8
0
100
AcDbLine
 10
445.0239264012219
 20
85.76562525716088
 30
0.0
 11
447.8740260141519
 21
85.76562525716088
 31
0.0
  0
LINE
  5
277
330
1F
100
AcDbEntity
  8
0
100
AcDbLine
 10
447.8740260141519
 20
85.76562525716088
 30
0.0
 11
450.913183132847
 21
77.41560999837185
 31
0.0
  0
LINE
  5
278
330
1F
100
AcDbEntity
  8
0
100
AcDbLine
 10
465.0239264012212
 20
77.41560999837185
 30
0.0
 11
450.913183132847
 21
77.41560999837185
 31
0.0
  0
LINE
  5
279
330
1F
100
AcDbEntity
  8
0
100
AcDbLine
 10
465.0239264012212
 20
60.11560999837161
 30
0.0
 11
450.9130271491651
 21
60.11560999837161
 31
0.0
  0
LINE
  5
27A
330
1F
100
AcDbEntity
  8
0
100
AcDbLine
 10
465.0239264012212
 20
59.26560999837085
 30
0.0
 11
479.649811410987
 21
59.26560999837085
 31
0.0
  0
LINE
  5
27B
330
1F
100
AcDbEntity
  8
0
100
AcDbLine
 10
465.0239264012212
 20
84.36558558430908
 30
0.0
 11
515.023926401221
 21
84.36558558430908
 31
0.0
  0
LINE
  5
27C
330
1F
100
AcDbEntity
  8
0
100
AcDbLine
 10
298.286788883953
 20
76.56454780384876
 30
0.0
 11
298.2867888839529
 21
91.86560664112461
 31
0.0
  0
LINE
  5
27D
330
1F
100
AcDbEntity
  8
0
100
AcDbLine
 10
289.9370690346139
 20
84.36558558430908
 30
0.0
 11
308.1812743575853
 21
84.36558558430908
 31
0.0
  0
LINE
  5
27E
330
1F
100
AcDbEntity
  8
0
100
AcDbLine
 10
299.0872480781721
 20
62.76560999837204
 30
0.0
 11
308.1812743575853
 21
62.76560999837204
 31
0.0
  0
LINE
  5
27F
330
1F
100
AcDbEntity
  8
0
100
AcDbLine
 10
308.1812743575853
 20
91.86561488029969
 30
0.0
 11
308.1812743575853
 21
62.76560999837204
 31
0.0
  0
LINE
  5
280
330
1F
100
AcDbEntity
  8
0
100
AcDbLine
 10
268.0757598312181
 20
76.5645478038499
 30
0.0
 11
268.075759831218
 21
91.86558148428771
 31
0.0
  0
LINE
  5
281
330
1F
100
AcDbEntity
  8
0
100
AcDbLine
 10
258.1812743575859
 20
62.76560999837204
 30
0.0
 11
267.2753006369984
 21
62.76560999837204
 31
0.0
  0
LINE
  5
282
330
1F
100
AcDbEntity
  8
0
100
AcDbLine
 10
258.1812743575853
 20
91.86557324511261
 30
0.0
 11
258.1812743575859
 21
62.76560999837204
 31
0.0
  0
LINE
  5
283
330
1F
100
AcDbEntity
  8
0
100
AcDbLine
 10
258.1812743575853
 20
84.36558558430908
 30
0.0
 11
276.4254796805567
 21
84.36558558430908
 31
0.0
  0
CIRCLE
  5
284
330
1F
100
AcDbEntity
  8
0
100
AcDbCircle
 10
283.1812743575853
 20
68.76560999837204
 30
0.0
 40
7.0
  0
CIRCLE
  5
285
330
1F
100
AcDbEntity
  8
0
100
AcDbCircle
 10
283.1812743575853
 20
68.76560999837204
 30
0.0
 40
17.0
  0
TEXT
  5
286
330
1F
100
AcDbEntity
  8
0
100
AcDbText
 10
157.7328705011932
 20
626.0
 30
0.0
 40
48.000002
  1
DHC2S06RD000 10A
 41
1.32095
100
AcDbText
  0
LINE
  5
2E4
330
1F
100
AcDbEntity
  8
0
  6
CENTER
100
AcDbLine
 10
345.541778420471
 20
436.4821708769264
 30
0.0
 11
236.6532280225492
 21
436.4821708769262
 31
0.0
  0
LINE
  5
2E5
330
1F
100
AcDbEntity
  8
0
  6
CENTER
100
AcDbLine
 10
283.1812602402205
 20
370.1770662629933
 30
0.0
 11
283.1812602402205
 21
502.7872754908594
 31
0.0
  0
LINE
  5
2E6
330
1F
100
AcDbEntity
  8
0
  6
CENTER
100
AcDbLine
 10
283.1812743575853
 20
43.96930928066467
 30
0.0
 11
283.1812743575853
 21
218.4385886498203
 31
0.0
  0
LINE
  5
2E7
330
1F
100
AcDbEntity
  8
0
  6
CENTER
100
AcDbLine
 10
316.2741332498713
 20
68.76559109602317
 30
0.0
 11
250.9812026793383
 21
68.76559109602294
 31
0.0
  0
LINE
  5
2E8
330
1F
100
AcDbEntity
  8
0
  6
CENTER
100
AcDbLine
 10
556.8539116040017
 20
68.76559109602306
 30
0.0
 11
423.1938901343803
 21
68.76559109602283
 31
0.0
  0
LINE
  5
2E9
330
1F
100
AcDbEntity
  8
0
  6
CENTER
100
AcDbLine
 10
490.023900869191
 20
43.96932944971323
 30
0.0
 11
490.023900869191
 21
218.4386088188688
 31
0.0
  0
LINE
  5
432
330
1F
100
AcDbEntity
  8
Visible (ISO)
100
AcDbLine
 10
1045.557454266768
 20
120.2135850662956
 30
0.0
 11
1049.464272120254
 21
108.8673621591036
 31
0.0
  0
LINE
  5
433
330
1F
100
AcDbEntity
  8
Visible (ISO)
100
AcDbLine
 10
1048.534346488541
 20
106.9607320640192
 30
0.0
 11
1043.650824171684
 21
121.1435106980087
 31
0.0
  0
LINE
  5
434
330
1F
100
AcDbEntity
  8
Visible (ISO)
100
AcDbLine
 10
1049.464272120254
 20
108.8673621591036
 30
0.0
 11
1048.534346488541
 21
106.9607320640187
 31
0.0
  0
LINE
  5
435
330
1F
100
AcDbEntity
  8
Visible (ISO)
100
AcDbLine
 10
1045.557454266768
 20
120.2135850662952
 30
0.0
 11
1043.650824171684
 21
121.1435106980087
 31
0.0
  0
LINE
  5
436
330
1F
100
AcDbEntity
  8
Visible (ISO)
100
AcDbLine
 10
1010.821458779287
 20
128.9476364052183
 30
0.0
 11
1027.469153071776
 21
80.59922155275115
 31
0.0
  0
ARC
  5
437
330
1F
100
AcDbEntity
  8
Visible (ISO)
100
AcDbCircle
 10
1005.148347325692
 20
126.9942274784756
 30
0.0
 40
5.999999999999991
100
AcDbArc
 50
18.99999999999109
 51
88.99999999999822
  0
ARC
  5
438
330
1F
100
AcDbEntity
  8
Visible (ISO)
100
AcDbCircle
 10
1021.79604161818
 20
78.64581262600847
 30
0.0
 40
5.999999999999989
100
AcDbArc
 50
309.0000000000106
 51
18.99999999999109
  0
LINE
  5
439
330
1F
100
AcDbEntity
  8
Visible (ISO)
100
AcDbLine
 10
995.6214631139692
 20
133.1614338292182
 30
0.0
 11
1018.085665771513
 21
67.92065211286569
 31
0.0
  0
LINE
  5
43A
330
1F
100
AcDbEntity
  8
Visible (ISO)
100
AcDbLine
 10
1015.733694942099
 20
130.0392341412533
 30
0.0
 11
1032.012102664957
 21
82.76330536128796
 31
0.0
  0
LINE
  5
43B
330
1F
100
AcDbEntity
  8
Visible (ISO)
100
AcDbLine
 10
963.4738315435924
 20
122.0921165776748
 30
0.0
 11
985.9380342011363
 21
56.85133486132179
 31
0.0
  0
LINE
  5
43C
330
1F
100
AcDbEntity
  8
Visible (ISO)
100
AcDbLine
 10
955.2117677982256
 20
126.121794315099
 30
0.0
 11
981.9083564637121
 21
48.58927111595528
 31
0.0
  0
LINE
  5
43D
330
1F
100
AcDbEntity
  8
Visible (ISO)
100
AcDbLine
 10
939.1379520130371
 20
120.5871356893275
 30
0.0
 11
965.8345406785239
 21
43.05461249018333
 31
0.0
  0
LINE
  5
43E
330
1F
100
AcDbEntity
  8
Visible (ISO)
100
AcDbLine
 10
1048.534346488541
 20
106.9607320640187
 30
0.0
 11
1026.314659961957
 21
99.30988043427568
 31
0.0
  0
LINE
  5
43F
330
1F
100
AcDbEntity
  8
Visible (ISO)
100
AcDbLine
 10
1043.650824171684
 20
121.1435106980087
 30
0.0
 11
1021.4311376451
 21
113.4926590682652
 31
0.0
  0
LINE
  5
440
330
1F
100
AcDbEntity
  8
Visible (ISO)
100
AcDbLine
 10
1025.571963964479
 20
73.98293685726628
 30
0.0
 11
1018.085665771513
 21
67.92065211286569
 31
0.0
  0
LINE
  5
441
330
1F
100
AcDbEntity
  8
Visible (ISO)
100
AcDbLine
 10
1005.253061764315
 20
132.9933136494136
 30
0.0
 11
995.6214631139692
 21
133.1614338292182
 31
0.0
  0
LINE
  5
442
330
1F
100
AcDbEntity
  8
Visible (ISO)
100
AcDbLine
 10
1032.012102664957
 20
82.76330536128796
 30
0.0
 11
1027.28450978696
 21
81.13546458900225
 31
0.0
  0
LINE
  5
443
330
1F
100
AcDbEntity
  8
Visible (ISO)
100
AcDbLine
 10
1015.733694942099
 20
130.0392341412538
 30
0.0
 11
1011.006102064103
 21
128.4113933689681
 31
0.0
  0
LINE
  5
444
330
1F
100
AcDbEntity
  8
Visible (ISO)
100
AcDbLine
 10
1018.085665771513
 20
67.92065211286569
 30
0.0
 11
985.9380342011363
 21
56.85133486132224
 31
0.0
  0
LINE
  5
445
330
1F
100
AcDbEntity
  8
Visible (ISO)
100
AcDbLine
 10
995.6214631139692
 20
133.1614338292182
 30
0.0
 11
963.4738315435924
 21
122.0921165776748
 31
0.0
  0
LINE
  5
446
330
1F
100
AcDbEntity
  8
Visible (ISO)
100
AcDbLine
 10
985.9380342011363
 20
56.85133486132224
 30
0.0
 11
981.9083564637121
 21
48.58927111595528
 31
0.0
  0
LINE
  5
447
330
1F
100
AcDbEntity
  8
Visible (ISO)
100
AcDbLine
 10
963.4738315435924
 20
122.0921165776748
 30
0.0
 11
955.211767798225
 21
126.121794315099
 31
0.0
  0
LINE
  5
448
330
1F
100
AcDbEntity
  8
Visible (ISO)
100
AcDbLine
 10
981.9083564637121
 20
48.58927111595528
 30
0.0
 11
965.8345406785239
 21
43.05461249018333
 31
0.0
  0
LINE
  5
449
330
1F
100
AcDbEntity
  8
Visible (ISO)
100
AcDbLine
 10
955.211767798225
 20
126.121794315099
 30
0.0
 11
939.1379520130371
 21
120.5871356893275
 31
0.0
  0
LINE
  5
44A
330
1F
100
AcDbEntity
  8
Visible (ISO)
100
AcDbLine
 10
957.8581208943232
 20
66.21981759236667
 30
0.0
 11
941.9734088242549
 21
60.75027259748674
 31
0.0
  0
LINE
  5
44B
330
1F
100
AcDbEntity
  8
Visible (ISO)
100
AcDbLine
 10
947.1143717972378
 20
97.42193058714418
 30
0.0
 11
931.2296597271688
 21
91.9523855922638
 31
0.0
  0
LINE
  5
44C
330
1F
100
AcDbEntity
  8
Visible (ISO)
100
AcDbLine
 10
927.9105074914733
 20
46.91825155555477
 30
0.0
 11
925.0082978779051
 21
55.34688028457356
 31
0.0
  0
LINE
  5
44D
330
1F
100
AcDbEntity
  8
Visible (ISO)
100
AcDbLine
 10
914.534309382183
 20
85.76555160650185
 30
0.0
 11
911.6320997686152
 21
94.19418033552018
 31
0.0
  0
LINE
  5
44E
330
1F
100
AcDbEntity
  8
Visible (ISO)
100
AcDbLine
 10
934.4195882267067
 20
59.037198696867
 30
0.0
 11
925.9235159749268
 21
56.11176641607506
 31
0.0
  0
LINE
  5
44F
330
1F
100
AcDbEntity
  8
Visible (ISO)
100
AcDbLine
 10
934.4195882267067
 20
59.037198696867
 30
0.0
 11
931.5204944944522
 21
67.45677824948405
 31
0.0
  0
LINE
  5
450
330
1F
100
AcDbEntity
  8
Visible (ISO)
100
AcDbLine
 10
927.1215879927432
 20
80.23213036162621
 30
0.0
 11
924.2224942604876
 21
88.65170991424326
 31
0.0
  0
LINE
  5
451
330
1F
100
AcDbEntity
  8
Visible (ISO)
100
AcDbLine
 10
924.2224942604879
 20
88.65170991424326
 30
0.0
 11
915.7264220087082
 21
85.72627763345133
 31
0.0
  0
LINE
  5
452
330
1F
100
AcDbEntity
  8
Visible (ISO)
100
AcDbLine
 10
921.1818373821683
 20
97.48241869553783
 30
0.0
 11
924.2224942604876
 21
88.65170991424326
 31
0.0
  0
LINE
  5
453
330
1F
100
AcDbEntity
  8
Visible (ISO)
100
AcDbLine
 10
934.4195882267067
 20
59.037198696867
 30
0.0
 11
937.4602451050263
 21
50.20648991557243
 31
0.0
  0
LINE
  5
454
330
1F
100
AcDbEntity
  8
Visible (ISO)
100
AcDbLine
 10
921.1818373821683
 20
97.48241869553783
 30
0.0
 11
911.6320997686152
 21
94.19418033552062
 31
0.0
  0
LINE
  5
455
330
1F
100
AcDbEntity
  8
Visible (ISO)
100
AcDbLine
 10
937.4602451050263
 20
50.20648991557243
 30
0.0
 11
927.9105074914733
 21
46.91825155555477
 31
0.0
  0
LINE
  5
456
330
1F
100
AcDbEntity
  8
Visible (ISO)
100
AcDbLine
 10
906.569979571233
 20
89.54485791028981
 30
0.0
 11
908.2860097163434
 21
84.56114449644099
 31
0.0
  0
LINE
  5
457
330
1F
100
AcDbEntity
  8
Visible (ISO)
100
AcDbLine
 10
906.569979571233
 20
89.54485791029027
 30
0.0
 11
912.5267465975085
 21
91.59593728337029
 31
0.0
  0
LINE
  5
458
330
1F
100
AcDbEntity
  8
Visible (ISO)
100
AcDbLine
 10
921.0590936363036
 20
47.46541523462553
 30
0.0
 11
919.3430634911933
 21
52.44912864847435
 31
0.0
  0
LINE
  5
459
330
1F
100
AcDbEntity
  8
Visible (ISO)
100
AcDbLine
 10
927.0158606625797
 20
49.51649460770557
 30
0.0
 11
921.0590936363042
 21
47.46541523462553
 31
0.0
  0
CIRCLE
  5
45A
330
1F
100
AcDbEntity
  8
Visible (ISO)
100
AcDbCircle
 10
914.5709514642481
 20
68.76559109602374
 30
0.0
 40
16.99999999999996
  0
CIRCLE
  5
45B
330
1F
100
AcDbEntity
  8
Visible (ISO)
100
AcDbCircle
 10
914.5709514642481
 20
68.76559109602374
 30
0.0
 40
6.999999999999974
  0
LINE
  5
45C
330
1F
100
AcDbEntity
  8
Visible (ISO)
100
AcDbLine
 10
943.7952195615416
 20
52.38779655043515
 30
0.0
 11
940.754562683222
 21
61.21850533172971
 31
0.0
  0
SPLINE
  5
45D
330
1F
100
AcDbEntity
  8
Visible (ISO)
100
AcDbSpline
210
0.0
220
0.0
230
1.0
 70
    24
 71
     3
 72
     8
 73
     4
 74
     0
 42
0.0000000001
 43
0.0000000001
 40
-0.144350550463716
 40
-0.144350550463716
 40
-0.144350550463716
 40
-0.144350550463716
 40
0.0
 40
0.0
 40
0.0
 40
0.0
 10
943.7952195615416
 20
52.38779655043515
 30
0.0
 10
944.0019261105099
 20
52.81160778186483
 30
0.0
 10
944.2086192494071
 20
53.23539151857301
 30
0.0
 10
944.4151699826834
 20
53.65888328049175
 30
0.0
  0
LINE
  5
45E
330
1F
100
AcDbEntity
  8
Visible (ISO)
100
AcDbLine
 10
941.6056555502423
 20
61.81830565617554
 30
0.0
 11
944.4151699826834
 21
53.6588832804913
 31
0.0
  0
SPLINE
  5
45F
330
1F
100
AcDbEntity
  8
Visible (ISO)
100
AcDbSpline
210
0.0
220
0.0
230
1.0
 70
     8
 71
     3
 72
     8
 73
     4
 74
     0
 42
0.0000000001
 43
0.0000000001
 40
-0.1443505504638844
 40
-0.1443505504638844
 40
-0.1443505504638844
 40
-0.1443505504638844
 40
0.0
 40
0.0
 40
0.0
 40
0.0
 10
940.754562683222
 20
61.21850533172971
 30
0.0
 10
941.0386292876946
 20
61.41764664846494
 30
0.0
 10
941.3223912174958
 20
61.61760636430097
 30
0.0
 10
941.6056555502423
 20
61.81830565617554
 30
0.0
  0
SPLINE
  5
460
330
1F
100
AcDbEntity
  8
Visible (ISO)
100
AcDbSpline
210
0.0
220
0.0
230
1.0
 70
    24
 71
     3
 72
     8
 73
     4
 74
     0
 42
0.0000000001
 43
0.0000000001
 40
-0.1443505504638185
 40
-0.1443505504638185
 40
-0.1443505504638185
 40
-0.1443505504638185
 40
0.0
 40
0.0
 40
0.0
 40
0.0
 10
927.5168118386837
 20
99.663725330401
 30
0.0
 10
927.9406230701129
 20
99.4570187814328
 30
0.0
 10
928.3644068068214
 20
99.25032564253559
 30
0.0
 10
928.7878985687402
 20
99.04377490925879
 30
0.0
  0
LINE
  5
461
330
1F
100
AcDbEntity
  8
Visible (ISO)
100
AcDbLine
 10
930.5574687170029
 20
90.83301654910645
 30
0.0
 11
927.5168118386837
 21
99.663725330401
 31
0.0
  0
SPLINE
  5
462
330
1F
100
AcDbEntity
  8
Visible (ISO)
100
AcDbSpline
210
0.0
220
0.0
230
1.0
 70
     8
 71
     3
 72
     8
 73
     4
 74
     0
 42
0.0000000001
 43
0.0000000001
 40
-0.144350550463716
 40
-0.144350550463716
 40
-0.144350550463716
 40
-0.144350550463716
 40
0.0
 40
0.0
 40
0.0
 40
0.0
 10
930.5574687170029
 20
90.83301654910599
 30
0.0
 10
930.9039198929282
 20
90.85097991483223
 30
0.0
 10
931.2506348387328
 20
90.86811079680717
 30
0.0
 10
931.5974130011818
 20
90.884352533575
 30
0.0
  0
LINE
  5
463
330
1F
100
AcDbEntity
  8
Visible (ISO)
100
AcDbLine
 10
928.7878985687397
 20
99.04377490925879
 30
0.0
 11
931.5974130011818
 21
90.884352533575
 31
0.0
  0
LINE
  5
464
330
1F
100
AcDbEntity
  8
Visible (ISO)
100
AcDbLine
 10
930.5574687170029
 20
90.83301654910599
 30
0.0
 11
940.754562683222
 21
61.21850533172971
 31
0.0
  0
LINE
  5
465
330
1F
100
AcDbEntity
  8
Visible (ISO)
100
AcDbLine
 10
941.6056555502423
 20
61.81830565617554
 30
0.0
 11
931.5974130011818
 21
90.884352533575
 31
0.0
  0
LINE
  5
466
330
1F
100
AcDbEntity
  8
Visible (ISO)
100
AcDbLine
 10
922.1273559577676
 20
97.80798684999524
 30
0.0
 11
925.1680128360867
 21
88.97727806870022
 31
0.0
  0
SPLINE
  5
467
330
1F
100
AcDbEntity
  8
Visible (ISO)
100
AcDbSpline
210
0.0
220
0.0
230
1.0
 70
    24
 71
     3
 72
     8
 73
     4
 74
     0
 42
0.0000000001
 43
0.0000000001
 40
-0.1443504730162542
 40
-0.1443504730162542
 40
-0.1443504730162542
 40
-0.1443504730162542
 40
0.0
 40
0.0
 40
0.0
 40
0.0
 10
937.134676950569
 20
51.15200849117162
 30
0.0
 10
937.5581687124872
 20
50.94545775789481
 30
0.0
 10
937.9819524491955
 20
50.73876461899806
 30
0.0
 10
938.4057636806256
 20
50.53205807002939
 30
0.0
  0
SPLINE
  5
468
330
1F
100
AcDbEntity
  8
Visible (ISO)
100
AcDbSpline
210
0.0
220
0.0
230
1.0
 70
    24
 71
     3
 72
     8
 73
     4
 74
     0
 42
0.0000000001
 43
0.0000000001
 40
-0.1443504730160477
 40
-0.1443504730160477
 40
-0.1443504730160477
 40
-0.1443504730160477
 40
0.0
 40
0.0
 40
0.0
 40
0.0
 10
921.5074055366253
 20
96.53690011993866
 30
0.0
 10
921.7139562699021
 20
96.96039188185693
 30
0.0
 10
921.9206494087993
 20
97.38417561856557
 30
0.0
 10
922.1273559577676
 20
97.80798684999524
 30
0.0
  0
SPLINE
  5
469
330
1F
100
AcDbEntity
  8
Visible (ISO)
100
AcDbSpline
210
0.0
220
0.0
230
1.0
 70
     8
 71
     3
 72
     8
 73
     4
 74
     0
 42
0.0000000001
 43
0.0000000001
 40
-0.1443504730162542
 40
-0.1443504730162542
 40
-0.1443504730162542
 40
-0.1443504730162542
 40
0.0
 40
0.0
 40
0.0
 40
0.0
 10
924.3169199690669
 20
88.37747774425485
 30
0.0
 10
924.6001843018129
 20
88.57817703612898
 30
0.0
 10
924.8839462316137
 20
88.77813675196501
 30
0.0
 10
925.1680128360872
 20
88.97727806870022
 30
0.0
  0
SPLINE
  5
46A
330
1F
100
AcDbEntity
  8
Visible (ISO)
100
AcDbSpline
210
0.0
220
0.0
230
1.0
 70
     8
 71
     3
 72
     8
 73
     4
 74
     0
 42
0.0000000001
 43
0.0000000001
 40
-0.1443504730161496
 40
-0.1443504730161496
 40
-0.1443504730161496
 40
-0.1443504730161496
 40
0.0
 40
0.0
 40
0.0
 40
0.0
 10
934.3251625181274
 20
59.31143086685541
 30
0.0
 10
934.6719406805764
 20
59.32767260362322
 30
0.0
 10
935.018655626381
 20
59.34480348559816
 30
0.0
 10
935.3651068023063
 20
59.3627668513244
 30
0.0
  0
LINE
  5
46B
330
1F
100
AcDbEntity
  8
Visible (ISO)
100
AcDbLine
 10
935.3651068023063
 20
59.3627668513244
 30
0.0
 11
931.4601123885299
 21
70.7036941050759
 31
0.0
  0
LINE
  5
46C
330
1F
100
AcDbEntity
  8
Visible (ISO)
100
AcDbLine
 10
929.0730072498631
 20
77.63635081494874
 30
0.0
 11
925.1680128360872
 21
88.97727806870022
 31
0.0
  0
LINE
  5
46D
330
1F
100
AcDbEntity
  8
Visible (ISO)
100
AcDbLine
 10
935.3651068023063
 20
59.36276685132395
 30
0.0
 11
938.4057636806256
 21
50.53205807002939
 31
0.0
  0
LINE
  5
46E
330
1F
100
AcDbEntity
  8
Visible (ISO)
100
AcDbLine
 10
927.5168118386837
 20
99.663725330401
 30
0.0
 11
922.1273559577676
 21
97.80798684999524
 31
0.0
  0
LINE
  5
46F
330
1F
100
AcDbEntity
  8
Visible (ISO)
100
AcDbLine
 10
930.5574687170029
 20
90.83301654910599
 30
0.0
 11
925.1680128360872
 21
88.97727806870022
 31
0.0
  0
LINE
  5
470
330
1F
100
AcDbEntity
  8
Visible (ISO)
100
AcDbLine
 10
940.754562683222
 20
61.21850533172971
 30
0.0
 11
935.3651068023063
 21
59.3627668513244
 31
0.0
  0
LINE
  5
471
330
1F
100
AcDbEntity
  8
Visible (ISO)
100
AcDbLine
 10
943.7952195615416
 20
52.38779655043515
 30
0.0
 11
938.4057636806256
 21
50.53205807002939
 31
0.0
  0
ELLIPSE
  5
472
330
1F
100
AcDbEntity
  8
Visible (ISO)
100
AcDbEllipse
 10
1047.510863193511
 20
302.3380964834417
 30
0.0
 11
0.0000000000000101
 21
5.999999999999981
 31
0.0
210
0.0
220
0.0
230
1.0
 40
0.3255681544571577
 41
0.0
 42
6.283185307179585
  0
ELLIPSE
  5
473
330
1F
100
AcDbEntity
  8
Visible (ISO)
100
AcDbEllipse
 10
1046.092585330111
 20
302.3380964834417
 30
0.0
 11
-0.0000000000007523
 21
7.499999999999976
 31
0.0
210
0.0
220
0.0
230
1.0
 40
0.3255681544571576
 41
5.931662797751833
 42
9.776300470196515
  0
LINE
  5
474
330
1F
100
AcDbEntity
  8
Visible (ISO)
100
AcDbLine
 10
1048.183475827034
 20
296.7049991285088
 30
0.0
 11
1046.933351122017
 21
295.2967247897753
 31
0.0
  0
LINE
  5
475
330
1F
100
AcDbEntity
  8
Visible (ISO)
100
AcDbLine
 10
1048.183475827034
 20
307.9711938383728
 30
0.0
 11
1046.933351122017
 21
309.3794681771054
 31
0.0
  0
ELLIPSE
  5
476
330
1F
100
AcDbEntity
  8
Visible (ISO)
100
AcDbEllipse
 10
1023.872898803528
 20
302.338096483439
 30
0.0
 11
-0.000000000000011
 21
-7.49999999999998
 31
0.0
210
0.0
220
0.0
230
1.0
 40
0.3255681544571576
 41
3.141592653595053
 42
6.283185307184846
  0
ELLIPSE
  5
477
330
1F
100
AcDbEntity
  8
Visible (ISO)
100
AcDbEllipse
 10
1019.145305925531
 20
302.338096483439
 30
0.0
 11
-0.000000000000041
 21
-24.99999999999992
 31
0.0
210
0.0
220
0.0
230
1.0
 40
0.3255681544571576
 41
3.141592653595102
 42
6.283185307184895
  0
ELLIPSE
  5
478
330
1F
100
AcDbEntity
  8
Visible (ISO)
100
AcDbEllipse
 10
1006.85356444274
 20
302.3380964834371
 30
0.0
 11
0.0000000000034618
 21
-34.4999999999999
 31
0.0
210
0.0
220
0.0
230
1.0
 40
0.3255681544571576
 41
3.015937244356136
 42
6.408840716412625
  0
ELLIPSE
  5
479
330
1F
100
AcDbEntity
  8
Visible (ISO)
100
AcDbEllipse
 10
1023.872898803528
 20
302.338096483439
 30
0.0
 11
0.0000000000025088
 21
-24.99999999999992
 31
0.0
210
0.0
220
0.0
230
1.0
 40
0.3255681544571574
 41
1.875488980809974
 42
7.549288979958775
  0
ELLIPSE
  5
47A
330
1F
100
AcDbEntity
  8
Visible (ISO)
100
AcDbEllipse
 10
974.7059328723635
 20
302.3380964834335
 30
0.0
 11
-0.0000000000000573
 21
-34.49999999999989
 31
0.0
210
0.0
220
0.0
230
1.0
 40
0.3255681544571576
 41
3.141592653595097
 42
6.28318530718489
  0
ELLIPSE
  5
47B
330
1F
100
AcDbEntity
  8
Visible (ISO)
100
AcDbEllipse
 10
968.5600621309681
 20
302.3380964834335
 30
0.0
 11
0.0000000000041141
 21
-40.99999999999989
 31
0.0
210
0.0
220
0.0
230
1.0
 40
0.3255681544571575
 41
2.79007014416199
 42
6.634707816606752
  0
ELLIPSE
  5
47C
330
1F
100
AcDbEntity
  8
Visible (ISO)
100
AcDbEllipse
 10
952.4862463457798
 20
302.3380964834317
 30
0.0
 11
-0.0000000000000673
 21
-40.99999999999987
 31
0.0
210
0.0
220
0.0
230
1.0
 40
0.3255681544571577
 41
3.141592653595074
 42
6.283185307184868
  0
ELLIPSE
  5
47D
330
1F
100
AcDbEntity
  8
Visible (ISO)
100
AcDbEllipse
 10
936.6015342757114
 20
302.3380964834299
 30
0.0
 11
-0.0000000000000267
 21
-16.49999999999995
 31
0.0
210
0.0
220
0.0
230
1.0
 40
0.3255681544571576
 41
3.141592653595084
 42
6.283185307184877
  0
LINE
  5
47E
330
1F
100
AcDbEntity
  8
Visible (ISO)
100
AcDbLine
 10
1046.092585330111
 20
294.8380964834417
 30
0.0
 11
1023.872898803528
 21
294.838096483439
 31
0.0
  0
LINE
  5
47F
330
1F
100
AcDbEntity
  8
Visible (ISO)
100
AcDbLine
 10
1046.092585330111
 20
309.8380964834408
 30
0.0
 11
1023.872898803528
 21
309.838096483439
 31
0.0
  0
LINE
  5
480
330
1F
100
AcDbEntity
  8
Visible (ISO)
100
AcDbLine
 10
1016.685746094579
 20
271.3788296757496
 30
0.0
 11
1008.261227565056
 21
268.1101034134538
 31
0.0
  0
LINE
  5
481
330
1F
100
AcDbEntity
  8
Visible (ISO)
100
AcDbLine
 10
1016.685746094579
 20
333.2973632911247
 30
0.0
 11
1008.261227565056
 21
336.5660895534186
 31
0.0
  0
LINE
  5
482
330
1F
100
AcDbEntity
  8
Visible (ISO)
100
AcDbLine
 10
1023.872898803528
 20
277.338096483439
 30
0.0
 11
1019.145305925531
 21
277.338096483439
 31
0.0
  0
LINE
  5
483
330
1F
100
AcDbEntity
  8
Visible (ISO)
100
AcDbLine
 10
1023.872898803528
 20
327.338096483439
 30
0.0
 11
1019.145305925531
 21
327.338096483439
 31
0.0
  0
LINE
  5
484
330
1F
100
AcDbEntity
  8
Visible (ISO)
100
AcDbLine
 10
1006.85356444274
 20
267.8380964834372
 30
0.0
 11
974.7059328723635
 21
267.8380964834335
 31
0.0
  0
LINE
  5
485
330
1F
100
AcDbEntity
  8
Visible (ISO)
100
AcDbLine
 10
1006.85356444274
 20
336.8380964834372
 30
0.0
 11
974.7059328723635
 21
336.8380964834335
 31
0.0
  0
LINE
  5
486
330
1F
100
AcDbEntity
  8
Visible (ISO)
100
AcDbLine
 10
976.700684153865
 20
267.8380964834308
 30
0.0
 11
973.1562484600495
 21
263.8452645580595
 31
0.0
  0
LINE
  5
487
330
1F
100
AcDbEntity
  8
Visible (ISO)
100
AcDbLine
 10
976.7006841538655
 20
336.8380964834299
 30
0.0
 11
973.15624846005
 21
340.8309284087994
 31
0.0
  0
LINE
  5
488
330
1F
100
AcDbEntity
  8
Visible (ISO)
100
AcDbLine
 10
968.5600621309681
 20
261.3380964834335
 30
0.0
 11
952.4862463457798
 21
261.3380964834317
 31
0.0
  0
LINE
  5
489
330
1F
100
AcDbEntity
  8
Visible (ISO)
100
AcDbLine
 10
968.5600621309681
 20
343.3380964834335
 30
0.0
 11
952.4862463457798
 21
343.3380964834317
 31
0.0
  0
LINE
  5
48A
330
1F
100
AcDbEntity
  8
Visible (ISO)
100
AcDbLine
 10
940.2665931007705
 20
285.8380964834308
 30
0.0
 11
936.6015342757114
 21
285.8380964834308
 31
0.0
  0
LINE
  5
48B
330
1F
100
AcDbEntity
  8
Visible (ISO)
100
AcDbLine
 10
940.2665931007705
 20
318.8380964834308
 30
0.0
 11
936.6015342757114
 21
318.8380964834299
 31
0.0
  0
ELLIPSE
  5
48C
330
1F
100
AcDbEntity
  8
Visible (ISO)
100
AcDbEllipse
 10
933.3056334666911
 20
287.3380964834363
 30
0.0
 11
-24.20417177842924
 21
-0.0000000000055792
 31
0.0
210
0.0
220
0.0
230
1.0
 40
0.4131519182536941
 41
5.821821494356707
 42
5.855847905156615
  0
ELLIPSE
  5
48D
330
1F
100
AcDbEntity
  8
Visible (ISO)
100
AcDbEllipse
 10
933.3056334666911
 20
317.3380964834362
 30
0.0
 11
-24.20417177842924
 21
-0.0000000000055769
 31
0.0
210
0.0
220
0.0
230
1.0
 40
0.4131519182536941
 41
0.4273374020250152
 42
0.4613638128249215
  0
ELLIPSE
  5
48E
330
1F
100
AcDbEntity
  8
Visible (ISO)
100
AcDbEllipse
 10
919.7713036300433
 20
302.338096483429
 30
0.0
 11
0.0000000000029601
 21
-29.49999999999981
 31
0.0
210
0.0
220
0.0
230
1.0
 40
0.3255681544571576
 41
5.272007611809355
 42
5.723566675754287
  0
LINE
  5
48F
330
1F
100
AcDbEntity
  8
Visible (ISO)
100
AcDbLine
 10
911.6320997686143
 20
317.9985562468012
 30
0.0
 11
911.6320997686143
 21
286.6776367200703
 31
0.0
  0
ELLIPSE
  5
490
330
1F
100
AcDbEntity
  8
Visible (ISO)
100
AcDbEllipse
 10
919.7713036300433
 20
302.338096483429
 30
0.0
 11
0.0000000000039496
 21
-29.49999999999989
 31
0.0
210
0.0
220
0.0
230
1.0
 40
0.3255681544571576
 41
3.701211285013126
 42
4.152770348958506
  0
LINE
  5
491
330
1F
100
AcDbEntity
  8
Visible (ISO)
100
AcDbLine
 10
925.1680128360863
 20
277.3380964834335
 30
0.0
 11
924.2224942604867
 21
277.3380964834335
 31
0.0
  0
LINE
  5
492
330
1F
100
AcDbEntity
  8
Visible (ISO)
100
AcDbLine
 10
924.222494260487
 20
277.3380964834335
 30
0.0
 11
914.6727566469339
 21
277.3380964834335
 31
0.0
  0
LINE
  5
493
330
1F
100
AcDbEntity
  8
Visible (ISO)
100
AcDbLine
 10
924.222494260487
 20
327.3380964834335
 30
0.0
 11
914.6727566469339
 21
327.3380964834335
 31
0.0
  0
LINE
  5
494
330
1F
100
AcDbEntity
  8
Visible (ISO)
100
AcDbLine
 10
924.222494260487
 20
327.3380964834335
 30
0.0
 11
925.1680128360863
 21
327.3380964834335
 31
0.0
  0
LINE
  5
495
330
1F
100
AcDbEntity
  8
Visible (ISO)
100
AcDbLine
 10
921.1818373821675
 20
286.6776367200703
 30
0.0
 11
921.1818373821675
 21
317.9985562468031
 31
0.0
  0
ELLIPSE
  5
496
330
1F
100
AcDbEntity
  8
Visible (ISO)
100
AcDbEllipse
 10
929.3210412435964
 20
302.3380964834299
 30
0.0
 11
-0.0000000000019644
 21
29.49999999999981
 31
0.0
210
0.0
220
0.0
230
1.0
 40
0.3255681544571576
 41
2.13041495822045
 42
2.581974022165791
  0
ELLIPSE
  5
497
330
1F
100
AcDbEntity
  8
Visible (ISO)
100
AcDbEllipse
 10
929.3210412435964
 20
302.3380964834299
 30
0.0
 11
-0.0000000000029587
 21
29.49999999999992
 31
0.0
210
0.0
220
0.0
230
1.0
 40
0.3255681544571576
 41
0.5596186314246534
 42
1.011177695369582
  0
ELLIPSE
  5
498
330
1F
100
AcDbEntity
  8
Visible (ISO)
100
AcDbEllipse
 10
929.3210412435964
 20
302.3380964834299
 30
0.0
 11
0.0000000000028602
 21
-28.49999999999997
 31
0.0
210
0.0
220
0.0
230
1.0
 40
0.3255681544571575
 41
5.282010299457285
 42
5.713563988106349
  0
LINE
  5
499
330
1F
100
AcDbEntity
  8
Visible (ISO)
100
AcDbLine
 10
921.5074055366249
 20
317.7085226323755
 30
0.0
 11
921.5074055366249
 21
286.967670334497
 31
0.0
  0
ELLIPSE
  5
49A
330
1F
100
AcDbEntity
  8
Visible (ISO)
100
AcDbEllipse
 10
929.3210412435964
 20
302.3380964834299
 30
0.0
 11
0.0000000000038171
 21
-28.49999999999993
 31
0.0
210
0.0
220
0.0
230
1.0
 40
0.3255681544571575
 41
3.711213972661138
 42
4.142767661310572
  0
LINE
  5
49B
330
1F
100
AcDbEntity
  8
Visible (ISO)
100
AcDbLine
 10
921.1818373821675
 20
286.6776367200703
 30
0.0
 11
911.6320997686143
 21
286.6776367200703
 31
0.0
  0
LINE
  5
49C
330
1F
100
AcDbEntity
  8
Visible (ISO)
100
AcDbLine
 10
921.1818373821675
 20
317.9985562468031
 30
0.0
 11
911.6320997686143
 21
317.9985562468012
 31
0.0
  0
LINE
  5
49D
330
1F
100
AcDbEntity
  8
Visible (ISO)
100
AcDbLine
 10
909.1014616882617
 20
277.3380964834308
 30
0.0
 11
909.1014616882617
 21
282.9825876557973
 31
0.0
  0
LINE
  5
49E
330
1F
100
AcDbEntity
  8
Visible (ISO)
100
AcDbLine
 10
914.6727566469339
 20
277.3380964834308
 30
0.0
 11
909.1014616882617
 21
277.3380964834308
 31
0.0
  0
LINE
  5
49F
330
1F
100
AcDbEntity
  8
Visible (ISO)
100
AcDbLine
 10
909.1014616882617
 20
327.3380964834299
 30
0.0
 11
914.6727566469339
 21
327.3380964834308
 31
0.0
  0
LINE
  5
4A0
330
1F
100
AcDbEntity
  8
Visible (ISO)
100
AcDbLine
 10
909.1014616882617
 20
321.6936053110643
 30
0.0
 11
909.1014616882617
 21
327.3380964834299
 31
0.0
  0
ELLIPSE
  5
4A1
330
1F
100
AcDbEntity
  8
Visible (ISO)
100
AcDbEllipse
 10
907.9536442276753
 20
317.443605311067
 30
0.0
 11
0.0000000000000057
 21
4.24999999999999
 31
0.0
210
0.0
220
0.0
230
1.0
 40
0.3255681544571576
 41
0.0000000000052057
 42
3.141592653594998
  0
ELLIPSE
  5
4A2
330
1F
100
AcDbEntity
  8
Visible (ISO)
100
AcDbEllipse
 10
907.9536442276753
 20
287.2325876557992
 30
0.0
 11
-0.00000000000001
 21
-4.249999999999987
 31
0.0
210
0.0
220
0.0
230
1.0
 40
0.3255681544571576
 41
3.141592653595028
 42
6.283185307184821
  0
LINE
  5
4A3
330
1F
100
AcDbEntity
  8
Visible (ISO)
100
AcDbLine
 10
911.6320997686143
 20
313.193605311067
 30
0.0
 11
907.9536442276753
 21
313.1936053110661
 31
0.0
  0
LINE
  5
4A4
330
1F
100
AcDbEntity
  8
Visible (ISO)
100
AcDbLine
 10
912.5233764332538
 20
321.693605311067
 30
0.0
 11
907.9536442276753
 21
321.6936053110661
 31
0.0
  0
LINE
  5
4A5
330
1F
100
AcDbEntity
  8
Visible (ISO)
100
AcDbLine
 10
907.9536442276753
 20
291.4825876557991
 30
0.0
 11
911.6320997686143
 21
291.4825876558001
 31
0.0
  0
LINE
  5
4A6
330
1F
100
AcDbEntity
  8
Visible (ISO)
100
AcDbLine
 10
907.9536442276753
 20
282.9825876558
 30
0.0
 11
912.5233764332538
 21
282.9825876558
 31
0.0
  0
LINE
  5
4A7
330
1F
100
AcDbEntity
  8
Visible (ISO)
100
AcDbLine
 10
909.1014616882617
 20
327.3380964834299
 30
0.0
 11
904.4048806071801
 21
327.3380964834299
 31
0.0
  0
LINE
  5
4A8
330
1F
100
AcDbEntity
  8
Visible (ISO)
100
AcDbLine
 10
904.4048806071801
 20
277.3380964834299
 30
0.0
 11
909.1014616882617
 21
277.3380964834308
 31
0.0
  0
LINE
  5
4A9
330
1F
100
AcDbEntity
  8
Visible (ISO)
100
AcDbLine
 10
904.4048806071801
 20
277.3380964834299
 30
0.0
 11
903.2518650331567
 21
277.338096483429
 31
0.0
  0
LINE
  5
4AA
330
1F
100
AcDbEntity
  8
Visible (ISO)
100
AcDbLine
 10
903.2518650331567
 20
327.338096483429
 30
0.0
 11
904.4048806071801
 21
327.3380964834299
 31
0.0
  0
LINE
  5
4AB
330
1F
100
AcDbEntity
  8
Visible (ISO)
100
AcDbLine
 10
903.2518650331571
 20
277.338096483429
 30
0.0
 11
903.2518650331571
 21
291.9739948682912
 31
0.0
  0
SPLINE
  5
4AC
330
1F
100
AcDbEntity
  8
Visible (ISO)
100
AcDbSpline
210
0.0
220
0.0
230
1.0
 70
     8
 71
     3
 72
    16
 73
    12
 74
     0
 42
0.0000000001
 43
0.0000000001
 40
0.0000000000000004
 40
0.0000000000000004
 40
0.0000000000000004
 40
0.0000000000000004
 40
0.2094395102393199
 40
0.2094395102393199
 40
0.4188790204786395
 40
0.4188790204786395
 40
0.628318530717959
 40
0.628318530717959
 40
0.8377580409572784
 40
0.8377580409572784
 40
1.047197551196598
 40
1.047197551196598
 40
1.047197551196598
 40
1.047197551196598
 10
903.2518650331571
 20
291.9739948682912
 30
0.0
 10
903.2518650331571
 20
292.3579847158347
 30
0.0
 10
903.2853483526787
 20
292.7419902807163
 30
0.0
 10
903.4196396068436
 20
293.5000634656338
 30
0.0
 10
903.5204591386081
 20
293.8741670305329
 30
0.0
 10
903.7903603921368
 20
294.6015442333613
 30
0.0
 10
903.9594800956134
 20
294.9548617393478
 30
0.0
 10
904.3668267926774
 20
295.6275921801001
 30
0.0
 10
904.6051428217701
 20
295.9470387891973
 30
0.0
 10
905.1498258911864
 20
296.5355018880312
 30
0.0
 10
905.4563389910459
 20
296.8044834924961
 30
0.0
 10
905.793620505638
 20
297.0381356703068
 30
0.0
  0
LINE
  5
4AD
330
1F
100
AcDbEntity
  8
Visible (ISO)
100
AcDbLine
 10
907.0030332929977
 20
297.875957843817
 30
0.0
 11
905.793620505638
 21
297.0381356703068
 31
0.0
  0
SPLINE
  5
4AE
330
1F
100
AcDbEntity
  8
Visible (ISO)
100
AcDbSpline
210
0.0
220
0.0
230
1.0
 70
     8
 71
     3
 72
    22
 73
    18
 74
     0
 42
0.0000000001
 43
0.0000000001
 40
-1.047197551196597
 40
-1.047197551196597
 40
-1.047197551196597
 40
-1.047197551196597
 40
-0.697226773480935
 40
-0.697226773480935
 40
-0.409564156014716
 40
-0.409564156014716
 40
-0.1453126527206762
 40
-0.1453126527206762
 40
0.1096187875940603
 40
0.1096187875940603
 40
0.3639934797574406
 40
0.3639934797574406
 40
0.6259381720576286
 40
0.6259381720576286
 40
0.9061101540706243
 40
0.9061101540706243
 40
1.047197551196597
 40
1.047197551196597
 40
1.047197551196597
 40
1.047197551196597
 10
907.0030332929977
 20
306.8002351230419
 30
0.0
 10
907.3656212593181
 20
306.5490518701402
 30
0.0
 10
907.7207034709058
 20
306.199544346757
 30
0.0
 10
908.2826283447861
 20
305.3945350220313
 30
0.0
 10
908.5037344736351
 20
304.9698694959037
 30
0.0
 10
908.8277228637538
 20
304.0743718434808
 30
0.0
 10
908.9386619462956
 20
303.6105287951453
 30
0.0
 10
909.0530187860208
 20
302.6729135418521
 30
0.0
 10
909.0600959302269
 20
302.2003131881614
 30
0.0
 10
908.9751800835038
 20
301.2745556800176
 30
0.0
 10
908.8834318765089
 20
300.8215745720439
 30
0.0
 10
908.6103781046949
 20
299.9615785355939
 30
0.0
 10
908.4265868828852
 20
299.5566160233214
 30
0.0
 10
907.9811964294144
 20
298.817362453918
 30
0.0
 10
907.7154739042343
 20
298.4903510460766
 30
0.0
 10
907.2940282155204
 20
298.0940759268108
 30
0.0
 10
907.1492071899479
 20
297.977219988002
 30
0.0
 10
907.0030332929977
 20
297.875957843817
 30
0.0
  0
LINE
  5
4AF
330
1F
100
AcDbEntity
  8
Visible (ISO)
100
AcDbLine
 10
905.793620505638
 20
307.6380572965512
 30
0.0
 11
907.0030332929977
 21
306.8002351230419
 31
0.0
  0
SPLINE
  5
4B0
330
1F
100
AcDbEntity
  8
Visible (ISO)
100
AcDbSpline
210
0.0
220
0.0
230
1.0
 70
     8
 71
     3
 72
    16
 73
    12
 74
     0
 42
0.0000000001
 43
0.0000000001
 40
-1.047197551196597
 40
-1.047197551196597
 40
-1.047197551196597
 40
-1.047197551196597
 40
-0.8377580409572777
 40
-0.8377580409572777
 40
-0.6283185307179585
 40
-0.6283185307179585
 40
-0.418879020478639
 40
-0.418879020478639
 40
-0.2094395102393195
 40
-0.2094395102393195
 40
0.0
 40
0.0
 40
0.0
 40
0.0
 10
905.793620505638
 20
307.6380572965512
 30
0.0
 10
905.4563389910459
 20
307.8717094743627
 30
0.0
 10
905.1498258911864
 20
308.1406910788258
 30
0.0
 10
904.6051428217701
 20
308.7291541776607
 30
0.0
 10
904.3668267926774
 20
309.0486007867578
 30
0.0
 10
903.9594800956137
 20
309.7213312275111
 30
0.0
 10
903.7903603921368
 20
310.0746487334967
 30
0.0
 10
903.5204591386081
 20
310.8020259363251
 30
0.0
 10
903.4196396068436
 20
311.1761295012232
 30
0.0
 10
903.2853483526787
 20
311.9342026861407
 30
0.0
 10
903.2518650331571
 20
312.3182082510223
 30
0.0
 10
903.2518650331571
 20
312.7021980985667
 30
0.0
  0
LINE
  5
4B1
330
1F
100
AcDbEntity
  8
Visible (ISO)
100
AcDbLine
 10
903.2518650331571
 20
312.7021980985667
 30
0.0
 11
903.2518650331571
 21
327.338096483429
 31
0.0
  0
LINE
  5
4B2
330
1F
100
AcDbEntity
  8
Visible (ISO)
100
AcDbLine
 10
931.5709514642472
 20
347.3380964834281
 30
0.0
 11
897.5709514642476
 21
347.3380964834281
 31
0.0
  0
LINE
  5
4B3
330
1F
100
AcDbEntity
  8
Visible (ISO)
100
AcDbLine
 10
931.5709514642472
 20
344.4880964834277
 30
0.0
 11
897.5709514642476
 21
344.4880964834277
 31
0.0
  0
LINE
  5
4B4
330
1F
100
AcDbEntity
  8
Visible (ISO)
100
AcDbLine
 10
923.2209514642473
 20
341.4489450273052
 30
0.0
 11
905.9209514642471
 21
341.4489450273052
 31
0.0
  0
LINE
  5
4B5
330
1F
100
AcDbEntity
  8
Visible (ISO)
100
AcDbLine
 10
897.5709514642476
 20
344.4880964834277
 30
0.0
 11
897.5709514642476
 21
347.3380964834281
 31
0.0
  0
LINE
  5
4B6
330
1F
100
AcDbEntity
  8
Visible (ISO)
100
AcDbLine
 10
931.5709514642472
 20
344.4880964834277
 30
0.0
 11
931.5709514642472
 21
347.3380964834281
 31
0.0
  0
LINE
  5
4B7
330
1F
100
AcDbEntity
  8
Visible (ISO)
100
AcDbLine
 10
905.9209514642471
 20
341.4489450273052
 30
0.0
 11
897.5709514642476
 21
344.4880964834277
 31
0.0
  0
LINE
  5
4B8
330
1F
100
AcDbEntity
  8
Visible (ISO)
100
AcDbLine
 10
923.2209514642473
 20
341.4489450273052
 30
0.0
 11
931.5709514642472
 21
344.4880964834277
 31
0.0
  0
LINE
  5
4B9
330
1F
100
AcDbEntity
  8
Visible (ISO)
100
AcDbLine
 10
905.9209514642471
 20
327.3380964834281
 30
0.0
 11
905.9209514642471
 21
341.4489450273052
 31
0.0
  0
LINE
  5
4BA
330
1F
100
AcDbEntity
  8
Visible (ISO)
100
AcDbLine
 10
923.2209514642473
 20
327.3380964834281
 30
0.0
 11
923.2209514642473
 21
341.4489450273052
 31
0.0
  0
LINE
  5
4BB
330
1F
100
AcDbEntity
  8
Visible (ISO)
100
AcDbLine
 10
931.5709514642472
 20
257.3380964834281
 30
0.0
 11
897.5709514642476
 21
257.3380964834281
 31
0.0
  0
LINE
  5
4BC
330
1F
100
AcDbEntity
  8
Visible (ISO)
100
AcDbLine
 10
931.5709514642472
 20
260.1880964834275
 30
0.0
 11
897.5709514642476
 21
260.1880964834275
 31
0.0
  0
LINE
  5
4BD
330
1F
100
AcDbEntity
  8
Visible (ISO)
100
AcDbLine
 10
923.2209514642473
 20
263.2272479395509
 30
0.0
 11
905.9209514642471
 21
263.2272479395509
 31
0.0
  0
LINE
  5
4BE
330
1F
100
AcDbEntity
  8
Visible (ISO)
100
AcDbLine
 10
897.5709514642472
 20
257.3380964834281
 30
0.0
 11
897.5709514642472
 21
260.1880964834275
 31
0.0
  0
LINE
  5
4BF
330
1F
100
AcDbEntity
  8
Visible (ISO)
100
AcDbLine
 10
931.5709514642472
 20
257.3380964834281
 30
0.0
 11
931.5709514642472
 21
260.1880964834275
 31
0.0
  0
LINE
  5
4C0
330
1F
100
AcDbEntity
  8
Visible (ISO)
100
AcDbLine
 10
923.2209514642473
 20
263.2272479395509
 30
0.0
 11
931.5709514642472
 21
260.1880964834275
 31
0.0
  0
LINE
  5
4C1
330
1F
100
AcDbEntity
  8
Visible (ISO)
100
AcDbLine
 10
905.9209514642471
 20
263.2272479395509
 30
0.0
 11
897.5709514642472
 21
260.1880964834275
 31
0.0
  0
LINE
  5
4C2
330
1F
100
AcDbEntity
  8
Visible (ISO)
100
AcDbLine
 10
905.9209514642471
 20
263.2272479395509
 30
0.0
 11
905.9209514642471
 21
277.338096483428
 31
0.0
  0
LINE
  5
4C3
330
1F
100
AcDbEntity
  8
Visible (ISO)
100
AcDbLine
 10
923.2209514642473
 20
263.2272479395509
 30
0.0
 11
923.2209514642473
 21
277.338096483428
 31
0.0
  0
ELLIPSE
  5
4C4
330
1F
100
AcDbEntity
  8
Visible (ISO)
100
AcDbEllipse
 10
936.6015342756982
 20
302.3380964834935
 30
0.0
 11
0.0000000000028581
 21
-28.50000000007486
 31
0.0
210
0.0
220
0.0
230
1.0
 40
0.3255681544571576
 41
0.5696213190726605
 42
0.5747183824410316
  0
SPLINE
  5
4C5
330
1F
100
AcDbEntity
  8
Visible (ISO)
100
AcDbSpline
210
0.0
220
0.0
230
1.0
 70
     8
 71
     3
 72
     8
 73
     4
 74
     0
 42
0.0000000001
 43
0.0000000001
 40
-0.1443505504638844
 40
-0.1443505504638844
 40
-0.1443505504638844
 40
-0.1443505504638844
 40
0.0
 40
0.0
 40
0.0
 40
0.0
 10
940.7545626832215
 20
277.3380964834263
 30
0.0
 10
941.0386292876937
 20
277.6715208056269
 30
0.0
 10
941.3223912174949
 20
278.0049234969532
 30
0.0
 10
941.6056555502414
 20
278.3380964834254
 30
0.0
  0
LINE
  5
4C6
330
1F
100
AcDbEntity
  8
Visible (ISO)
100
AcDbLine
 10
940.7545626832215
 20
327.3380964834263
 30
0.0
 11
930.5574687170024
 21
327.3380964834344
 31
0.0
  0
SPLINE
  5
4C7
330
1F
100
AcDbEntity
  8
Visible (ISO)
100
AcDbSpline
210
0.0
220
0.0
230
1.0
 70
     8
 71
     3
 72
     8
 73
     4
 74
     0
 42
0.0000000001
 43
0.0000000001
 40
-0.1443505504637693
 40
-0.1443505504637693
 40
-0.1443505504637693
 40
-0.1443505504637693
 40
0.0
 40
0.0
 40
0.0
 40
0.0
 10
930.5574687170029
 20
327.3380964834344
 30
0.0
 10
930.9039198929271
 20
327.0046721612328
 30
0.0
 10
931.2506348387319
 20
326.6712694699075
 30
0.0
 10
931.5974130011809
 20
326.3380964834344
 30
0.0
  0
LINE
  5
4C8
330
1F
100
AcDbEntity
  8
Visible (ISO)
100
AcDbLine
 10
931.5974130011809
 20
326.3380964834344
 30
0.0
 11
941.6056555502414
 21
326.3380964834262
 31
0.0
  0
SPLINE
  5
4C9
330
1F
100
AcDbEntity
  8
Visible (ISO)
100
AcDbSpline
210
0.0
220
0.0
230
1.0
 70
     8
 71
     3
 72
     8
 73
     4
 74
     0
 42
0.0000000001
 43
0.0000000001
 40
-0.1443504730156712
 40
-0.1443504730156712
 40
-0.1443504730156712
 40
-0.1443504730156712
 40
0.0
 40
0.0
 40
0.0
 40
0.0
 10
941.6056555502414
 20
326.3380964834262
 30
0.0
 10
941.3223912174949
 20
326.6712694698984
 30
0.0
 10
941.0386292876937
 20
327.0046721612246
 30
0.0
 10
940.7545626832215
 20
327.3380964834263
 30
0.0
  0
ELLIPSE
  5
4CA
330
1F
100
AcDbEntity
  8
Visible (ISO)
100
AcDbEllipse
 10
936.601534275625
 20
302.3380964830179
 30
0.0
 11
0.0000000000019006
 21
-28.50000000049027
 31
0.0
210
0.0
220
0.0
230
1.0
 40
0.3255681544571578
 41
2.566874271149444
 42
2.571971334517796
  0
ELLIPSE
  5
4CB
330
1F
100
AcDbEntity
  8
Visible (ISO)
100
AcDbEllipse
 10
935.6560157001123
 20
302.3380964834299
 30
0.0
 11
0.0000000000039524
 21
-29.49999999999993
 31
0.0
210
0.0
220
0.0
230
1.0
 40
0.3255681544571576
 41
3.701211285013123
 42
4.152770348958506
  0
SPLINE
  5
4CC
330
1F
100
AcDbEntity
  8
Visible (ISO)
100
AcDbSpline
210
0.0
220
0.0
230
1.0
 70
     8
 71
     3
 72
     8
 73
     4
 74
     0
 42
0.0000000001
 43
0.0000000001
 40
-0.1443505504637454
 40
-0.1443505504637454
 40
-0.1443505504637454
 40
-0.1443505504637454
 40
0.0
 40
0.0
 40
0.0
 40
0.0
 10
927.5168118386831
 20
317.9985562468031
 30
0.0
 10
927.9406230701129
 20
317.9027474728212
 30
0.0
 10
928.3644068068211
 20
317.8060656949168
 30
0.0
 10
928.7878985687397
 20
317.7085226323764
 30
0.0
  0
ELLIPSE
  5
4CD
330
1F
100
AcDbEntity
  8
Visible (ISO)
100
AcDbEllipse
 10
936.6015342757114
 20
302.3380964834299
 30
0.0
 11
-0.0000000000028588
 21
28.49999999999988
 31
0.0
210
0.0
220
0.0
230
1.0
 40
0.3255681544571576
 41
0.5696213190726321
 42
1.001175007721655
  0
LINE
  5
4CE
330
1F
100
AcDbEntity
  8
Visible (ISO)
100
AcDbLine
 10
927.5168118386831
 20
317.9985562468031
 30
0.0
 11
927.5168118386831
 21
286.6776367200713
 31
0.0
  0
SPLINE
  5
4CF
330
1F
100
AcDbEntity
  8
Visible (ISO)
100
AcDbSpline
210
0.0
220
0.0
230
1.0
 70
     8
 71
     3
 72
     8
 73
     4
 74
     0
 42
0.0000000001
 43
0.0000000001
 40
-0.1443505504638185
 40
-0.1443505504638185
 40
-0.1443505504638185
 40
-0.1443505504638185
 40
0.0
 40
0.0
 40
0.0
 40
0.0
 10
927.5168118386831
 20
286.6776367200713
 30
0.0
 10
927.940623070112
 20
286.7734454940522
 30
0.0
 10
928.3644068068211
 20
286.8701272719566
 30
0.0
 10
928.7878985687397
 20
286.9676703344979
 30
0.0
  0
LINE
  5
4D0
330
1F
100
AcDbEntity
  8
Visible (ISO)
100
AcDbLine
 10
928.7878985687397
 20
286.9676703344979
 30
0.0
 11
928.7878985687397
 21
317.7085226323764
 31
0.0
  0
ELLIPSE
  5
4D1
330
1F
100
AcDbEntity
  8
Visible (ISO)
100
AcDbEllipse
 10
935.6560157001123
 20
302.3380964834299
 30
0.0
 11
0.0000000000029601
 21
-29.49999999999981
 31
0.0
210
0.0
220
0.0
230
1.0
 40
0.3255681544571576
 41
5.272007611809355
 42
5.723566675754287
  0
SPLINE
  5
4D2
330
1F
100
AcDbEntity
  8
Visible (ISO)
100
AcDbSpline
210
0.0
220
0.0
230
1.0
 70
     8
 71
     3
 72
     8
 73
     4
 74
     0
 42
0.0000000001
 43
0.0000000001
 40
-0.144350550463716
 40
-0.144350550463716
 40
-0.144350550463716
 40
-0.144350550463716
 40
0.0
 40
0.0
 40
0.0
 40
0.0
 10
930.5574687170024
 20
277.3380964834344
 30
0.0
 10
930.9039198929271
 20
277.6715208056369
 30
0.0
 10
931.2506348387319
 20
278.0049234969623
 30
0.0
 10
931.5974130011809
 20
278.3380964834344
 30
0.0
  0
ELLIPSE
  5
4D3
330
1F
100
AcDbEntity
  8
Visible (ISO)
100
AcDbEllipse
 10
936.6015342757114
 20
302.3380964834299
 30
0.0
 11
-0.0000000000018999
 21
28.50000000000006
 31
0.0
210
0.0
220
0.0
230
1.0
 40
0.3255681544571576
 41
2.14041764586841
 42
2.571971334517865
  0
LINE
  5
4D4
330
1F
100
AcDbEntity
  8
Visible (ISO)
100
AcDbLine
 10
930.5574687170024
 20
277.3380964834344
 30
0.0
 11
940.7545626832215
 21
277.3380964834263
 31
0.0
  0
LINE
  5
4D5
330
1F
100
AcDbEntity
  8
Visible (ISO)
100
AcDbLine
 10
941.6056555502414
 20
278.3380964834254
 30
0.0
 11
931.5974130011809
 21
278.3380964834344
 31
0.0
  0
ELLIPSE
  5
4D6
330
1F
100
AcDbEntity
  8
Visible (ISO)
100
AcDbEllipse
 10
930.2665598191957
 20
302.3380964834299
 30
0.0
 11
-0.0000000000019644
 21
29.49999999999981
 31
0.0
210
0.0
220
0.0
230
1.0
 40
0.3255681544571576
 41
2.130414958220452
 42
2.581974022165791
  0
LINE
  5
4D7
330
1F
100
AcDbEntity
  8
Visible (ISO)
100
AcDbLine
 10
922.1273559577666
 20
286.6776367200703
 30
0.0
 11
922.1273559577666
 21
317.9985562468031
 31
0.0
  0
ELLIPSE
  5
4D8
330
1F
100
AcDbEntity
  8
Visible (ISO)
100
AcDbEllipse
 10
930.2665598191957
 20
302.3380964834299
 30
0.0
 11
-0.0000000000029587
 21
29.49999999999993
 31
0.0
210
0.0
220
0.0
230
1.0
 40
0.3255681544571576
 41
0.5596186314246534
 42
1.011177695369582
  0
SPLINE
  5
4D9
330
1F
100
AcDbEntity
  8
Visible (ISO)
100
AcDbSpline
210
0.0
220
0.0
230
1.0
 70
     8
 71
     3
 72
     8
 73
     4
 74
     0
 42
0.0000000001
 43
0.0000000001
 40
-0.1443504730160225
 40
-0.1443504730160225
 40
-0.1443504730160225
 40
-0.1443504730160225
 40
0.0
 40
0.0
 40
0.0
 40
0.0
 10
924.3169199690665
 20
326.3380964834344
 30
0.0
 10
924.6001843018126
 20
326.6712694699066
 30
0.0
 10
924.8839462316137
 20
327.0046721612319
 30
0.0
 10
925.1680128360863
 20
327.3380964834335
 30
0.0
  0
SPLINE
  5
4DA
330
1F
100
AcDbEntity
  8
Visible (ISO)
100
AcDbSpline
210
0.0
220
0.0
230
1.0
 70
     8
 71
     3
 72
     8
 73
     4
 74
     0
 42
0.0000000001
 43
0.0000000001
 40
-0.1443504730158617
 40
-0.1443504730158617
 40
-0.1443504730158617
 40
-0.1443504730158617
 40
0.0
 40
0.0
 40
0.0
 40
0.0
 10
921.5074055366249
 20
317.7085226323755
 30
0.0
 10
921.7139562699017
 20
317.8060656949168
 30
0.0
 10
921.9206494087989
 20
317.9027474728212
 30
0.0
 10
922.1273559577666
 20
317.9985562468031
 30
0.0
  0
SPLINE
  5
4DB
330
1F
100
AcDbEntity
  8
Visible (ISO)
100
AcDbSpline
210
0.0
220
0.0
230
1.0
 70
     8
 71
     3
 72
     8
 73
     4
 74
     0
 42
0.0000000001
 43
0.0000000001
 40
-0.1443504730160477
 40
-0.1443504730160477
 40
-0.1443504730160477
 40
-0.1443504730160477
 40
0.0
 40
0.0
 40
0.0
 40
0.0
 10
921.5074055366249
 20
286.967670334497
 30
0.0
 10
921.7139562699012
 20
286.8701272719566
 30
0.0
 10
921.9206494087984
 20
286.7734454940522
 30
0.0
 10
922.1273559577666
 20
286.6776367200703
 30
0.0
  0
SPLINE
  5
4DC
330
1F
100
AcDbEntity
  8
Visible (ISO)
100
AcDbSpline
210
0.0
220
0.0
230
1.0
 70
     8
 71
     3
 72
     8
 73
     4
 74
     0
 42
0.0000000001
 43
0.0000000001
 40
-0.1443504730162542
 40
-0.1443504730162542
 40
-0.1443504730162542
 40
-0.1443504730162542
 40
0.0
 40
0.0
 40
0.0
 40
0.0
 10
924.3169199690665
 20
278.3380964834335
 30
0.0
 10
924.600184301812
 20
278.0049234969613
 30
0.0
 10
924.8839462316126
 20
277.6715208056369
 30
0.0
 10
925.1680128360863
 20
277.3380964834335
 30
0.0
  0
LINE
  5
4DD
330
1F
100
AcDbEntity
  8
Visible (ISO)
100
AcDbLine
 10
927.5168118386831
 20
286.6776367200713
 30
0.0
 11
922.1273559577666
 21
286.6776367200703
 31
0.0
  0
LINE
  5
4DE
330
1F
100
AcDbEntity
  8
Visible (ISO)
100
AcDbLine
 10
930.5574687170024
 20
277.3380964834344
 30
0.0
 11
925.1680128360863
 21
277.3380964834335
 31
0.0
  0
LINE
  5
4DF
330
1F
100
AcDbEntity
  8
Visible (ISO)
100
AcDbLine
 10
927.5168118386831
 20
317.9985562468031
 30
0.0
 11
922.1273559577666
 21
317.9985562468031
 31
0.0
  0
LINE
  5
4E0
330
1F
100
AcDbEntity
  8
Visible (ISO)
100
AcDbLine
 10
930.5574687170024
 20
327.3380964834344
 30
0.0
 11
925.1680128360863
 21
327.3380964834335
 31
0.0
  0
SPLINE
  5
4E1
330
1F
100
AcDbEntity
  8
Visible (ISO)
100
AcDbSpline
210
0.0
220
0.0
230
1.0
 70
     8
 71
     3
 72
    10
 73
     6
 74
     0
 42
0.0000000001
 43
0.0000000001
 40
3.267248062823139
 40
3.267248062823139
 40
3.267248062823139
 40
3.267248062823139
 40
3.42746803205547
 40
3.42746803205547
 40
3.670137098454242
 40
3.670137098454242
 40
3.670137098454242
 40
3.670137098454242
 10
1016.685746094579
 20
333.2973632911247
 30
0.0
 10
1017.937050209889
 20
332.8118553526595
 30
0.0
 10
1018.976416918637
 20
332.1009652236729
 30
0.0
 10
1021.148477209555
 20
330.1400062862197
 30
0.0
 10
1022.098035552443
 20
328.7950311942517
 30
0.0
 10
1022.910297963143
 20
327.3380964834344
 30
0.0
  0
SPLINE
  5
4E2
330
1F
100
AcDbEntity
  8
Visible (ISO)
100
AcDbSpline
210
0.0
220
0.0
230
1.0
 70
     8
 71
     3
 72
    10
 73
     6
 74
     0
 42
0.0000000001
 43
0.0000000001
 40
5.754640862315135
 40
5.754640862315135
 40
5.754640862315135
 40
5.754640862315135
 40
5.873261199910749
 40
5.873261199910749
 40
6.157529897946239
 40
6.157529897946239
 40
6.157529897946239
 40
6.157529897946239
 10
1022.910297963143
 20
277.3380964834344
 30
0.0
 10
1022.51325171904
 20
276.6259245951236
 30
0.0
 10
1022.079973792388
 20
275.9437025628734
 30
0.0
 10
1020.420445200471
 20
273.728703435618
 30
0.0
 10
1018.905860062956
 20
272.240237340566
 30
0.0
 10
1016.685746094579
 20
271.3788296757496
 30
0.0
  0
ELLIPSE
  5
4E3
330
1F
100
AcDbEntity
  8
Visible (ISO)
100
AcDbEllipse
 10
1171.34212571416
 20
114.5404736126992
 30
0.0
 11
5.999999999999981
 21
0.0
 31
0.0
210
0.0
220
0.0
230
1.0
 40
0.9455185755993172
 41
0.0
 42
6.283185307179586
  0
ELLIPSE
  5
4E4
330
1F
100
AcDbEntity
  8
Visible (ISO)
100
AcDbEllipse
 10
1171.34212571416
 20
114.0521213810137
 30
0.0
 11
-7.499999999999978
 21
0.0
 31
0.0
210
0.0
220
0.0
230
1.0
 40
0.9455185755993172
 41
0.0
 42
6.283185307179586
  0
ELLIPSE
  5
4E5
330
1F
100
AcDbEntity
  8
Visible (ISO)
100
AcDbEllipse
 10
1171.342125714153
 20
106.4012697512701
 30
0.0
 11
7.49999999999998
 21
0.0
 31
0.0
210
0.0
220
0.0
230
1.0
 40
0.9455185755993172
 41
3.141592653589585
 42
6.283185307179378
  0
ELLIPSE
  5
4E6
330
1F
100
AcDbEntity
  8
Visible (ISO)
100
AcDbEllipse
 10
1171.342125714151
 20
104.7734289789844
 30
0.0
 11
24.99999999999992
 21
0.0
 31
0.0
210
0.0
220
0.0
230
1.0
 40
0.945518575599317
 41
3.141592653589579
 42
6.283185307179373
  0
ELLIPSE
  5
4E7
330
1F
100
AcDbEntity
  8
Visible (ISO)
100
AcDbEllipse
 10
1171.342125714149
 20
100.5410429710417
 30
0.0
 11
34.4999999999999
 21
0.0
 31
0.0
210
0.0
220
0.0
230
1.0
 40
0.9455185755993172
 41
0.0
 42
6.283185307179586
  0
ELLIPSE
  5
4E8
330
1F
100
AcDbEntity
  8
Visible (ISO)
100
AcDbEllipse
 10
1171.342125714153
 20
106.4012697512701
 30
0.0
 11
24.99999999999992
 21
0.0
 31
0.0
210
0.0
220
0.0
230
1.0
 40
0.945518575599317
 41
0.0
 42
6.283185307179586
  0
ELLIPSE
  5
4E9
330
1F
100
AcDbEntity
  8
Visible (ISO)
100
AcDbEllipse
 10
1171.342125714138
 20
89.47172571949829
 30
0.0
 11
34.4999999999999
 21
0.0000000000000021
 31
0.0
210
0.0
220
0.0
230
1.0
 40
0.9455185755993172
 41
3.141592653589576
 42
6.283185307179369
  0
ELLIPSE
  5
4EA
330
1F
100
AcDbEntity
  8
Visible (ISO)
100
AcDbEllipse
 10
1171.342125714138
 20
87.35553271552669
 30
0.0
 11
40.99999999999989
 21
-0.0000000000352274
 31
0.0
210
0.0
220
0.0
230
1.0
 40
0.9455185755993174
 41
2.499060458214092
 42
6.925717502557133
  0
ELLIPSE
  5
4EB
330
1F
100
AcDbEntity
  8
Visible (ISO)
100
AcDbEllipse
 10
1171.342125714132
 20
81.82087408975519
 30
0.0
 11
40.99999999999989
 21
0.0
 31
0.0
210
0.0
220
0.0
230
1.0
 40
0.945518575599317
 41
3.141592653589576
 42
6.283185307179368
  0
LINE
  5
4EC
330
1F
100
AcDbEntity
  8
Visible (ISO)
100
AcDbLine
 10
1178.842125714161
 20
114.0521213810137
 30
0.0
 11
1178.842125714153
 21
106.4012697512701
 31
0.0
  0
LINE
  5
4ED
330
1F
100
AcDbEntity
  8
Visible (ISO)
100
AcDbLine
 10
1163.84212571416
 20
114.0521213810133
 30
0.0
 11
1163.842125714153
 21
106.4012697512701
 31
0.0
  0
LINE
  5
4EE
330
1F
100
AcDbEntity
  8
Visible (ISO)
100
AcDbLine
 10
1196.342125714153
 20
106.4012697512701
 30
0.0
 11
1196.342125714151
 21
104.7734289789849
 31
0.0
  0
LINE
  5
4EF
330
1F
100
AcDbEntity
  8
Visible (ISO)
100
AcDbLine
 10
1146.342125714153
 20
106.4012697512701
 30
0.0
 11
1146.342125714151
 21
104.7734289789844
 31
0.0
  0
LINE
  5
4F0
330
1F
100
AcDbEntity
  8
Visible (ISO)
100
AcDbLine
 10
1205.842125714148
 20
100.5410429710417
 30
0.0
 11
1205.842125714139
 21
89.47172571949829
 31
0.0
  0
LINE
  5
4F1
330
1F
100
AcDbEntity
  8
Visible (ISO)
100
AcDbLine
 10
1136.842125714148
 20
100.5410429710412
 30
0.0
 11
1136.842125714139
 21
89.47172571949829
 31
0.0
  0
LINE
  5
4F2
330
1F
100
AcDbEntity
  8
Visible (ISO)
100
AcDbLine
 10
1212.342125714137
 20
87.35553271552715
 30
0.0
 11
1212.342125714131
 21
81.82087408975519
 31
0.0
  0
LINE
  5
4F3
330
1F
100
AcDbEntity
  8
Visible (ISO)
100
AcDbLine
 10
1130.342125714138
 20
87.35553271552623
 30
0.0
 11
1130.342125714132
 21
81.82087408975474
 31
0.0
  0
LINE
  5
4F4
330
1F
100
AcDbEntity
  8
Visible (ISO)
100
AcDbLine
 10
1216.34212571412
 20
51.76559109602329
 30
0.0
 11
1216.34212571412
 21
85.76559109602284
 31
0.0
  0
LINE
  5
4F5
330
1F
100
AcDbEntity
  8
Visible (ISO)
100
AcDbLine
 10
1213.492125714121
 20
51.76559109602329
 30
0.0
 11
1213.492125714121
 21
85.76559109602284
 31
0.0
  0
LINE
  5
4F6
330
1F
100
AcDbEntity
  8
Visible (ISO)
100
AcDbLine
 10
1210.452974257999
 20
60.1155910960232
 30
0.0
 11
1210.452974258001
 21
70.18901533301857
 31
0.0
  0
LINE
  5
4F7
330
1F
100
AcDbEntity
  8
Visible (ISO)
100
AcDbLine
 10
1213.492125714121
 20
85.76559109602284
 30
0.0
 11
1216.34212571412
 21
85.76559109602284
 31
0.0
  0
LINE
  5
4F8
330
1F
100
AcDbEntity
  8
Visible (ISO)
100
AcDbLine
 10
1213.492125714121
 20
51.76559109602283
 30
0.0
 11
1216.34212571412
 21
51.76559109602283
 31
0.0
  0
LINE
  5
4F9
330
1F
100
AcDbEntity
  8
Visible (ISO)
100
AcDbLine
 10
1212.342125714121
 20
82.6059920636502
 30
0.0
 11
1213.492125714121
 21
85.76559109602284
 31
0.0
  0
LINE
  5
4FA
330
1F
100
AcDbEntity
  8
Visible (ISO)
100
AcDbLine
 10
1210.452974257999
 20
60.1155910960232
 30
0.0
 11
1213.492125714121
 21
51.76559109602283
 31
0.0
  0
LINE
  5
4FB
330
1F
100
AcDbEntity
  8
Visible (ISO)
100
AcDbLine
 10
1205.313055575166
 20
60.1155910960232
 30
0.0
 11
1210.452974257999
 21
60.1155910960232
 31
0.0
  0
LINE
  5
4FC
330
1F
100
AcDbEntity
  8
Visible (ISO)
100
AcDbLine
 10
1126.342125714121
 20
51.76559109602329
 30
0.0
 11
1126.342125714121
 21
85.76559109602284
 31
0.0
  0
LINE
  5
4FD
330
1F
100
AcDbEntity
  8
Visible (ISO)
100
AcDbLine
 10
1129.192125714121
 20
51.76559109602329
 30
0.0
 11
1129.192125714121
 21
85.76559109602284
 31
0.0
  0
LINE
  5
4FE
330
1F
100
AcDbEntity
  8
Visible (ISO)
100
AcDbLine
 10
1132.231277170244
 20
60.1155910960232
 30
0.0
 11
1132.231277170247
 21
70.18901533301857
 31
0.0
  0
LINE
  5
4FF
330
1F
100
AcDbEntity
  8
Visible (ISO)
100
AcDbLine
 10
1126.342125714121
 20
85.76559109602284
 30
0.0
 11
1129.192125714121
 21
85.76559109602284
 31
0.0
  0
LINE
  5
500
330
1F
100
AcDbEntity
  8
Visible (ISO)
100
AcDbLine
 10
1126.342125714121
 20
51.76559109602283
 30
0.0
 11
1129.192125714121
 21
51.76559109602283
 31
0.0
  0
LINE
  5
501
330
1F
100
AcDbEntity
  8
Visible (ISO)
100
AcDbLine
 10
1132.231277170244
 20
60.1155910960232
 30
0.0
 11
1129.192125714121
 21
51.76559109602283
 31
0.0
  0
LINE
  5
502
330
1F
100
AcDbEntity
  8
Visible (ISO)
100
AcDbLine
 10
1130.34212571412
 20
82.6059920636502
 30
0.0
 11
1129.192125714121
 21
85.76559109602284
 31
0.0
  0
LINE
  5
503
330
1F
100
AcDbEntity
  8
Visible (ISO)
100
AcDbLine
 10
1132.231277170244
 20
60.1155910960232
 30
0.0
 11
1137.371195853076
 21
60.1155910960232
 31
0.0
  0
ELLIPSE
  5
504
330
1F
100
AcDbEntity
  8
Visible (ISO)
100
AcDbEllipse
 10
754.3899727717017
 20
100.5410429710417
 30
0.0
 11
34.4999999999999
 21
-0.0000000000297581
 31
0.0
210
0.0
220
0.0
230
1.0
 40
0.9455185755993172
 41
0.3129968859773919
 42
2.828595767614214
  0
ELLIPSE
  5
505
330
1F
100
AcDbEntity
  8
Visible (ISO)
100
AcDbEllipse
 10
754.3899727716897
 20
87.35553271552669
 30
0.0
 11
40.99999999999989
 21
-0.0000000000001983
 31
0.0
210
0.0
220
0.0
230
1.0
 40
0.945518575599317
 41
0.0
 42
3.141592653589571
  0
ELLIPSE
  5
506
330
1F
100
AcDbEntity
  8
Visible (ISO)
100
AcDbEllipse
 10
754.3899727716852
 20
81.82087408975519
 30
0.0
 11
40.99999999999987
 21
-0.0000000000314415
 31
0.0
210
0.0
220
0.0
230
1.0
 40
0.9455185755993172
 41
3.735859411295761
 42
5.688918549475227
  0
ELLIPSE
  5
507
330
1F
100
AcDbEntity
  8
Visible (ISO)
100
AcDbEllipse
 10
754.3899727716852
 20
81.82087408975519
 30
0.0
 11
40.99999999999987
 21
-0.000000000035396
 31
0.0
210
0.0
220
0.0
230
1.0
 40
0.9455185755993172
 41
0.019690585472862
 42
3.121902068118766
  0
LINE
  5
508
330
1F
100
AcDbEntity
  8
Visible (ISO)
100
AcDbLine
 10
795.3899727716898
 20
87.35553271552623
 30
0.0
 11
795.3899727716857
 21
82.6059920636502
 31
0.0
  0
LINE
  5
509
330
1F
100
AcDbEntity
  8
Visible (ISO)
100
AcDbLine
 10
713.3899727716898
 20
87.35553271552715
 30
0.0
 11
713.3899727716862
 21
82.6059920636502
 31
0.0
  0
ELLIPSE
  5
50A
330
1F
100
AcDbEntity
  8
Visible (ISO)
100
AcDbEllipse
 10
769.495481599311
 20
53.5349485540022
 30
0.0
 11
-4.249999999999987
 21
0.0000000000000021
 31
0.0
210
0.0
220
0.0
230
1.0
 40
0.9455185755993172
 41
3.141592653589597
 42
6.283185307179389
  0
ELLIPSE
  5
50B
330
1F
100
AcDbEntity
  8
Visible (ISO)
100
AcDbEllipse
 10
769.4954815993091
 20
51.48386918092217
 30
0.0
 11
4.249999999999987
 21
0.0
 31
0.0
210
0.0
220
0.0
230
1.0
 40
0.9455185755993172
 41
0.0
 42
6.283185307179586
  0
LINE
  5
50C
330
1F
100
AcDbEntity
  8
Visible (ISO)
100
AcDbLine
 10
773.7454815993105
 20
53.5349485540022
 30
0.0
 11
773.7454815993092
 21
51.48386918092217
 31
0.0
  0
LINE
  5
50D
330
1F
100
AcDbEntity
  8
Visible (ISO)
100
AcDbLine
 10
765.2454815993105
 20
53.5349485540022
 30
0.0
 11
765.2454815993092
 21
51.48386918092217
 31
0.0
  0
ELLIPSE
  5
50E
330
1F
100
AcDbEntity
  8
Visible (ISO)
100
AcDbEllipse
 10
739.2844639440436
 20
53.5349485540022
 30
0.0
 11
-4.249999999999987
 21
0.0000000000000168
 31
0.0
210
0.0
220
0.0
230
1.0
 40
0.9455185755993172
 41
3.141592653589601
 42
6.283185307179394
  0
ELLIPSE
  5
50F
330
1F
100
AcDbEntity
  8
Visible (ISO)
100
AcDbEllipse
 10
739.2844639440418
 20
51.48386918092217
 30
0.0
 11
-4.249999999999987
 21
0.0
 31
0.0
210
0.0
220
0.0
230
1.0
 40
0.9455185755993172
 41
0.0
 42
6.283185307179586
  0
LINE
  5
510
330
1F
100
AcDbEntity
  8
Visible (ISO)
100
AcDbLine
 10
735.0344639440418
 20
51.48386918092217
 30
0.0
 11
735.0344639440436
 21
53.5349485540022
 31
0.0
  0
LINE
  5
511
330
1F
100
AcDbEntity
  8
Visible (ISO)
100
AcDbLine
 10
743.5344639440418
 20
51.48386918092217
 30
0.0
 11
743.5344639440436
 21
53.5349485540022
 31
0.0
  0
LINE
  5
512
330
1F
100
AcDbEntity
  8
Visible (ISO)
100
AcDbLine
 10
729.389972771677
 20
55.74896033684933
 30
0.0
 11
729.3899727716766
 21
58.5481300354262
 31
0.0
  0
ELLIPSE
  5
513
330
1F
100
AcDbEntity
  8
Visible (ISO)
100
AcDbEllipse
 10
754.3899727716753
 20
70.55621594553747
 30
0.0
 11
-29.49999999999985
 21
0.0000000000254796
 31
0.0
210
0.0
220
0.0
230
1.0
 40
0.9455185755993172
 41
0.5596186314258809
 42
1.011177695370829
  0
LINE
  5
514
330
1F
100
AcDbEntity
  8
Visible (ISO)
100
AcDbLine
 10
770.0504325350439
 20
46.91825155555477
 30
0.0
 11
738.7295130083121
 21
46.91825155555477
 31
0.0
  0
ELLIPSE
  5
515
330
1F
100
AcDbEntity
  8
Visible (ISO)
100
AcDbEllipse
 10
754.3899727716753
 20
70.55621594553747
 30
0.0
 11
-29.49999999999981
 21
0.0000000000283773
 31
0.0
210
0.0
220
0.0
230
1.0
 40
0.9455185755993174
 41
2.130414958220891
 42
2.581974022165837
  0
LINE
  5
516
330
1F
100
AcDbEntity
  8
Visible (ISO)
100
AcDbLine
 10
779.3899727716766
 20
58.5481300354262
 30
0.0
 11
779.389972771677
 21
55.74896033684933
 31
0.0
  0
LINE
  5
517
330
1F
100
AcDbEntity
  8
Visible (ISO)
100
AcDbLine
 10
779.3899727716739
 20
85.36347155422516
 30
0.0
 11
779.3899727716743
 21
80.01140170153064
 31
0.0
  0
ELLIPSE
  5
518
330
1F
100
AcDbEntity
  8
Visible (ISO)
100
AcDbEllipse
 10
754.3899727716753
 20
70.55621594553747
 30
0.0
 11
29.49999999999981
 21
-0.0000000000254768
 31
0.0
210
0.0
220
0.0
230
1.0
 40
0.9455185755993174
 41
0.5596186314258809
 42
1.01117769537083
  0
LINE
  5
519
330
1F
100
AcDbEntity
  8
Visible (ISO)
100
AcDbLine
 10
738.7295130083071
 20
94.19418033552018
 30
0.0
 11
770.0504325350388
 21
94.19418033552018
 31
0.0
  0
ELLIPSE
  5
51A
330
1F
100
AcDbEntity
  8
Visible (ISO)
100
AcDbEllipse
 10
754.3899727716753
 20
70.55621594553747
 30
0.0
 11
29.49999999999989
 21
-0.0000000000283634
 31
0.0
210
0.0
220
0.0
230
1.0
 40
0.945518575599317
 41
2.130414958220892
 42
2.581974022165837
  0
LINE
  5
51B
330
1F
100
AcDbEntity
  8
Visible (ISO)
100
AcDbLine
 10
729.3899727716743
 20
80.01140170153064
 30
0.0
 11
729.3899727716739
 21
85.36347155422516
 31
0.0
  0
LINE
  5
51C
330
1F
100
AcDbEntity
  8
Visible (ISO)
100
AcDbLine
 10
779.3899727716766
 20
88.65170991424282
 30
0.0
 11
779.3899727716739
 21
85.36347155422516
 31
0.0
  0
LINE
  5
51D
330
1F
100
AcDbEntity
  8
Visible (ISO)
100
AcDbLine
 10
729.389972771677
 20
88.65170991424282
 30
0.0
 11
729.3899727716739
 21
85.36347155422516
 31
0.0
  0
LINE
  5
51E
330
1F
100
AcDbEntity
  8
Visible (ISO)
100
AcDbLine
 10
770.0504325350416
 20
97.48241869553737
 30
0.0
 11
738.7295130083103
 21
97.48241869553737
 31
0.0
  0
ELLIPSE
  5
51F
330
1F
100
AcDbEntity
  8
Visible (ISO)
100
AcDbEllipse
 10
754.3899727716784
 20
73.84445430555468
 30
0.0
 11
-29.49999999999981
 21
0.0000000000225348
 31
0.0
210
0.0
220
0.0
230
1.0
 40
0.9455185755993172
 41
3.701211285015563
 42
4.152770348960521
  0
ELLIPSE
  5
520
330
1F
100
AcDbEntity
  8
Visible (ISO)
100
AcDbEllipse
 10
754.3899727716784
 20
73.84445430555468
 30
0.0
 11
-29.49999999999992
 21
0.0000000000254324
 31
0.0
210
0.0
220
0.0
230
1.0
 40
0.945518575599317
 41
5.272007611810584
 42
5.723566675755519
  0
LINE
  5
521
330
1F
100
AcDbEntity
  8
Visible (ISO)
100
AcDbLine
 10
770.0504325350416
 20
97.48241869553737
 30
0.0
 11
770.0504325350388
 21
94.19418033552018
 31
0.0
  0
LINE
  5
522
330
1F
100
AcDbEntity
  8
Visible (ISO)
100
AcDbLine
 10
738.7295130083103
 20
97.48241869553737
 30
0.0
 11
738.7295130083071
 21
94.19418033552018
 31
0.0
  0
ELLIPSE
  5
523
330
1F
100
AcDbEntity
  8
Visible (ISO)
100
AcDbEllipse
 10
769.3899727716734
 20
89.46658745752335
 30
0.0
 11
9.999999999999966
 21
-0.0000000000076536
 31
0.0
210
0.0
220
0.0
230
1.0
 40
0.9455185755993172
 41
4.068887871592227
 42
4.712388980385517
  0
ELLIPSE
  5
524
330
1F
100
AcDbEntity
  8
Visible (ISO)
100
AcDbEllipse
 10
769.3899727716793
 20
96.36887305939888
 30
0.0
 11
-0.0000000000072098
 21
-18.91037151198629
 31
0.0
210
0.0
220
0.0
230
1.0
 40
0.5288103405933349
 41
5.639684198385197
 42
6.283185307178142
  0
ELLIPSE
  5
525
330
1F
100
AcDbEntity
  8
Visible (ISO)
100
AcDbEllipse
 10
739.3899727716735
 20
89.46658745752335
 30
0.0
 11
9.999999999999964
 21
0.0
 31
0.0
210
0.0
220
0.0
230
1.0
 40
0.9455185755993172
 41
4.712388980384885
 42
5.355890089178099
  0
ELLIPSE
  5
526
330
1F
100
AcDbEntity
  8
Visible (ISO)
100
AcDbEllipse
 10
739.3899727716793
 20
96.36887305939888
 30
0.0
 11
-0.000000000007212
 21
-18.91037151198629
 31
0.0
210
0.0
220
0.0
230
1.0
 40
0.5288103405933349
 41
0.0
 42
0.6435011087921687
  0
ELLIPSE
  5
527
330
1F
100
AcDbEntity
  8
Visible (ISO)
100
AcDbEllipse
 10
769.4954815993074
 20
87.57748333707274
 30
0.0
 11
-4.249999999999985
 21
0.0
 31
0.0
210
0.0
220
0.0
230
1.0
 40
0.945518575599317
 41
3.141592653589595
 42
6.283185307179389
  0
ELLIPSE
  5
528
330
1F
100
AcDbEntity
  8
Visible (ISO)
100
AcDbEllipse
 10
739.28446394404
 20
87.57748333707274
 30
0.0
 11
-4.249999999999987
 21
0.000000000000021
 31
0.0
210
0.0
220
0.0
230
1.0
 40
0.9455185755993172
 41
3.141592653589603
 42
6.283185307179395
  0
ELLIPSE
  5
529
330
1F
100
AcDbEntity
  8
Visible (ISO)
100
AcDbEllipse
 10
739.2844639440381
 20
85.52640396399226
 30
0.0
 11
4.249999999999987
 21
0.0
 31
0.0
210
0.0
220
0.0
230
1.0
 40
0.9455185755993172
 41
0.0
 42
6.283185307179586
  0
ELLIPSE
  5
52A
330
1F
100
AcDbEntity
  8
Visible (ISO)
100
AcDbEllipse
 10
769.4954815993055
 20
85.52640396399226
 30
0.0
 11
-4.249999999999987
 21
0.0
 31
0.0
210
0.0
220
0.0
230
1.0
 40
0.9455185755993172
 41
0.0
 42
6.283185307179586
  0
LINE
  5
52B
330
1F
100
AcDbEntity
  8
Visible (ISO)
100
AcDbLine
 10
743.5344639440399
 20
87.57748333707274
 30
0.0
 11
743.5344639440382
 21
85.52640396399226
 31
0.0
  0
LINE
  5
52C
330
1F
100
AcDbEntity
  8
Visible (ISO)
100
AcDbLine
 10
735.0344639440399
 20
87.57748333707274
 30
0.0
 11
735.0344639440382
 21
85.52640396399272
 31
0.0
  0
LINE
  5
52D
330
1F
100
AcDbEntity
  8
Visible (ISO)
100
AcDbLine
 10
765.2454815993055
 20
85.52640396399272
 30
0.0
 11
765.2454815993073
 21
87.57748333707274
 31
0.0
  0
LINE
  5
52E
330
1F
100
AcDbEntity
  8
Visible (ISO)
100
AcDbLine
 10
773.7454815993055
 20
85.52640396399226
 30
0.0
 11
773.7454815993073
 21
87.57748333707274
 31
0.0
  0
LINE
  5
52F
330
1F
100
AcDbEntity
  8
Visible (ISO)
100
AcDbLine
 10
779.3899727716743
 20
80.01140170153064
 30
0.0
 11
769.3899727716743
 21
80.01140170153064
 31
0.0
  0
LINE
  5
530
330
1F
100
AcDbEntity
  8
Visible (ISO)
100
AcDbLine
 10
729.3899727716743
 20
80.01140170153064
 30
0.0
 11
739.3899727716743
 21
80.01140170153064
 31
0.0
  0
ELLIPSE
  5
531
330
1F
100
AcDbEntity
  8
Visible (ISO)
100
AcDbEllipse
 10
754.3899727716757
 20
70.55621594553702
 30
0.0
 11
15.00000000000045
 21
-0.0000000000144301
 31
0.0
210
0.0
220
0.0
230
1.0
 40
0.945518575599317
 41
2.131903143026299
 42
2.214297435589198
  0
ELLIPSE
  5
532
330
1F
100
AcDbEntity
  8
Visible (ISO)
100
AcDbEllipse
 10
754.3899727716753
 20
70.55621594553702
 30
0.0
 11
-15.00000000000045
 21
0.0000000000114686
 31
0.0
210
0.0
220
0.0
230
1.0
 40
0.9455185755993172
 41
4.068887871592226
 42
4.15128216415511
  0
LINE
  5
533
330
1F
100
AcDbEntity
  8
Visible (ISO)
100
AcDbLine
 10
779.3899727716721
 20
77.45850154741254
 30
0.0
 11
769.3899727716726
 21
77.45850154741254
 31
0.0
  0
LINE
  5
534
330
1F
100
AcDbEntity
  8
Visible (ISO)
100
AcDbLine
 10
779.3899727716743
 20
80.01140170153064
 30
0.0
 11
779.3899727716721
 21
77.45850154741254
 31
0.0
  0
ELLIPSE
  5
535
330
1F
100
AcDbEntity
  8
Visible (ISO)
100
AcDbEllipse
 10
754.3899727716652
 20
58.5481300354262
 30
0.0
 11
-0.0000000000108186
 21
-28.36555726797942
 31
0.0
210
0.0
220
0.0
230
1.0
 40
0.5288103405933353
 41
3.702699469819011
 42
3.785093762381966
  0
LINE
  5
536
330
1F
100
AcDbEntity
  8
Visible (ISO)
100
AcDbLine
 10
729.3899727716725
 20
77.45850154741254
 30
0.0
 11
729.3899727716743
 21
80.01140170153064
 31
0.0
  0
LINE
  5
537
330
1F
100
AcDbEntity
  8
Visible (ISO)
100
AcDbLine
 10
739.3899727716725
 20
77.45850154741254
 30
0.0
 11
729.3899727716725
 21
77.45850154741254
 31
0.0
  0
ELLIPSE
  5
538
330
1F
100
AcDbEntity
  8
Visible (ISO)
100
AcDbEllipse
 10
754.3899727716652
 20
58.5481300354262
 30
0.0
 11
-0.0000000000108142
 21
-28.36555726797942
 31
0.0
210
0.0
220
0.0
230
1.0
 40
0.5288103405933353
 41
2.4980915447954
 42
2.580485837358214
  0
LINE
  5
539
330
1F
100
AcDbEntity
  8
Visible (ISO)
100
AcDbLine
 10
746.4081183505514
 20
82.56430185564875
 30
0.0
 11
762.3718271927973
 21
82.56430185564875
 31
0.0
  0
LINE
  5
53A
330
1F
100
AcDbEntity
  8
Visible (ISO)
100
AcDbLine
 10
729.3899727716725
 20
77.45850154741254
 30
0.0
 11
729.3899727716707
 21
73.78913025504004
 31
0.0
  0
LINE
  5
53B
330
1F
100
AcDbEntity
  8
Visible (ISO)
100
AcDbLine
 10
779.3899727716707
 20
73.78913025504004
 30
0.0
 11
779.3899727716721
 21
77.45850154741254
 31
0.0
  0
LINE
  5
53C
330
1F
100
AcDbEntity
  8
Visible (ISO)
100
AcDbLine
 10
779.3899727716716
 20
60.57142557205486
 30
0.0
 11
779.3899727716707
 21
70.44839353084842
 31
0.0
  0
LINE
  5
53D
330
1F
100
AcDbEntity
  8
Visible (ISO)
100
AcDbLine
 10
729.3899727716707
 20
70.44839353084842
 30
0.0
 11
729.3899727716716
 21
60.57142557205486
 31
0.0
  0
LINE
  5
53E
330
1F
100
AcDbEntity
  8
Visible (ISO)
100
AcDbLine
 10
779.3899727716707
 20
73.78913025504004
 30
0.0
 11
779.3899727716707
 21
70.44839353084796
 31
0.0
  0
LINE
  5
53F
330
1F
100
AcDbEntity
  8
Visible (ISO)
100
AcDbLine
 10
779.3899727716716
 20
60.57142557205486
 30
0.0
 11
779.3899727716725
 21
58.5481300354262
 31
0.0
  0
LINE
  5
540
330
1F
100
AcDbEntity
  8
Visible (ISO)
100
AcDbLine
 10
729.3899727716725
 20
58.5481300354262
 30
0.0
 11
729.3899727716716
 21
60.57142557205486
 31
0.0
  0
LINE
  5
541
330
1F
100
AcDbEntity
  8
Visible (ISO)
100
AcDbLine
 10
729.3899727716707
 20
70.44839353084796
 30
0.0
 11
729.3899727716707
 21
73.78913025504004
 31
0.0
  0
LINE
  5
542
330
1F
100
AcDbEntity
  8
Visible (ISO)
100
AcDbLine
 10
764.7540743868103
 20
58.5481300354262
 30
0.0
 11
779.3899727716725
 21
58.5481300354262
 31
0.0
  0
LINE
  5
543
330
1F
100
AcDbEntity
  8
Visible (ISO)
100
AcDbLine
 10
764.7540743868103
 20
58.5481300354262
 30
0.0
 11
762.1559981754572
 21
58.5481300354262
 31
0.0
  0
LINE
  5
544
330
1F
100
AcDbEntity
  8
Visible (ISO)
100
AcDbLine
 10
761.3181760019488
 20
58.5481300354262
 30
0.0
 11
762.1559981754572
 21
58.5481300354262
 31
0.0
  0
LINE
  5
545
330
1F
100
AcDbEntity
  8
Visible (ISO)
100
AcDbLine
 10
747.461769541398
 20
58.5481300354262
 30
0.0
 11
761.3181760019488
 21
58.5481300354262
 31
0.0
  0
LINE
  5
546
330
1F
100
AcDbEntity
  8
Visible (ISO)
100
AcDbLine
 10
746.6239473678883
 20
58.5481300354262
 30
0.0
 11
747.461769541398
 21
58.5481300354262
 31
0.0
  0
LINE
  5
547
330
1F
100
AcDbEntity
  8
Visible (ISO)
100
AcDbLine
 10
746.6239473678883
 20
58.5481300354262
 30
0.0
 11
744.0258711565348
 21
58.5481300354262
 31
0.0
  0
LINE
  5
548
330
1F
100
AcDbEntity
  8
Visible (ISO)
100
AcDbLine
 10
729.3899727716725
 20
58.5481300354262
 30
0.0
 11
744.0258711565348
 21
58.5481300354262
 31
0.0
  0
LINE
  5
549
330
1F
100
AcDbEntity
  8
Visible (ISO)
100
AcDbLine
 10
709.3899727716738
 20
85.76559109602284
 30
0.0
 11
709.3899727716738
 21
51.76559109602329
 31
0.0
  0
LINE
  5
54A
330
1F
100
AcDbEntity
  8
Visible (ISO)
100
AcDbLine
 10
712.2399727716738
 20
85.76559109602284
 30
0.0
 11
712.2399727716738
 21
51.76559109602329
 31
0.0
  0
LINE
  5
54B
330
1F
100
AcDbEntity
  8
Visible (ISO)
100
AcDbLine
 10
715.2791242277967
 20
77.41559109602338
 30
0.0
 11
715.2791242277967
 21
60.1155910960232
 31
0.0
  0
LINE
  5
54C
330
1F
100
AcDbEntity
  8
Visible (ISO)
100
AcDbLine
 10
712.2399727716738
 20
51.76559109602283
 30
0.0
 11
709.3899727716738
 21
51.76559109602283
 31
0.0
  0
LINE
  5
54D
330
1F
100
AcDbEntity
  8
Visible (ISO)
100
AcDbLine
 10
712.2399727716738
 20
85.76559109602284
 30
0.0
 11
709.3899727716738
 21
85.76559109602284
 31
0.0
  0
LINE
  5
54E
330
1F
100
AcDbEntity
  8
Visible (ISO)
100
AcDbLine
 10
715.2791242277967
 20
60.1155910960232
 30
0.0
 11
712.2399727716738
 21
51.76559109602283
 31
0.0
  0
LINE
  5
54F
330
1F
100
AcDbEntity
  8
Visible (ISO)
100
AcDbLine
 10
715.2791242277967
 20
77.41559109602292
 30
0.0
 11
712.2399727716738
 21
85.76559109602284
 31
0.0
  0
LINE
  5
550
330
1F
100
AcDbEntity
  8
Visible (ISO)
100
AcDbLine
 10
729.3899727716739
 20
60.1155910960232
 30
0.0
 11
715.2791242277967
 21
60.1155910960232
 31
0.0
  0
LINE
  5
551
330
1F
100
AcDbEntity
  8
Visible (ISO)
100
AcDbLine
 10
729.3899727716739
 20
77.41559109602292
 30
0.0
 11
715.2791242277967
 21
77.41559109602292
 31
0.0
  0
LINE
  5
552
330
1F
100
AcDbEntity
  8
Visible (ISO)
100
AcDbLine
 10
799.3899727716739
 20
85.76559109602284
 30
0.0
 11
799.3899727716739
 21
51.76559109602329
 31
0.0
  0
LINE
  5
553
330
1F
100
AcDbEntity
  8
Visible (ISO)
100
AcDbLine
 10
796.5399727716739
 20
85.76559109602284
 30
0.0
 11
796.5399727716739
 21
51.76559109602329
 31
0.0
  0
LINE
  5
554
330
1F
100
AcDbEntity
  8
Visible (ISO)
100
AcDbLine
 10
793.500821315551
 20
77.41559109602338
 30
0.0
 11
793.500821315551
 21
60.1155910960232
 31
0.0
  0
LINE
  5
555
330
1F
100
AcDbEntity
  8
Visible (ISO)
100
AcDbLine
 10
799.3899727716739
 20
51.76559109602283
 30
0.0
 11
796.5399727716739
 21
51.76559109602283
 31
0.0
  0
LINE
  5
556
330
1F
100
AcDbEntity
  8
Visible (ISO)
100
AcDbLine
 10
799.3899727716739
 20
85.76559109602284
 30
0.0
 11
796.5399727716739
 21
85.76559109602284
 31
0.0
  0
LINE
  5
557
330
1F
100
AcDbEntity
  8
Visible (ISO)
100
AcDbLine
 10
793.500821315551
 20
77.41559109602292
 30
0.0
 11
796.5399727716739
 21
85.76559109602284
 31
0.0
  0
LINE
  5
558
330
1F
100
AcDbEntity
  8
Visible (ISO)
100
AcDbLine
 10
793.500821315551
 20
60.1155910960232
 30
0.0
 11
796.5399727716739
 21
51.76559109602283
 31
0.0
  0
LINE
  5
559
330
1F
100
AcDbEntity
  8
Visible (ISO)
100
AcDbLine
 10
793.500821315551
 20
60.1155910960232
 30
0.0
 11
779.3899727716739
 21
60.1155910960232
 31
0.0
  0
LINE
  5
55A
330
1F
100
AcDbEntity
  8
Visible (ISO)
100
AcDbLine
 10
793.500821315551
 20
77.41559109602292
 30
0.0
 11
779.3899727716739
 21
77.41559109602292
 31
0.0
  0
ELLIPSE
  5
55B
330
1F
100
AcDbEntity
  8
Visible (ISO)
100
AcDbEllipse
 10
754.3899727716802
 20
76.0257609404174
 30
0.0
 11
29.49999999999993
 21
-0.0000000000283717
 31
0.0
210
0.0
220
0.0
230
1.0
 40
0.9455185755993172
 41
2.130414958220896
 42
2.581974022165839
  0
LINE
  5
55C
330
1F
100
AcDbEntity
  8
Visible (ISO)
100
AcDbLine
 10
738.7295130083121
 20
99.66372533040056
 30
0.0
 11
770.0504325350435
 21
99.66372533040056
 31
0.0
  0
ELLIPSE
  5
55D
330
1F
100
AcDbEntity
  8
Visible (ISO)
100
AcDbEllipse
 10
754.3899727716802
 20
76.02576094041785
 30
0.0
 11
29.49999999999981
 21
-0.0000000000255101
 31
0.0
210
0.0
220
0.0
230
1.0
 40
0.9455185755993172
 41
0.5596186314258942
 42
1.011177695370831
  0
ELLIPSE
  5
55E
330
1F
100
AcDbEntity
  8
Visible (ISO)
100
AcDbEllipse
 10
754.3899727716789
 20
74.17002246001209
 30
0.0
 11
-29.49999999999981
 21
0.0000000000225792
 31
0.0
210
0.0
220
0.0
230
1.0
 40
0.9455185755993172
 41
3.701211285015563
 42
4.152770348960522
  0
LINE
  5
55F
330
1F
100
AcDbEntity
  8
Visible (ISO)
100
AcDbLine
 10
770.050432535042
 20
97.8079868499948
 30
0.0
 11
738.7295130083103
 21
97.8079868499948
 31
0.0
  0
ELLIPSE
  5
560
330
1F
100
AcDbEntity
  8
Visible (ISO)
100
AcDbEllipse
 10
754.3899727716784
 20
74.17002246001164
 30
0.0
 11
-29.49999999999993
 21
0.0000000000254602
 31
0.0
210
0.0
220
0.0
230
1.0
 40
0.9455185755993172
 41
5.272007611810585
 42
5.723566675755521
  0
LINE
  5
561
330
1F
100
AcDbEntity
  8
Visible (ISO)
100
AcDbLine
 10
729.389972771677
 20
88.97727806869978
 30
0.0
 11
729.389972771677
 21
88.65170991424282
 31
0.0
  0
SPLINE
  5
562
330
1F
100
AcDbEntity
  8
Visible (ISO)
100
AcDbSpline
210
0.0
220
0.0
230
1.0
 70
     8
 71
     3
 72
     8
 73
     4
 74
     0
 42
0.0000000001
 43
0.0000000001
 40
-0.022473490684156
 40
-0.022473490684156
 40
-0.022473490684156
 40
-0.022473490684156
 40
0.0
 40
0.0
 40
0.0
 40
0.0
 10
729.5456999011844
 20
88.8842077192902
 30
0.0
 10
729.4937919057738
 20
88.9152508075116
 30
0.0
 10
729.441882600875
 20
88.94627435646441
 30
0.0
 10
729.389972771677
 20
88.97727806869978
 30
0.0
  0
SPLINE
  5
563
330
1F
100
AcDbEntity
  8
Visible (ISO)
100
AcDbSpline
210
0.0
220
0.0
230
1.0
 70
     8
 71
     3
 72
     8
 73
     4
 74
     0
 42
0.0000000001
 43
0.0000000001
 40
-0.0369640501976931
 40
-0.0369640501976931
 40
-0.0369640501976931
 40
-0.0369640501976931
 40
0.0
 40
0.0
 40
0.0
 40
0.0
 10
738.8032862524705
 20
97.48241869553737
 30
0.0
 10
738.7786380570987
 20
97.59093665014768
 30
0.0
 10
738.7540469101177
 20
97.69946084862056
 30
0.0
 10
738.7295130083103
 20
97.8079868499948
 30
0.0
  0
SPLINE
  5
564
330
1F
100
AcDbEntity
  8
Visible (ISO)
100
AcDbSpline
210
0.0
220
0.0
230
1.0
 70
     8
 71
     3
 72
     8
 73
     4
 74
     0
 42
0.0000000001
 43
0.0000000001
 40
-0.0369640501977094
 40
-0.0369640501977094
 40
-0.0369640501977094
 40
-0.0369640501977094
 40
0.0
 40
0.0
 40
0.0
 40
0.0
 10
769.9766592908813
 20
97.48241869553737
 30
0.0
 10
770.0013074862535
 20
97.59093665014768
 30
0.0
 10
770.0258986332346
 20
97.69946084862056
 30
0.0
 10
770.050432535042
 20
97.8079868499948
 30
0.0
  0
SPLINE
  5
565
330
1F
100
AcDbEntity
  8
Visible (ISO)
100
AcDbSpline
210
0.0
220
0.0
230
1.0
 70
     8
 71
     3
 72
     8
 73
     4
 74
     0
 42
0.0000000001
 43
0.0000000001
 40
-0.0224734906841605
 40
-0.0224734906841605
 40
-0.0224734906841605
 40
-0.0224734906841605
 40
0.0
 40
0.0
 40
0.0
 40
0.0
 10
779.2342456421697
 20
88.8842077192902
 30
0.0
 10
779.2861536375803
 20
88.9152508075116
 30
0.0
 10
779.3380629424791
 20
88.94627435646441
 30
0.0
 10
779.389972771677
 20
88.97727806869978
 30
0.0
  0
LINE
  5
566
330
1F
100
AcDbEntity
  8
Visible (ISO)
100
AcDbLine
 10
779.389972771677
 20
88.65170991424282
 30
0.0
 11
779.389972771677
 21
88.97727806869978
 31
0.0
  0
LINE
  5
567
330
1F
100
AcDbEntity
  8
Visible (ISO)
100
AcDbLine
 10
770.0504325350435
 20
99.66372533040056
 30
0.0
 11
770.050432535042
 21
97.8079868499948
 31
0.0
  0
LINE
  5
568
330
1F
100
AcDbEntity
  8
Visible (ISO)
100
AcDbLine
 10
779.3899727716785
 20
90.83301654910554
 30
0.0
 11
779.389972771677
 21
88.97727806869978
 31
0.0
  0
LINE
  5
569
330
1F
100
AcDbEntity
  8
Visible (ISO)
100
AcDbLine
 10
738.7295130083121
 20
99.66372533040056
 30
0.0
 11
738.7295130083103
 21
97.8079868499948
 31
0.0
  0
LINE
  5
56A
330
1F
100
AcDbEntity
  8
Visible (ISO)
100
AcDbLine
 10
729.3899727716789
 20
90.83301654910554
 30
0.0
 11
729.389972771677
 21
88.97727806869978
 31
0.0
  0
LINE
  5
56B
330
1F
100
AcDbEntity
  8
Visible (ISO)
100
AcDbLine
 10
889.0781139296572
 20
59.98770319175662
 30
0.0
 11
1061.177890227839
 21
119.2464084121974
 31
0.0
  0
LINE
  5
56C
330
1F
100
AcDbEntity
  8
0
  6
CENTER
 62
     0
370
    25
100
AcDbLine
 10
914.5709514642184
 20
46.01899303584184
 30
0.0
 11
914.5709514642184
 21
91.51218915620564
 31
0.0
  0
LINE
  5
56D
330
1F
100
AcDbEntity
  8
0
  6
CENTER
 62
     0
370
    25
100
AcDbLine
 10
891.8243534040366
 20
68.76559109602374
 30
0.0
 11
937.3175495244003
 21
68.76559109602374
 31
0.0
  0
LINE
  5
56E
330
1F
100
AcDbEntity
  8
Visible (ISO)
100
AcDbLine
 10
914.5709514642476
 20
246.7971833066688
 30
0.0
 11
914.5709514642476
 21
357.8790096601873
 31
0.0
  0
LINE
  5
56F
330
1F
100
AcDbEntity
  8
0
100
AcDbLine
 10
1060.842483424986
 20
302.3380964834217
 30
0.0
 11
904.3447538056184
 21
302.338096483429
 31
0.0
  0
LINE
  5
570
330
1F
100
AcDbEntity
  8
Visible (ISO)
100
AcDbLine
 10
808.0828159305992
 20
68.76559109602329
 30
0.0
 11
700.6971296127422
 21
68.76559109602329
 31
0.0
  0
LINE
  5
571
330
1F
100
AcDbEntity
  8
0
100
AcDbLine
 10
754.3899727716707
 20
41.98645171992882
 30
0.0
 11
754.3899727716707
 21
141.2244495390372
 31
0.0
  0
LINE
  5
572
330
1F
100
AcDbEntity
  8
Visible (ISO)
100
AcDbLine
 10
1225.034968873045
 20
68.76559109602329
 30
0.0
 11
1117.649282555188
 21
68.76559109602329
 31
0.0
  0
LINE
  5
573
330
1F
100
AcDbEntity
  8
0
100
AcDbLine
 10
1171.342125714118
 20
41.98645171992882
 30
0.0
 11
1171.342125714118
 21
139.3681261859186
 31
0.0
  0
VIEWPORT
  5
71
330
55
100
AcDbEntity
 67
     1
  8
0
100
AcDbViewport
 10
133.3499908447265
 20
101.5999970436096
 30
0.0
 40
381.3957395593834
 41
218.2856291881582
 68
     1
 69
     1
 12
133.3499908447265
 22
101.5999970436096
 13
0.0
 23
0.0
 14
10.0
 24
10.0
 15
10.0
 25
10.0
 16
0.0
 26
0.0
 36
1.0
 17
0.0
 27
0.0
 37
0.0
 42
50.0
 43
0.0
 44
0.0
 45
218.2856291881582
 50
0.0
 51
0.0
 72
   100
 90
    32800
  1

281
     0
 71
     1
 74
     0
110
0.0
120
0.0
130
0.0
111
1.0
121
0.0
131
0.0
112
0.0
122
1.0
132
0.0
 79
     0
146
0.0
  0
VIEWPORT
  5
73
330
55
100
AcDbEntity
 67
     1
  8
0
100
AcDbViewport
 10
133.349993944168
 20
101.599993944168
 30
0.0
 40
213.3599903106689
 41
162.5599903106689
 68
     2
 69
     2
 12
210.0
 22
148.5
 13
0.0
 23
0.0
 14
10.0
 24
10.0
 15
10.0
 25
10.0
 16
0.0
 26
0.0
 36
1.0
 17
0.0
 27
0.0
 37
0.0
 42
50.0
 43
0.0
 44
0.0
 45
324.0677920111345
 50
0.0
 51
0.0
 72
   100
 90
    32864
  1

281
     0
 71
     1
 74
     0
110
0.0
120
0.0
130
0.0
111
1.0
121
0.0
131
0.0
112
0.0
122
1.0
132
0.0
 79
     0
146
0.0
  0
ENDSEC
  0
SECTION
  2
OBJECTS
  0
DICTIONARY
  5
C
330
0
100
AcDbDictionary
281
     1
  3
ACAD_GROUP
350
D
  3
ACAD_LAYOUT
350
1A
  3
ACAD_MLINESTYLE
350
17
  3
ACAD_PLOTSETTINGS
350
19
  3
ACAD_PLOTSTYLENAME
350
E
  3
AcDbVariableDictionary
350
5E
  0
DICTIONARY
  5
2D8
330
2
100
AcDbDictionary
280
     1
281
     1
  3
ACAD_LAYERSTATES
360
2D9
  0
DICTIONARY
  5
290
330
1F
100
AcDbDictionary
280
     1
281
     1
  3
ACAD_LAYOUTSELFREF
360
2C7
  0
DICTIONARY
  5
292
330
55
100
AcDbDictionary
280
     1
281
     1
  3
ACAD_LAYOUTSELFREF
360
2CB
  0
DICTIONARY
  5
294
330
50
100
AcDbDictionary
280
     1
281
     1
  3
ACAD_LAYOUTSELFREF
360
2CA
  0
DICTIONARY
  5
D
102
{ACAD_REACTORS
330
C
102
}
330
C
100
AcDbDictionary
281
     1
  0
DICTIONARY
  5
1A
102
{ACAD_REACTORS
330
C
102
}
330
C
100
AcDbDictionary
281
     1
  3
Model
350
22
  3
ﾚｲｱｳﾄ1
350
51
  3
ﾚｲｱｳﾄ2
350
56
  0
DICTIONARY
  5
17
102
{ACAD_REACTORS
330
C
102
}
330
C
100
AcDbDictionary
281
     1
  3
Standard
350
18
  0
DICTIONARY
  5
19
102
{ACAD_REACTORS
330
C
102
}
330
C
100
AcDbDictionary
281
     1
  0
ACDBDICTIONARYWDFLT
  5
E
102
{ACAD_REACTORS
330
C
102
}
330
C
100
AcDbDictionary
281
     1
  3
Normal
350
F
100
AcDbDictionaryWithDefault
340
F
  0
DICTIONARY
  5
5E
102
{ACAD_REACTORS
330
C
102
}
330
C
100
AcDbDictionary
281
     1
  3
DIMASSOC
350
5F
  3
HIDETEXT
350
63
  0
DICTIONARY
  5
2D9
102
{ACAD_REACTORS
330
2D8
102
}
330
2D8
100
AcDbDictionary
281
     1
  0
XRECORD
  5
2C7
102
{ACAD_REACTORS
330
290
102
}
330
290
100
AcDbXrecord
280
     1
340
1F
  0
XRECORD
  5
2CB
102
{ACAD_REACTORS
330
292
102
}
330
292
100
AcDbXrecord
280
     1
340
55
  0
XRECORD
  5
2CA
102
{ACAD_REACTORS
330
294
102
}
330
294
100
AcDbXrecord
280
     1
340
50
  0
LAYOUT
  5
22
102
{ACAD_REACTORS
330
1A
102
}
330
1A
100
AcDbPlotSettings
  1

  2
none_device
  4
ANSI_A_(8.50_x_11.00_Inches)
  6

 40
6.349999904632568
 41
19.04999923706054
 42
6.350006103515625
 43
19.04998779296875
 44
215.8999938964843
 45
279.3999938964843
 46
0.0
 47
0.0
 48
0.0
 49
0.0
140
0.0
141
0.0
142
1.0
143
78.436453180766
 70
 11952
 72
     0
 73
     1
 74
     0
  7

 75
     0
147
0.0127491741332998
148
0.0
149
0.0
100
AcDbLayout
  1
Model
 70
     1
 71
     0
 10
0.0
 20
0.0
 11
12.0
 21
9.0
 12
0.0
 22
0.0
 32
0.0
 14
0.0
 24
0.0
 34
0.0
 15
0.0
 25
0.0
 35
0.0
146
0.0
 13
0.0
 23
0.0
 33
0.0
 16
1.0
 26
0.0
 36
0.0
 17
0.0
 27
1.0
 37
0.0
 76
     0
330
1F
  0
LAYOUT
  5
51
102
{ACAD_REACTORS
330
1A
102
}
330
1A
100
AcDbPlotSettings
  1

  2
none_device
  4
Letter_(8.50_x_11.00_Inches)
  6

 40
6.349999904632568
 41
6.349999904632568
 42
6.350006103515625
 43
6.350006103515625
 44
215.8999938964843
 45
279.3999938964843
 46
0.0
 47
0.0
 48
0.0
 49
0.0
140
0.0
141
0.0
142
1.0
143
1.0
 70
   688
 72
     1
 73
     1
 74
     5
  7

 75
    16
147
1.0
148
0.0
149
0.0
100
AcDbLayout
  1
ﾚｲｱｳﾄ1
 70
     1
 71
     1
 10
-6.350006103515625
 20
-6.349999904632568
 11
273.0499877929687
 21
209.5499939918517
 12
0.0
 22
0.0
 32
0.0
 14
26.66076962115562
 24
20.31135699206657
 34
-0.0015258207003583
 15
240.039213369355
 25
182.8886381005154
 35
0.0000000349246037
146
0.0
 13
0.0
 23
0.0
 33
0.0
 16
1.0
 26
0.0
 36
0.0
 17
0.0
 27
1.0
 37
0.0
 76
     0
330
50
331
6B
  0
LAYOUT
  5
56
102
{ACAD_REACTORS
330
1A
102
}
330
1A
100
AcDbPlotSettings
  1

  2
none_device
  4
Letter_(8.50_x_11.00_Inches)
  6

 40
6.349999904632568
 41
6.349999904632568
 42
6.350006103515625
 43
6.350006103515625
 44
215.8999938964843
 45
279.3999938964843
 46
0.0
 47
0.0
 48
0.0
 49
0.0
140
0.0
141
0.0
142
1.0
143
1.0
 70
   688
 72
     1
 73
     1
 74
     5
  7

 75
    16
147
1.0
148
0.0
149
0.0
100
AcDbLayout
  1
ﾚｲｱｳﾄ2
 70
     1
 71
     2
 10
-6.350006103515625
 20
-6.349999904632568
 11
273.0499877929687
 21
209.5499939918517
 12
0.0
 22
0.0
 32
0.0
 14
26.66076962115562
 24
20.31135699206657
 34
-0.0015258207003583
 15
240.039213369355
 25
182.8886381005154
 35
0.0000000349246037
146
0.0
 13
0.0
 23
0.0
 33
0.0
 16
1.0
 26
0.0
 36
0.0
 17
0.0
 27
1.0
 37
0.0
 76
     0
330
55
331
71
  0
MLINESTYLE
  5
18
102
{ACAD_REACTORS
330
17
102
}
330
17
100
AcDbMlineStyle
  2
STANDARD
 70
     0
  3

 62
   256
 51
90.0
 52
90.0
 71
     2
 49
0.5
 62
   256
  6
BYLAYER
 49
-0.5
 62
   256
  6
BYLAYER
  0
ACDBPLACEHOLDER
  5
F
102
{ACAD_REACTORS
330
E
102
}
330
E
  0
DICTIONARYVAR
  5
5F
102
{ACAD_REACTORS
330
5E
102
}
330
5E
100
DictionaryVariables
280
     0
  1
2
  0
DICTIONARYVAR
  5
63
102
{ACAD_REACTORS
330
5E
102
}
330
5E
100
DictionaryVariables
280
     0
  1
1
  0
ENDSEC
  0
EOF
