  0
SECTION
  2
HEADER
  9
$ACADVER
  1
AC1015
  9
$ACADMAINTVER
 70
    14
  9
$DWGCODEPAGE
  3
ANSI_932
  9
$INSBASE
 10
0.0
 20
0.0
 30
0.0
  9
$EXTMIN
 10
304.7751828902119
 20
-41.29297754027447
 30
-0.0000000000112498
  9
$EXTMAX
 10
875.5022114586294
 20
1102.370162834979
 30
0.0000000000002956
  9
$LIMMIN
 10
0.0
 20
0.0
  9
$LIMMAX
 10
420.0
 20
297.0
  9
$ORTHOMODE
 70
     0
  9
$REGENMODE
 70
     1
  9
$FILLMODE
 70
     1
  9
$QTEXTMODE
 70
     0
  9
$MIRRTEXT
 70
     1
  9
$LTSCALE
 40
1.0
  9
$ATTMODE
 70
     1
  9
$TEXTSIZE
 40
2.5
  9
$TRACEWID
 40
1.0
  9
$TEXTSTYLE
  7
Standard
  9
$CLAYER
  8
0
  9
$CELTYPE
  6
ByLayer
  9
$CECOLOR
 62
   256
  9
$CELTSCALE
 40
1.0
  9
$DISPSILH
 70
     0
  9
$DIMSCALE
 40
1.0
  9
$DIMASZ
 40
2.5
  9
$DIMEXO
 40
0.625
  9
$DIMDLI
 40
3.75
  9
$DIMRND
 40
0.0
  9
$DIMDLE
 40
0.0
  9
$DIMEXE
 40
1.25
  9
$DIMTP
 40
0.0
  9
$DIMTM
 40
0.0
  9
$DIMTXT
 40
2.5
  9
$DIMCEN
 40
2.5
  9
$DIMTSZ
 40
0.0
  9
$DIMTOL
 70
     0
  9
$DIMLIM
 70
     0
  9
$DIMTIH
 70
     0
  9
$DIMTOH
 70
     0
  9
$DIMSE1
 70
     0
  9
$DIMSE2
 70
     0
  9
$DIMTAD
 70
     1
  9
$DIMZIN
 70
     8
  9
$DIMBLK
  1

  9
$DIMASO
 70
     1
  9
$DIMSHO
 70
     1
  9
$DIMPOST
  1

  9
$DIMAPOST
  1

  9
$DIMALT
 70
     0
  9
$DIMALTD
 70
     3
  9
$DIMALTF
 40
0.03937007874016
  9
$DIMLFAC
 40
1.0
  9
$DIMTOFL
 70
     1
  9
$DIMTVP
 40
0.0
  9
$DIMTIX
 70
     0
  9
$DIMSOXD
 70
     0
  9
$DIMSAH
 70
     0
  9
$DIMBLK1
  1

  9
$DIMBLK2
  1

  9
$DIMSTYLE
  2
ISO-25
  9
$DIMCLRD
 70
     0
  9
$DIMCLRE
 70
     0
  9
$DIMCLRT
 70
     0
  9
$DIMTFAC
 40
1.0
  9
$DIMGAP
 40
0.625
  9
$DIMJUST
 70
     0
  9
$DIMSD1
 70
     0
  9
$DIMSD2
 70
     0
  9
$DIMTOLJ
 70
     0
  9
$DIMTZIN
 70
     8
  9
$DIMALTZ
 70
     0
  9
$DIMALTTZ
 70
     0
  9
$DIMUPT
 70
     0
  9
$DIMDEC
 70
     2
  9
$DIMTDEC
 70
     2
  9
$DIMALTU
 70
     2
  9
$DIMALTTD
 70
     3
  9
$DIMTXSTY
  7
Standard
  9
$DIMAUNIT
 70
     0
  9
$DIMADEC
 70
     0
  9
$DIMALTRND
 40
0.0
  9
$DIMAZIN
 70
     0
  9
$DIMDSEP
 70
    44
  9
$DIMATFIT
 70
     3
  9
$DIMFRAC
 70
     0
  9
$DIMLDRBLK
  1

  9
$DIMLUNIT
 70
     2
  9
$DIMLWD
 70
    -2
  9
$DIMLWE
 70
    -2
  9
$DIMTMOVE
 70
     0
  9
$LUNITS
 70
     2
  9
$LUPREC
 70
     4
  9
$SKETCHINC
 40
1.0
  9
$FILLETRAD
 40
10.0
  9
$AUNITS
 70
     0
  9
$AUPREC
 70
     0
  9
$MENU
  1
.
  9
$ELEVATION
 40
0.0
  9
$PELEVATION
 40
0.0
  9
$THICKNESS
 40
0.0
  9
$LIMCHECK
 70
     0
  9
$CHAMFERA
 40
10.0
  9
$CHAMFERB
 40
10.0
  9
$CHAMFERC
 40
20.0
  9
$CHAMFERD
 40
0.0
  9
$SKPOLY
 70
     0
  9
$TDCREATE
 40
2454278.661406064
  9
$TDUCREATE
 40
2454278.286406065
  9
$TDUPDATE
 40
2456899.670765613
  9
$TDUUPDATE
 40
2456899.295765613
  9
$TDINDWG
 40
0.0004248611
  9
$TDUSRTIMER
 40
0.0004248611
  9
$USRTIMER
 70
     1
  9
$ANGBASE
 50
0.0
  9
$ANGDIR
 70
     0
  9
$PDMODE
 70
     0
  9
$PDSIZE
 40
0.0
  9
$PLINEWID
 40
0.0
  9
$SPLFRAME
 70
     0
  9
$SPLINETYPE
 70
     6
  9
$SPLINESEGS
 70
     8
  9
$HANDSEED
  5
214
  9
$SURFTAB1
 70
     6
  9
$SURFTAB2
 70
     6
  9
$SURFTYPE
 70
     6
  9
$SURFU
 70
     6
  9
$SURFV
 70
     6
  9
$UCSBASE
  2

  9
$UCSNAME
  2

  9
$UCSORG
 10
0.0
 20
0.0
 30
0.0
  9
$UCSXDIR
 10
1.0
 20
0.0
 30
0.0
  9
$UCSYDIR
 10
0.0
 20
1.0
 30
0.0
  9
$UCSORTHOREF
  2

  9
$UCSORTHOVIEW
 70
     0
  9
$UCSORGTOP
 10
0.0
 20
0.0
 30
0.0
  9
$UCSORGBOTTOM
 10
0.0
 20
0.0
 30
0.0
  9
$UCSORGLEFT
 10
0.0
 20
0.0
 30
0.0
  9
$UCSORGRIGHT
 10
0.0
 20
0.0
 30
0.0
  9
$UCSORGFRONT
 10
0.0
 20
0.0
 30
0.0
  9
$UCSORGBACK
 10
0.0
 20
0.0
 30
0.0
  9
$PUCSBASE
  2

  9
$PUCSNAME
  2

  9
$PUCSORG
 10
0.0
 20
0.0
 30
0.0
  9
$PUCSXDIR
 10
1.0
 20
0.0
 30
0.0
  9
$PUCSYDIR
 10
0.0
 20
1.0
 30
0.0
  9
$PUCSORTHOREF
  2

  9
$PUCSORTHOVIEW
 70
     0
  9
$PUCSORGTOP
 10
0.0
 20
0.0
 30
0.0
  9
$PUCSORGBOTTOM
 10
0.0
 20
0.0
 30
0.0
  9
$PUCSORGLEFT
 10
0.0
 20
0.0
 30
0.0
  9
$PUCSORGRIGHT
 10
0.0
 20
0.0
 30
0.0
  9
$PUCSORGFRONT
 10
0.0
 20
0.0
 30
0.0
  9
$PUCSORGBACK
 10
0.0
 20
0.0
 30
0.0
  9
$USERI1
 70
     0
  9
$USERI2
 70
     0
  9
$USERI3
 70
     0
  9
$USERI4
 70
     0
  9
$USERI5
 70
     0
  9
$USERR1
 40
0.0
  9
$USERR2
 40
0.0
  9
$USERR3
 40
0.0
  9
$USERR4
 40
0.0
  9
$USERR5
 40
0.0
  9
$WORLDVIEW
 70
     1
  9
$SHADEDGE
 70
     3
  9
$SHADEDIF
 70
    70
  9
$TILEMODE
 70
     1
  9
$MAXACTVP
 70
    48
  9
$PINSBASE
 10
0.0
 20
0.0
 30
0.0
  9
$PLIMCHECK
 70
     0
  9
$PEXTMIN
 10
26.66076962115562
 20
20.31135699206657
 30
-0.0015258207003583
  9
$PEXTMAX
 10
240.039213369355
 20
182.8886381005154
 30
0.0000000349246037
  9
$PLIMMIN
 10
-6.350006103515625
 20
-6.349999904632568
  9
$PLIMMAX
 10
273.0499877929687
 20
209.5499939918517
  9
$UNITMODE
 70
     0
  9
$VISRETAIN
 70
     1
  9
$PLINEGEN
 70
     0
  9
$PSLTSCALE
 70
     1
  9
$TREEDEPTH
 70
  3020
  9
$CMLSTYLE
  2
Standard
  9
$CMLJUST
 70
     0
  9
$CMLSCALE
 40
20.0
  9
$PROXYGRAPHICS
 70
     1
  9
$MEASUREMENT
 70
     1
  9
$CELWEIGHT
370
    -1
  9
$ENDCAPS
280
     0
  9
$JOINSTYLE
280
     0
  9
$LWDISPLAY
290
     0
  9
$INSUNITS
 70
     4
  9
$HYPERLINKBASE
  1

  9
$STYLESHEET
  1

  9
$XEDIT
290
     1
  9
$CEPSNTYPE
380
     0
  9
$PSTYLEMODE
290
     1
  9
$FINGERPRINTGUID
  2
{FDEAD578-A652-11D2-9A35-0060089B3A3F}
  9
$VERSIONGUID
  2
{B4AB8E84-DCBF-4143-B3AA-D768CB3996A8}
  9
$EXTNAMES
290
     1
  9
$PSVPSCALE
 40
0.0
  9
$OLESTARTUP
290
     0
  0
ENDSEC
  0
SECTION
  2
CLASSES
  0
CLASS
  1
ACDBDICTIONARYWDFLT
  2
AcDbDictionaryWithDefault
  3
AutoCAD 2000
 90
        0
280
     0
281
     0
  0
CLASS
  1
ACDBPLACEHOLDER
  2
AcDbPlaceHolder
  3
AutoCAD 2000
 90
        0
280
     0
281
     0
  0
CLASS
  1
LAYOUT
  2
AcDbLayout
  3
AutoCAD 2000
 90
        0
280
     0
281
     0
  0
CLASS
  1
DICTIONARYVAR
  2
AcDbDictionaryVar
  3
AutoCAD 2000
 90
        0
280
     0
281
     0
  0
CLASS
  1
LONG_TRANSACTION
  2
AcDbLongTransaction
  3
AutoCAD 2000
 90
    32768
280
     0
281
     0
  0
CLASS
  1
LWPOLYLINE
  2
AcDbPolyline
  3
AutoCAD 2000
 90
    32768
280
     0
281
     1
  0
CLASS
  1
HATCH
  2
AcDbHatch
  3
AutoCAD 2000
 90
    32768
280
     0
281
     1
  0
CLASS
  1
XRECORD
  2
AcDbXrecord
  3
AutoCAD 2000
 90
    32768
280
     0
281
     0
  0
ENDSEC
  0
SECTION
  2
TABLES
  0
TABLE
  2
VPORT
  5
8
330
0
100
AcDbSymbolTable
 70
     2
  0
VPORT
  5
213
330
8
100
AcDbSymbolTableRecord
100
AcDbViewportTableRecord
  2
*Active
 70
     0
 10
0.0
 20
0.0
 11
1.0
 21
1.0
 12
590.1386971744208
 22
530.5385926473525
 13
0.0
 23
0.0
 14
10.0
 24
10.0
 15
10.0
 25
10.0
 16
0.0
 26
0.0
 36
1.0
 17
0.0
 27
0.0
 37
0.0
 40
1150.924493647478
 41
1.592161016949152
 42
50.0
 43
0.0
 44
0.0
 50
0.0
 51
0.0
 71
     0
 72
   100
 73
     1
 74
     3
 75
     0
 76
     0
 77
     0
 78
     0
281
     0
 65
     1
110
0.0
120
0.0
130
0.0
111
1.0
121
0.0
131
0.0
112
0.0
122
1.0
132
0.0
 79
     0
146
0.0
  0
ENDTAB
  0
TABLE
  2
LTYPE
  5
5
330
0
100
AcDbSymbolTable
 70
     2
  0
LTYPE
  5
14
330
5
100
AcDbSymbolTableRecord
100
AcDbLinetypeTableRecord
  2
ByBlock
 70
     0
  3

 72
    65
 73
     0
 40
0.0
  0
LTYPE
  5
15
330
5
100
AcDbSymbolTableRecord
100
AcDbLinetypeTableRecord
  2
ByLayer
 70
     0
  3

 72
    65
 73
     0
 40
0.0
  0
LTYPE
  5
16
330
5
100
AcDbSymbolTableRecord
100
AcDbLinetypeTableRecord
  2
Continuous
 70
     0
  3
Solid line
 72
    65
 73
     0
 40
0.0
  0
LTYPE
  5
1FA
330
5
100
AcDbSymbolTableRecord
100
AcDbLinetypeTableRecord
  2
CENTER
 70
     0
  3
__ . __
 72
    65
 73
     4
 40
7.0
 49
4.0
 74
     0
 49
-1.0
 74
     0
 49
1.0
 74
     0
 49
-1.0
 74
     0
  0
ENDTAB
  0
TABLE
  2
LAYER
  5
2
102
{ACAD_XDICTIONARY
360
1FB
102
}
330
0
100
AcDbSymbolTable
 70
     1
  0
LAYER
  5
10
330
2
100
AcDbSymbolTableRecord
100
AcDbLayerTableRecord
  2
0
 70
     0
 62
     7
  6
Continuous
370
    -3
390
F
  0
ENDTAB
  0
TABLE
  2
STYLE
  5
3
330
0
100
AcDbSymbolTable
 70
     1
  0
STYLE
  5
11
330
3
100
AcDbSymbolTableRecord
100
AcDbTextStyleTableRecord
  2
Standard
 70
     0
 40
0.0
 41
1.0
 50
0.0
 71
     0
 42
2.5
  3
txt
  4

  0
ENDTAB
  0
TABLE
  2
VIEW
  5
6
330
0
100
AcDbSymbolTable
 70
     0
  0
ENDTAB
  0
TABLE
  2
UCS
  5
7
330
0
100
AcDbSymbolTable
 70
     0
  0
ENDTAB
  0
TABLE
  2
APPID
  5
9
330
0
100
AcDbSymbolTable
 70
     2
  0
APPID
  5
12
330
9
100
AcDbSymbolTableRecord
100
AcDbRegAppTableRecord
  2
ACAD
 70
     0
  0
APPID
  5
87
330
9
100
AcDbSymbolTableRecord
100
AcDbRegAppTableRecord
  2
ACAD_PSEXT
 70
     0
  0
ENDTAB
  0
TABLE
  2
DIMSTYLE
  5
A
330
0
100
AcDbSymbolTable
 70
     1
100
AcDbDimStyleTable
 71
     0
  0
DIMSTYLE
105
27
330
A
100
AcDbSymbolTableRecord
100
AcDbDimStyleTableRecord
  2
ISO-25
 70
     0
 41
2.5
 42
0.625
 43
3.75
 44
1.25
 73
     0
 74
     0
 77
     1
 78
     8
140
2.5
141
2.5
143
0.03937007874016
147
0.625
171
     3
172
     1
271
     2
272
     2
274
     3
278
    44
283
     0
284
     8
340
11
  0
ENDTAB
  0
TABLE
  2
BLOCK_RECORD
  5
1
330
0
100
AcDbSymbolTable
 70
     1
  0
BLOCK_RECORD
  5
1F
102
{ACAD_XDICTIONARY
360
1B3
102
}
330
1
100
AcDbSymbolTableRecord
100
AcDbBlockTableRecord
  2
*Model_Space
340
22
  0
BLOCK_RECORD
  5
55
102
{ACAD_XDICTIONARY
360
1B5
102
}
330
1
100
AcDbSymbolTableRecord
100
AcDbBlockTableRecord
  2
*Paper_Space
340
56
  0
BLOCK_RECORD
  5
50
102
{ACAD_XDICTIONARY
360
1B7
102
}
330
1
100
AcDbSymbolTableRecord
100
AcDbBlockTableRecord
  2
*Paper_Space0
340
51
  0
ENDTAB
  0
ENDSEC
  0
SECTION
  2
BLOCKS
  0
BLOCK
  5
20
330
1F
100
AcDbEntity
  8
0
100
AcDbBlockBegin
  2
*Model_Space
 70
     0
 10
0.0
 20
0.0
 30
0.0
  3
*Model_Space
  1

  0
ENDBLK
  5
21
330
1F
100
AcDbEntity
  8
0
100
AcDbBlockEnd
  0
BLOCK
  5
57
330
55
100
AcDbEntity
 67
     1
  8
0
100
AcDbBlockBegin
  2
*Paper_Space
 70
     0
 10
0.0
 20
0.0
 30
0.0
  3
*Paper_Space
  1

  0
ENDBLK
  5
58
330
55
100
AcDbEntity
 67
     1
  8
0
100
AcDbBlockEnd
  0
BLOCK
  5
52
330
50
100
AcDbEntity
  8
0
100
AcDbBlockBegin
  2
*Paper_Space0
 70
     0
 10
0.0
 20
0.0
 30
0.0
  3
*Paper_Space0
  1

  0
VIEWPORT
  5
6B
330
50
100
AcDbEntity
  8
0
100
AcDbViewport
 10
133.3499908447265
 20
101.5999970436096
 30
0.0
 40
381.3957395593834
 41
218.2856291881582
 69
     0
 12
133.3499908447265
 22
101.5999970436096
 13
0.0
 23
0.0
 14
10.0
 24
10.0
 15
10.0
 25
10.0
 16
0.0
 26
0.0
 36
1.0
 17
0.0
 27
0.0
 37
0.0
 42
50.0
 43
0.0
 44
0.0
 45
218.2856291881582
 50
0.0
 51
0.0
 72
   100
 90
    32800
  1

281
     0
 71
     1
 74
     0
110
0.0
120
0.0
130
0.0
111
1.0
121
0.0
131
0.0
112
0.0
122
1.0
132
0.0
 79
     0
146
0.0
  0
VIEWPORT
  5
6D
330
50
100
AcDbEntity
  8
0
100
AcDbViewport
 10
133.349993944168
 20
101.599993944168
 30
0.0
 40
213.3599903106689
 41
162.5599903106689
 69
     0
 12
210.0
 22
148.5
 13
0.0
 23
0.0
 14
10.0
 24
10.0
 15
10.0
 25
10.0
 16
0.0
 26
0.0
 36
1.0
 17
0.0
 27
0.0
 37
0.0
 42
50.0
 43
0.0
 44
0.0
 45
324.0677920111345
 50
0.0
 51
0.0
 72
   100
 90
    32864
  1

281
     0
 71
     1
 74
     0
110
0.0
120
0.0
130
0.0
111
1.0
121
0.0
131
0.0
112
0.0
122
1.0
132
0.0
 79
     0
146
0.0
  0
ENDBLK
  5
53
330
50
100
AcDbEntity
  8
0
100
AcDbBlockEnd
  0
ENDSEC
  0
SECTION
  2
ENTITIES
  0
TEXT
  5
11D
330
1F
100
AcDbEntity
  8
0
  6
Continuous
100
AcDbText
 10
304.8384242973347
 20
1054.353576519206
 30
0.0
 40
48.000002
  1
DAS3J 2.5S
 41
1.32095
100
AcDbText
  0
LINE
  5
11E
330
1F
100
AcDbEntity
  8
0
100
AcDbLine
 10
649.7209050773428
 20
229.7246337949676
 30
0.0
 11
649.7209050773428
 21
211.2246237949676
 31
0.0
  0
LINE
  5
11F
330
1F
100
AcDbEntity
  8
0
100
AcDbLine
 10
492.2209050773428
 20
229.7246337949672
 30
0.0
 11
649.7209050773428
 21
229.7246337949676
 31
0.0
  0
LINE
  5
120
330
1F
100
AcDbEntity
  8
0
100
AcDbLine
 10
492.2209050773429
 20
211.2246237949677
 30
0.0
 11
649.7209050773428
 21
211.2246237949676
 31
0.0
  0
LINE
  5
121
330
1F
100
AcDbEntity
  8
0
100
AcDbLine
 10
492.2209050773428
 20
229.7246337949672
 30
0.0
 11
492.2209050773429
 21
211.2246237949677
 31
0.0
  0
LINE
  5
122
330
1F
100
AcDbEntity
  8
0
100
AcDbLine
 10
471.3687102781908
 20
123.9746337949678
 30
0.0
 11
506.9709000773427
 21
123.9746337949678
 31
0.0
  0
LINE
  5
123
330
1F
100
AcDbEntity
  8
0
100
AcDbLine
 10
465.9709050773428
 20
130.9746237949678
 30
0.0
 11
465.9709050773428
 21
53.47458879496787
 31
0.0
  0
LINE
  5
124
330
1F
100
AcDbEntity
  8
0
100
AcDbLine
 10
468.8209274345593
 20
130.9746237949678
 30
0.0
 11
471.3687102781908
 21
123.9746337949678
 31
0.0
  0
LINE
  5
125
330
1F
100
AcDbEntity
  8
0
100
AcDbLine
 10
465.9709050773428
 20
130.9746237949678
 30
0.0
 11
468.8209274345593
 21
130.9746237949678
 31
0.0
  0
LINE
  5
126
330
1F
100
AcDbEntity
  8
0
100
AcDbLine
 10
471.3686816568183
 20
60.47460879496805
 30
0.0
 11
517.2206330646248
 21
60.47460879496806
 31
0.0
  0
LINE
  5
127
330
1F
100
AcDbEntity
  8
0
100
AcDbLine
 10
468.8208878941015
 20
53.47458879496787
 30
0.0
 11
471.3686816568183
 21
60.47460879496805
 31
0.0
  0
LINE
  5
128
330
1F
100
AcDbEntity
  8
0
100
AcDbLine
 10
465.9709050773428
 20
53.47458879496787
 30
0.0
 11
468.8208878941015
 21
53.47458879496787
 31
0.0
  0
LINE
  5
129
330
1F
100
AcDbEntity
  8
0
100
AcDbLine
 10
539.2209000773427
 20
-7.377587871078309
 30
0.0
 11
539.2209000773427
 21
50.92457379496783
 31
0.0
  0
LINE
  5
12A
330
1F
100
AcDbEntity
  8
0
100
AcDbLine
 10
532.2209100773429
 20
-9.925355895298586
 30
0.0
 11
539.2209000773427
 21
-7.377587871078309
 31
0.0
  0
LINE
  5
12B
330
1F
100
AcDbEntity
  8
0
100
AcDbLine
 10
532.2209100773429
 20
-12.775416205032
 30
0.0
 11
532.2209100773429
 21
-9.925355895298586
 31
0.0
  0
LINE
  5
12C
330
1F
100
AcDbEntity
  8
0
100
AcDbLine
 10
609.7209000773427
 20
-12.775416205032
 30
0.0
 11
532.2209100773429
 21
-12.775416205032
 31
0.0
  0
LINE
  5
12D
330
1F
100
AcDbEntity
  8
0
100
AcDbLine
 10
609.7209000773427
 20
-12.775416205032
 30
0.0
 11
609.7209000773426
 21
-9.925373388273225
 31
0.0
  0
LINE
  5
12E
330
1F
100
AcDbEntity
  8
0
100
AcDbLine
 10
609.7209000773426
 20
-9.925373388273225
 30
0.0
 11
602.7209100773429
 21
-7.377590544641456
 31
0.0
  0
LINE
  5
12F
330
1F
100
AcDbEntity
  8
0
100
AcDbLine
 10
624.4709100773429
 20
60.13021922364143
 30
0.0
 11
624.4709100773429
 21
50.92457379496783
 31
0.0
  0
LINE
  5
130
330
1F
100
AcDbEntity
  8
0
100
AcDbLine
 10
634.9708800773427
 20
125.7246237949678
 30
0.0
 11
634.9708800773428
 21
92.22456879496769
 31
0.0
  0
LINE
  5
131
330
1F
100
AcDbEntity
  8
0
100
AcDbLine
 10
602.7209100773428
 20
50.92457379496783
 30
0.0
 11
602.7209100773429
 21
-7.377590544641456
 31
0.0
  0
LINE
  5
132
330
1F
100
AcDbEntity
  8
0
100
AcDbLine
 10
506.9709000773428
 20
125.7246237949678
 30
0.0
 11
506.9709000773428
 21
92.22461379496792
 31
0.0
  0
LINE
  5
133
330
1F
100
AcDbEntity
  8
0
100
AcDbLine
 10
517.4709000773427
 20
60.13023969451555
 30
0.0
 11
517.4709000773427
 21
50.92457379496784
 31
0.0
  0
LINE
  5
134
330
1F
100
AcDbEntity
  8
0
100
AcDbLine
 10
624.4709100773429
 20
50.92457379496783
 30
0.0
 11
517.4709000773427
 21
50.92457379496784
 31
0.0
  0
LINE
  5
135
330
1F
100
AcDbEntity
  8
0
100
AcDbLine
 10
673.120911061922
 20
216.4746237949676
 30
0.0
 11
670.5731100897483
 21
209.4746337949676
 31
0.0
  0
LINE
  5
136
330
1F
100
AcDbEntity
  8
0
100
AcDbLine
 10
675.9709050773428
 20
216.4746237949676
 30
0.0
 11
673.120911061922
 21
216.4746237949676
 31
0.0
  0
LINE
  5
137
330
1F
100
AcDbEntity
  8
0
100
AcDbLine
 10
670.5731100897483
 20
209.4746337949676
 30
0.0
 11
634.9708500773429
 21
209.4746337949676
 31
0.0
  0
LINE
  5
138
330
1F
100
AcDbEntity
  8
0
100
AcDbLine
 10
675.9709050773428
 20
138.9746337949676
 30
0.0
 11
675.9709050773428
 21
216.4746237949676
 31
0.0
  0
LINE
  5
139
330
1F
100
AcDbEntity
  8
0
100
AcDbLine
 10
670.5731100897483
 20
145.9746237949676
 30
0.0
 11
634.9708500773429
 21
145.9746237949676
 31
0.0
  0
LINE
  5
13A
330
1F
100
AcDbEntity
  8
0
100
AcDbLine
 10
673.1209110619221
 20
138.9746337949676
 30
0.0
 11
670.5731100897483
 21
145.9746237949676
 31
0.0
  0
LINE
  5
13B
330
1F
100
AcDbEntity
  8
0
100
AcDbLine
 10
675.9709050773428
 20
138.9746337949676
 30
0.0
 11
673.1209110619221
 21
138.9746337949676
 31
0.0
  0
LINE
  5
13C
330
1F
100
AcDbEntity
  8
0
100
AcDbLine
 10
506.9709600773428
 20
211.2246237949678
 30
0.0
 11
506.9709600773428
 21
144.2246337949678
 31
0.0
  0
LINE
  5
13D
330
1F
100
AcDbEntity
  8
0
100
AcDbLine
 10
649.7209050773428
 20
144.2246337949678
 30
0.0
 11
649.7209050773428
 21
125.7246237949678
 31
0.0
  0
LINE
  5
13E
330
1F
100
AcDbEntity
  8
0
100
AcDbLine
 10
492.2209050773429
 20
144.2246337949678
 30
0.0
 11
492.2209050773428
 21
125.7246237949678
 31
0.0
  0
LINE
  5
13F
330
1F
100
AcDbEntity
  8
0
100
AcDbLine
 10
649.7209050773428
 20
144.2246337949678
 30
0.0
 11
492.2209050773429
 21
144.2246337949678
 31
0.0
  0
LINE
  5
140
330
1F
100
AcDbEntity
  8
0
100
AcDbLine
 10
649.7209050773427
 20
125.7246237949678
 30
0.0
 11
492.2209050773428
 21
125.7246237949678
 31
0.0
  0
ARC
  5
141
330
1F
100
AcDbEntity
  8
0
100
AcDbCircle
 10
561.2709150773428
 20
92.22461379496792
 30
0.0
 40
54.3000015
100
AcDbArc
 50
180.0
 51
216.232023425829
  0
ARC
  5
142
330
1F
100
AcDbEntity
  8
0
100
AcDbCircle
 10
580.6709100773428
 20
92.22461379496792
 30
0.0
 40
54.3000015
100
AcDbArc
 50
323.7679497957568
 51
0.0
  0
LINE
  5
143
330
1F
100
AcDbEntity
  8
0
100
AcDbLine
 10
634.9708500773429
 20
211.2246237949678
 30
0.0
 11
634.9708500773429
 21
144.2246337949678
 31
0.0
  0
LINE
  5
144
330
1F
100
AcDbEntity
  8
0
100
AcDbLine
 10
539.2209000773427
 20
-7.377587871078309
 30
0.0
 11
602.7209100773429
 21
-7.377590544641456
 31
0.0
  0
LINE
  5
145
330
1F
100
AcDbEntity
  8
0
100
AcDbLine
 10
532.2209100773429
 20
-9.925355895298586
 30
0.0
 11
609.7209000773426
 21
-9.925373388273225
 31
0.0
  0
LINE
  5
146
330
1F
100
AcDbEntity
  8
0
100
AcDbLine
 10
471.3687102781908
 20
123.9746337949678
 30
0.0
 11
471.3687102781908
 21
60.47460879496805
 31
0.0
  0
LINE
  5
147
330
1F
100
AcDbEntity
  8
0
100
AcDbLine
 10
468.8209274345593
 20
130.9746237949678
 30
0.0
 11
468.8209274345593
 21
53.47469743170288
 31
0.0
  0
LINE
  5
148
330
1F
100
AcDbEntity
  8
0
100
AcDbLine
 10
673.120911061922
 20
216.4746237949676
 30
0.0
 11
673.1209110619221
 21
138.9746337949676
 31
0.0
  0
LINE
  5
149
330
1F
100
AcDbEntity
  8
0
100
AcDbLine
 10
670.5731100897483
 20
145.9746237949676
 30
0.0
 11
670.5731100897483
 21
209.4746337949676
 31
0.0
  0
LINE
  5
14A
330
1F
100
AcDbEntity
  8
0
100
AcDbLine
 10
505.970925077343
 20
229.9746955018952
 30
0.0
 11
505.970925077343
 21
229.7246337949672
 31
0.0
  0
LINE
  5
14B
330
1F
100
AcDbEntity
  8
0
100
AcDbLine
 10
505.970925077343
 20
229.9746955018952
 30
0.0
 11
520.142344160177
 21
244.1461677007934
 31
0.0
  0
LINE
  5
14C
330
1F
100
AcDbEntity
  8
0
100
AcDbLine
 10
553.4708547812352
 20
254.8745337949674
 30
0.0
 11
588.4709553734506
 21
254.8745337949674
 31
0.0
  0
LINE
  5
14D
330
1F
100
AcDbEntity
  8
0
100
AcDbLine
 10
520.142344160177
 20
244.1461677007934
 30
0.0
 11
551.3273054253213
 21
246.874527381586
 31
0.0
  0
LINE
  5
14E
330
1F
100
AcDbEntity
  8
0
100
AcDbLine
 10
554.4709050773429
 20
287.1124587949673
 30
0.0
 11
554.4709050773429
 21
259.4125287949673
 31
0.0
  0
LINE
  5
14F
330
1F
100
AcDbEntity
  8
0
100
AcDbLine
 10
536.4410700773428
 20
302.1153837949674
 30
0.0
 11
556.9107000773429
 21
302.1153837949674
 31
0.0
  0
LINE
  5
150
330
1F
100
AcDbEntity
  8
0
100
AcDbLine
 10
520.9708500773428
 20
298.7344287949673
 30
0.0
 11
520.9708500773428
 21
289.1124687949673
 31
0.0
  0
LINE
  5
151
330
1F
100
AcDbEntity
  8
0
100
AcDbLine
 10
586.4709600773429
 20
258.4125087949674
 30
0.0
 11
555.4708500773427
 21
258.4125087949674
 31
0.0
  0
LINE
  5
152
330
1F
100
AcDbEntity
  8
0
100
AcDbLine
 10
536.0728350773428
 20
301.2600537949675
 30
0.0
 11
536.0728350773428
 21
287.1124587949673
 31
0.0
  0
LINE
  5
153
330
1F
100
AcDbEntity
  8
0
100
AcDbLine
 10
522.5122350773428
 20
302.1153837949674
 30
0.0
 11
522.5122350773428
 21
287.1124587949673
 31
0.0
  0
LINE
  5
154
330
1F
100
AcDbEntity
  8
0
100
AcDbLine
 10
557.4103050773429
 20
301.0757187949673
 30
0.0
 11
557.4103050773429
 21
287.1124587949673
 31
0.0
  0
LINE
  5
155
330
1F
100
AcDbEntity
  8
0
100
AcDbLine
 10
584.4709050773428
 20
311.4125187949674
 30
0.0
 11
557.4709950773429
 21
311.4125187949674
 31
0.0
  0
LINE
  5
156
330
1F
100
AcDbEntity
  8
0
100
AcDbLine
 10
618.9709050773428
 20
287.1124587949673
 30
0.0
 11
522.9709050773428
 21
287.1124587949673
 31
0.0
  0
LINE
  5
157
330
1F
100
AcDbEntity
  8
0
100
AcDbLine
 10
553.4708547812352
 20
254.8745337949674
 30
0.0
 11
551.3273054253213
 21
246.874527381586
 31
0.0
  0
ARC
  5
158
330
1F
100
AcDbEntity
  8
0
100
AcDbCircle
 10
570.9709050773429
 20
182.1153237949675
 30
0.0
 40
129.999996
100
AcDbArc
 50
95.96069199999787
 51
111.1002100000001
  0
ARC
  5
159
330
1F
100
AcDbEntity
  8
0
100
AcDbCircle
 10
525.9709050773428
 20
298.7344287949673
 30
0.0
 40
4.99999995
100
AcDbArc
 50
111.100440000001
 51
180.0
  0
ARC
  5
15A
330
1F
100
AcDbEntity
  8
0
100
AcDbCircle
 10
555.4708500773427
 20
259.4125287949673
 30
0.0
 40
1.000000035
100
AcDbArc
 50
180.0
 51
270.0
  0
ARC
  5
15B
330
1F
100
AcDbEntity
  8
0
100
AcDbCircle
 10
522.9709050773428
 20
289.1124687949673
 30
0.0
 40
2.000000099999999
100
AcDbArc
 50
180.0
 51
270.0
  0
ARC
  5
15C
330
1F
100
AcDbEntity
  8
0
100
AcDbCircle
 10
521.2875300773429
 20
306.1154187949674
 30
0.0
 40
4.000000049999999
100
AcDbArc
 50
286.9698700000014
 51
293.5929199999991
  0
ELLIPSE
  5
15D
330
1F
100
AcDbEntity
  8
0
100
AcDbEllipse
 10
533.7317400773429
 20
302.1153837949674
 30
0.0
 11
-2.341064099999999
 21
-0.0000000000000853
 31
0.0
210
0.0
220
0.0
230
1.0
 40
0.5561573500000002
 41
3.141575099999999
 42
4.712388999999999
  0
ELLIPSE
  5
15E
330
1F
100
AcDbEntity
  8
0
100
AcDbEllipse
 10
570.9708600773429
 20
302.1153837949674
 30
0.0
 11
-13.56059145
 21
-0.00273249
 31
0.0
210
0.0
220
0.0
230
1.0
 40
0.096013511
 41
3.139493970029148
 42
6.281086599999999
  0
ELLIPSE
  5
15F
330
1F
100
AcDbEntity
  8
0
100
AcDbEllipse
 10
533.7317400773429
 20
302.1153837949674
 30
0.0
 11
-11.21952585
 21
-0.0000000000000853
 31
0.0
210
0.0
220
0.0
230
1.0
 40
0.11604769
 41
4.712388999999999
 42
6.283202886449585
  0
LINE
  5
160
330
1F
100
AcDbEntity
  8
0
100
AcDbLine
 10
559.9708500773427
 20
258.3745587949675
 30
0.0
 11
559.9708500773427
 21
254.8745337949674
 31
0.0
  0
LINE
  5
161
330
1F
100
AcDbEntity
  8
0
100
AcDbLine
 10
635.9708850773427
 20
229.9746955018952
 30
0.0
 11
635.9708850773427
 21
229.7246337949672
 31
0.0
  0
LINE
  5
162
330
1F
100
AcDbEntity
  8
0
100
AcDbLine
 10
635.9708850773427
 20
229.9746955018952
 30
0.0
 11
621.7994659945087
 21
244.1461677007934
 31
0.0
  0
LINE
  5
163
330
1F
100
AcDbEntity
  8
0
100
AcDbLine
 10
621.7994659945087
 20
244.1461677007934
 30
0.0
 11
590.6145047293644
 21
246.874527381586
 31
0.0
  0
LINE
  5
164
330
1F
100
AcDbEntity
  8
0
100
AcDbLine
 10
587.4709050773429
 20
287.1124587949673
 30
0.0
 11
587.4709050773429
 21
259.4125287949673
 31
0.0
  0
LINE
  5
165
330
1F
100
AcDbEntity
  8
0
100
AcDbLine
 10
605.5007400773429
 20
302.1153837949674
 30
0.0
 11
585.0311100773429
 21
302.1153837949674
 31
0.0
  0
LINE
  5
166
330
1F
100
AcDbEntity
  8
0
100
AcDbLine
 10
620.9709600773429
 20
298.7344287949673
 30
0.0
 11
620.9709600773429
 21
289.1124687949673
 31
0.0
  0
LINE
  5
167
330
1F
100
AcDbEntity
  8
0
100
AcDbLine
 10
605.8689750773429
 20
301.2600537949675
 30
0.0
 11
605.8689750773429
 21
287.1124587949673
 31
0.0
  0
LINE
  5
168
330
1F
100
AcDbEntity
  8
0
100
AcDbLine
 10
619.4295750773428
 20
302.1153837949674
 30
0.0
 11
619.4295750773428
 21
287.1124587949673
 31
0.0
  0
LINE
  5
169
330
1F
100
AcDbEntity
  8
0
100
AcDbLine
 10
584.5315050773429
 20
301.0757187949673
 30
0.0
 11
584.5315050773429
 21
287.1124587949673
 31
0.0
  0
LINE
  5
16A
330
1F
100
AcDbEntity
  8
0
100
AcDbLine
 10
588.4709553734506
 20
254.8745337949674
 30
0.0
 11
590.6145047293644
 21
246.874527381586
 31
0.0
  0
ARC
  5
16B
330
1F
100
AcDbEntity
  8
0
100
AcDbCircle
 10
570.9709050773429
 20
182.1153237949675
 30
0.0
 40
129.999996
100
AcDbArc
 50
68.89978999999982
 51
84.03930800000214
  0
ARC
  5
16C
330
1F
100
AcDbEntity
  8
0
100
AcDbCircle
 10
615.9709050773429
 20
298.7344287949673
 30
0.0
 40
4.99999995
100
AcDbArc
 50
0.0
 51
68.89956000000246
  0
ARC
  5
16D
330
1F
100
AcDbEntity
  8
0
100
AcDbCircle
 10
586.4709600773429
 20
259.4125287949673
 30
0.0
 40
1.000000035
100
AcDbArc
 50
270.0
 51
0.0
  0
ARC
  5
16E
330
1F
100
AcDbEntity
  8
0
100
AcDbCircle
 10
618.9709050773428
 20
289.1124687949673
 30
0.0
 40
2.000000099999999
100
AcDbArc
 50
270.0
 51
0.0
  0
ARC
  5
16F
330
1F
100
AcDbEntity
  8
0
100
AcDbCircle
 10
620.6542800773428
 20
306.1154187949674
 30
0.0
 40
4.000000049999999
100
AcDbArc
 50
246.4070800000008
 51
253.030130000002
  0
ELLIPSE
  5
170
330
1F
100
AcDbEntity
  8
0
100
AcDbEllipse
 10
608.2100700773428
 20
302.1153837949674
 30
0.0
 11
2.341064099999999
 21
-0.0000000000000853
 31
0.0
210
0.0
220
0.0
230
-1.0
 40
0.5561573500000002
 41
3.141575099999999
 42
4.712388999999999
  0
ELLIPSE
  5
171
330
1F
100
AcDbEntity
  8
0
100
AcDbEllipse
 10
608.2100700773428
 20
302.1153837949674
 30
0.0
 11
11.21952585
 21
-0.0000000000000853
 31
0.0
210
0.0
220
0.0
230
-1.0
 40
0.11604769
 41
4.712388999999999
 42
6.283202886449585
  0
LINE
  5
172
330
1F
100
AcDbEntity
  8
0
100
AcDbLine
 10
581.9709600773429
 20
258.3745587949675
 30
0.0
 11
581.9709600773429
 21
254.8745337949674
 31
0.0
  0
LINE
  5
173
330
1F
100
AcDbEntity
  8
0
100
AcDbLine
 10
551.3273054253213
 20
246.874527381586
 30
0.0
 11
590.6145047293644
 21
246.874527381586
 31
0.0
  0
LINE
  5
174
330
1F
100
AcDbEntity
  8
0
100
AcDbLine
 10
520.142344160177
 20
244.1461677007934
 30
0.0
 11
621.7994659945087
 21
244.1461677007934
 31
0.0
  0
ARC
  5
175
330
1F
100
AcDbEntity
  8
0
100
AcDbCircle
 10
570.9709050773426
 20
832.8457176356142
 30
0.0
 40
49.999998
100
AcDbArc
 50
18.25445499999897
 51
41.74555100000167
  0
ARC
  5
176
330
1F
100
AcDbEntity
  8
0
100
AcDbCircle
 10
570.9709050773426
 20
832.8457176356142
 30
0.0
 40
49.999998
100
AcDbArc
 50
78.25445199999773
 51
101.7455499999988
  0
ARC
  5
177
330
1F
100
AcDbEntity
  8
0
100
AcDbCircle
 10
570.9709050773426
 20
832.8457176356142
 30
0.0
 40
49.999998
100
AcDbArc
 50
258.2544500000011
 51
281.7455499999989
  0
ARC
  5
178
330
1F
100
AcDbEntity
  8
0
100
AcDbCircle
 10
570.9709050773426
 20
832.8457176356142
 30
0.0
 40
49.999998
100
AcDbArc
 50
318.25445
 51
341.745549999999
  0
ARC
  5
179
330
1F
100
AcDbEntity
  8
0
100
AcDbCircle
 10
570.9709050773426
 20
832.8457176356142
 30
0.0
 40
49.999998
100
AcDbArc
 50
198.2544500000009
 51
221.7455499999998
  0
ARC
  5
17A
330
1F
100
AcDbEntity
  8
0
100
AcDbCircle
 10
570.9709050773426
 20
832.8457176356142
 30
0.0
 40
49.999998
100
AcDbArc
 50
138.25445
 51
161.7455499999991
  0
ARC
  5
17B
330
1F
100
AcDbEntity
  8
0
100
AcDbCircle
 10
527.2858800773426
 20
847.254642635614
 30
0.0
 40
4.000000049999999
100
AcDbArc
 50
161.7456499999976
 51
216.0239500000002
  0
ARC
  5
17C
330
1F
100
AcDbEntity
  8
0
100
AcDbCircle
 10
507.4708500773426
 20
832.8457176356142
 30
0.0
 40
20.5000005
100
AcDbArc
 50
0.0
 51
36.02367699999979
  0
ARC
  5
17D
330
1F
100
AcDbEntity
  8
0
100
AcDbCircle
 10
507.4708500773426
 20
832.8457176356142
 30
0.0
 40
20.5000005
100
AcDbArc
 50
323.976319999998
 51
0.0
  0
ARC
  5
17E
330
1F
100
AcDbEntity
  8
0
100
AcDbCircle
 10
527.2858800773426
 20
818.4367776356141
 30
0.0
 40
4.000000049999999
100
AcDbArc
 50
143.9760499999998
 51
198.2543499999994
  0
ARC
  5
17F
330
1F
100
AcDbEntity
  8
0
100
AcDbCircle
 10
634.4708700773426
 20
832.8457176356142
 30
0.0
 40
20.5000005
100
AcDbArc
 50
180.0
 51
216.0236800000018
  0
ARC
  5
180
330
1F
100
AcDbEntity
  8
0
100
AcDbCircle
 10
539.2208700773426
 20
777.8530476356141
 30
0.0
 40
20.5000005
100
AcDbArc
 50
60.00004500000115
 51
96.02367899999805
  0
ARC
  5
181
330
1F
100
AcDbEntity
  8
0
100
AcDbCircle
 10
539.2208700773426
 20
777.8530476356141
 30
0.0
 40
20.5000005
100
AcDbArc
 50
23.97632999999981
 51
60.00004500000115
  0
ARC
  5
182
330
1F
100
AcDbEntity
  8
0
100
AcDbCircle
 10
602.7208500773427
 20
777.8530476356141
 30
0.0
 40
20.5000005
100
AcDbArc
 50
83.97632100000198
 51
119.9999499999974
  0
ARC
  5
183
330
1F
100
AcDbEntity
  8
0
100
AcDbCircle
 10
602.7208500773427
 20
777.8530476356141
 30
0.0
 40
20.5000005
100
AcDbArc
 50
119.9999499999974
 51
156.0236700000001
  0
ARC
  5
184
330
1F
100
AcDbEntity
  8
0
100
AcDbCircle
 10
634.4708700773426
 20
832.8457176356142
 30
0.0
 40
20.5000005
100
AcDbArc
 50
143.976319999998
 51
180.0
  0
ARC
  5
185
330
1F
100
AcDbEntity
  8
0
100
AcDbCircle
 10
602.7208500773427
 20
887.8383276356142
 30
0.0
 40
20.5000005
100
AcDbArc
 50
203.9762700000003
 51
240.0000500000025
  0
ARC
  5
186
330
1F
100
AcDbEntity
  8
0
100
AcDbCircle
 10
602.7208500773427
 20
887.8383276356142
 30
0.0
 40
20.5000005
100
AcDbArc
 50
240.0000500000025
 51
276.0236800000004
  0
ARC
  5
187
330
1F
100
AcDbEntity
  8
0
100
AcDbCircle
 10
539.2208700773426
 20
887.8383276356142
 30
0.0
 40
20.5000005
100
AcDbArc
 50
263.9763199999995
 51
299.9999499999974
  0
ARC
  5
188
330
1F
100
AcDbEntity
  8
0
100
AcDbCircle
 10
539.2208700773426
 20
887.8383276356142
 30
0.0
 40
20.5000005
100
AcDbArc
 50
299.9999499999974
 51
336.0237299999995
  0
ARC
  5
189
330
1F
100
AcDbEntity
  8
0
100
AcDbCircle
 10
536.6498850773425
 20
863.4735876356142
 30
0.0
 40
4.000000049999999
100
AcDbArc
 50
83.97616699999677
 51
138.2542299999996
  0
ARC
  5
18A
330
1F
100
AcDbEntity
  8
0
100
AcDbCircle
 10
561.6068850773427
 20
877.882512635614
 30
0.0
 40
4.000000049999999
100
AcDbArc
 50
101.7456100000027
 51
156.0237999999984
  0
ARC
  5
18B
330
1F
100
AcDbEntity
  8
0
100
AcDbCircle
 10
580.3349250773426
 20
877.882512635614
 30
0.0
 40
4.000000049999999
100
AcDbArc
 50
23.97620400000114
 51
78.25439200000096
  0
ARC
  5
18C
330
1F
100
AcDbEntity
  8
0
100
AcDbCircle
 10
614.6559300773426
 20
847.254642635614
 30
0.0
 40
4.000000049999999
100
AcDbArc
 50
323.9760499999998
 51
18.25434699999938
  0
ARC
  5
18D
330
1F
100
AcDbEntity
  8
0
100
AcDbCircle
 10
605.2919250773426
 20
863.4735876356142
 30
0.0
 40
4.000000049999999
100
AcDbArc
 50
41.74576599999918
 51
96.02383300000322
  0
ARC
  5
18E
330
1F
100
AcDbEntity
  8
0
100
AcDbCircle
 10
614.6559300773426
 20
818.4367776356141
 30
0.0
 40
4.000000049999999
100
AcDbArc
 50
341.7456499999977
 51
36.02395099999887
  0
ARC
  5
18F
330
1F
100
AcDbEntity
  8
0
100
AcDbCircle
 10
580.3349250773426
 20
787.8088626356141
 30
0.0
 40
4.000000049999999
100
AcDbArc
 50
281.7456699999997
 51
336.0237999999985
  0
ARC
  5
190
330
1F
100
AcDbEntity
  8
0
100
AcDbCircle
 10
605.2919250773426
 20
802.217802635614
 30
0.0
 40
4.000000049999999
100
AcDbArc
 50
263.9761699999982
 51
318.2542299999999
  0
ARC
  5
191
330
1F
100
AcDbEntity
  8
0
100
AcDbCircle
 10
561.6068850773427
 20
787.8088626356141
 30
0.0
 40
4.000000049999999
100
AcDbArc
 50
203.9762000000014
 51
258.2543300000003
  0
ARC
  5
192
330
1F
100
AcDbEntity
  8
0
100
AcDbCircle
 10
536.6498850773425
 20
802.217802635614
 30
0.0
 40
4.000000049999999
100
AcDbArc
 50
221.7457700000003
 51
276.0238299999985
  0
CIRCLE
  5
193
330
1F
100
AcDbEntity
  8
0
100
AcDbCircle
 10
570.9709050773426
 20
832.8457176356142
 30
0.0
 40
13.5
  0
ARC
  5
194
330
1F
100
AcDbEntity
  8
0
100
AcDbCircle
 10
570.9709050773426
 20
832.8457176356142
 30
0.0
 40
49.10969849999999
100
AcDbArc
 50
344.9768700000012
 51
15.02312699999944
  0
ARC
  5
195
330
1F
100
AcDbEntity
  8
0
100
AcDbCircle
 10
570.9709050773426
 20
832.8457176356142
 30
0.0
 40
49.10969849999999
100
AcDbArc
 50
164.9769199999983
 51
195.0230800000016
  0
ARC
  5
196
330
1F
100
AcDbEntity
  8
0
100
AcDbCircle
 10
570.9709050773426
 20
832.8457176356142
 30
0.0
 40
49.10969849999999
100
AcDbArc
 50
104.976909999998
 51
135.0230900000008
  0
ARC
  5
197
330
1F
100
AcDbEntity
  8
0
100
AcDbCircle
 10
570.9709050773426
 20
832.8457176356142
 30
0.0
 40
49.10969849999999
100
AcDbArc
 50
44.97690699999905
 51
75.02308899999987
  0
ARC
  5
198
330
1F
100
AcDbEntity
  8
0
100
AcDbCircle
 10
570.9709050773426
 20
832.8457176356142
 30
0.0
 40
49.10969849999999
100
AcDbArc
 50
284.976909999998
 51
315.2212199999986
  0
ARC
  5
199
330
1F
100
AcDbEntity
  8
0
100
AcDbCircle
 10
570.9709050773426
 20
832.8457176356142
 30
0.0
 40
49.10969849999999
100
AcDbArc
 50
224.9769300000032
 51
255.0230900000019
  0
CIRCLE
  5
19A
330
1F
100
AcDbEntity
  8
0
100
AcDbCircle
 10
570.9709050773426
 20
832.8457176356142
 30
0.0
 40
67.750002
  0
CIRCLE
  5
19B
330
1F
100
AcDbEntity
  8
0
100
AcDbCircle
 10
570.9709050773426
 20
832.8457176356142
 30
0.0
 40
78.75
  0
LINE
  5
19C
330
1F
100
AcDbEntity
  8
0
100
AcDbLine
 10
670.5730998764943
 20
801.0956901356143
 30
0.0
 11
643.0368349870388
 21
801.0956901356143
 31
0.0
  0
LINE
  5
19D
330
1F
100
AcDbEntity
  8
0
100
AcDbLine
 10
675.9709050773423
 20
794.0957001356142
 30
0.0
 11
675.9709050773423
 21
871.5957351356143
 31
0.0
  0
LINE
  5
19E
330
1F
100
AcDbEntity
  8
0
100
AcDbLine
 10
673.1208827201258
 20
794.0957001356142
 30
0.0
 11
670.5730998764943
 21
801.0956901356143
 31
0.0
  0
LINE
  5
19F
330
1F
100
AcDbEntity
  8
0
100
AcDbLine
 10
675.9709050773423
 20
794.0957001356142
 30
0.0
 11
673.1208827201258
 21
794.0957001356142
 31
0.0
  0
LINE
  5
1A0
330
1F
100
AcDbEntity
  8
0
100
AcDbLine
 10
670.5731284978668
 20
864.5957151356141
 30
0.0
 11
643.0368482041067
 21
864.5957151356141
 31
0.0
  0
LINE
  5
1A1
330
1F
100
AcDbEntity
  8
0
100
AcDbLine
 10
673.1209222605837
 20
871.5957351356143
 30
0.0
 11
670.5731284978668
 21
864.5957151356141
 31
0.0
  0
LINE
  5
1A2
330
1F
100
AcDbEntity
  8
0
100
AcDbLine
 10
675.9709050773423
 20
871.5957351356143
 30
0.0
 11
673.1209222605837
 21
871.5957351356143
 31
0.0
  0
LINE
  5
1A3
330
1F
100
AcDbEntity
  8
0
100
AcDbLine
 10
670.5730998764943
 20
801.0956901356143
 30
0.0
 11
670.5730998764943
 21
864.5957151356141
 31
0.0
  0
LINE
  5
1A4
330
1F
100
AcDbEntity
  8
0
100
AcDbLine
 10
673.1208827201258
 20
794.0957001356142
 30
0.0
 11
673.1208827201258
 21
871.5956264988792
 31
0.0
  0
LINE
  5
1A5
330
1F
100
AcDbEntity
  8
0
100
AcDbLine
 10
471.3687102781908
 20
864.5957451356141
 30
0.0
 11
498.9049751676463
 21
864.5957451356141
 31
0.0
  0
LINE
  5
1A6
330
1F
100
AcDbEntity
  8
0
100
AcDbLine
 10
465.9709050773428
 20
871.5957351356141
 30
0.0
 11
465.9709050773428
 21
794.0957001356141
 31
0.0
  0
LINE
  5
1A7
330
1F
100
AcDbEntity
  8
0
100
AcDbLine
 10
468.8209274345593
 20
871.5957351356141
 30
0.0
 11
471.3687102781908
 21
864.5957451356141
 31
0.0
  0
LINE
  5
1A8
330
1F
100
AcDbEntity
  8
0
100
AcDbLine
 10
465.9709050773428
 20
871.5957351356141
 30
0.0
 11
468.8209274345593
 21
871.5957351356141
 31
0.0
  0
LINE
  5
1A9
330
1F
100
AcDbEntity
  8
0
100
AcDbLine
 10
471.3686816568183
 20
801.0957201356143
 30
0.0
 11
498.9049619505784
 21
801.0957201356145
 31
0.0
  0
LINE
  5
1AA
330
1F
100
AcDbEntity
  8
0
100
AcDbLine
 10
468.8208878941015
 20
794.0957001356141
 30
0.0
 11
471.3686816568183
 21
801.0957201356143
 31
0.0
  0
LINE
  5
1AB
330
1F
100
AcDbEntity
  8
0
100
AcDbLine
 10
465.9709050773428
 20
794.0957001356141
 30
0.0
 11
468.8208878941015
 21
794.0957001356141
 31
0.0
  0
LINE
  5
1AC
330
1F
100
AcDbEntity
  8
0
100
AcDbLine
 10
471.3687102781908
 20
864.5957451356141
 30
0.0
 11
471.3687102781908
 21
801.0957201356143
 31
0.0
  0
LINE
  5
1AD
330
1F
100
AcDbEntity
  8
0
100
AcDbLine
 10
468.8209274345593
 20
871.5957351356141
 30
0.0
 11
468.8209274345593
 21
794.0958087723491
 31
0.0
  0
LINE
  5
206
330
1F
100
AcDbEntity
  8
0
  6
CENTER
100
AcDbLine
 10
430.7443258202865
 20
92.22460629496788
 30
0.0
 11
657.3594392666727
 21
92.22460629496788
 31
0.0
  0
LINE
  5
207
330
1F
100
AcDbEntity
  8
0
  6
CENTER
100
AcDbLine
 10
570.9709050773429
 20
-41.26502413037906
 30
0.0
 11
570.9709050773429
 21
348.6176375909726
 31
0.0
  0
LINE
  5
208
330
1F
100
AcDbEntity
  8
0
  6
CENTER
100
AcDbLine
 10
493.5465678356922
 20
177.7246287949676
 30
0.0
 11
702.8742896995018
 21
177.7246287949676
 31
0.0
  0
LINE
  5
209
330
1F
100
AcDbEntity
  8
0
  6
CENTER
100
AcDbLine
 10
450.4136558510634
 20
832.8457176356142
 30
0.0
 11
691.5281543036218
 21
832.8457176356142
 31
0.0
  0
LINE
  5
20A
330
1F
100
AcDbEntity
  8
0
  6
CENTER
100
AcDbLine
 10
570.9709050773426
 20
721.5561036797074
 30
0.0
 11
570.9709050773426
 21
944.1353315915208
 31
0.0
  0
VIEWPORT
  5
71
330
55
100
AcDbEntity
 67
     1
  8
0
100
AcDbViewport
 10
133.3499908447265
 20
101.5999970436096
 30
0.0
 40
381.3957395593834
 41
218.2856291881582
 68
     1
 69
     1
 12
133.3499908447265
 22
101.5999970436096
 13
0.0
 23
0.0
 14
10.0
 24
10.0
 15
10.0
 25
10.0
 16
0.0
 26
0.0
 36
1.0
 17
0.0
 27
0.0
 37
0.0
 42
50.0
 43
0.0
 44
0.0
 45
218.2856291881582
 50
0.0
 51
0.0
 72
   100
 90
    32800
  1

281
     0
 71
     1
 74
     0
110
0.0
120
0.0
130
0.0
111
1.0
121
0.0
131
0.0
112
0.0
122
1.0
132
0.0
 79
     0
146
0.0
  0
VIEWPORT
  5
73
330
55
100
AcDbEntity
 67
     1
  8
0
100
AcDbViewport
 10
133.349993944168
 20
101.599993944168
 30
0.0
 40
213.3599903106689
 41
162.5599903106689
 68
     2
 69
     2
 12
210.0
 22
148.5
 13
0.0
 23
0.0
 14
10.0
 24
10.0
 15
10.0
 25
10.0
 16
0.0
 26
0.0
 36
1.0
 17
0.0
 27
0.0
 37
0.0
 42
50.0
 43
0.0
 44
0.0
 45
324.0677920111345
 50
0.0
 51
0.0
 72
   100
 90
    32864
  1

281
     0
 71
     1
 74
     0
110
0.0
120
0.0
130
0.0
111
1.0
121
0.0
131
0.0
112
0.0
122
1.0
132
0.0
 79
     0
146
0.0
  0
ENDSEC
  0
SECTION
  2
OBJECTS
  0
DICTIONARY
  5
C
330
0
100
AcDbDictionary
281
     1
  3
ACAD_GROUP
350
D
  3
ACAD_LAYOUT
350
1A
  3
ACAD_MLINESTYLE
350
17
  3
ACAD_PLOTSETTINGS
350
19
  3
ACAD_PLOTSTYLENAME
350
E
  3
AcDbVariableDictionary
350
5E
  0
DICTIONARY
  5
1FB
330
2
100
AcDbDictionary
280
     1
281
     1
  3
ACAD_LAYERSTATES
360
1FC
  0
DICTIONARY
  5
1B3
330
1F
100
AcDbDictionary
280
     1
281
     1
  3
ACAD_LAYOUTSELFREF
360
1EA
  0
DICTIONARY
  5
1B5
330
55
100
AcDbDictionary
280
     1
281
     1
  3
ACAD_LAYOUTSELFREF
360
1EE
  0
DICTIONARY
  5
1B7
330
50
100
AcDbDictionary
280
     1
281
     1
  3
ACAD_LAYOUTSELFREF
360
1ED
  0
DICTIONARY
  5
D
102
{ACAD_REACTORS
330
C
102
}
330
C
100
AcDbDictionary
281
     1
  0
DICTIONARY
  5
1A
102
{ACAD_REACTORS
330
C
102
}
330
C
100
AcDbDictionary
281
     1
  3
Model
350
22
  3
ﾚｲｱｳﾄ1
350
51
  3
ﾚｲｱｳﾄ2
350
56
  0
DICTIONARY
  5
17
102
{ACAD_REACTORS
330
C
102
}
330
C
100
AcDbDictionary
281
     1
  3
Standard
350
18
  0
DICTIONARY
  5
19
102
{ACAD_REACTORS
330
C
102
}
330
C
100
AcDbDictionary
281
     1
  0
ACDBDICTIONARYWDFLT
  5
E
102
{ACAD_REACTORS
330
C
102
}
330
C
100
AcDbDictionary
281
     1
  3
Normal
350
F
100
AcDbDictionaryWithDefault
340
F
  0
DICTIONARY
  5
5E
102
{ACAD_REACTORS
330
C
102
}
330
C
100
AcDbDictionary
281
     1
  3
DIMASSOC
350
5F
  3
HIDETEXT
350
63
  0
DICTIONARY
  5
1FC
102
{ACAD_REACTORS
330
1FB
102
}
330
1FB
100
AcDbDictionary
281
     1
  0
XRECORD
  5
1EA
102
{ACAD_REACTORS
330
1B3
102
}
330
1B3
100
AcDbXrecord
280
     1
340
1F
  0
XRECORD
  5
1EE
102
{ACAD_REACTORS
330
1B5
102
}
330
1B5
100
AcDbXrecord
280
     1
340
55
  0
XRECORD
  5
1ED
102
{ACAD_REACTORS
330
1B7
102
}
330
1B7
100
AcDbXrecord
280
     1
340
50
  0
LAYOUT
  5
22
102
{ACAD_REACTORS
330
1A
102
}
330
1A
100
AcDbPlotSettings
  1

  2
none_device
  4
ANSI_A_(8.50_x_11.00_Inches)
  6

 40
6.349999904632568
 41
19.04999923706054
 42
6.350006103515625
 43
19.04998779296875
 44
215.8999938964843
 45
279.3999938964843
 46
0.0
 47
0.0
 48
0.0
 49
0.0
140
0.0
141
0.0
142
1.0
143
78.436453180766
 70
 11952
 72
     0
 73
     1
 74
     0
  7

 75
     0
147
0.0127491741332998
148
0.0
149
0.0
100
AcDbLayout
  1
Model
 70
     1
 71
     0
 10
0.0
 20
0.0
 11
12.0
 21
9.0
 12
0.0
 22
0.0
 32
0.0
 14
0.0
 24
0.0
 34
0.0
 15
0.0
 25
0.0
 35
0.0
146
0.0
 13
0.0
 23
0.0
 33
0.0
 16
1.0
 26
0.0
 36
0.0
 17
0.0
 27
1.0
 37
0.0
 76
     0
330
1F
  0
LAYOUT
  5
51
102
{ACAD_REACTORS
330
1A
102
}
330
1A
100
AcDbPlotSettings
  1

  2
none_device
  4
Letter_(8.50_x_11.00_Inches)
  6

 40
6.349999904632568
 41
6.349999904632568
 42
6.350006103515625
 43
6.350006103515625
 44
215.8999938964843
 45
279.3999938964843
 46
0.0
 47
0.0
 48
0.0
 49
0.0
140
0.0
141
0.0
142
1.0
143
1.0
 70
   688
 72
     1
 73
     1
 74
     5
  7

 75
    16
147
1.0
148
0.0
149
0.0
100
AcDbLayout
  1
ﾚｲｱｳﾄ1
 70
     1
 71
     1
 10
-6.350006103515625
 20
-6.349999904632568
 11
273.0499877929687
 21
209.5499939918517
 12
0.0
 22
0.0
 32
0.0
 14
26.66076962115562
 24
20.31135699206657
 34
-0.0015258207003583
 15
240.039213369355
 25
182.8886381005154
 35
0.0000000349246037
146
0.0
 13
0.0
 23
0.0
 33
0.0
 16
1.0
 26
0.0
 36
0.0
 17
0.0
 27
1.0
 37
0.0
 76
     0
330
50
331
6B
  0
LAYOUT
  5
56
102
{ACAD_REACTORS
330
1A
102
}
330
1A
100
AcDbPlotSettings
  1

  2
none_device
  4
Letter_(8.50_x_11.00_Inches)
  6

 40
6.349999904632568
 41
6.349999904632568
 42
6.350006103515625
 43
6.350006103515625
 44
215.8999938964843
 45
279.3999938964843
 46
0.0
 47
0.0
 48
0.0
 49
0.0
140
0.0
141
0.0
142
1.0
143
1.0
 70
   688
 72
     1
 73
     1
 74
     5
  7

 75
    16
147
1.0
148
0.0
149
0.0
100
AcDbLayout
  1
ﾚｲｱｳﾄ2
 70
     1
 71
     2
 10
-6.350006103515625
 20
-6.349999904632568
 11
273.0499877929687
 21
209.5499939918517
 12
0.0
 22
0.0
 32
0.0
 14
26.66076962115562
 24
20.31135699206657
 34
-0.0015258207003583
 15
240.039213369355
 25
182.8886381005154
 35
0.0000000349246037
146
0.0
 13
0.0
 23
0.0
 33
0.0
 16
1.0
 26
0.0
 36
0.0
 17
0.0
 27
1.0
 37
0.0
 76
     0
330
55
331
71
  0
MLINESTYLE
  5
18
102
{ACAD_REACTORS
330
17
102
}
330
17
100
AcDbMlineStyle
  2
STANDARD
 70
     0
  3

 62
   256
 51
90.0
 52
90.0
 71
     2
 49
0.5
 62
   256
  6
BYLAYER
 49
-0.5
 62
   256
  6
BYLAYER
  0
ACDBPLACEHOLDER
  5
F
102
{ACAD_REACTORS
330
E
102
}
330
E
  0
DICTIONARYVAR
  5
5F
102
{ACAD_REACTORS
330
5E
102
}
330
5E
100
DictionaryVariables
280
     0
  1
2
  0
DICTIONARYVAR
  5
63
102
{ACAD_REACTORS
330
5E
102
}
330
5E
100
DictionaryVariables
280
     0
  1
1
  0
ENDSEC
  0
EOF
