  0
SECTION
  2
HEADER
  9
$ACADVER
  1
AC1015
  9
$ACADMAINTVER
 70
    14
  9
$DWGCODEPAGE
  3
ANSI_932
  9
$INSBASE
 10
0.0
 20
0.0
 30
0.0
  9
$EXTMIN
 10
289.1249893477097
 20
165.0284100560888
 30
-0.000000000000013
  9
$EXTMAX
 10
813.3285712070064
 20
853.3738403362926
 30
0.0000000000000023
  9
$LIMMIN
 10
-580.5701293945312
 20
0.0
  9
$LIMMAX
 10
0.0
 20
407.8999938964844
  9
$ORTHOMODE
 70
     0
  9
$REGENMODE
 70
     1
  9
$FILLMODE
 70
     1
  9
$QTEXTMODE
 70
     0
  9
$MIRRTEXT
 70
     1
  9
$LTSCALE
 40
1.0
  9
$ATTMODE
 70
     1
  9
$TEXTSIZE
 40
0.2
  9
$TRACEWID
 40
0.05
  9
$TEXTSTYLE
  7
STANDARD
  9
$CLAYER
  8
0
  9
$CELTYPE
  6
ByLayer
  9
$CECOLOR
 62
   256
  9
$CELTSCALE
 40
1.0
  9
$DISPSILH
 70
     0
  9
$DIMSCALE
 40
1.0
  9
$DIMASZ
 40
1.0
  9
$DIMEXO
 40
2.54
  9
$DIMDLI
 40
0.38
  9
$DIMRND
 40
0.0
  9
$DIMDLE
 40
0.0
  9
$DIMEXE
 40
2.54
  9
$DIMTP
 40
0.0
  9
$DIMTM
 40
0.0
  9
$DIMTXT
 40
3.200000047683714
  9
$DIMCEN
 40
0.09
  9
$DIMTSZ
 40
0.0
  9
$DIMTOL
 70
     0
  9
$DIMLIM
 70
     0
  9
$DIMTIH
 70
     0
  9
$DIMTOH
 70
     0
  9
$DIMSE1
 70
     0
  9
$DIMSE2
 70
     0
  9
$DIMTAD
 70
     1
  9
$DIMZIN
 70
     0
  9
$DIMBLK
  1

  9
$DIMASO
 70
     1
  9
$DIMSHO
 70
     0
  9
$DIMPOST
  1

  9
$DIMAPOST
  1

  9
$DIMALT
 70
     0
  9
$DIMALTD
 70
     2
  9
$DIMALTF
 40
25.4
  9
$DIMLFAC
 40
1.0
  9
$DIMTOFL
 70
     0
  9
$DIMTVP
 40
1.0
  9
$DIMTIX
 70
     0
  9
$DIMSOXD
 70
     0
  9
$DIMSAH
 70
     0
  9
$DIMBLK1
  1

  9
$DIMBLK2
  1

  9
$DIMSTYLE
  2
STANDARD
  9
$DIMCLRD
 70
     0
  9
$DIMCLRE
 70
     0
  9
$DIMCLRT
 70
     0
  9
$DIMTFAC
 40
1.0
  9
$DIMGAP
 40
1.600000023841857
  9
$DIMJUST
 70
     0
  9
$DIMSD1
 70
     0
  9
$DIMSD2
 70
     0
  9
$DIMTOLJ
 70
     1
  9
$DIMTZIN
 70
     0
  9
$DIMALTZ
 70
     0
  9
$DIMALTTZ
 70
     0
  9
$DIMUPT
 70
     0
  9
$DIMDEC
 70
     4
  9
$DIMTDEC
 70
     4
  9
$DIMALTU
 70
     2
  9
$DIMALTTD
 70
     2
  9
$DIMTXSTY
  7
STANDARD
  9
$DIMAUNIT
 70
     0
  9
$DIMADEC
 70
     0
  9
$DIMALTRND
 40
0.0
  9
$DIMAZIN
 70
     0
  9
$DIMDSEP
 70
    46
  9
$DIMATFIT
 70
     3
  9
$DIMFRAC
 70
     0
  9
$DIMLDRBLK
  1

  9
$DIMLUNIT
 70
     2
  9
$DIMLWD
 70
    -2
  9
$DIMLWE
 70
    -2
  9
$DIMTMOVE
 70
     0
  9
$LUNITS
 70
     2
  9
$LUPREC
 70
     4
  9
$SKETCHINC
 40
0.1
  9
$FILLETRAD
 40
0.0
  9
$AUNITS
 70
     0
  9
$AUPREC
 70
     0
  9
$MENU
  1
.
  9
$ELEVATION
 40
0.0
  9
$PELEVATION
 40
0.0
  9
$THICKNESS
 40
0.0
  9
$LIMCHECK
 70
     0
  9
$CHAMFERA
 40
0.0
  9
$CHAMFERB
 40
0.0
  9
$CHAMFERC
 40
0.0
  9
$CHAMFERD
 40
0.0
  9
$SKPOLY
 70
     0
  9
$TDCREATE
 40
2452717.604314595
  9
$TDUCREATE
 40
2452717.229314595
  9
$TDUPDATE
 40
2456899.671557140
  9
$TDUUPDATE
 40
2456899.296557141
  9
$TDINDWG
 40
0.3817747222
  9
$TDUSRTIMER
 40
0.3817747222
  9
$USRTIMER
 70
     1
  9
$ANGBASE
 50
0.0
  9
$ANGDIR
 70
     0
  9
$PDMODE
 70
     3
  9
$PDSIZE
 40
0.0
  9
$PLINEWID
 40
0.0
  9
$SPLFRAME
 70
     0
  9
$SPLINETYPE
 70
     6
  9
$SPLINESEGS
 70
     8
  9
$HANDSEED
  5
E2D6
  9
$SURFTAB1
 70
     6
  9
$SURFTAB2
 70
     6
  9
$SURFTYPE
 70
     6
  9
$SURFU
 70
     6
  9
$SURFV
 70
     6
  9
$UCSBASE
  2

  9
$UCSNAME
  2

  9
$UCSORG
 10
0.0
 20
0.0
 30
0.0
  9
$UCSXDIR
 10
1.0
 20
0.0
 30
0.0
  9
$UCSYDIR
 10
0.0
 20
1.0
 30
0.0
  9
$UCSORTHOREF
  2

  9
$UCSORTHOVIEW
 70
     0
  9
$UCSORGTOP
 10
0.0
 20
0.0
 30
0.0
  9
$UCSORGBOTTOM
 10
0.0
 20
0.0
 30
0.0
  9
$UCSORGLEFT
 10
0.0
 20
0.0
 30
0.0
  9
$UCSORGRIGHT
 10
0.0
 20
0.0
 30
0.0
  9
$UCSORGFRONT
 10
0.0
 20
0.0
 30
0.0
  9
$UCSORGBACK
 10
0.0
 20
0.0
 30
0.0
  9
$PUCSBASE
  2

  9
$PUCSNAME
  2

  9
$PUCSORG
 10
0.0
 20
0.0
 30
0.0
  9
$PUCSXDIR
 10
1.0
 20
0.0
 30
0.0
  9
$PUCSYDIR
 10
0.0
 20
1.0
 30
0.0
  9
$PUCSORTHOREF
  2

  9
$PUCSORTHOVIEW
 70
     0
  9
$PUCSORGTOP
 10
0.0
 20
0.0
 30
0.0
  9
$PUCSORGBOTTOM
 10
0.0
 20
0.0
 30
0.0
  9
$PUCSORGLEFT
 10
0.0
 20
0.0
 30
0.0
  9
$PUCSORGRIGHT
 10
0.0
 20
0.0
 30
0.0
  9
$PUCSORGFRONT
 10
0.0
 20
0.0
 30
0.0
  9
$PUCSORGBACK
 10
0.0
 20
0.0
 30
0.0
  9
$USERI1
 70
     0
  9
$USERI2
 70
     0
  9
$USERI3
 70
     0
  9
$USERI4
 70
     0
  9
$USERI5
 70
     0
  9
$USERR1
 40
0.0
  9
$USERR2
 40
0.0
  9
$USERR3
 40
0.0
  9
$USERR4
 40
0.0
  9
$USERR5
 40
0.0
  9
$WORLDVIEW
 70
     1
  9
$SHADEDGE
 70
     3
  9
$SHADEDIF
 70
    70
  9
$TILEMODE
 70
     1
  9
$MAXACTVP
 70
    48
  9
$PINSBASE
 10
0.0
 20
0.0
 30
0.0
  9
$PLIMCHECK
 70
     0
  9
$PEXTMIN
 10
-580.5701293945312
 20
0.0
 30
0.0
  9
$PEXTMAX
 10
0.0
 20
407.8999938964844
 30
0.0
  9
$PLIMMIN
 10
-580.5701293945312
 20
0.0
  9
$PLIMMAX
 10
0.0
 20
407.8999938964844
  9
$UNITMODE
 70
     0
  9
$VISRETAIN
 70
     1
  9
$PLINEGEN
 70
     0
  9
$PSLTSCALE
 70
     1
  9
$TREEDEPTH
 70
  3020
  9
$CMLSTYLE
  2
Standard
  9
$CMLJUST
 70
     0
  9
$CMLSCALE
 40
1.0
  9
$PROXYGRAPHICS
 70
     1
  9
$MEASUREMENT
 70
     0
  9
$CELWEIGHT
370
    -1
  9
$ENDCAPS
280
     0
  9
$JOINSTYLE
280
     0
  9
$LWDISPLAY
290
     0
  9
$INSUNITS
 70
     0
  9
$HYPERLINKBASE
  1

  9
$STYLESHEET
  1

  9
$XEDIT
290
     1
  9
$CEPSNTYPE
380
     0
  9
$PSTYLEMODE
290
     1
  9
$FINGERPRINTGUID
  2
{3F2D14DD-3D28-4881-A7FB-C79E78798E59}
  9
$VERSIONGUID
  2
{0123C333-364B-43AB-B6D2-1B4C305DAD06}
  9
$EXTNAMES
290
     1
  9
$PSVPSCALE
 40
0.0
  9
$OLESTARTUP
290
     0
  0
ENDSEC
  0
SECTION
  2
CLASSES
  0
CLASS
  1
ACDBDICTIONARYWDFLT
  2
AcDbDictionaryWithDefault
  3
AutoCAD 2000
 90
        0
280
     0
281
     0
  0
CLASS
  1
ACDBPLACEHOLDER
  2
AcDbPlaceHolder
  3
AutoCAD 2000
 90
        0
280
     0
281
     0
  0
CLASS
  1
LAYOUT
  2
AcDbLayout
  3
AutoCAD 2000
 90
        0
280
     0
281
     0
  0
CLASS
  1
DICTIONARYVAR
  2
AcDbDictionaryVar
  3
AutoCAD 2000
 90
        0
280
     0
281
     0
  0
CLASS
  1
LONG_TRANSACTION
  2
AcDbLongTransaction
  3
AutoCAD 2000
 90
    32768
280
     0
281
     0
  0
CLASS
  1
LWPOLYLINE
  2
AcDbPolyline
  3
AutoCAD 2000
 90
    32768
280
     0
281
     1
  0
CLASS
  1
HATCH
  2
AcDbHatch
  3
AutoCAD 2000
 90
    32768
280
     0
281
     1
  0
CLASS
  1
XRECORD
  2
AcDbXrecord
  3
AutoCAD 2000
 90
    32768
280
     0
281
     0
  0
CLASS
  1
LONG_TRANSACTION
  2
AcDbLongTransaction
  3
AutoCAD 2000
 90
    32768
280
     0
281
     0
  0
CLASS
  1
LWPOLYLINE
  2
AcDbPolyline
  3
AutoCAD 2000
 90
    32768
280
     0
281
     1
  0
CLASS
  1
HATCH
  2
AcDbHatch
  3
AutoCAD 2000
 90
    32768
280
     0
281
     1
  0
CLASS
  1
XRECORD
  2
AcDbXrecord
  3
AutoCAD 2000
 90
    32768
280
     0
281
     0
  0
CLASS
  1
LONG_TRANSACTION
  2
AcDbLongTransaction
  3
AutoCAD 2000
 90
    32768
280
     0
281
     0
  0
CLASS
  1
LWPOLYLINE
  2
AcDbPolyline
  3
AutoCAD 2000
 90
    32768
280
     0
281
     1
  0
CLASS
  1
HATCH
  2
AcDbHatch
  3
AutoCAD 2000
 90
    32768
280
     0
281
     1
  0
CLASS
  1
XRECORD
  2
AcDbXrecord
  3
AutoCAD 2000
 90
    32768
280
     0
281
     0
  0
CLASS
  1
LONG_TRANSACTION
  2
AcDbLongTransaction
  3
AutoCAD 2000
 90
    32768
280
     0
281
     0
  0
CLASS
  1
LWPOLYLINE
  2
AcDbPolyline
  3
AutoCAD 2000
 90
    32768
280
     0
281
     1
  0
CLASS
  1
HATCH
  2
AcDbHatch
  3
AutoCAD 2000
 90
    32768
280
     0
281
     1
  0
CLASS
  1
XRECORD
  2
AcDbXrecord
  3
AutoCAD 2000
 90
    32768
280
     0
281
     0
  0
ENDSEC
  0
SECTION
  2
TABLES
  0
TABLE
  2
VPORT
  5
E1B1
330
0
100
AcDbSymbolTable
 70
     2
  0
VPORT
  5
E2D5
330
E1B1
100
AcDbSymbolTableRecord
100
AcDbViewportTableRecord
  2
*Active
 70
     0
 10
0.0
 20
0.0
 11
1.0
 21
1.0
 12
551.2267802773581
 22
509.2011251961907
 13
0.0
 23
0.0
 14
1.0
 24
1.0
 15
0.0
 25
0.0
 16
0.0
 26
0.0
 36
1.0
 17
0.0
 27
0.0
 37
0.0
 40
692.7158774565859
 41
1.592161016949152
 42
50.0
 43
0.0
 44
0.0
 50
0.0
 51
0.0
 71
     0
 72
   100
 73
     1
 74
     3
 75
     0
 76
     0
 77
     0
 78
     0
281
     0
 65
     1
110
0.0
120
0.0
130
0.0
111
1.0
121
0.0
131
0.0
112
0.0
122
1.0
132
0.0
 79
     0
146
0.0
  0
ENDTAB
  0
TABLE
  2
LTYPE
  5
E1AE
330
0
100
AcDbSymbolTable
 70
     2
  0
LTYPE
  5
E1BC
330
E1AE
100
AcDbSymbolTableRecord
100
AcDbLinetypeTableRecord
  2
ByBlock
 70
     0
  3

 72
    65
 73
     0
 40
0.0
  0
LTYPE
  5
E1BD
330
E1AE
100
AcDbSymbolTableRecord
100
AcDbLinetypeTableRecord
  2
ByLayer
 70
     0
  3

 72
    65
 73
     0
 40
0.0
  0
LTYPE
  5
E1BE
330
E1AE
100
AcDbSymbolTableRecord
100
AcDbLinetypeTableRecord
  2
CONTINUOUS
 70
     0
  3
Solid line
 72
    65
 73
     0
 40
0.0
  0
LTYPE
  5
E2BD
330
E1AE
100
AcDbSymbolTableRecord
100
AcDbLinetypeTableRecord
  2
CENTER
 70
     0
  3
__ . __
 72
    65
 73
     4
 40
7.0
 49
4.0
 74
     0
 49
-1.0
 74
     0
 49
1.0
 74
     0
 49
-1.0
 74
     0
  0
ENDTAB
  0
TABLE
  2
LAYER
  5
E1AB
102
{ACAD_XDICTIONARY
360
E2BE
102
}
330
0
100
AcDbSymbolTable
 70
     1
  0
LAYER
  5
E1B9
330
E1AB
100
AcDbSymbolTableRecord
100
AcDbLayerTableRecord
  2
0
 70
     0
 62
     7
  6
CONTINUOUS
370
    -3
390
E1B8
  0
ENDTAB
  0
TABLE
  2
STYLE
  5
E1AC
330
0
100
AcDbSymbolTable
 70
     1
  0
STYLE
  5
E1BA
330
E1AC
100
AcDbSymbolTableRecord
100
AcDbTextStyleTableRecord
  2
STANDARD
 70
     0
 40
0.0
 41
1.0
 50
0.0
 71
     0
 42
0.2
  3
txt
  4
BIGFONT
  0
ENDTAB
  0
TABLE
  2
VIEW
  5
E1AF
330
0
100
AcDbSymbolTable
 70
     0
  0
ENDTAB
  0
TABLE
  2
UCS
  5
E1B0
330
0
100
AcDbSymbolTable
 70
     0
  0
ENDTAB
  0
TABLE
  2
APPID
  5
E1B2
330
0
100
AcDbSymbolTable
 70
     4
  0
APPID
  5
E1BB
330
E1B2
100
AcDbSymbolTableRecord
100
AcDbRegAppTableRecord
  2
ACAD
 70
     0
  0
APPID
  5
E1CD
330
E1B2
100
AcDbSymbolTableRecord
100
AcDbRegAppTableRecord
  2
MCAD_NO_VIS
 70
     0
  0
APPID
  5
E1CE
330
E1B2
100
AcDbSymbolTableRecord
100
AcDbRegAppTableRecord
  2
ACAD_TEMP_GRAPHIC
 70
     0
  0
APPID
  5
E1CF
330
E1B2
100
AcDbSymbolTableRecord
100
AcDbRegAppTableRecord
  2
ACATTRIBSERVICES
 70
     0
  0
ENDTAB
  0
TABLE
  2
DIMSTYLE
  5
E1B3
330
0
100
AcDbSymbolTable
 70
     1
100
AcDbDimStyleTable
 71
     0
  0
DIMSTYLE
105
E1D0
330
E1B3
100
AcDbSymbolTableRecord
100
AcDbDimStyleTableRecord
  2
STANDARD
 70
     0
279
     2
340
E1BA
  0
ENDTAB
  0
TABLE
  2
BLOCK_RECORD
  5
E1AA
330
0
100
AcDbSymbolTable
 70
     0
  0
BLOCK_RECORD
  5
E1C7
102
{ACAD_XDICTIONARY
360
E1D9
102
}
330
E1AA
100
AcDbSymbolTableRecord
100
AcDbBlockTableRecord
  2
*Model_Space
340
E1CA
  0
BLOCK_RECORD
  5
E1C3
102
{ACAD_XDICTIONARY
360
E1DB
102
}
330
E1AA
100
AcDbSymbolTableRecord
100
AcDbBlockTableRecord
  2
*Paper_Space
340
E1C6
  0
ENDTAB
  0
ENDSEC
  0
SECTION
  2
BLOCKS
  0
BLOCK
  5
E1C8
330
E1C7
100
AcDbEntity
  8
0
100
AcDbBlockBegin
  2
*Model_Space
 70
     0
 10
0.0
 20
0.0
 30
0.0
  3
*Model_Space
  1

  0
ENDBLK
  5
E1C9
330
E1C7
100
AcDbEntity
  8
0
100
AcDbBlockEnd
  0
BLOCK
  5
E1C4
330
E1C3
100
AcDbEntity
 67
     1
  8
0
100
AcDbBlockBegin
  2
*Paper_Space
 70
     0
 10
0.0
 20
0.0
 30
0.0
  3
*Paper_Space
  1

  0
ENDBLK
  5
E1C5
330
E1C3
100
AcDbEntity
 67
     1
  8
0
100
AcDbBlockEnd
  0
ENDSEC
  0
SECTION
  2
ENTITIES
  0
TEXT
  5
10F4
330
E1C7
100
AcDbEntity
  8
0
  6
Continuous
100
AcDbText
 10
289.1755780083657
 20
805.3738313821185
 30
0.0
 40
48.000002
  1
DAS2T 1.5S
 41
1.32095
100
AcDbText
  0
LINE
  5
B353
330
E1C7
100
AcDbEntity
  8
0
100
AcDbLine
 10
560.8434409967145
 20
331.98381135269
 30
0.0
 11
560.8434409967148
 21
303.2837991456593
 31
0.0
  0
LINE
  5
B354
330
E1C7
100
AcDbEntity
  8
0
100
AcDbLine
 10
527.8434409967145
 20
331.98381135269
 30
0.0
 11
527.8434409967143
 21
303.2837991456588
 31
0.0
  0
LINE
  5
B4CC
330
E1C7
100
AcDbEntity
  8
0
100
AcDbLine
 10
563.3934287896837
 20
222.8078545721269
 30
0.0
 11
571.8435061642975
 21
227.6865091065963
 31
0.0
  0
LINE
  5
B4DB
330
E1C7
100
AcDbEntity
  8
0
100
AcDbLine
 10
569.5934104791363
 20
192.8864907960495
 30
0.0
 11
519.0934409967145
 21
192.8864907960495
 31
0.0
  0
LINE
  5
B4E0
330
E1C7
100
AcDbEntity
  8
0
100
AcDbLine
 10
519.0934409967145
 20
192.8864907960495
 30
0.0
 11
519.0934409967145
 21
195.7364868935691
 31
0.0
  0
LINE
  5
B4E1
330
E1C7
100
AcDbEntity
  8
0
100
AcDbLine
 10
519.0934409967145
 20
195.7364868935691
 30
0.0
 11
525.2934532037454
 21
197.9931068698219
 31
0.0
  0
LINE
  5
B4E8
330
E1C7
100
AcDbEntity
  8
0
100
AcDbLine
 10
525.2934532037454
 20
197.9931068698219
 30
0.0
 11
525.293453203746
 21
222.8078449224188
 31
0.0
  0
LINE
  5
B4F0
330
E1C7
100
AcDbEntity
  8
0
100
AcDbLine
 10
569.5934104791363
 20
195.7365139910434
 30
0.0
 11
563.3934287896829
 21
197.993122859804
 31
0.0
  0
LINE
  5
B4F8
330
E1C7
100
AcDbEntity
  8
0
100
AcDbLine
 10
569.5934104791363
 20
192.8864907960495
 30
0.0
 11
569.5934104791363
 21
195.7365139910434
 31
0.0
  0
LINE
  5
B4F9
330
E1C7
100
AcDbEntity
  8
0
100
AcDbLine
 10
563.3934287896837
 20
222.8078545721269
 30
0.0
 11
563.3934287896829
 21
197.993122859804
 31
0.0
  0
LINE
  5
B5AC
330
E1C7
100
AcDbEntity
  8
0
100
AcDbLine
 10
496.3434323749868
 20
292.6864897088567
 30
0.0
 11
528.5894392048753
 21
298.3723308973602
 31
0.0
  0
LINE
  5
B5B6
330
E1C7
100
AcDbEntity
  8
0
100
AcDbLine
 10
483.8434409967145
 20
292.4364785890178
 30
0.0
 11
483.8434409967145
 21
274.9365091065914
 31
0.0
  0
LINE
  5
B63B
330
E1C7
100
AcDbEntity
  8
0
100
AcDbLine
 10
560.8434409967148
 20
303.2837991456593
 30
0.0
 11
527.8434409967143
 21
303.2837991456588
 31
0.0
  0
LINE
  5
B63D
330
E1C7
100
AcDbEntity
  8
0
100
AcDbLine
 10
529.3434878125532
 20
301.1864785890178
 30
0.0
 11
559.3433865422168
 21
301.1864785890192
 31
0.0
  0
LINE
  5
B642
330
E1C7
100
AcDbEntity
  8
0
100
AcDbLine
 10
529.3434878125532
 20
301.1864785890178
 30
0.0
 11
528.5894392048753
 21
298.3723308973602
 31
0.0
  0
LINE
  5
B644
330
E1C7
100
AcDbEntity
  8
0
100
AcDbLine
 10
533.3434409967146
 20
303.2837991456588
 30
0.0
 11
533.3434409967146
 21
301.1864785890178
 31
0.0
  0
LINE
  5
B664
330
E1C7
100
AcDbEntity
  8
0
100
AcDbLine
 10
629.3434715142925
 20
278.1364602784714
 30
0.0
 11
629.3434715142925
 21
227.6364602784713
 31
0.0
  0
LINE
  5
B665
330
E1C7
100
AcDbEntity
  8
0
100
AcDbLine
 10
592.3434409967144
 20
274.9365091065968
 30
0.0
 11
592.3434409967144
 21
252.8864907960495
 31
0.0
  0
LINE
  5
B668
330
E1C7
100
AcDbEntity
  8
0
100
AcDbLine
 10
624.2368054306815
 20
233.8365030030808
 30
0.0
 11
582.6739044866156
 21
233.8365030030807
 31
0.0
  0
ARC
  5
B669
330
E1C7
100
AcDbEntity
  8
0
100
AcDbCircle
 10
568.7434348931987
 20
252.8864907960495
 30
0.0
 40
23.60000038146973
100
AcDbArc
 50
303.2188417184227
 51
0.0000025044687019
  0
LINE
  5
B66F
330
E1C7
100
AcDbEntity
  8
0
100
AcDbLine
 10
507.0144386219785
 20
227.6865091065991
 30
0.0
 11
581.6724204889017
 21
227.686509106596
 31
0.0
  0
LINE
  5
B671
330
E1C7
100
AcDbEntity
  8
0
100
AcDbLine
 10
581.6724204889021
 20
233.1431033088092
 30
0.0
 11
581.6724204889017
 21
227.686509106596
 31
0.0
  0
LINE
  5
B67B
330
E1C7
100
AcDbEntity
  8
0
100
AcDbLine
 10
629.3434715142925
 20
227.6364602784713
 30
0.0
 11
626.4934365144234
 21
227.6364602784713
 31
0.0
  0
LINE
  5
B67E
330
E1C7
100
AcDbEntity
  8
0
100
AcDbLine
 10
626.4934365144234
 20
227.6364602784713
 30
0.0
 11
624.2368054306815
 21
233.8365030030808
 31
0.0
  0
LINE
  5
B688
330
E1C7
100
AcDbEntity
  8
0
100
AcDbLine
 10
624.2368423566605
 20
271.9365091065963
 30
0.0
 11
592.3434409967144
 21
271.9365091065963
 31
0.0
  0
LINE
  5
B68D
330
E1C7
100
AcDbEntity
  8
0
100
AcDbLine
 10
604.8434409967144
 20
292.4364785890183
 30
0.0
 11
604.8434409967144
 21
274.9365091065968
 31
0.0
  0
LINE
  5
B6D0
330
E1C7
100
AcDbEntity
  8
0
100
AcDbLine
 10
483.8434409967145
 20
274.9365091065914
 30
0.0
 11
604.8434409967144
 21
274.9365091065968
 31
0.0
  0
LINE
  5
B6DB
330
E1C7
100
AcDbEntity
  8
0
100
AcDbLine
 10
592.3434409967144
 20
292.6864791777851
 30
0.0
 11
592.3434409967144
 21
292.4364785890183
 31
0.0
  0
LINE
  5
B6DD
330
E1C7
100
AcDbEntity
  8
0
100
AcDbLine
 10
483.8434409967145
 20
292.4364785890178
 30
0.0
 11
604.8434409967144
 21
292.4364785890183
 31
0.0
  0
LINE
  5
B6E3
330
E1C7
100
AcDbEntity
  8
0
100
AcDbLine
 10
629.3434715142925
 20
278.1364602784714
 30
0.0
 11
626.4934401179323
 21
278.1364602784714
 31
0.0
  0
LINE
  5
B6E5
330
E1C7
100
AcDbEntity
  8
0
100
AcDbLine
 10
626.4934401179323
 20
278.1364602784714
 30
0.0
 11
624.2368423566605
 21
271.9365091065963
 31
0.0
  0
ARC
  5
B76A
330
E1C7
100
AcDbEntity
  8
0
100
AcDbCircle
 10
544.3434409967143
 20
630.48682853329
 30
0.0
 40
50.0
100
AcDbArc
 50
168.2544565423568
 51
191.7455398151604
  0
ARC
  5
B76B
330
E1C7
100
AcDbEntity
  8
0
100
AcDbCircle
 10
544.3434409967143
 20
630.48682853329
 30
0.0
 40
50.0
100
AcDbArc
 50
348.2544540947405
 51
11.74554419773225
  0
ARC
  5
B77C
330
E1C7
100
AcDbEntity
  8
0
100
AcDbCircle
 10
544.3434409967143
 20
630.48682853329
 30
0.0
 40
50.0
100
AcDbArc
 50
288.2544566939462
 51
311.7455433818382
  0
ARC
  5
B78E
330
E1C7
100
AcDbEntity
  8
0
100
AcDbCircle
 10
544.3434409967145
 20
226.9866800050341
 30
0.0
 40
130.0
100
AcDbArc
 50
95.96068810258422
 51
112.6198795191112
  0
LINE
  5
B792
330
E1C7
100
AcDbEntity
  8
0
100
AcDbLine
 10
594.3434715142939
 20
331.98381135269
 30
0.0
 11
494.3434104791363
 21
331.98381135269
 31
0.0
  0
LINE
  5
B795
330
E1C7
100
AcDbEntity
  8
0
100
AcDbLine
 10
494.3434104791363
 20
346.9866672893716
 30
0.0
 11
494.3434104791363
 21
331.98381135269
 31
0.0
  0
LINE
  5
B79C
330
E1C7
100
AcDbEntity
  8
0
100
AcDbLine
 10
509.4454002252302
 20
348.2733440109309
 30
0.0
 11
509.4454002252302
 21
331.98381135269
 31
0.0
  0
LINE
  5
B79F
330
E1C7
100
AcDbEntity
  8
0
100
AcDbLine
 10
591.1360257198976
 20
348.2733316163618
 30
0.0
 11
497.55083323745
 21
348.2733316163617
 31
0.0
  0
LINE
  5
B7AC
330
E1C7
100
AcDbEntity
  8
0
100
AcDbLine
 10
530.7828330865581
 20
348.2733440109309
 30
0.0
 11
530.7828330865581
 21
331.98381135269
 31
0.0
  0
LINE
  5
B7CE
330
E1C7
100
AcDbEntity
  8
0
100
AcDbLine
 10
557.8434409967145
 20
356.2837991456589
 30
0.0
 11
530.8434409967145
 21
356.2837991456589
 31
0.0
  0
ARC
  5
B7DA
330
E1C7
100
AcDbEntity
  8
0
100
AcDbCircle
 10
544.3434409967143
 20
630.48682853329
 30
0.0
 40
50.0
100
AcDbArc
 50
228.2544618544862
 51
251.7455451272899
  0
ARC
  5
B7DD
330
E1C7
100
AcDbEntity
  8
0
100
AcDbCircle
 10
513.7155418267925
 20
596.1658141289932
 30
0.0
 40
4.0
100
AcDbArc
 50
173.9763109157489
 51
228.2544582120234
  0
ARC
  5
B7E1
330
E1C7
100
AcDbEntity
  8
0
100
AcDbCircle
 10
489.3507957330425
 20
598.73682853329
 30
0.0
 40
20.5
100
AcDbArc
 50
30.00000424992668
 51
66.02368893265839
  0
ARC
  5
B7E2
330
E1C7
100
AcDbEntity
  8
0
100
AcDbCircle
 10
499.3066062799175
 20
621.1228148614146
 30
0.0
 40
4.0
100
AcDbArc
 50
191.7455434576432
 51
246.0236907538912
  0
ARC
  5
B7E3
330
E1C7
100
AcDbEntity
  8
0
100
AcDbCircle
 10
489.3507957330425
 20
598.73682853329
 30
0.0
 40
20.5
100
AcDbArc
 50
353.9763084681148
 51
30.00000424992668
  0
ARC
  5
B7E4
330
E1C7
100
AcDbEntity
  8
0
100
AcDbCircle
 10
544.3434409967143
 20
566.98682853329
 30
0.0
 40
20.5
100
AcDbArc
 50
53.97631782173628
 51
90.0000025044752
  0
ARC
  5
B7E7
330
E1C7
100
AcDbEntity
  8
0
100
AcDbCircle
 10
544.3434409967143
 20
566.98682853329
 30
0.0
 40
20.5
100
AcDbArc
 50
89.99998884409682
 51
126.0236837721238
  0
ARC
  5
B7E8
330
E1C7
100
AcDbEntity
  8
0
100
AcDbCircle
 10
529.9345054498392
 20
586.8018004571178
 30
0.0
 40
4.0
100
AcDbArc
 50
251.7455451272899
 51
306.0236890084526
  0
ARC
  5
B7EA
330
E1C7
100
AcDbEntity
  8
0
100
AcDbCircle
 10
558.7523765435892
 20
586.8018004571178
 30
0.0
 40
4.0
100
AcDbArc
 50
233.976316227876
 51
288.2544566939462
  0
ARC
  5
B801
330
E1C7
100
AcDbEntity
  8
0
100
AcDbCircle
 10
574.9713096490581
 20
596.1658141289932
 30
0.0
 40
4.0
100
AcDbArc
 50
311.7455433818382
 51
6.023689824315979
  0
ARC
  5
B802
330
E1C7
100
AcDbEntity
  8
0
100
AcDbCircle
 10
589.3802451959332
 20
621.1228148614146
 30
0.0
 40
4.0
100
AcDbArc
 50
293.9763110673414
 51
348.2544540947405
  0
ARC
  5
B803
330
E1C7
100
AcDbEntity
  8
0
100
AcDbCircle
 10
599.3360557428082
 20
598.73682853329
 30
0.0
 40
20.5
100
AcDbArc
 50
113.9763092461087
 51
149.9999973439338
  0
ARC
  5
B804
330
E1C7
100
AcDbEntity
  8
0
100
AcDbCircle
 10
599.3360557428082
 20
598.73682853329
 30
0.0
 40
20.5
100
AcDbArc
 50
149.9999973439338
 51
186.0236854417763
  0
ARC
  5
B80A
330
E1C7
100
AcDbEntity
  8
0
100
AcDbCircle
 10
544.3434409967143
 20
630.48682853329
 30
0.0
 40
50.0
100
AcDbArc
 50
48.2544634483433
 51
71.74554330605359
  0
ARC
  5
B812
330
E1C7
100
AcDbEntity
  8
0
100
AcDbCircle
 10
544.3434409967143
 20
630.48682853329
 30
0.0
 40
50.0
100
AcDbArc
 50
108.254454872716
 51
131.7455381455135
  0
ARC
  5
B814
330
E1C7
100
AcDbEntity
  8
0
100
AcDbCircle
 10
489.3507957330425
 20
662.23682853329
 30
0.0
 40
20.5
100
AcDbArc
 50
330.00000258028
 51
6.023689824315979
  0
ARC
  5
B815
330
E1C7
100
AcDbEntity
  8
0
100
AcDbCircle
 10
489.3507957330425
 20
662.23682853329
 30
0.0
 40
20.5
100
AcDbArc
 50
293.9763110673414
 51
330.00000258028
  0
ARC
  5
B816
330
E1C7
100
AcDbEntity
  8
0
100
AcDbCircle
 10
499.3066062799175
 20
639.8508422051646
 30
0.0
 40
4.0
100
AcDbArc
 50
113.9763092461087
 51
168.2544565423568
  0
ARC
  5
B817
330
E1C7
100
AcDbEntity
  8
0
100
AcDbCircle
 10
513.7155418267925
 20
664.8078429375871
 30
0.0
 40
4.0
100
AcDbArc
 50
131.7455381455135
 51
186.0236854417763
  0
ARC
  5
B828
330
E1C7
100
AcDbEntity
  8
0
100
AcDbCircle
 10
544.3434409967143
 20
693.9868285332899
 30
0.0
 40
20.5
100
AcDbArc
 50
269.9999974955181
 51
306.0236890084526
  0
ARC
  5
B829
330
E1C7
100
AcDbEntity
  8
0
100
AcDbCircle
 10
544.3434409967143
 20
693.9868285332899
 30
0.0
 40
20.5
100
AcDbArc
 50
233.976316227876
 51
269.9999974955181
  0
ARC
  5
B82A
330
E1C7
100
AcDbEntity
  8
0
100
AcDbCircle
 10
529.9345054498392
 20
674.1718566094621
 30
0.0
 40
4.0
100
AcDbArc
 50
53.97631782173628
 51
108.2544480425228
  0
ARC
  5
B82C
330
E1C7
100
AcDbEntity
  8
0
100
AcDbCircle
 10
558.7523765435892
 20
674.1718566094621
 30
0.0
 40
4.0
100
AcDbArc
 50
71.74554330605359
 51
126.0236974325017
  0
ARC
  5
B848
330
E1C7
100
AcDbEntity
  8
0
100
AcDbCircle
 10
599.3360557428082
 20
662.23682853329
 30
0.0
 40
20.5
100
AcDbArc
 50
173.9763109157489
 51
209.9999990136028
  0
ARC
  5
B849
330
E1C7
100
AcDbEntity
  8
0
100
AcDbCircle
 10
589.3802451959332
 20
639.8508422051646
 30
0.0
 40
4.0
100
AcDbArc
 50
11.74554419773225
 51
66.02368893265839
  0
ARC
  5
B84A
330
E1C7
100
AcDbEntity
  8
0
100
AcDbCircle
 10
599.3360557428082
 20
662.23682853329
 30
0.0
 40
20.5
100
AcDbArc
 50
210.0000026560659
 51
246.0236907538971
  0
ARC
  5
B84B
330
E1C7
100
AcDbEntity
  8
0
100
AcDbCircle
 10
574.9713096490581
 20
664.8078429375871
 30
0.0
 40
4.0
100
AcDbArc
 50
353.9763084681148
 51
48.2544634483433
  0
LINE
  5
B88F
330
E1C7
100
AcDbEntity
  8
0
100
AcDbLine
 10
525.293453203746
 20
222.8078449224188
 30
0.0
 11
516.8433529465848
 21
227.6865151400396
 31
0.0
  0
LINE
  5
B891
330
E1C7
100
AcDbEntity
  8
0
100
AcDbLine
 10
507.0144398191423
 20
233.1431114986894
 30
0.0
 11
507.0144386219785
 21
227.6865091065991
 31
0.0
  0
ARC
  5
B892
330
E1C7
100
AcDbEntity
  8
0
100
AcDbCircle
 10
519.9434297464911
 20
252.8864961493443
 30
0.0
 40
23.60000038146973
100
AcDbArc
 50
179.9999849249913
 51
236.7811457110371
  0
LINE
  5
B893
330
E1C7
100
AcDbEntity
  8
0
100
AcDbLine
 10
496.343428480688
 20
274.9365063641278
 30
0.0
 11
496.3434236429762
 21
252.8865013271222
 31
0.0
  0
LINE
  5
B894
330
E1C7
100
AcDbEntity
  8
0
100
AcDbLine
 10
496.3434323749868
 20
292.6864897088567
 30
0.0
 11
496.3434323201345
 21
292.4364758465539
 31
0.0
  0
LINE
  5
B895
330
E1C7
100
AcDbEntity
  8
0
100
AcDbLine
 10
592.3434409967144
 20
292.6864791777851
 30
0.0
 11
560.0974354142848
 21
298.3723274409756
 31
0.0
  0
LINE
  5
B896
330
E1C7
100
AcDbEntity
  8
0
100
AcDbLine
 10
559.3433865422168
 20
301.1864785890192
 30
0.0
 11
560.0974354142848
 21
298.3723274409756
 31
0.0
  0
LINE
  5
B897
330
E1C7
100
AcDbEntity
  8
0
100
AcDbLine
 10
560.8434409967141
 20
331.9838077326348
 30
0.0
 11
560.8434347000089
 21
303.2837955256043
 31
0.0
  0
LINE
  5
B898
330
E1C7
100
AcDbEntity
  8
0
100
AcDbLine
 10
594.3434748058775
 20
346.9866563194988
 30
0.0
 11
594.3434715142939
 21
331.98381135269
 31
0.0
  0
LINE
  5
B899
330
E1C7
100
AcDbEntity
  8
0
100
AcDbLine
 10
579.2414853420784
 20
348.273339329555
 30
0.0
 11
579.2414817682006
 21
331.9838146660262
 31
0.0
  0
LINE
  5
B89A
330
E1C7
100
AcDbEntity
  8
0
100
AcDbLine
 10
557.9040524807509
 20
348.2733440109309
 30
0.0
 11
557.9040489068727
 21
331.9838193474013
 31
0.0
  0
ARC
  5
B89B
330
E1C7
100
AcDbEntity
  8
0
100
AcDbCircle
 10
544.3434179606263
 20
226.9866800050365
 30
0.0
 40
130.0
100
AcDbArc
 50
67.38010791034866
 51
84.0392993268758
  0
LINE
  5
B89D
330
E1C7
100
AcDbEntity
  8
0
100
AcDbLine
 10
555.343410478482
 20
303.2839191405542
 30
0.0
 11
555.3434333574009
 21
301.186598584038
 31
0.0
  0
CIRCLE
  5
B89F
330
E1C7
100
AcDbEntity
  8
0
100
AcDbCircle
 10
544.3434257379252
 20
630.48682853329
 30
0.0
 40
60.50001525878906
  0
CIRCLE
  5
B8A0
330
E1C7
100
AcDbEntity
  8
0
100
AcDbCircle
 10
544.3434257379252
 20
630.48682853329
 30
0.0
 40
50.00004577636833
  0
LINE
  5
B8A1
330
E1C7
100
AcDbEntity
  8
0
100
AcDbLine
 10
624.2368423566605
 20
271.9365091065963
 30
0.0
 11
624.2368054306815
 21
233.8365030030808
 31
0.0
  0
LINE
  5
B8A2
330
E1C7
100
AcDbEntity
  8
0
100
AcDbLine
 10
525.2934532037454
 20
197.9931068698219
 30
0.0
 11
563.3934287896829
 21
197.993122859804
 31
0.0
  0
LINE
  5
B8A4
330
E1C7
100
AcDbEntity
  8
0
100
AcDbLine
 10
626.4934365144235
 20
605.2368285332899
 30
0.0
 11
624.2368054306816
 21
611.4368712578992
 31
0.0
  0
LINE
  5
B8A5
330
E1C7
100
AcDbEntity
  8
0
100
AcDbLine
 10
629.3434715142925
 20
655.7368285332898
 30
0.0
 11
629.3434715142925
 21
605.2368285332899
 31
0.0
  0
LINE
  5
B8A6
330
E1C7
100
AcDbEntity
  8
0
100
AcDbLine
 10
629.3434715142925
 20
605.2368285332899
 30
0.0
 11
626.4934365144235
 21
605.2368285332899
 31
0.0
  0
LINE
  5
B8A8
330
E1C7
100
AcDbEntity
  8
0
100
AcDbLine
 10
624.2368054306816
 20
611.4368712578992
 30
0.0
 11
601.7659907635272
 21
611.4368712578992
 31
0.0
  0
LINE
  5
B8A9
330
E1C7
100
AcDbEntity
  8
0
100
AcDbLine
 10
624.2368423566603
 20
649.5368773614146
 30
0.0
 11
601.7659603907928
 21
649.5368773614146
 31
0.0
  0
LINE
  5
B8AA
330
E1C7
100
AcDbEntity
  8
0
100
AcDbLine
 10
624.2368423566603
 20
649.5368773614146
 30
0.0
 11
624.2368054306816
 21
611.4368712578992
 31
0.0
  0
LINE
  5
B8AB
330
E1C7
100
AcDbEntity
  8
0
100
AcDbLine
 10
626.493440117932
 20
655.7368285332898
 30
0.0
 11
624.2368423566603
 21
649.5368773614146
 31
0.0
  0
LINE
  5
B8AC
330
E1C7
100
AcDbEntity
  8
0
100
AcDbLine
 10
629.3434715142925
 20
655.7368285332898
 30
0.0
 11
626.493440117932
 21
655.7368285332898
 31
0.0
  0
LINE
  5
E190
330
E1C7
100
AcDbEntity
  8
0
100
AcDbLine
 10
464.4500323921129
 20
271.9365373408141
 30
0.0
 11
464.4500558536029
 21
233.8365312372878
 31
0.0
  0
LINE
  5
E191
330
E1C7
100
AcDbEntity
  8
0
100
AcDbLine
 10
459.3434054255352
 20
278.1364903173644
 30
0.0
 11
459.3433875789057
 21
227.6364903173675
 31
0.0
  0
LINE
  5
E192
330
E1C7
100
AcDbEntity
  8
0
100
AcDbLine
 10
462.1934225787748
 20
227.6364893101691
 30
0.0
 11
464.4500558536029
 21
233.8365312372878
 31
0.0
  0
LINE
  5
E193
330
E1C7
100
AcDbEntity
  8
0
100
AcDbLine
 10
459.3433875789057
 20
227.6364903173675
 30
0.0
 11
462.1934225787748
 21
227.6364893101691
 31
0.0
  0
LINE
  5
E194
330
E1C7
100
AcDbEntity
  8
0
100
AcDbLine
 10
464.4500558536029
 20
233.8365312372878
 30
0.0
 11
506.0129489495991
 21
233.8365165490194
 31
0.0
  0
LINE
  5
E195
330
E1C7
100
AcDbEntity
  8
0
100
AcDbLine
 10
462.1934368218954
 20
278.1364893101673
 30
0.0
 11
464.4500323921129
 21
271.9365373408141
 31
0.0
  0
LINE
  5
E196
330
E1C7
100
AcDbEntity
  8
0
100
AcDbLine
 10
459.3434054255352
 20
278.1364903173644
 30
0.0
 11
462.1934368218954
 21
278.1364893101673
 31
0.0
  0
LINE
  5
E197
330
E1C7
100
AcDbEntity
  8
0
100
AcDbLine
 10
464.4500323921129
 20
271.9365373408141
 30
0.0
 11
496.343433752057
 21
271.9365260697304
 31
0.0
  0
LINE
  5
E198
330
E1C7
100
AcDbEntity
  8
0
100
AcDbLine
 10
464.450032392113
 20
649.5368755567381
 30
0.0
 11
464.4500558536027
 21
611.4368694532116
 31
0.0
  0
LINE
  5
E199
330
E1C7
100
AcDbEntity
  8
0
100
AcDbLine
 10
459.3434054255352
 20
655.7368285332885
 30
0.0
 11
459.3433875789057
 21
605.2368285332915
 31
0.0
  0
LINE
  5
E19A
330
E1C7
100
AcDbEntity
  8
0
100
AcDbLine
 10
464.4500558536027
 20
611.4368694532116
 30
0.0
 11
486.9208639455101
 21
611.4368615120594
 31
0.0
  0
LINE
  5
E19B
330
E1C7
100
AcDbEntity
  8
0
100
AcDbLine
 10
459.3433875789057
 20
605.2368285332915
 30
0.0
 11
462.1934225787746
 21
605.2368275260931
 31
0.0
  0
LINE
  5
E19C
330
E1C7
100
AcDbEntity
  8
0
100
AcDbLine
 10
462.1934225787746
 20
605.2368275260931
 30
0.0
 11
464.4500558536027
 21
611.4368694532116
 31
0.0
  0
LINE
  5
E19D
330
E1C7
100
AcDbEntity
  8
0
100
AcDbLine
 10
459.3434054255352
 20
655.7368285332885
 30
0.0
 11
462.1934368218954
 21
655.7368275260913
 31
0.0
  0
LINE
  5
E19E
330
E1C7
100
AcDbEntity
  8
0
100
AcDbLine
 10
462.1934368218954
 20
655.7368275260913
 30
0.0
 11
464.450032392113
 21
649.5368755567381
 31
0.0
  0
LINE
  5
E19F
330
E1C7
100
AcDbEntity
  8
0
100
AcDbLine
 10
464.450032392113
 20
649.5368755567381
 30
0.0
 11
486.9208878518535
 21
649.5368676155692
 31
0.0
  0
LINE
  5
E2C7
330
E1C7
100
AcDbEntity
  8
0
  6
CENTER
100
AcDbLine
 10
544.3434409967143
 20
558.6262464711767
 30
0.0
 11
544.3434409967143
 21
702.3474105954033
 31
0.0
  0
LINE
  5
E2C8
330
E1C7
100
AcDbEntity
  8
0
  6
CENTER
100
AcDbLine
 10
430.862013630029
 20
252.8864602784714
 30
0.0
 11
657.8248378458199
 21
252.8864602784714
 31
0.0
  0
LINE
  5
E2C9
330
E1C7
100
AcDbEntity
  8
0
  6
CENTER
100
AcDbLine
 10
544.3434257379245
 20
165.039448743131
 30
0.0
 11
544.3434257379245
 21
378.2111320954875
 31
0.0
  0
LINE
  5
E2CA
330
E1C7
100
AcDbEntity
  8
0
  6
CENTER
100
AcDbLine
 10
430.8620288888188
 20
630.48682853329
 30
0.0
 11
657.8248531046097
 21
630.48682853329
 31
0.0
  0
ENDSEC
  0
SECTION
  2
OBJECTS
  0
DICTIONARY
  5
E1B5
330
0
100
AcDbDictionary
281
     1
  3
ACAD_GROUP
350
E1B6
  3
ACAD_LAYOUT
350
E1C2
  3
ACAD_MLINESTYLE
350
E1BF
  3
ACAD_PLOTSETTINGS
350
E1C1
  3
ACAD_PLOTSTYLENAME
350
E1B7
  3
AcDbVariableDictionary
350
E20D
  0
DICTIONARY
  5
E2BE
330
E1AB
100
AcDbDictionary
280
     1
281
     1
  3
ACAD_LAYERSTATES
360
E2BF
  0
DICTIONARY
  5
E1D9
330
E1C7
100
AcDbDictionary
280
     1
281
     1
  3
ACAD_LAYOUTSELFREF
360
E2B6
  0
DICTIONARY
  5
E1DB
330
E1C3
100
AcDbDictionary
280
     1
281
     1
  3
ACAD_LAYOUTSELFREF
360
E2B5
  0
DICTIONARY
  5
E1B6
102
{ACAD_REACTORS
330
E1B5
102
}
330
E1B5
100
AcDbDictionary
281
     1
  0
DICTIONARY
  5
E1C2
102
{ACAD_REACTORS
330
E1B5
102
}
330
E1B5
100
AcDbDictionary
281
     1
  3
Model
350
E1CA
  3
ﾚｲｱｳﾄ1
350
E1C6
  0
DICTIONARY
  5
E1BF
102
{ACAD_REACTORS
330
E1B5
102
}
330
E1B5
100
AcDbDictionary
281
     1
  3
Standard
350
E1C0
  0
DICTIONARY
  5
E1C1
102
{ACAD_REACTORS
330
E1B5
102
}
330
E1B5
100
AcDbDictionary
281
     1
  0
ACDBDICTIONARYWDFLT
  5
E1B7
102
{ACAD_REACTORS
330
E1B5
102
}
330
E1B5
100
AcDbDictionary
281
     1
  3
Normal
350
E1B8
100
AcDbDictionaryWithDefault
340
E1B8
  0
DICTIONARY
  5
E20D
102
{ACAD_REACTORS
330
E1B5
102
}
330
E1B5
100
AcDbDictionary
281
     1
  3
DIMASSOC
350
E20E
  0
DICTIONARY
  5
E2BF
102
{ACAD_REACTORS
330
E2BE
102
}
330
E2BE
100
AcDbDictionary
281
     1
  0
XRECORD
  5
E2B6
102
{ACAD_REACTORS
330
E1D9
102
}
330
E1D9
100
AcDbXrecord
280
     1
340
E1C7
  0
XRECORD
  5
E2B5
102
{ACAD_REACTORS
330
E1DB
102
}
330
E1DB
100
AcDbXrecord
280
     1
340
E1C3
  0
LAYOUT
  5
E1CA
102
{ACAD_REACTORS
330
E1C2
102
}
330
E1C2
100
AcDbPlotSettings
  1

  2
SII LP-2150 (D-SCAN C2)
  4

  6

 40
0.0
 41
0.0
 42
0.0
 43
0.0
 44
0.0
 45
0.0
 46
0.0
 47
0.0
 48
0.0
 49
0.0
140
0.0
141
0.0
142
1.0
143
1.0
 70
  1712
 72
     0
 73
     0
 74
     0
  7

 75
     0
147
1.0
148
0.0
149
0.0
100
AcDbLayout
  1
Model
 70
     1
 71
     0
 10
0.0
 20
0.0
 11
12.0
 21
9.0
 12
0.0
 22
0.0
 32
0.0
 14
0.0
 24
0.0
 34
0.0
 15
0.0
 25
0.0
 35
0.0
146
0.0
 13
0.0
 23
0.0
 33
0.0
 16
1.0
 26
0.0
 36
0.0
 17
0.0
 27
1.0
 37
0.0
 76
     0
330
E1C7
  0
LAYOUT
  5
E1C6
102
{ACAD_REACTORS
330
E1C2
102
}
330
E1C2
100
AcDbPlotSettings
  1

  2
SII LP-2150 (D-SCAN C2)
  4

  6

 40
0.0
 41
0.0
 42
0.0
 43
0.0
 44
0.0
 45
0.0
 46
0.0
 47
0.0
 48
0.0
 49
0.0
140
0.0
141
0.0
142
1.0
143
1.0
 70
   688
 72
     0
 73
     0
 74
     5
  7

 75
    16
147
1.0
148
0.0
149
0.0
100
AcDbLayout
  1
ﾚｲｱｳﾄ1
 70
     1
 71
     1
 10
-580.5701293945312
 20
0.0
 11
0.0
 21
407.8999938964844
 12
0.0
 22
0.0
 32
0.0
 14
-580.5701293945312
 24
0.0
 34
0.0
 15
0.0
 25
407.8999938964844
 35
0.0
146
0.0
 13
0.0
 23
0.0
 33
0.0
 16
1.0
 26
0.0
 36
0.0
 17
0.0
 27
1.0
 37
0.0
 76
     0
330
E1C3
  0
MLINESTYLE
  5
E1C0
102
{ACAD_REACTORS
330
E1BF
102
}
330
E1BF
100
AcDbMlineStyle
  2
STANDARD
 70
     0
  3

 62
   256
 51
90.0
 52
90.0
 71
     2
 49
0.5
 62
   256
  6
BYLAYER
 49
-0.5
 62
   256
  6
BYLAYER
  0
ACDBPLACEHOLDER
  5
E1B8
102
{ACAD_REACTORS
330
E1B7
102
}
330
E1B7
  0
DICTIONARYVAR
  5
E20E
102
{ACAD_REACTORS
330
E20D
102
}
330
E20D
100
DictionaryVariables
280
     0
  1
1
  0
ENDSEC
  0
EOF
