  0
SECTION
  2
HEADER
  9
$ACADVER
  1
AC1015
  9
$ACADMAINTVER
 70
    14
  9
$DWGCODEPAGE
  3
ANSI_932
  9
$INSBASE
 10
0.0
 20
0.0
 30
0.0
  9
$EXTMIN
 10
296.8190953210359
 20
126.430739345536
 30
-0.0000000000000058
  9
$EXTMAX
 10
736.5386450654414
 20
722.2189222236361
 30
0.0000000000000104
  9
$LIMMIN
 10
-580.5701293945312
 20
0.0
  9
$LIMMAX
 10
0.0
 20
407.8999938964844
  9
$ORTHOMODE
 70
     0
  9
$REGENMODE
 70
     1
  9
$FILLMODE
 70
     1
  9
$QTEXTMODE
 70
     0
  9
$MIRRTEXT
 70
     1
  9
$LTSCALE
 40
1.0
  9
$ATTMODE
 70
     1
  9
$TEXTSIZE
 40
0.2
  9
$TRACEWID
 40
0.05
  9
$TEXTSTYLE
  7
STANDARD
  9
$CLAYER
  8
0
  9
$CELTYPE
  6
ByLayer
  9
$CECOLOR
 62
   256
  9
$CELTSCALE
 40
1.0
  9
$DISPSILH
 70
     0
  9
$DIMSCALE
 40
1.0
  9
$DIMASZ
 40
1.0
  9
$DIMEXO
 40
2.54
  9
$DIMDLI
 40
0.38
  9
$DIMRND
 40
0.0
  9
$DIMDLE
 40
0.0
  9
$DIMEXE
 40
2.54
  9
$DIMTP
 40
0.0
  9
$DIMTM
 40
0.0
  9
$DIMTXT
 40
3.200000047683714
  9
$DIMCEN
 40
0.09
  9
$DIMTSZ
 40
0.0
  9
$DIMTOL
 70
     0
  9
$DIMLIM
 70
     0
  9
$DIMTIH
 70
     0
  9
$DIMTOH
 70
     0
  9
$DIMSE1
 70
     0
  9
$DIMSE2
 70
     0
  9
$DIMTAD
 70
     1
  9
$DIMZIN
 70
     0
  9
$DIMBLK
  1

  9
$DIMASO
 70
     1
  9
$DIMSHO
 70
     0
  9
$DIMPOST
  1

  9
$DIMAPOST
  1

  9
$DIMALT
 70
     0
  9
$DIMALTD
 70
     2
  9
$DIMALTF
 40
25.4
  9
$DIMLFAC
 40
1.0
  9
$DIMTOFL
 70
     0
  9
$DIMTVP
 40
1.0
  9
$DIMTIX
 70
     0
  9
$DIMSOXD
 70
     0
  9
$DIMSAH
 70
     0
  9
$DIMBLK1
  1

  9
$DIMBLK2
  1

  9
$DIMSTYLE
  2
STANDARD
  9
$DIMCLRD
 70
     0
  9
$DIMCLRE
 70
     0
  9
$DIMCLRT
 70
     0
  9
$DIMTFAC
 40
1.0
  9
$DIMGAP
 40
1.600000023841857
  9
$DIMJUST
 70
     0
  9
$DIMSD1
 70
     0
  9
$DIMSD2
 70
     0
  9
$DIMTOLJ
 70
     1
  9
$DIMTZIN
 70
     0
  9
$DIMALTZ
 70
     0
  9
$DIMALTTZ
 70
     0
  9
$DIMUPT
 70
     0
  9
$DIMDEC
 70
     4
  9
$DIMTDEC
 70
     4
  9
$DIMALTU
 70
     2
  9
$DIMALTTD
 70
     2
  9
$DIMTXSTY
  7
STANDARD
  9
$DIMAUNIT
 70
     0
  9
$DIMADEC
 70
     0
  9
$DIMALTRND
 40
0.0
  9
$DIMAZIN
 70
     0
  9
$DIMDSEP
 70
    46
  9
$DIMATFIT
 70
     3
  9
$DIMFRAC
 70
     0
  9
$DIMLDRBLK
  1

  9
$DIMLUNIT
 70
     2
  9
$DIMLWD
 70
    -2
  9
$DIMLWE
 70
    -2
  9
$DIMTMOVE
 70
     0
  9
$LUNITS
 70
     2
  9
$LUPREC
 70
     4
  9
$SKETCHINC
 40
0.1
  9
$FILLETRAD
 40
0.0
  9
$AUNITS
 70
     0
  9
$AUPREC
 70
     0
  9
$MENU
  1
.
  9
$ELEVATION
 40
0.0
  9
$PELEVATION
 40
0.0
  9
$THICKNESS
 40
0.0
  9
$LIMCHECK
 70
     0
  9
$CHAMFERA
 40
0.0
  9
$CHAMFERB
 40
0.0
  9
$CHAMFERC
 40
0.0
  9
$CHAMFERD
 40
0.0
  9
$SKPOLY
 70
     0
  9
$TDCREATE
 40
2452717.604314595
  9
$TDUCREATE
 40
2452717.229314595
  9
$TDUPDATE
 40
2456899.671161735
  9
$TDUUPDATE
 40
2456899.296161735
  9
$TDINDWG
 40
0.3830083565
  9
$TDUSRTIMER
 40
0.3830081713
  9
$USRTIMER
 70
     1
  9
$ANGBASE
 50
0.0
  9
$ANGDIR
 70
     0
  9
$PDMODE
 70
     3
  9
$PDSIZE
 40
0.0
  9
$PLINEWID
 40
0.0
  9
$SPLFRAME
 70
     0
  9
$SPLINETYPE
 70
     6
  9
$SPLINESEGS
 70
     8
  9
$HANDSEED
  5
E28E
  9
$SURFTAB1
 70
     6
  9
$SURFTAB2
 70
     6
  9
$SURFTYPE
 70
     6
  9
$SURFU
 70
     6
  9
$SURFV
 70
     6
  9
$UCSBASE
  2

  9
$UCSNAME
  2

  9
$UCSORG
 10
0.0
 20
0.0
 30
0.0
  9
$UCSXDIR
 10
1.0
 20
0.0
 30
0.0
  9
$UCSYDIR
 10
0.0
 20
1.0
 30
0.0
  9
$UCSORTHOREF
  2

  9
$UCSORTHOVIEW
 70
     0
  9
$UCSORGTOP
 10
0.0
 20
0.0
 30
0.0
  9
$UCSORGBOTTOM
 10
0.0
 20
0.0
 30
0.0
  9
$UCSORGLEFT
 10
0.0
 20
0.0
 30
0.0
  9
$UCSORGRIGHT
 10
0.0
 20
0.0
 30
0.0
  9
$UCSORGFRONT
 10
0.0
 20
0.0
 30
0.0
  9
$UCSORGBACK
 10
0.0
 20
0.0
 30
0.0
  9
$PUCSBASE
  2

  9
$PUCSNAME
  2

  9
$PUCSORG
 10
0.0
 20
0.0
 30
0.0
  9
$PUCSXDIR
 10
1.0
 20
0.0
 30
0.0
  9
$PUCSYDIR
 10
0.0
 20
1.0
 30
0.0
  9
$PUCSORTHOREF
  2

  9
$PUCSORTHOVIEW
 70
     0
  9
$PUCSORGTOP
 10
0.0
 20
0.0
 30
0.0
  9
$PUCSORGBOTTOM
 10
0.0
 20
0.0
 30
0.0
  9
$PUCSORGLEFT
 10
0.0
 20
0.0
 30
0.0
  9
$PUCSORGRIGHT
 10
0.0
 20
0.0
 30
0.0
  9
$PUCSORGFRONT
 10
0.0
 20
0.0
 30
0.0
  9
$PUCSORGBACK
 10
0.0
 20
0.0
 30
0.0
  9
$USERI1
 70
     0
  9
$USERI2
 70
     0
  9
$USERI3
 70
     0
  9
$USERI4
 70
     0
  9
$USERI5
 70
     0
  9
$USERR1
 40
0.0
  9
$USERR2
 40
0.0
  9
$USERR3
 40
0.0
  9
$USERR4
 40
0.0
  9
$USERR5
 40
0.0
  9
$WORLDVIEW
 70
     1
  9
$SHADEDGE
 70
     3
  9
$SHADEDIF
 70
    70
  9
$TILEMODE
 70
     1
  9
$MAXACTVP
 70
    48
  9
$PINSBASE
 10
0.0
 20
0.0
 30
0.0
  9
$PLIMCHECK
 70
     0
  9
$PEXTMIN
 10
-580.5701293945312
 20
0.0
 30
0.0
  9
$PEXTMAX
 10
0.0
 20
407.8999938964844
 30
0.0
  9
$PLIMMIN
 10
-580.5701293945312
 20
0.0
  9
$PLIMMAX
 10
0.0
 20
407.8999938964844
  9
$UNITMODE
 70
     0
  9
$VISRETAIN
 70
     1
  9
$PLINEGEN
 70
     0
  9
$PSLTSCALE
 70
     1
  9
$TREEDEPTH
 70
  3020
  9
$CMLSTYLE
  2
Standard
  9
$CMLJUST
 70
     0
  9
$CMLSCALE
 40
1.0
  9
$PROXYGRAPHICS
 70
     1
  9
$MEASUREMENT
 70
     0
  9
$CELWEIGHT
370
    -1
  9
$ENDCAPS
280
     0
  9
$JOINSTYLE
280
     0
  9
$LWDISPLAY
290
     0
  9
$INSUNITS
 70
     0
  9
$HYPERLINKBASE
  1

  9
$STYLESHEET
  1

  9
$XEDIT
290
     1
  9
$CEPSNTYPE
380
     0
  9
$PSTYLEMODE
290
     1
  9
$FINGERPRINTGUID
  2
{0F12BB6C-C061-496B-8D77-25DADDF7B59E}
  9
$VERSIONGUID
  2
{BB48E0EB-0F7F-4DC3-A897-D2FC32625191}
  9
$EXTNAMES
290
     1
  9
$PSVPSCALE
 40
0.0
  9
$OLESTARTUP
290
     0
  0
ENDSEC
  0
SECTION
  2
CLASSES
  0
CLASS
  1
ACDBDICTIONARYWDFLT
  2
AcDbDictionaryWithDefault
  3
AutoCAD 2000
 90
        0
280
     0
281
     0
  0
CLASS
  1
ACDBPLACEHOLDER
  2
AcDbPlaceHolder
  3
AutoCAD 2000
 90
        0
280
     0
281
     0
  0
CLASS
  1
LAYOUT
  2
AcDbLayout
  3
AutoCAD 2000
 90
        0
280
     0
281
     0
  0
CLASS
  1
DICTIONARYVAR
  2
AcDbDictionaryVar
  3
AutoCAD 2000
 90
        0
280
     0
281
     0
  0
CLASS
  1
LONG_TRANSACTION
  2
AcDbLongTransaction
  3
AutoCAD 2000
 90
    32768
280
     0
281
     0
  0
CLASS
  1
LWPOLYLINE
  2
AcDbPolyline
  3
AutoCAD 2000
 90
    32768
280
     0
281
     1
  0
CLASS
  1
HATCH
  2
AcDbHatch
  3
AutoCAD 2000
 90
    32768
280
     0
281
     1
  0
CLASS
  1
XRECORD
  2
AcDbXrecord
  3
AutoCAD 2000
 90
    32768
280
     0
281
     0
  0
CLASS
  1
LONG_TRANSACTION
  2
AcDbLongTransaction
  3
AutoCAD 2000
 90
    32768
280
     0
281
     0
  0
CLASS
  1
LWPOLYLINE
  2
AcDbPolyline
  3
AutoCAD 2000
 90
    32768
280
     0
281
     1
  0
CLASS
  1
HATCH
  2
AcDbHatch
  3
AutoCAD 2000
 90
    32768
280
     0
281
     1
  0
CLASS
  1
XRECORD
  2
AcDbXrecord
  3
AutoCAD 2000
 90
    32768
280
     0
281
     0
  0
CLASS
  1
LONG_TRANSACTION
  2
AcDbLongTransaction
  3
AutoCAD 2000
 90
    32768
280
     0
281
     0
  0
CLASS
  1
LWPOLYLINE
  2
AcDbPolyline
  3
AutoCAD 2000
 90
    32768
280
     0
281
     1
  0
CLASS
  1
HATCH
  2
AcDbHatch
  3
AutoCAD 2000
 90
    32768
280
     0
281
     1
  0
CLASS
  1
XRECORD
  2
AcDbXrecord
  3
AutoCAD 2000
 90
    32768
280
     0
281
     0
  0
ENDSEC
  0
SECTION
  2
TABLES
  0
TABLE
  2
VPORT
  5
E1A1
330
0
100
AcDbSymbolTable
 70
     2
  0
VPORT
  5
E28D
330
E1A1
100
AcDbSymbolTableRecord
100
AcDbViewportTableRecord
  2
*Active
 70
     0
 10
0.0
 20
0.0
 11
1.0
 21
1.0
 12
516.6788701932388
 22
424.3248307845861
 13
0.0
 23
0.0
 14
1.0
 24
1.0
 15
0.0
 25
0.0
 16
0.0
 26
0.0
 36
1.0
 17
0.0
 27
0.0
 37
0.0
 40
599.5709649916118
 41
1.592161016949152
 42
50.0
 43
0.0
 44
0.0
 50
0.0
 51
0.0
 71
     0
 72
   100
 73
     1
 74
     3
 75
     0
 76
     0
 77
     0
 78
     0
281
     0
 65
     1
110
0.0
120
0.0
130
0.0
111
1.0
121
0.0
131
0.0
112
0.0
122
1.0
132
0.0
 79
     0
146
0.0
  0
ENDTAB
  0
TABLE
  2
LTYPE
  5
E19E
330
0
100
AcDbSymbolTable
 70
     2
  0
LTYPE
  5
E1AC
330
E19E
100
AcDbSymbolTableRecord
100
AcDbLinetypeTableRecord
  2
ByBlock
 70
     0
  3

 72
    65
 73
     0
 40
0.0
  0
LTYPE
  5
E1AD
330
E19E
100
AcDbSymbolTableRecord
100
AcDbLinetypeTableRecord
  2
ByLayer
 70
     0
  3

 72
    65
 73
     0
 40
0.0
  0
LTYPE
  5
E1AE
330
E19E
100
AcDbSymbolTableRecord
100
AcDbLinetypeTableRecord
  2
CONTINUOUS
 70
     0
  3
Solid line
 72
    65
 73
     0
 40
0.0
  0
LTYPE
  5
E273
330
E19E
100
AcDbSymbolTableRecord
100
AcDbLinetypeTableRecord
  2
CENTER
 70
     0
  3
__ . __
 72
    65
 73
     4
 40
7.0
 49
4.0
 74
     0
 49
-1.0
 74
     0
 49
1.0
 74
     0
 49
-1.0
 74
     0
  0
ENDTAB
  0
TABLE
  2
LAYER
  5
E19B
102
{ACAD_XDICTIONARY
360
E275
102
}
330
0
100
AcDbSymbolTable
 70
     1
  0
LAYER
  5
E1A9
330
E19B
100
AcDbSymbolTableRecord
100
AcDbLayerTableRecord
  2
0
 70
     0
 62
     7
  6
CONTINUOUS
370
    -3
390
E1A8
  0
ENDTAB
  0
TABLE
  2
STYLE
  5
E19C
330
0
100
AcDbSymbolTable
 70
     1
  0
STYLE
  5
E1AA
330
E19C
100
AcDbSymbolTableRecord
100
AcDbTextStyleTableRecord
  2
STANDARD
 70
     0
 40
0.0
 41
1.0
 50
0.0
 71
     0
 42
0.2
  3
txt
  4
BIGFONT
  0
ENDTAB
  0
TABLE
  2
VIEW
  5
E19F
330
0
100
AcDbSymbolTable
 70
     0
  0
ENDTAB
  0
TABLE
  2
UCS
  5
E1A0
330
0
100
AcDbSymbolTable
 70
     0
  0
ENDTAB
  0
TABLE
  2
APPID
  5
E1A2
330
0
100
AcDbSymbolTable
 70
     4
  0
APPID
  5
E1AB
330
E1A2
100
AcDbSymbolTableRecord
100
AcDbRegAppTableRecord
  2
ACAD
 70
     0
  0
APPID
  5
E1BD
330
E1A2
100
AcDbSymbolTableRecord
100
AcDbRegAppTableRecord
  2
MCAD_NO_VIS
 70
     0
  0
APPID
  5
E1BE
330
E1A2
100
AcDbSymbolTableRecord
100
AcDbRegAppTableRecord
  2
ACAD_TEMP_GRAPHIC
 70
     0
  0
APPID
  5
E1BF
330
E1A2
100
AcDbSymbolTableRecord
100
AcDbRegAppTableRecord
  2
ACATTRIBSERVICES
 70
     0
  0
ENDTAB
  0
TABLE
  2
DIMSTYLE
  5
E1A3
330
0
100
AcDbSymbolTable
 70
     1
100
AcDbDimStyleTable
 71
     0
  0
DIMSTYLE
105
E1C0
330
E1A3
100
AcDbSymbolTableRecord
100
AcDbDimStyleTableRecord
  2
STANDARD
 70
     0
279
     2
340
E1AA
  0
ENDTAB
  0
TABLE
  2
BLOCK_RECORD
  5
E19A
330
0
100
AcDbSymbolTable
 70
     0
  0
BLOCK_RECORD
  5
E1B7
102
{ACAD_XDICTIONARY
360
E1C9
102
}
330
E19A
100
AcDbSymbolTableRecord
100
AcDbBlockTableRecord
  2
*Model_Space
340
E1BA
  0
BLOCK_RECORD
  5
E1B3
102
{ACAD_XDICTIONARY
360
E1CB
102
}
330
E19A
100
AcDbSymbolTableRecord
100
AcDbBlockTableRecord
  2
*Paper_Space
340
E1B6
  0
ENDTAB
  0
ENDSEC
  0
SECTION
  2
BLOCKS
  0
BLOCK
  5
E1B8
330
E1B7
100
AcDbEntity
  8
0
100
AcDbBlockBegin
  2
*Model_Space
 70
     0
 10
0.0
 20
0.0
 30
0.0
  3
*Model_Space
  1

  0
ENDBLK
  5
E1B9
330
E1B7
100
AcDbEntity
  8
0
100
AcDbBlockEnd
  0
BLOCK
  5
E1B4
330
E1B3
100
AcDbEntity
 67
     1
  8
0
100
AcDbBlockBegin
  2
*Paper_Space
 70
     0
 10
0.0
 20
0.0
 30
0.0
  3
*Paper_Space
  1

  0
ENDBLK
  5
E1B5
330
E1B3
100
AcDbEntity
 67
     1
  8
0
100
AcDbBlockEnd
  0
ENDSEC
  0
SECTION
  2
ENTITIES
  0
TEXT
  5
4517
330
E1B7
100
AcDbEntity
  8
0
  6
Continuous
100
AcDbText
 10
296.8661666272692
 20
674.1858554614517
 30
0.0
 40
48.000002
  1
DAS2L 1S
 41
1.32095
100
AcDbText
  0
LINE
  5
B0D3
330
E1B7
100
AcDbEntity
  8
0
100
AcDbLine
 10
535.9641396256241
 20
136.9513220873041
 30
0.0
 11
523.4141213150774
 21
141.5191553554059
 31
0.0
  0
LINE
  5
B0D4
330
E1B7
100
AcDbEntity
  8
0
100
AcDbLine
 10
535.9641396256241
 20
134.101312028212
 30
0.0
 11
485.4641396256242
 21
134.101312028212
 31
0.0
  0
LINE
  5
B0D6
330
E1B7
100
AcDbEntity
  8
0
100
AcDbLine
 10
530.7141490101935
 20
166.6013120282119
 30
0.0
 11
523.4141213150774
 21
162.3866389976991
 31
0.0
  0
LINE
  5
B106
330
E1B7
100
AcDbEntity
  8
0
100
AcDbLine
 10
485.4641396256242
 20
136.9513131386606
 30
0.0
 11
498.0141274185929
 21
141.5191352992711
 31
0.0
  0
LINE
  5
B10C
330
E1B7
100
AcDbEntity
  8
0
100
AcDbLine
 10
485.4641396256242
 20
134.101312028212
 30
0.0
 11
485.4641396256242
 21
136.9513131386606
 31
0.0
  0
LINE
  5
B117
330
E1B7
100
AcDbEntity
  8
0
100
AcDbLine
 10
498.0141274185929
 20
141.5191352992711
 30
0.0
 11
498.0141274185929
 21
162.3866566170312
 31
0.0
  0
LINE
  5
B121
330
E1B7
100
AcDbEntity
  8
0
100
AcDbLine
 10
523.4141213150774
 20
162.3866389976991
 30
0.0
 11
523.4141213150774
 21
141.5191553554059
 31
0.0
  0
LINE
  5
B380
330
E1B7
100
AcDbEntity
  8
0
100
AcDbLine
 10
580.7141091080457
 20
209.351312028212
 30
0.0
 11
580.7141091080457
 21
158.8513120282119
 31
0.0
  0
LINE
  5
B388
330
E1B7
100
AcDbEntity
  8
0
100
AcDbLine
 10
535.9641396256241
 20
134.101312028212
 30
0.0
 11
535.9641396256241
 21
136.9513220873041
 31
0.0
  0
LINE
  5
B38B
330
E1B7
100
AcDbEntity
  8
0
100
AcDbLine
 10
536.3384377213272
 20
170.5920562427178
 30
0.0
 11
536.3384377213272
 21
166.6013120282119
 31
0.0
  0
LINE
  5
B391
330
E1B7
100
AcDbEntity
  8
0
100
AcDbLine
 10
577.8641024320121
 20
158.8513120282119
 30
0.0
 11
573.2962802714015
 21
171.4012998211817
 31
0.0
  0
LINE
  5
B395
330
E1B7
100
AcDbEntity
  8
0
100
AcDbLine
 10
580.7141091080457
 20
158.8513120282119
 30
0.0
 11
577.8641024320121
 21
158.8513120282119
 31
0.0
  0
LINE
  5
B39F
330
E1B7
100
AcDbEntity
  8
0
100
AcDbLine
 10
573.2962955209313
 20
196.8013242352433
 30
0.0
 11
542.7141091080456
 21
196.8013242352433
 31
0.0
  0
LINE
  5
B3A0
330
E1B7
100
AcDbEntity
  8
0
100
AcDbLine
 10
573.2962802714015
 20
171.4012998211817
 30
0.0
 11
537.2540603039873
 21
171.4012998211804
 31
0.0
  0
LINE
  5
B3B2
330
E1B7
100
AcDbEntity
  8
0
100
AcDbLine
 10
542.7141091080456
 20
200.8513120282144
 30
0.0
 11
542.7141091080456
 21
184.101312028212
 31
0.0
  0
ARC
  5
B3FD
330
E1B7
100
AcDbEntity
  8
0
100
AcDbCircle
 10
525.2141396256241
 20
184.101312028212
 30
0.0
 40
17.5
100
AcDbArc
 50
309.4700048600492
 51
0.0000025044687019
  0
LINE
  5
B46C
330
E1B7
100
AcDbEntity
  8
0
100
AcDbLine
 10
577.8641176815411
 20
209.351312028212
 30
0.0
 11
573.2962955209313
 21
196.8013242352433
 31
0.0
  0
LINE
  5
B47D
330
E1B7
100
AcDbEntity
  8
0
100
AcDbLine
 10
580.7141091080457
 20
209.351312028212
 30
0.0
 11
577.8641176815411
 21
209.351312028212
 31
0.0
  0
LINE
  5
B8B5
330
E1B7
100
AcDbEntity
  8
0
100
AcDbLine
 10
536.3384377213272
 20
166.6013120282119
 30
0.0
 11
485.089841529921
 21
166.6013120282119
 31
0.0
  0
LINE
  5
B8B6
330
E1B7
100
AcDbEntity
  8
0
100
AcDbLine
 10
490.7141302410555
 20
166.6013120282119
 30
0.0
 11
498.0141274185929
 21
162.3866566170312
 31
0.0
  0
LINE
  5
B8B7
330
E1B7
100
AcDbEntity
  8
0
100
AcDbLine
 10
478.7141701432023
 20
200.8513120282104
 30
0.0
 11
478.7141701432023
 21
184.101312028212
 31
0.0
  0
ARC
  5
B8B8
330
E1B7
100
AcDbEntity
  8
0
100
AcDbCircle
 10
496.2141396256241
 20
184.101312028212
 30
0.0
 40
17.5
100
AcDbArc
 50
179.9999974955312
 51
230.5299951399506
  0
LINE
  5
B8B9
330
E1B7
100
AcDbEntity
  8
0
100
AcDbLine
 10
485.089841529921
 20
170.5920562427178
 30
0.0
 11
485.089841529921
 21
166.6013120282119
 31
0.0
  0
LINE
  5
B8BA
330
E1B7
100
AcDbEntity
  8
0
100
AcDbLine
 10
524.2141243668352
 20
269.2013486493075
 30
0.0
 11
497.2141854019914
 21
269.2013486493075
 31
0.0
  0
LINE
  5
B8BB
330
E1B7
100
AcDbEntity
  8
0
100
AcDbLine
 10
495.7488034424108
 20
226.2013181317305
 30
0.0
 11
525.6795116753083
 21
226.2013181317305
 31
0.0
  0
LINE
  5
B8BC
330
E1B7
100
AcDbEntity
  8
0
100
AcDbLine
 10
527.2141548844133
 20
229.2013486493075
 30
0.0
 11
494.2141548844132
 21
229.2013486493075
 31
0.0
  0
LINE
  5
B8BD
330
E1B7
100
AcDbEntity
  8
0
100
AcDbLine
 10
464.9641548844132
 20
216.3513120282135
 30
0.0
 11
556.4641243668366
 21
216.3513120282135
 31
0.0
  0
LINE
  5
B8BE
330
E1B7
100
AcDbEntity
  8
0
100
AcDbLine
 10
545.7141243668352
 20
252.1013425457912
 30
0.0
 11
475.7141548844132
 21
252.1013425457927
 31
0.0
  0
LINE
  5
B8BF
330
E1B7
100
AcDbEntity
  8
0
100
AcDbLine
 10
541.9097636730744
 20
266.1057370770427
 30
0.0
 11
479.5185460957527
 21
266.1057370770427
 31
0.0
  0
LINE
  5
B8C0
330
E1B7
100
AcDbEntity
  8
0
100
AcDbLine
 10
501.8887459488673
 20
266.1057370770427
 30
0.0
 11
501.8887459488673
 21
252.1013425457927
 31
0.0
  0
LINE
  5
B8C1
330
E1B7
100
AcDbEntity
  8
0
100
AcDbLine
 10
485.7953926773816
 20
266.1057370770427
 30
0.0
 11
485.7953926773816
 21
252.1013425457927
 31
0.0
  0
LINE
  5
B8C2
330
E1B7
100
AcDbEntity
  8
0
100
AcDbLine
 10
495.7488034424108
 20
226.2013181317305
 30
0.0
 11
494.2740885023463
 21
220.6976070948605
 31
0.0
  0
LINE
  5
B8C3
330
E1B7
100
AcDbEntity
  8
0
100
AcDbLine
 10
499.7141548844132
 20
229.2013486493075
 30
0.0
 11
499.7141548844132
 21
226.2013181317305
 31
0.0
  0
LINE
  5
B8C4
330
E1B7
100
AcDbEntity
  8
0
100
AcDbLine
 10
494.2141548844132
 20
252.1013425457927
 30
0.0
 11
494.2141548844132
 21
229.2013486493075
 31
0.0
  0
LINE
  5
B8C5
330
E1B7
100
AcDbEntity
  8
0
100
AcDbLine
 10
475.7141548844132
 20
265.1040163584107
 30
0.0
 11
475.7141548844132
 21
252.1013425457927
 31
0.0
  0
LINE
  5
B8C6
330
E1B7
100
AcDbEntity
  8
0
100
AcDbLine
 10
476.7141548844132
 20
217.6013169291064
 30
0.0
 11
476.7141548844132
 21
216.3513120282135
 31
0.0
  0
ARC
  5
B8C7
330
E1B7
100
AcDbEntity
  8
0
100
AcDbCircle
 10
510.7141548844132
 20
139.9041761029216
 30
0.0
 40
130.0
100
AcDbArc
 50
95.96067444220977
 51
105.6184982756485
  0
LINE
  5
B8C8
330
E1B7
100
AcDbEntity
  8
0
100
AcDbLine
 10
494.2740885023463
 20
220.6976070948605
 30
0.0
 11
476.7141548844132
 21
217.6013169291064
 31
0.0
  0
LINE
  5
B8C9
330
E1B7
100
AcDbEntity
  8
0
100
AcDbLine
 10
527.1542331545291
 20
220.6975826903924
 30
0.0
 11
544.7141243668352
 21
217.6013000018944
 31
0.0
  0
ARC
  5
B8CA
330
E1B7
100
AcDbEntity
  8
0
100
AcDbCircle
 10
510.7141548844132
 20
139.9041761029216
 30
0.0
 40
130.0
100
AcDbArc
 50
74.38151569025078
 51
84.03932373656594
  0
LINE
  5
B8CB
330
E1B7
100
AcDbEntity
  8
0
100
AcDbLine
 10
535.6328865738665
 20
266.1057370770427
 30
0.0
 11
535.6328865738665
 21
252.1013425457912
 31
0.0
  0
LINE
  5
B8CC
330
E1B7
100
AcDbEntity
  8
0
100
AcDbLine
 10
519.5395333023816
 20
266.1057370770427
 30
0.0
 11
519.5395333023816
 21
252.1013425457912
 31
0.0
  0
LINE
  5
B8CD
330
E1B7
100
AcDbEntity
  8
0
100
AcDbLine
 10
525.6795116753083
 20
226.2013181317305
 30
0.0
 11
527.1542331545291
 21
220.6975826903924
 31
0.0
  0
LINE
  5
B8CE
330
E1B7
100
AcDbEntity
  8
0
100
AcDbLine
 10
521.7141548844133
 20
229.2013486493075
 30
0.0
 11
521.7141548844133
 21
226.2013181317305
 31
0.0
  0
LINE
  5
B8CF
330
E1B7
100
AcDbEntity
  8
0
100
AcDbLine
 10
527.2141548844133
 20
252.1013425457912
 30
0.0
 11
527.2141548844133
 21
229.2013486493075
 31
0.0
  0
LINE
  5
B8D0
330
E1B7
100
AcDbEntity
  8
0
100
AcDbLine
 10
545.7141243668352
 20
265.1040248896886
 30
0.0
 11
545.7141243668352
 21
252.1013425457912
 31
0.0
  0
LINE
  5
B8D1
330
E1B7
100
AcDbEntity
  8
0
100
AcDbLine
 10
544.7141243668352
 20
217.6013000018944
 30
0.0
 11
544.7141243668352
 21
216.3513120282135
 31
0.0
  0
LINE
  5
B8D2
330
E1B7
100
AcDbEntity
  8
0
100
AcDbLine
 10
556.4641243668366
 20
216.3513120282135
 30
0.0
 11
556.4641243668366
 21
200.8513120282144
 31
0.0
  0
LINE
  5
B8D4
330
E1B7
100
AcDbEntity
  8
0
100
AcDbLine
 10
464.9641548844132
 20
200.8513120282104
 30
0.0
 11
556.4641243668366
 21
200.8513120282144
 31
0.0
  0
LINE
  5
B8D5
330
E1B7
100
AcDbEntity
  8
0
100
AcDbLine
 10
464.9641548844132
 20
216.3513120282135
 30
0.0
 11
464.9641548844132
 21
200.8513120282104
 31
0.0
  0
CIRCLE
  5
B8D6
330
E1B7
100
AcDbEntity
  8
0
100
AcDbCircle
 10
510.7141396256242
 20
483.586213011958
 30
0.0
 40
45.74998474121094
  0
ARC
  5
B8D7
330
E1B7
100
AcDbEntity
  8
0
100
AcDbCircle
 10
510.7141396256242
 20
525.5862130119579
 30
0.0
 40
12.0
100
AcDbArc
 50
233.8449033882592
 51
306.1550950178884
  0
ARC
  5
B8D8
330
E1B7
100
AcDbEntity
  8
0
100
AcDbCircle
 10
510.7141396256242
 20
441.586213011958
 30
0.0
 40
12.0
100
AcDbArc
 50
53.84490498211139
 51
126.1550966117408
  0
CIRCLE
  5
B8D9
330
E1B7
100
AcDbEntity
  8
0
100
AcDbCircle
 10
510.7141396256242
 20
483.586213011958
 30
0.0
 40
34.99998474121093
  0
ARC
  5
B8DA
330
E1B7
100
AcDbEntity
  8
0
100
AcDbCircle
 10
474.3410622330456
 20
504.586213011958
 30
0.0
 40
12.0
100
AcDbArc
 50
293.8449460390294
 51
6.155068513009591
  0
ARC
  5
B8DB
330
E1B7
100
AcDbEntity
  8
0
100
AcDbCircle
 10
510.7141396256242
 20
483.586213011958
 30
0.0
 40
35.0
100
AcDbArc
 50
169.5310598793884
 51
190.4689364781548
  0
ARC
  5
B8DC
330
E1B7
100
AcDbEntity
  8
0
100
AcDbCircle
 10
481.2135292740617
 20
478.135132689692
 30
0.0
 40
5.0
100
AcDbArc
 50
190.468940120637
 51
246.1550489520009
  0
ARC
  5
B8DD
330
E1B7
100
AcDbEntity
  8
0
100
AcDbCircle
 10
481.2135292740617
 20
489.0372933342246
 30
0.0
 40
5.0
100
AcDbArc
 50
113.844951047999
 51
169.5310598793884
  0
ARC
  5
B8DE
330
E1B7
100
AcDbEntity
  8
0
100
AcDbCircle
 10
500.6845986099987
 20
455.3124093010212
 30
0.0
 40
5.0
100
AcDbArc
 50
250.4689281298853
 51
306.1550950178884
  0
ARC
  5
B8DF
330
E1B7
100
AcDbEntity
  8
0
100
AcDbCircle
 10
491.2430702896868
 20
460.7634896232859
 30
0.0
 40
5.0
100
AcDbArc
 50
173.8449253968838
 51
229.5310478886503
  0
ARC
  5
B8E0
330
E1B7
100
AcDbEntity
  8
0
100
AcDbCircle
 10
510.7141396256242
 20
483.586213011958
 30
0.0
 40
35.0
100
AcDbArc
 50
229.5310515311117
 51
250.4689281298853
  0
ARC
  5
B8E1
330
E1B7
100
AcDbEntity
  8
0
100
AcDbCircle
 10
474.3410622330456
 20
462.586213011958
 30
0.0
 40
12.0
100
AcDbArc
 50
353.8449366096411
 51
66.15504713078547
  0
ARC
  5
B8E2
330
E1B7
100
AcDbEntity
  8
0
100
AcDbCircle
 10
500.6845986099987
 20
511.860016722896
 30
0.0
 40
5.0
100
AcDbArc
 50
53.84490498211139
 51
109.531065039904
  0
ARC
  5
B8E3
330
E1B7
100
AcDbEntity
  8
0
100
AcDbCircle
 10
491.2430702896868
 20
506.4089364006298
 30
0.0
 40
5.0
100
AcDbArc
 50
130.4689484688882
 51
186.1550573002806
  0
ARC
  5
B8E4
330
E1B7
100
AcDbEntity
  8
0
100
AcDbCircle
 10
510.7141396256242
 20
483.586213011958
 30
0.0
 40
35.0
100
AcDbArc
 50
109.5310718701144
 51
130.4689484688882
  0
ARC
  5
B8E5
330
E1B7
100
AcDbEntity
  8
0
100
AcDbCircle
 10
547.0871559830457
 20
504.586213011958
 30
0.0
 40
12.0
100
AcDbArc
 50
173.8448980761357
 51
246.1550999510611
  0
ARC
  5
B8E6
330
E1B7
100
AcDbEntity
  8
0
100
AcDbCircle
 10
540.214719459608
 20
478.1351632072706
 30
0.0
 40
5.0
100
AcDbArc
 50
293.8448913975248
 51
349.5310779222993
  0
ARC
  5
B8E7
330
E1B7
100
AcDbEntity
  8
0
100
AcDbCircle
 10
540.214719459608
 20
489.0372628166459
 30
0.0
 40
5.0
100
AcDbArc
 50
10.46892037015502
 51
66.15511543266013
  0
ARC
  5
B8E8
330
E1B7
100
AcDbEntity
  8
0
100
AcDbCircle
 10
530.1852089615613
 20
460.7634591057074
 30
0.0
 40
5.0
100
AcDbArc
 50
310.4689161391592
 51
6.155102663954047
  0
ARC
  5
B8E9
330
E1B7
100
AcDbEntity
  8
0
100
AcDbCircle
 10
520.7436806412491
 20
455.3124093010212
 30
0.0
 40
5.0
100
AcDbArc
 50
233.8449033882592
 51
289.5310736913438
  0
ARC
  5
B8EA
330
E1B7
100
AcDbEntity
  8
0
100
AcDbCircle
 10
510.7141396256242
 20
483.586213011958
 30
0.0
 40
35.0
100
AcDbArc
 50
289.5310736913438
 51
310.4689161391592
  0
ARC
  5
B8EB
330
E1B7
100
AcDbEntity
  8
0
100
AcDbCircle
 10
547.0871559830457
 20
462.586213011958
 30
0.0
 40
12.0
100
AcDbArc
 50
113.8448827461004
 51
186.155098281416
  0
ARC
  5
B8EC
330
E1B7
100
AcDbEntity
  8
0
100
AcDbCircle
 10
510.7141396256242
 20
483.586213011958
 30
0.0
 40
35.0
100
AcDbArc
 50
349.5310779222993
 51
10.46892037015502
  0
ARC
  5
B8ED
330
E1B7
100
AcDbEntity
  8
0
100
AcDbCircle
 10
530.1852089615613
 20
506.408966918208
 30
0.0
 40
5.0
100
AcDbArc
 50
353.8448956285031
 51
49.5310804457375
  0
ARC
  5
B8EE
330
E1B7
100
AcDbEntity
  8
0
100
AcDbCircle
 10
520.7436806412491
 20
511.860016722896
 30
0.0
 40
5.0
100
AcDbArc
 50
70.46892630865617
 51
126.1550966117408
  0
ARC
  5
B8EF
330
E1B7
100
AcDbEntity
  8
0
100
AcDbCircle
 10
510.7141396256242
 20
483.586213011958
 30
0.0
 40
35.0
100
AcDbArc
 50
49.5310804457375
 51
70.46892630865617
  0
LINE
  5
B8F1
330
E1B7
100
AcDbEntity
  8
0
100
AcDbLine
 10
580.7141091080457
 20
508.836213011958
 30
0.0
 11
580.7141091080457
 21
458.3362130119581
 31
0.0
  0
LINE
  5
B8F2
330
E1B7
100
AcDbEntity
  8
0
100
AcDbLine
 10
577.8641024320121
 20
458.3362130119581
 30
0.0
 11
573.2962802714015
 21
470.8862008049268
 31
0.0
  0
LINE
  5
B8F3
330
E1B7
100
AcDbEntity
  8
0
100
AcDbLine
 10
580.7141091080457
 20
458.3362130119581
 30
0.0
 11
577.8641024320121
 21
458.3362130119581
 31
0.0
  0
LINE
  5
B8F4
330
E1B7
100
AcDbEntity
  8
0
100
AcDbLine
 10
580.7141091080457
 20
508.836213011958
 30
0.0
 11
577.8641176815411
 21
508.836213011958
 31
0.0
  0
LINE
  5
B8F5
330
E1B7
100
AcDbEntity
  8
0
100
AcDbLine
 10
577.8641176815411
 20
508.836213011958
 30
0.0
 11
573.2962955209313
 21
496.2862252189887
 31
0.0
  0
LINE
  5
B8F6
330
E1B7
100
AcDbEntity
  8
0
100
AcDbLine
 10
573.2962802714015
 20
470.8862008049268
 30
0.0
 11
554.6660541887266
 21
470.8862008049268
 31
0.0
  0
LINE
  5
B8F7
330
E1B7
100
AcDbEntity
  8
0
100
AcDbLine
 10
573.2962955209313
 20
496.2862252189887
 30
0.0
 11
554.6660541887266
 21
496.2862252189897
 31
0.0
  0
LINE
  5
D67D
330
E1B7
100
AcDbEntity
  8
0
100
AcDbLine
 10
573.2962955209313
 20
196.8013242352433
 30
0.0
 11
573.2962802714015
 21
171.4012998211817
 31
0.0
  0
LINE
  5
D67F
330
E1B7
100
AcDbEntity
  8
0
100
AcDbLine
 10
498.0141274185929
 20
141.5191352992711
 30
0.0
 11
523.4141213150774
 21
141.5191553554059
 31
0.0
  0
LINE
  5
D680
330
E1B7
100
AcDbEntity
  8
0
100
AcDbLine
 10
523.4141213150774
 20
162.3866389976991
 30
0.0
 11
498.0141274185929
 21
162.3866566170312
 31
0.0
  0
LINE
  5
D681
330
E1B7
100
AcDbEntity
  8
0
100
AcDbLine
 10
485.089841529921
 20
170.5920562427178
 30
0.0
 11
536.3384377213272
 21
170.5920562427168
 31
0.0
  0
LINE
  5
DAE2
330
E1B7
100
AcDbEntity
  8
0
100
AcDbLine
 10
573.2962955209313
 20
496.2862252189887
 30
0.0
 11
573.2962802714015
 21
470.8862008049268
 31
0.0
  0
LINE
  5
E27F
330
E1B7
100
AcDbEntity
  8
0
  6
CENTER
100
AcDbLine
 10
510.7141396256242
 20
411.7256309498447
 30
0.0
 11
510.7141396256242
 21
555.4467950740713
 31
0.0
  0
LINE
  5
E280
330
E1B7
100
AcDbEntity
  8
0
  6
CENTER
100
AcDbLine
 10
443.1443902749916
 20
483.586213011958
 30
0.0
 11
600.0604107600906
 21
483.586213011958
 31
0.0
  0
LINE
  5
E281
330
E1B7
100
AcDbEntity
  8
0
  6
CENTER
100
AcDbLine
 10
510.7141243668344
 20
126.455729557864
 30
0.0
 11
510.7141243668344
 21
286.7823231674824
 31
0.0
  0
LINE
  5
E282
330
E1B7
100
AcDbEntity
  8
0
  6
CENTER
100
AcDbLine
 10
466.0077307224833
 20
184.101312028212
 30
0.0
 11
600.0603955013009
 21
184.101312028212
 31
0.0
  0
ENDSEC
  0
SECTION
  2
OBJECTS
  0
DICTIONARY
  5
E1A5
330
0
100
AcDbDictionary
281
     1
  3
ACAD_GROUP
350
E1A6
  3
ACAD_LAYOUT
350
E1B2
  3
ACAD_MLINESTYLE
350
E1AF
  3
ACAD_PLOTSETTINGS
350
E1B1
  3
ACAD_PLOTSTYLENAME
350
E1A7
  3
AcDbVariableDictionary
350
E1FD
  0
DICTIONARY
  5
E275
330
E19B
100
AcDbDictionary
280
     1
281
     1
  3
ACAD_LAYERSTATES
360
E276
  0
DICTIONARY
  5
E1C9
330
E1B7
100
AcDbDictionary
280
     1
281
     1
  3
ACAD_LAYOUTSELFREF
360
E26C
  0
DICTIONARY
  5
E1CB
330
E1B3
100
AcDbDictionary
280
     1
281
     1
  3
ACAD_LAYOUTSELFREF
360
E26B
  0
DICTIONARY
  5
E1A6
102
{ACAD_REACTORS
330
E1A5
102
}
330
E1A5
100
AcDbDictionary
281
     1
  0
DICTIONARY
  5
E1B2
102
{ACAD_REACTORS
330
E1A5
102
}
330
E1A5
100
AcDbDictionary
281
     1
  3
Model
350
E1BA
  3
ﾚｲｱｳﾄ1
350
E1B6
  0
DICTIONARY
  5
E1AF
102
{ACAD_REACTORS
330
E1A5
102
}
330
E1A5
100
AcDbDictionary
281
     1
  3
Standard
350
E1B0
  0
DICTIONARY
  5
E1B1
102
{ACAD_REACTORS
330
E1A5
102
}
330
E1A5
100
AcDbDictionary
281
     1
  0
ACDBDICTIONARYWDFLT
  5
E1A7
102
{ACAD_REACTORS
330
E1A5
102
}
330
E1A5
100
AcDbDictionary
281
     1
  3
Normal
350
E1A8
100
AcDbDictionaryWithDefault
340
E1A8
  0
DICTIONARY
  5
E1FD
102
{ACAD_REACTORS
330
E1A5
102
}
330
E1A5
100
AcDbDictionary
281
     1
  3
DIMASSOC
350
E1FE
  0
DICTIONARY
  5
E276
102
{ACAD_REACTORS
330
E275
102
}
330
E275
100
AcDbDictionary
281
     1
  0
XRECORD
  5
E26C
102
{ACAD_REACTORS
330
E1C9
102
}
330
E1C9
100
AcDbXrecord
280
     1
340
E1B7
  0
XRECORD
  5
E26B
102
{ACAD_REACTORS
330
E1CB
102
}
330
E1CB
100
AcDbXrecord
280
     1
340
E1B3
  0
LAYOUT
  5
E1BA
102
{ACAD_REACTORS
330
E1B2
102
}
330
E1B2
100
AcDbPlotSettings
  1

  2
SII LP-2150 (D-SCAN C2)
  4

  6

 40
0.0
 41
0.0
 42
0.0
 43
0.0
 44
0.0
 45
0.0
 46
0.0
 47
0.0
 48
0.0
 49
0.0
140
0.0
141
0.0
142
1.0
143
1.0
 70
  1712
 72
     0
 73
     0
 74
     0
  7

 75
     0
147
1.0
148
0.0
149
0.0
100
AcDbLayout
  1
Model
 70
     1
 71
     0
 10
0.0
 20
0.0
 11
12.0
 21
9.0
 12
0.0
 22
0.0
 32
0.0
 14
0.0
 24
0.0
 34
0.0
 15
0.0
 25
0.0
 35
0.0
146
0.0
 13
0.0
 23
0.0
 33
0.0
 16
1.0
 26
0.0
 36
0.0
 17
0.0
 27
1.0
 37
0.0
 76
     0
330
E1B7
  0
LAYOUT
  5
E1B6
102
{ACAD_REACTORS
330
E1B2
102
}
330
E1B2
100
AcDbPlotSettings
  1

  2
SII LP-2150 (D-SCAN C2)
  4

  6

 40
0.0
 41
0.0
 42
0.0
 43
0.0
 44
0.0
 45
0.0
 46
0.0
 47
0.0
 48
0.0
 49
0.0
140
0.0
141
0.0
142
1.0
143
1.0
 70
   688
 72
     0
 73
     0
 74
     5
  7

 75
    16
147
1.0
148
0.0
149
0.0
100
AcDbLayout
  1
ﾚｲｱｳﾄ1
 70
     1
 71
     1
 10
-580.5701293945312
 20
0.0
 11
0.0
 21
407.8999938964844
 12
0.0
 22
0.0
 32
0.0
 14
-580.5701293945312
 24
0.0
 34
0.0
 15
0.0
 25
407.8999938964844
 35
0.0
146
0.0
 13
0.0
 23
0.0
 33
0.0
 16
1.0
 26
0.0
 36
0.0
 17
0.0
 27
1.0
 37
0.0
 76
     0
330
E1B3
  0
MLINESTYLE
  5
E1B0
102
{ACAD_REACTORS
330
E1AF
102
}
330
E1AF
100
AcDbMlineStyle
  2
STANDARD
 70
     0
  3

 62
   256
 51
90.0
 52
90.0
 71
     2
 49
0.5
 62
   256
  6
BYLAYER
 49
-0.5
 62
   256
  6
BYLAYER
  0
ACDBPLACEHOLDER
  5
E1A8
102
{ACAD_REACTORS
330
E1A7
102
}
330
E1A7
  0
DICTIONARYVAR
  5
E1FE
102
{ACAD_REACTORS
330
E1FD
102
}
330
E1FD
100
DictionaryVariables
280
     0
  1
1
  0
ENDSEC
  0
EOF
