  0
SECTION
  2
HEADER
  9
$ACADVER
  1
AC1015
  9
$ACADMAINTVER
 70
    14
  9
$DWGCODEPAGE
  3
ANSI_932
  9
$INSBASE
 10
0.0
 20
0.0
 30
0.0
  9
$EXTMIN
 10
321.523306811297
 20
132.806814508468
 30
-0.0000000000000058
  9
$EXTMAX
 10
824.63985031844
 20
628.9848911268145
 30
0.0000000000000104
  9
$LIMMIN
 10
-580.5701293945312
 20
0.0
  9
$LIMMAX
 10
0.0
 20
407.8999938964844
  9
$ORTHOMODE
 70
     0
  9
$REGENMODE
 70
     1
  9
$FILLMODE
 70
     1
  9
$QTEXTMODE
 70
     0
  9
$MIRRTEXT
 70
     1
  9
$LTSCALE
 40
1.0
  9
$ATTMODE
 70
     1
  9
$TEXTSIZE
 40
0.2
  9
$TRACEWID
 40
0.05
  9
$TEXTSTYLE
  7
STANDARD
  9
$CLAYER
  8
0
  9
$CELTYPE
  6
ByLayer
  9
$CECOLOR
 62
   256
  9
$CELTSCALE
 40
1.0
  9
$DISPSILH
 70
     0
  9
$DIMSCALE
 40
1.0
  9
$DIMASZ
 40
1.0
  9
$DIMEXO
 40
2.54
  9
$DIMDLI
 40
0.38
  9
$DIMRND
 40
0.0
  9
$DIMDLE
 40
0.0
  9
$DIMEXE
 40
2.54
  9
$DIMTP
 40
0.0
  9
$DIMTM
 40
0.0
  9
$DIMTXT
 40
3.200000047683714
  9
$DIMCEN
 40
0.09
  9
$DIMTSZ
 40
0.0
  9
$DIMTOL
 70
     0
  9
$DIMLIM
 70
     0
  9
$DIMTIH
 70
     0
  9
$DIMTOH
 70
     0
  9
$DIMSE1
 70
     0
  9
$DIMSE2
 70
     0
  9
$DIMTAD
 70
     1
  9
$DIMZIN
 70
     0
  9
$DIMBLK
  1

  9
$DIMASO
 70
     1
  9
$DIMSHO
 70
     0
  9
$DIMPOST
  1

  9
$DIMAPOST
  1

  9
$DIMALT
 70
     0
  9
$DIMALTD
 70
     2
  9
$DIMALTF
 40
25.4
  9
$DIMLFAC
 40
1.0
  9
$DIMTOFL
 70
     0
  9
$DIMTVP
 40
1.0
  9
$DIMTIX
 70
     0
  9
$DIMSOXD
 70
     0
  9
$DIMSAH
 70
     0
  9
$DIMBLK1
  1

  9
$DIMBLK2
  1

  9
$DIMSTYLE
  2
STANDARD
  9
$DIMCLRD
 70
     0
  9
$DIMCLRE
 70
     0
  9
$DIMCLRT
 70
     0
  9
$DIMTFAC
 40
1.0
  9
$DIMGAP
 40
1.600000023841857
  9
$DIMJUST
 70
     0
  9
$DIMSD1
 70
     0
  9
$DIMSD2
 70
     0
  9
$DIMTOLJ
 70
     1
  9
$DIMTZIN
 70
     0
  9
$DIMALTZ
 70
     0
  9
$DIMALTTZ
 70
     0
  9
$DIMUPT
 70
     0
  9
$DIMDEC
 70
     4
  9
$DIMTDEC
 70
     4
  9
$DIMALTU
 70
     2
  9
$DIMALTTD
 70
     2
  9
$DIMTXSTY
  7
STANDARD
  9
$DIMAUNIT
 70
     0
  9
$DIMADEC
 70
     0
  9
$DIMALTRND
 40
0.0
  9
$DIMAZIN
 70
     0
  9
$DIMDSEP
 70
    46
  9
$DIMATFIT
 70
     3
  9
$DIMFRAC
 70
     0
  9
$DIMLDRBLK
  1

  9
$DIMLUNIT
 70
     2
  9
$DIMLWD
 70
    -2
  9
$DIMLWE
 70
    -2
  9
$DIMTMOVE
 70
     0
  9
$LUNITS
 70
     2
  9
$LUPREC
 70
     4
  9
$SKETCHINC
 40
0.1
  9
$FILLETRAD
 40
0.0
  9
$AUNITS
 70
     0
  9
$AUPREC
 70
     0
  9
$MENU
  1
.
  9
$ELEVATION
 40
0.0
  9
$PELEVATION
 40
0.0
  9
$THICKNESS
 40
0.0
  9
$LIMCHECK
 70
     0
  9
$CHAMFERA
 40
0.0
  9
$CHAMFERB
 40
0.0
  9
$CHAMFERC
 40
0.0
  9
$CHAMFERD
 40
0.0
  9
$SKPOLY
 70
     0
  9
$TDCREATE
 40
2452717.604314595
  9
$TDUCREATE
 40
2452717.229314595
  9
$TDUPDATE
 40
2456899.671171342
  9
$TDUUPDATE
 40
2456899.296171342
  9
$TDINDWG
 40
0.3835328241
  9
$TDUSRTIMER
 40
0.3835328241
  9
$USRTIMER
 70
     1
  9
$ANGBASE
 50
0.0
  9
$ANGDIR
 70
     0
  9
$PDMODE
 70
     3
  9
$PDSIZE
 40
0.0
  9
$PLINEWID
 40
0.0
  9
$SPLFRAME
 70
     0
  9
$SPLINETYPE
 70
     6
  9
$SPLINESEGS
 70
     8
  9
$HANDSEED
  5
E28E
  9
$SURFTAB1
 70
     6
  9
$SURFTAB2
 70
     6
  9
$SURFTYPE
 70
     6
  9
$SURFU
 70
     6
  9
$SURFV
 70
     6
  9
$UCSBASE
  2

  9
$UCSNAME
  2

  9
$UCSORG
 10
0.0
 20
0.0
 30
0.0
  9
$UCSXDIR
 10
1.0
 20
0.0
 30
0.0
  9
$UCSYDIR
 10
0.0
 20
1.0
 30
0.0
  9
$UCSORTHOREF
  2

  9
$UCSORTHOVIEW
 70
     0
  9
$UCSORGTOP
 10
0.0
 20
0.0
 30
0.0
  9
$UCSORGBOTTOM
 10
0.0
 20
0.0
 30
0.0
  9
$UCSORGLEFT
 10
0.0
 20
0.0
 30
0.0
  9
$UCSORGRIGHT
 10
0.0
 20
0.0
 30
0.0
  9
$UCSORGFRONT
 10
0.0
 20
0.0
 30
0.0
  9
$UCSORGBACK
 10
0.0
 20
0.0
 30
0.0
  9
$PUCSBASE
  2

  9
$PUCSNAME
  2

  9
$PUCSORG
 10
0.0
 20
0.0
 30
0.0
  9
$PUCSXDIR
 10
1.0
 20
0.0
 30
0.0
  9
$PUCSYDIR
 10
0.0
 20
1.0
 30
0.0
  9
$PUCSORTHOREF
  2

  9
$PUCSORTHOVIEW
 70
     0
  9
$PUCSORGTOP
 10
0.0
 20
0.0
 30
0.0
  9
$PUCSORGBOTTOM
 10
0.0
 20
0.0
 30
0.0
  9
$PUCSORGLEFT
 10
0.0
 20
0.0
 30
0.0
  9
$PUCSORGRIGHT
 10
0.0
 20
0.0
 30
0.0
  9
$PUCSORGFRONT
 10
0.0
 20
0.0
 30
0.0
  9
$PUCSORGBACK
 10
0.0
 20
0.0
 30
0.0
  9
$USERI1
 70
     0
  9
$USERI2
 70
     0
  9
$USERI3
 70
     0
  9
$USERI4
 70
     0
  9
$USERI5
 70
     0
  9
$USERR1
 40
0.0
  9
$USERR2
 40
0.0
  9
$USERR3
 40
0.0
  9
$USERR4
 40
0.0
  9
$USERR5
 40
0.0
  9
$WORLDVIEW
 70
     1
  9
$SHADEDGE
 70
     3
  9
$SHADEDIF
 70
    70
  9
$TILEMODE
 70
     1
  9
$MAXACTVP
 70
    48
  9
$PINSBASE
 10
0.0
 20
0.0
 30
0.0
  9
$PLIMCHECK
 70
     0
  9
$PEXTMIN
 10
-580.5701293945312
 20
0.0
 30
0.0
  9
$PEXTMAX
 10
0.0
 20
407.8999938964844
 30
0.0
  9
$PLIMMIN
 10
-580.5701293945312
 20
0.0
  9
$PLIMMAX
 10
0.0
 20
407.8999938964844
  9
$UNITMODE
 70
     0
  9
$VISRETAIN
 70
     1
  9
$PLINEGEN
 70
     0
  9
$PSLTSCALE
 70
     1
  9
$TREEDEPTH
 70
  3020
  9
$CMLSTYLE
  2
Standard
  9
$CMLJUST
 70
     0
  9
$CMLSCALE
 40
1.0
  9
$PROXYGRAPHICS
 70
     1
  9
$MEASUREMENT
 70
     0
  9
$CELWEIGHT
370
    -1
  9
$ENDCAPS
280
     0
  9
$JOINSTYLE
280
     0
  9
$LWDISPLAY
290
     0
  9
$INSUNITS
 70
     0
  9
$HYPERLINKBASE
  1

  9
$STYLESHEET
  1

  9
$XEDIT
290
     1
  9
$CEPSNTYPE
380
     0
  9
$PSTYLEMODE
290
     1
  9
$FINGERPRINTGUID
  2
{9563F1E0-B556-4E33-9593-3B1B9636EA0E}
  9
$VERSIONGUID
  2
{194CF996-0FC6-4FB9-B527-5610CDD2F5E0}
  9
$EXTNAMES
290
     1
  9
$PSVPSCALE
 40
0.0
  9
$OLESTARTUP
290
     0
  0
ENDSEC
  0
SECTION
  2
CLASSES
  0
CLASS
  1
ACDBDICTIONARYWDFLT
  2
AcDbDictionaryWithDefault
  3
AutoCAD 2000
 90
        0
280
     0
281
     0
  0
CLASS
  1
ACDBPLACEHOLDER
  2
AcDbPlaceHolder
  3
AutoCAD 2000
 90
        0
280
     0
281
     0
  0
CLASS
  1
LAYOUT
  2
AcDbLayout
  3
AutoCAD 2000
 90
        0
280
     0
281
     0
  0
CLASS
  1
DICTIONARYVAR
  2
AcDbDictionaryVar
  3
AutoCAD 2000
 90
        0
280
     0
281
     0
  0
CLASS
  1
LONG_TRANSACTION
  2
AcDbLongTransaction
  3
AutoCAD 2000
 90
    32768
280
     0
281
     0
  0
CLASS
  1
LWPOLYLINE
  2
AcDbPolyline
  3
AutoCAD 2000
 90
    32768
280
     0
281
     1
  0
CLASS
  1
HATCH
  2
AcDbHatch
  3
AutoCAD 2000
 90
    32768
280
     0
281
     1
  0
CLASS
  1
XRECORD
  2
AcDbXrecord
  3
AutoCAD 2000
 90
    32768
280
     0
281
     0
  0
CLASS
  1
LONG_TRANSACTION
  2
AcDbLongTransaction
  3
AutoCAD 2000
 90
    32768
280
     0
281
     0
  0
CLASS
  1
LWPOLYLINE
  2
AcDbPolyline
  3
AutoCAD 2000
 90
    32768
280
     0
281
     1
  0
CLASS
  1
HATCH
  2
AcDbHatch
  3
AutoCAD 2000
 90
    32768
280
     0
281
     1
  0
CLASS
  1
XRECORD
  2
AcDbXrecord
  3
AutoCAD 2000
 90
    32768
280
     0
281
     0
  0
CLASS
  1
LONG_TRANSACTION
  2
AcDbLongTransaction
  3
AutoCAD 2000
 90
    32768
280
     0
281
     0
  0
CLASS
  1
LWPOLYLINE
  2
AcDbPolyline
  3
AutoCAD 2000
 90
    32768
280
     0
281
     1
  0
CLASS
  1
HATCH
  2
AcDbHatch
  3
AutoCAD 2000
 90
    32768
280
     0
281
     1
  0
CLASS
  1
XRECORD
  2
AcDbXrecord
  3
AutoCAD 2000
 90
    32768
280
     0
281
     0
  0
ENDSEC
  0
SECTION
  2
TABLES
  0
TABLE
  2
VPORT
  5
E1A1
330
0
100
AcDbSymbolTable
 70
     2
  0
VPORT
  5
E28D
330
E1A1
100
AcDbSymbolTableRecord
100
AcDbViewportTableRecord
  2
*Active
 70
     0
 10
0.0
 20
0.0
 11
1.0
 21
1.0
 12
573.0815785648684
 22
380.8958528176412
 13
0.0
 23
0.0
 14
1.0
 24
1.0
 15
0.0
 25
0.0
 16
0.0
 26
0.0
 36
1.0
 17
0.0
 27
0.0
 37
0.0
 40
499.3284136127486
 41
1.592161016949152
 42
50.0
 43
0.0
 44
0.0
 50
0.0
 51
0.0
 71
     0
 72
   100
 73
     1
 74
     3
 75
     0
 76
     0
 77
     0
 78
     0
281
     0
 65
     1
110
0.0
120
0.0
130
0.0
111
1.0
121
0.0
131
0.0
112
0.0
122
1.0
132
0.0
 79
     0
146
0.0
  0
ENDTAB
  0
TABLE
  2
LTYPE
  5
E19E
330
0
100
AcDbSymbolTable
 70
     2
  0
LTYPE
  5
E1AC
330
E19E
100
AcDbSymbolTableRecord
100
AcDbLinetypeTableRecord
  2
ByBlock
 70
     0
  3

 72
    65
 73
     0
 40
0.0
  0
LTYPE
  5
E1AD
330
E19E
100
AcDbSymbolTableRecord
100
AcDbLinetypeTableRecord
  2
ByLayer
 70
     0
  3

 72
    65
 73
     0
 40
0.0
  0
LTYPE
  5
E1AE
330
E19E
100
AcDbSymbolTableRecord
100
AcDbLinetypeTableRecord
  2
CONTINUOUS
 70
     0
  3
Solid line
 72
    65
 73
     0
 40
0.0
  0
LTYPE
  5
E273
330
E19E
100
AcDbSymbolTableRecord
100
AcDbLinetypeTableRecord
  2
CENTER
 70
     0
  3
__ . __
 72
    65
 73
     4
 40
7.0
 49
4.0
 74
     0
 49
-1.0
 74
     0
 49
1.0
 74
     0
 49
-1.0
 74
     0
  0
ENDTAB
  0
TABLE
  2
LAYER
  5
E19B
102
{ACAD_XDICTIONARY
360
E275
102
}
330
0
100
AcDbSymbolTable
 70
     1
  0
LAYER
  5
E1A9
330
E19B
100
AcDbSymbolTableRecord
100
AcDbLayerTableRecord
  2
0
 70
     0
 62
     7
  6
CONTINUOUS
370
    -3
390
E1A8
  0
ENDTAB
  0
TABLE
  2
STYLE
  5
E19C
330
0
100
AcDbSymbolTable
 70
     1
  0
STYLE
  5
E1AA
330
E19C
100
AcDbSymbolTableRecord
100
AcDbTextStyleTableRecord
  2
STANDARD
 70
     0
 40
0.0
 41
1.0
 50
0.0
 71
     0
 42
0.2
  3
txt
  4
BIGFONT
  0
ENDTAB
  0
TABLE
  2
VIEW
  5
E19F
330
0
100
AcDbSymbolTable
 70
     0
  0
ENDTAB
  0
TABLE
  2
UCS
  5
E1A0
330
0
100
AcDbSymbolTable
 70
     0
  0
ENDTAB
  0
TABLE
  2
APPID
  5
E1A2
330
0
100
AcDbSymbolTable
 70
     4
  0
APPID
  5
E1AB
330
E1A2
100
AcDbSymbolTableRecord
100
AcDbRegAppTableRecord
  2
ACAD
 70
     0
  0
APPID
  5
E1BD
330
E1A2
100
AcDbSymbolTableRecord
100
AcDbRegAppTableRecord
  2
MCAD_NO_VIS
 70
     0
  0
APPID
  5
E1BE
330
E1A2
100
AcDbSymbolTableRecord
100
AcDbRegAppTableRecord
  2
ACAD_TEMP_GRAPHIC
 70
     0
  0
APPID
  5
E1BF
330
E1A2
100
AcDbSymbolTableRecord
100
AcDbRegAppTableRecord
  2
ACATTRIBSERVICES
 70
     0
  0
ENDTAB
  0
TABLE
  2
DIMSTYLE
  5
E1A3
330
0
100
AcDbSymbolTable
 70
     1
100
AcDbDimStyleTable
 71
     0
  0
DIMSTYLE
105
E1C0
330
E1A3
100
AcDbSymbolTableRecord
100
AcDbDimStyleTableRecord
  2
STANDARD
 70
     0
279
     2
340
E1AA
  0
ENDTAB
  0
TABLE
  2
BLOCK_RECORD
  5
E19A
330
0
100
AcDbSymbolTable
 70
     0
  0
BLOCK_RECORD
  5
E1B7
102
{ACAD_XDICTIONARY
360
E1C9
102
}
330
E19A
100
AcDbSymbolTableRecord
100
AcDbBlockTableRecord
  2
*Model_Space
340
E1BA
  0
BLOCK_RECORD
  5
E1B3
102
{ACAD_XDICTIONARY
360
E1CB
102
}
330
E19A
100
AcDbSymbolTableRecord
100
AcDbBlockTableRecord
  2
*Paper_Space
340
E1B6
  0
ENDTAB
  0
ENDSEC
  0
SECTION
  2
BLOCKS
  0
BLOCK
  5
E1B8
330
E1B7
100
AcDbEntity
  8
0
100
AcDbBlockBegin
  2
*Model_Space
 70
     0
 10
0.0
 20
0.0
 30
0.0
  3
*Model_Space
  1

  0
ENDBLK
  5
E1B9
330
E1B7
100
AcDbEntity
  8
0
100
AcDbBlockEnd
  0
BLOCK
  5
E1B4
330
E1B3
100
AcDbEntity
 67
     1
  8
0
100
AcDbBlockBegin
  2
*Paper_Space
 70
     0
 10
0.0
 20
0.0
 30
0.0
  3
*Paper_Space
  1

  0
ENDBLK
  5
E1B5
330
E1B3
100
AcDbEntity
 67
     1
  8
0
100
AcDbBlockEnd
  0
ENDSEC
  0
SECTION
  2
ENTITIES
  0
TEXT
  5
4516
330
E1B7
100
AcDbEntity
  8
0
  6
Continuous
100
AcDbText
 10
321.5577357724596
 20
580.9560928225327
 30
0.0
 40
48.000002
  1
DAS2L 15A
 41
1.32095
100
AcDbText
  0
LINE
  5
8E95
330
E1B7
100
AcDbEntity
  8
0
100
AcDbLine
 10
626.1568190526695
 20
204.5239816610183
 30
0.0
 11
593.2451770239485
 21
204.5239816610183
 31
0.0
  0
LINE
  5
8E97
330
E1B7
100
AcDbEntity
  8
0
100
AcDbLine
 10
626.1568322892358
 20
182.8239618245928
 30
0.0
 11
588.6027183324728
 21
182.8239618245909
 31
0.0
  0
LINE
  5
8E9A
330
E1B7
100
AcDbEntity
  8
0
100
AcDbLine
 10
626.1568224843264
 20
465.8399395768651
 30
0.0
 11
605.6900317602776
 21
465.8399395768651
 31
0.0
  0
LINE
  5
8E9B
330
E1B7
100
AcDbEntity
  8
0
100
AcDbLine
 10
626.1568098426419
 20
444.1399273698336
 30
0.0
 11
605.6900317602776
 21
444.1399273698333
 31
0.0
  0
LINE
  5
8EB6
330
E1B7
100
AcDbEntity
  8
0
100
AcDbLine
 10
515.4952380591056
 20
223.6239572469548
 30
0.0
 11
515.4952380591056
 21
208.1239572469518
 31
0.0
  0
LINE
  5
8EC9
330
E1B7
100
AcDbEntity
  8
0
100
AcDbLine
 10
606.9952075415264
 20
223.6239572469548
 30
0.0
 11
606.9952075415264
 21
208.1239572469561
 31
0.0
  0
LINE
  5
8EE9
330
E1B7
100
AcDbEntity
  8
0
100
AcDbLine
 10
578.2452380591056
 20
153.6739374105299
 30
0.0
 11
544.2452380591056
 21
153.6739374105299
 31
0.0
  0
ARC
  5
8EF4
330
E1B7
100
AcDbEntity
  8
0
100
AcDbCircle
 10
544.2452380591056
 20
193.67393741053
 30
0.0
 40
15.0
100
AcDbArc
 50
179.9999913485851
 51
232.2439607947627
  0
LINE
  5
8EF9
330
E1B7
100
AcDbEntity
  8
0
100
AcDbLine
 10
587.4297168188708
 20
178.4739557210758
 30
0.0
 11
535.060728781762
 21
178.4739557210758
 31
0.0
  0
LINE
  5
8EFB
330
E1B7
100
AcDbEntity
  8
0
100
AcDbLine
 10
544.2452380591056
 20
156.5239629914499
 30
0.0
 11
550.3952319555899
 21
158.7623777908438
 31
0.0
  0
LINE
  5
8EFE
330
E1B7
100
AcDbEntity
  8
0
100
AcDbLine
 10
544.2452380591056
 20
153.6739374105299
 30
0.0
 11
544.2452380591056
 21
156.5239629914499
 31
0.0
  0
LINE
  5
8F02
330
E1B7
100
AcDbEntity
  8
0
100
AcDbLine
 10
535.060728781762
 20
181.8145618226497
 30
0.0
 11
535.060728781762
 21
178.4739557210758
 31
0.0
  0
LINE
  5
8F0C
330
E1B7
100
AcDbEntity
  8
0
100
AcDbLine
 10
550.3952319555899
 20
158.7623777908438
 30
0.0
 11
550.3952319555899
 21
178.4739557210758
 31
0.0
  0
LINE
  5
8F19
330
E1B7
100
AcDbEntity
  8
0
100
AcDbLine
 10
529.2452685766837
 20
208.1239572469518
 30
0.0
 11
529.2452685766837
 21
193.67393741053
 31
0.0
  0
LINE
  5
8FB9
330
E1B7
100
AcDbEntity
  8
0
100
AcDbLine
 10
578.2452380591056
 20
156.5239282003689
 30
0.0
 11
572.0952441626208
 21
158.7623429997631
 31
0.0
  0
LINE
  5
8FBF
330
E1B7
100
AcDbEntity
  8
0
100
AcDbLine
 10
578.2452380591056
 20
153.6739374105299
 30
0.0
 11
578.2452380591056
 21
156.5239282003689
 31
0.0
  0
LINE
  5
8FC2
330
E1B7
100
AcDbEntity
  8
0
100
AcDbLine
 10
572.0952441626208
 20
178.4739557210758
 30
0.0
 11
572.0952441626208
 21
158.7623429997631
 31
0.0
  0
LINE
  5
9085
330
E1B7
100
AcDbEntity
  8
0
100
AcDbLine
 10
515.4952380591056
 20
208.1239572469518
 30
0.0
 11
606.9952075415264
 21
208.1239572469561
 31
0.0
  0
LINE
  5
908E
330
E1B7
100
AcDbEntity
  8
0
100
AcDbLine
 10
574.7452075415276
 20
276.4739938680488
 30
0.0
 11
547.745268576684
 21
276.4739938680488
 31
0.0
  0
LINE
  5
9094
330
E1B7
100
AcDbEntity
  8
0
100
AcDbLine
 10
544.7452380591056
 20
259.3739877645337
 30
0.0
 11
544.7452380591056
 21
236.4739938680488
 31
0.0
  0
LINE
  5
909B
330
E1B7
100
AcDbEntity
  8
0
100
AcDbLine
 10
577.7452380591056
 20
236.4739938680488
 30
0.0
 11
544.7452380591056
 21
236.4739938680488
 31
0.0
  0
LINE
  5
909D
330
E1B7
100
AcDbEntity
  8
0
100
AcDbLine
 10
546.2798866171027
 20
233.4739633504717
 30
0.0
 11
544.8051716770383
 21
227.970252313602
 31
0.0
  0
LINE
  5
90A1
330
E1B7
100
AcDbEntity
  8
0
100
AcDbLine
 10
544.8051716770383
 20
227.970252313602
 30
0.0
 11
527.2452380591056
 21
224.8739621478478
 31
0.0
  0
LINE
  5
90C3
330
E1B7
100
AcDbEntity
  8
0
100
AcDbLine
 10
546.2798866171027
 20
233.4739633504717
 30
0.0
 11
576.2105948499996
 21
233.4739633504707
 31
0.0
  0
LINE
  5
90C5
330
E1B7
100
AcDbEntity
  8
0
100
AcDbLine
 10
550.2452380591058
 20
236.4739938680488
 30
0.0
 11
550.2452380591058
 21
233.4739633504717
 31
0.0
  0
LINE
  5
90C7
330
E1B7
100
AcDbEntity
  8
0
100
AcDbLine
 10
596.2452075415264
 20
259.3739877645329
 30
0.0
 11
526.2452380591056
 21
259.3739877645337
 31
0.0
  0
LINE
  5
90C9
330
E1B7
100
AcDbEntity
  8
0
100
AcDbLine
 10
526.2452380591056
 20
272.3766615771517
 30
0.0
 11
526.2452380591056
 21
259.3739877645337
 31
0.0
  0
LINE
  5
90CA
330
E1B7
100
AcDbEntity
  8
0
100
AcDbLine
 10
536.3264758520736
 20
273.3783822957835
 30
0.0
 11
536.3264758520736
 21
259.3739877645337
 31
0.0
  0
ARC
  5
90CF
330
E1B7
100
AcDbEntity
  8
0
100
AcDbCircle
 10
561.2452380591048
 20
147.1768213216615
 30
0.0
 40
130.0
100
AcDbArc
 50
95.96067444220977
 51
105.6184982756485
  0
LINE
  5
90D0
330
E1B7
100
AcDbEntity
  8
0
100
AcDbLine
 10
592.4408468477667
 20
273.3783822957835
 30
0.0
 11
530.0496292704438
 21
273.3783822957835
 31
0.0
  0
LINE
  5
90D7
330
E1B7
100
AcDbEntity
  8
0
100
AcDbLine
 10
552.4198291235578
 20
273.3783822957835
 30
0.0
 11
552.4198291235578
 21
259.3739877645337
 31
0.0
  0
LINE
  5
90FD
330
E1B7
100
AcDbEntity
  8
0
100
AcDbLine
 10
572.2452380591056
 20
236.4739938680488
 30
0.0
 11
572.2452380591056
 21
233.4739633504707
 31
0.0
  0
LINE
  5
90FF
330
E1B7
100
AcDbEntity
  8
0
100
AcDbLine
 10
577.7452380591056
 20
259.3739877645329
 30
0.0
 11
577.7452380591056
 21
236.4739938680488
 31
0.0
  0
LINE
  5
9102
330
E1B7
100
AcDbEntity
  8
0
100
AcDbLine
 10
577.6853163292217
 20
227.9702279091341
 30
0.0
 11
595.2452075415276
 21
224.8739452206359
 31
0.0
  0
LINE
  5
9103
330
E1B7
100
AcDbEntity
  8
0
100
AcDbLine
 10
576.2105948499996
 20
233.4739633504707
 30
0.0
 11
577.6853163292217
 21
227.9702279091341
 31
0.0
  0
LINE
  5
911E
330
E1B7
100
AcDbEntity
  8
0
100
AcDbLine
 10
595.2452075415276
 20
224.8739452206359
 30
0.0
 11
595.2452075415276
 21
223.6239572469548
 31
0.0
  0
LINE
  5
9125
330
E1B7
100
AcDbEntity
  8
0
100
AcDbLine
 10
515.4952380591056
 20
223.6239572469548
 30
0.0
 11
606.9952075415264
 21
223.6239572469548
 31
0.0
  0
ARC
  5
9134
330
E1B7
100
AcDbEntity
  8
0
100
AcDbCircle
 10
561.2452380591048
 20
147.1768213216615
 30
0.0
 40
130.0
100
AcDbArc
 50
74.38151569025078
 51
84.03932373656594
  0
LINE
  5
9136
330
E1B7
100
AcDbEntity
  8
0
100
AcDbLine
 10
596.2452075415264
 20
272.37667010843
 30
0.0
 11
596.2452075415264
 21
259.3739877645329
 31
0.0
  0
ARC
  5
9139
330
E1B7
100
AcDbEntity
  8
0
100
AcDbCircle
 10
597.6182544165276
 20
475.9899029557714
 30
0.0
 40
12.0
100
AcDbArc
 50
173.8448980761357
 51
246.1550999510611
  0
ARC
  5
913A
330
E1B7
100
AcDbEntity
  8
0
100
AcDbCircle
 10
524.8721606665276
 20
475.9899029557714
 30
0.0
 40
12.0
100
AcDbArc
 50
293.8449460390294
 51
6.155068513009591
  0
ARC
  5
9160
330
E1B7
100
AcDbEntity
  8
0
100
AcDbCircle
 10
571.2747790747301
 20
426.7160992448337
 30
0.0
 40
5.0
100
AcDbArc
 50
233.8449033882592
 51
289.5310736913438
  0
ARC
  5
9165
330
E1B7
100
AcDbEntity
  8
0
100
AcDbCircle
 10
524.8721606665276
 20
433.9899029557711
 30
0.0
 40
12.0
100
AcDbArc
 50
353.8449366096411
 51
66.15504713078547
  0
ARC
  5
9166
330
E1B7
100
AcDbEntity
  8
0
100
AcDbCircle
 10
531.7446277075426
 20
449.5388226335067
 30
0.0
 40
5.0
100
AcDbArc
 50
190.468940120637
 51
246.1550489520009
  0
ARC
  5
9169
330
E1B7
100
AcDbEntity
  8
0
100
AcDbCircle
 10
561.2452380591048
 20
454.9899029557711
 30
0.0
 40
35.0
100
AcDbArc
 50
229.5310515311117
 51
250.4689281298853
  0
ARC
  5
916A
330
E1B7
100
AcDbEntity
  8
0
100
AcDbCircle
 10
541.7741687231678
 20
432.1671795670996
 30
0.0
 40
5.0
100
AcDbArc
 50
173.8449253968838
 51
229.5310478886503
  0
ARC
  5
916B
330
E1B7
100
AcDbEntity
  8
0
100
AcDbCircle
 10
561.2452380591048
 20
412.989902955771
 30
0.0
 40
12.0
100
AcDbArc
 50
53.84490498211139
 51
126.1550966117408
  0
ARC
  5
916D
330
E1B7
100
AcDbEntity
  8
0
100
AcDbCircle
 10
551.21569704348
 20
426.7160992448337
 30
0.0
 40
5.0
100
AcDbArc
 50
250.4689281298853
 51
306.1550950178884
  0
ARC
  5
9176
330
E1B7
100
AcDbEntity
  8
0
100
AcDbCircle
 10
561.2452380591048
 20
454.9899029557711
 30
0.0
 40
35.0
100
AcDbArc
 50
169.5310598793884
 51
190.4689364781548
  0
ARC
  5
917A
330
E1B7
100
AcDbEntity
  8
0
100
AcDbCircle
 10
531.7446277075426
 20
460.4409832780373
 30
0.0
 40
5.0
100
AcDbArc
 50
113.844951047999
 51
169.5310598793884
  0
ARC
  5
9184
330
E1B7
100
AcDbEntity
  8
0
100
AcDbCircle
 10
597.6182544165276
 20
433.9899029557711
 30
0.0
 40
12.0
100
AcDbArc
 50
113.8448827461004
 51
186.155098281416
  0
ARC
  5
9185
330
E1B7
100
AcDbEntity
  8
0
100
AcDbCircle
 10
590.7458178930901
 20
449.5388531510833
 30
0.0
 40
5.0
100
AcDbArc
 50
293.8448913975248
 51
349.5310779222993
  0
ARC
  5
9188
330
E1B7
100
AcDbEntity
  8
0
100
AcDbCircle
 10
580.7163073950427
 20
432.167149049521
 30
0.0
 40
5.0
100
AcDbArc
 50
310.4689161391592
 51
6.155102663954047
  0
ARC
  5
9189
330
E1B7
100
AcDbEntity
  8
0
100
AcDbCircle
 10
561.2452380591048
 20
454.9899029557711
 30
0.0
 40
35.0
100
AcDbArc
 50
289.5310736913438
 51
310.4689161391592
  0
ARC
  5
918A
330
E1B7
100
AcDbEntity
  8
0
100
AcDbCircle
 10
590.7458178930901
 20
460.4409527604591
 30
0.0
 40
5.0
100
AcDbArc
 50
10.46892037015502
 51
66.15511543266013
  0
ARC
  5
9193
330
E1B7
100
AcDbEntity
  8
0
100
AcDbCircle
 10
561.2452380591048
 20
454.9899029557711
 30
0.0
 40
35.0
100
AcDbArc
 50
349.5310779222993
 51
10.46892037015502
  0
ARC
  5
9194
330
E1B7
100
AcDbEntity
  8
0
100
AcDbCircle
 10
571.2747790747301
 20
483.2637066667088
 30
0.0
 40
5.0
100
AcDbArc
 50
70.46892630865617
 51
126.1550966117408
  0
ARC
  5
919F
330
E1B7
100
AcDbEntity
  8
0
100
AcDbCircle
 10
561.2452380591048
 20
454.9899029557711
 30
0.0
 40
35.0
100
AcDbArc
 50
109.5310718701144
 51
130.4689484688882
  0
ARC
  5
91A0
330
E1B7
100
AcDbEntity
  8
0
100
AcDbCircle
 10
541.7741687231678
 20
477.8126263444432
 30
0.0
 40
5.0
100
AcDbArc
 50
130.4689484688882
 51
186.1550573002806
  0
ARC
  5
91A8
330
E1B7
100
AcDbEntity
  8
0
100
AcDbCircle
 10
561.2452380591048
 20
496.9899029557714
 30
0.0
 40
12.0
100
AcDbArc
 50
233.8449033882592
 51
306.1550950178884
  0
ARC
  5
91A9
330
E1B7
100
AcDbEntity
  8
0
100
AcDbCircle
 10
551.21569704348
 20
483.2637066667088
 30
0.0
 40
5.0
100
AcDbArc
 50
53.84490498211139
 51
109.531065039904
  0
ARC
  5
91B5
330
E1B7
100
AcDbEntity
  8
0
100
AcDbCircle
 10
561.2452380591048
 20
454.9899029557711
 30
0.0
 40
35.0
100
AcDbArc
 50
49.5310804457375
 51
70.46892630865617
  0
ARC
  5
91B6
330
E1B7
100
AcDbEntity
  8
0
100
AcDbCircle
 10
580.7163073950427
 20
477.8126568620214
 30
0.0
 40
5.0
100
AcDbArc
 50
353.8448956285031
 51
49.5310804457375
  0
LINE
  5
91C6
330
E1B7
100
AcDbEntity
  8
0
100
AcDbLine
 10
631.2452075415276
 20
210.6739450399235
 30
0.0
 11
631.2452075415276
 21
176.67393741053
 31
0.0
  0
LINE
  5
91C7
330
E1B7
100
AcDbEntity
  8
0
100
AcDbLine
 10
628.3952581961198
 20
176.67393741053
 30
0.0
 11
626.1568322892358
 21
182.8239618245928
 31
0.0
  0
LINE
  5
91CD
330
E1B7
100
AcDbEntity
  8
0
100
AcDbLine
 10
631.2452075415276
 20
176.67393741053
 30
0.0
 11
628.3952581961198
 21
176.67393741053
 31
0.0
  0
LINE
  5
91D5
330
E1B7
100
AcDbEntity
  8
0
100
AcDbLine
 10
628.3952227445702
 20
210.6739450399235
 30
0.0
 11
626.1568190526695
 21
204.5239816610183
 31
0.0
  0
LINE
  5
91DD
330
E1B7
100
AcDbEntity
  8
0
100
AcDbLine
 10
631.2452075415276
 20
210.6739450399235
 30
0.0
 11
628.3952227445702
 21
210.6739450399235
 31
0.0
  0
LINE
  5
91EF
330
E1B7
100
AcDbEntity
  8
0
100
AcDbLine
 10
631.2452075415276
 20
471.9899029557714
 30
0.0
 11
631.2452075415276
 21
437.9899029557711
 31
0.0
  0
LINE
  5
91F2
330
E1B7
100
AcDbEntity
  8
0
100
AcDbLine
 10
628.395235749525
 20
437.9899029557711
 30
0.0
 11
626.1568098426419
 21
444.1399273698336
 31
0.0
  0
LINE
  5
91F6
330
E1B7
100
AcDbEntity
  8
0
100
AcDbLine
 10
631.2452075415276
 20
437.9899029557711
 30
0.0
 11
628.395235749525
 21
437.9899029557711
 31
0.0
  0
LINE
  5
91F9
330
E1B7
100
AcDbEntity
  8
0
100
AcDbLine
 10
628.3952261762298
 20
471.9899029557714
 30
0.0
 11
626.1568224843264
 21
465.8399395768651
 31
0.0
  0
LINE
  5
91FD
330
E1B7
100
AcDbEntity
  8
0
100
AcDbLine
 10
631.2452075415276
 20
471.9899029557714
 30
0.0
 11
628.3952261762298
 21
471.9899029557714
 31
0.0
  0
LINE
  5
91FF
330
E1B7
100
AcDbEntity
  8
0
100
AcDbLine
 10
527.2452380591056
 20
224.8739621478478
 30
0.0
 11
527.2452380591056
 21
223.6239572469548
 31
0.0
  0
LINE
  5
9200
330
E1B7
100
AcDbEntity
  8
0
100
AcDbLine
 10
570.0706164770735
 20
273.3783822957835
 30
0.0
 11
570.0706164770735
 21
259.3739877645329
 31
0.0
  0
LINE
  5
9201
330
E1B7
100
AcDbEntity
  8
0
100
AcDbLine
 10
586.1639697485587
 20
273.3783822957835
 30
0.0
 11
586.1639697485587
 21
259.3739877645329
 31
0.0
  0
LINE
  5
9202
330
E1B7
100
AcDbEntity
  8
0
100
AcDbLine
 10
593.2451770239485
 20
208.1239572469518
 30
0.0
 11
593.2451770239485
 21
193.67393741053
 31
0.0
  0
ARC
  5
9203
330
E1B7
100
AcDbEntity
  8
0
100
AcDbCircle
 10
578.2452075415276
 20
193.67393741053
 30
0.0
 40
15.0
100
AcDbArc
 50
307.756039205237
 51
0.0000086514148881
  0
LINE
  5
9204
330
E1B7
100
AcDbEntity
  8
0
100
AcDbLine
 10
587.4297168188708
 20
181.8145618226497
 30
0.0
 11
587.4297168188708
 21
178.4739557210758
 31
0.0
  0
CIRCLE
  5
9206
330
E1B7
100
AcDbEntity
  8
0
100
AcDbCircle
 10
561.2452380591048
 20
454.9899029557711
 30
0.0
 40
45.74998474121094
  0
CIRCLE
  5
9207
330
E1B7
100
AcDbEntity
  8
0
100
AcDbCircle
 10
561.2452380591048
 20
454.9899029557711
 30
0.0
 40
34.99998474121093
  0
LINE
  5
A8C1
330
E1B7
100
AcDbEntity
  8
0
100
AcDbLine
 10
626.1568190526695
 20
204.5239816610183
 30
0.0
 11
626.1568322892358
 21
182.8239618245928
 31
0.0
  0
LINE
  5
A8C2
330
E1B7
100
AcDbEntity
  8
0
100
AcDbLine
 10
550.3952319555899
 20
158.7623777908438
 30
0.0
 11
572.0952441626208
 21
158.7623429997631
 31
0.0
  0
LINE
  5
D682
330
E1B7
100
AcDbEntity
  8
0
100
AcDbLine
 10
535.060728781762
 20
181.8145618226497
 30
0.0
 11
587.4297168188708
 21
181.8145618226497
 31
0.0
  0
LINE
  5
DADF
330
E1B7
100
AcDbEntity
  8
0
100
AcDbLine
 10
626.1568224843264
 20
465.8399395768651
 30
0.0
 11
626.1568098426419
 21
444.1399273698336
 31
0.0
  0
LINE
  5
E27F
330
E1B7
100
AcDbEntity
  8
0
  6
CENTER
100
AcDbLine
 10
561.2452380591048
 20
383.1293208936578
 30
0.0
 11
561.2452380591048
 21
526.8504850178844
 31
0.0
  0
LINE
  5
E280
330
E1B7
100
AcDbEntity
  8
0
  6
CENTER
100
AcDbLine
 10
493.6754887084721
 20
454.9899029557711
 30
0.0
 11
650.5915091935712
 21
454.9899029557711
 31
0.0
  0
LINE
  5
E281
330
E1B7
100
AcDbEntity
  8
0
  6
CENTER
100
AcDbLine
 10
517.1779826302237
 20
193.6739412252268
 30
0.0
 11
655.6054731040681
 21
193.6739412252268
 31
0.0
  0
LINE
  5
E282
330
E1B7
100
AcDbEntity
  8
0
  6
CENTER
100
AcDbLine
 10
561.2452228003149
 20
132.8294155935907
 30
0.0
 11
561.2452228003149
 21
296.1419051782172
 31
0.0
  0
ENDSEC
  0
SECTION
  2
OBJECTS
  0
DICTIONARY
  5
E1A5
330
0
100
AcDbDictionary
281
     1
  3
ACAD_GROUP
350
E1A6
  3
ACAD_LAYOUT
350
E1B2
  3
ACAD_MLINESTYLE
350
E1AF
  3
ACAD_PLOTSETTINGS
350
E1B1
  3
ACAD_PLOTSTYLENAME
350
E1A7
  3
AcDbVariableDictionary
350
E1FD
  0
DICTIONARY
  5
E275
330
E19B
100
AcDbDictionary
280
     1
281
     1
  3
ACAD_LAYERSTATES
360
E276
  0
DICTIONARY
  5
E1C9
330
E1B7
100
AcDbDictionary
280
     1
281
     1
  3
ACAD_LAYOUTSELFREF
360
E26C
  0
DICTIONARY
  5
E1CB
330
E1B3
100
AcDbDictionary
280
     1
281
     1
  3
ACAD_LAYOUTSELFREF
360
E26B
  0
DICTIONARY
  5
E1A6
102
{ACAD_REACTORS
330
E1A5
102
}
330
E1A5
100
AcDbDictionary
281
     1
  0
DICTIONARY
  5
E1B2
102
{ACAD_REACTORS
330
E1A5
102
}
330
E1A5
100
AcDbDictionary
281
     1
  3
Model
350
E1BA
  3
ﾚｲｱｳﾄ1
350
E1B6
  0
DICTIONARY
  5
E1AF
102
{ACAD_REACTORS
330
E1A5
102
}
330
E1A5
100
AcDbDictionary
281
     1
  3
Standard
350
E1B0
  0
DICTIONARY
  5
E1B1
102
{ACAD_REACTORS
330
E1A5
102
}
330
E1A5
100
AcDbDictionary
281
     1
  0
ACDBDICTIONARYWDFLT
  5
E1A7
102
{ACAD_REACTORS
330
E1A5
102
}
330
E1A5
100
AcDbDictionary
281
     1
  3
Normal
350
E1A8
100
AcDbDictionaryWithDefault
340
E1A8
  0
DICTIONARY
  5
E1FD
102
{ACAD_REACTORS
330
E1A5
102
}
330
E1A5
100
AcDbDictionary
281
     1
  3
DIMASSOC
350
E1FE
  0
DICTIONARY
  5
E276
102
{ACAD_REACTORS
330
E275
102
}
330
E275
100
AcDbDictionary
281
     1
  0
XRECORD
  5
E26C
102
{ACAD_REACTORS
330
E1C9
102
}
330
E1C9
100
AcDbXrecord
280
     1
340
E1B7
  0
XRECORD
  5
E26B
102
{ACAD_REACTORS
330
E1CB
102
}
330
E1CB
100
AcDbXrecord
280
     1
340
E1B3
  0
LAYOUT
  5
E1BA
102
{ACAD_REACTORS
330
E1B2
102
}
330
E1B2
100
AcDbPlotSettings
  1

  2
SII LP-2150 (D-SCAN C2)
  4

  6

 40
0.0
 41
0.0
 42
0.0
 43
0.0
 44
0.0
 45
0.0
 46
0.0
 47
0.0
 48
0.0
 49
0.0
140
0.0
141
0.0
142
1.0
143
1.0
 70
  1712
 72
     0
 73
     0
 74
     0
  7

 75
     0
147
1.0
148
0.0
149
0.0
100
AcDbLayout
  1
Model
 70
     1
 71
     0
 10
0.0
 20
0.0
 11
12.0
 21
9.0
 12
0.0
 22
0.0
 32
0.0
 14
0.0
 24
0.0
 34
0.0
 15
0.0
 25
0.0
 35
0.0
146
0.0
 13
0.0
 23
0.0
 33
0.0
 16
1.0
 26
0.0
 36
0.0
 17
0.0
 27
1.0
 37
0.0
 76
     0
330
E1B7
  0
LAYOUT
  5
E1B6
102
{ACAD_REACTORS
330
E1B2
102
}
330
E1B2
100
AcDbPlotSettings
  1

  2
SII LP-2150 (D-SCAN C2)
  4

  6

 40
0.0
 41
0.0
 42
0.0
 43
0.0
 44
0.0
 45
0.0
 46
0.0
 47
0.0
 48
0.0
 49
0.0
140
0.0
141
0.0
142
1.0
143
1.0
 70
   688
 72
     0
 73
     0
 74
     5
  7

 75
    16
147
1.0
148
0.0
149
0.0
100
AcDbLayout
  1
ﾚｲｱｳﾄ1
 70
     1
 71
     1
 10
-580.5701293945312
 20
0.0
 11
0.0
 21
407.8999938964844
 12
0.0
 22
0.0
 32
0.0
 14
-580.5701293945312
 24
0.0
 34
0.0
 15
0.0
 25
407.8999938964844
 35
0.0
146
0.0
 13
0.0
 23
0.0
 33
0.0
 16
1.0
 26
0.0
 36
0.0
 17
0.0
 27
1.0
 37
0.0
 76
     0
330
E1B3
  0
MLINESTYLE
  5
E1B0
102
{ACAD_REACTORS
330
E1AF
102
}
330
E1AF
100
AcDbMlineStyle
  2
STANDARD
 70
     0
  3

 62
   256
 51
90.0
 52
90.0
 71
     2
 49
0.5
 62
   256
  6
BYLAYER
 49
-0.5
 62
   256
  6
BYLAYER
  0
ACDBPLACEHOLDER
  5
E1A8
102
{ACAD_REACTORS
330
E1A7
102
}
330
E1A7
  0
DICTIONARYVAR
  5
E1FE
102
{ACAD_REACTORS
330
E1FD
102
}
330
E1FD
100
DictionaryVariables
280
     0
  1
1
  0
ENDSEC
  0
EOF
