  0
SECTION
  2
HEADER
  9
$ACADVER
  1
AC1015
  9
$ACADMAINTVER
 70
    14
  9
$DWGCODEPAGE
  3
ANSI_932
  9
$INSBASE
 10
0.0
 20
0.0
 30
0.0
  9
$EXTMIN
 10
205.5945332121546
 20
-69.41481234228104
 30
-0.0000000000112498
  9
$EXTMAX
 10
1082.795659845394
 20
1102.370472343236
 30
0.0000000000002956
  9
$LIMMIN
 10
0.0
 20
0.0
  9
$LIMMAX
 10
420.0
 20
297.0
  9
$ORTHOMODE
 70
     0
  9
$REGENMODE
 70
     1
  9
$FILLMODE
 70
     1
  9
$QTEXTMODE
 70
     0
  9
$MIRRTEXT
 70
     1
  9
$LTSCALE
 40
1.0
  9
$ATTMODE
 70
     1
  9
$TEXTSIZE
 40
2.5
  9
$TRACEWID
 40
1.0
  9
$TEXTSTYLE
  7
Standard
  9
$CLAYER
  8
0
  9
$CELTYPE
  6
ByLayer
  9
$CECOLOR
 62
   256
  9
$CELTSCALE
 40
1.0
  9
$DISPSILH
 70
     0
  9
$DIMSCALE
 40
1.0
  9
$DIMASZ
 40
2.5
  9
$DIMEXO
 40
0.625
  9
$DIMDLI
 40
3.75
  9
$DIMRND
 40
0.0
  9
$DIMDLE
 40
0.0
  9
$DIMEXE
 40
1.25
  9
$DIMTP
 40
0.0
  9
$DIMTM
 40
0.0
  9
$DIMTXT
 40
2.5
  9
$DIMCEN
 40
2.5
  9
$DIMTSZ
 40
0.0
  9
$DIMTOL
 70
     0
  9
$DIMLIM
 70
     0
  9
$DIMTIH
 70
     0
  9
$DIMTOH
 70
     0
  9
$DIMSE1
 70
     0
  9
$DIMSE2
 70
     0
  9
$DIMTAD
 70
     1
  9
$DIMZIN
 70
     8
  9
$DIMBLK
  1

  9
$DIMASO
 70
     1
  9
$DIMSHO
 70
     1
  9
$DIMPOST
  1

  9
$DIMAPOST
  1

  9
$DIMALT
 70
     0
  9
$DIMALTD
 70
     3
  9
$DIMALTF
 40
0.03937007874016
  9
$DIMLFAC
 40
1.0
  9
$DIMTOFL
 70
     1
  9
$DIMTVP
 40
0.0
  9
$DIMTIX
 70
     0
  9
$DIMSOXD
 70
     0
  9
$DIMSAH
 70
     0
  9
$DIMBLK1
  1

  9
$DIMBLK2
  1

  9
$DIMSTYLE
  2
ISO-25
  9
$DIMCLRD
 70
     0
  9
$DIMCLRE
 70
     0
  9
$DIMCLRT
 70
     0
  9
$DIMTFAC
 40
1.0
  9
$DIMGAP
 40
0.625
  9
$DIMJUST
 70
     0
  9
$DIMSD1
 70
     0
  9
$DIMSD2
 70
     0
  9
$DIMTOLJ
 70
     0
  9
$DIMTZIN
 70
     8
  9
$DIMALTZ
 70
     0
  9
$DIMALTTZ
 70
     0
  9
$DIMUPT
 70
     0
  9
$DIMDEC
 70
     2
  9
$DIMTDEC
 70
     2
  9
$DIMALTU
 70
     2
  9
$DIMALTTD
 70
     3
  9
$DIMTXSTY
  7
Standard
  9
$DIMAUNIT
 70
     0
  9
$DIMADEC
 70
     0
  9
$DIMALTRND
 40
0.0
  9
$DIMAZIN
 70
     0
  9
$DIMDSEP
 70
    44
  9
$DIMATFIT
 70
     3
  9
$DIMFRAC
 70
     0
  9
$DIMLDRBLK
  1

  9
$DIMLUNIT
 70
     2
  9
$DIMLWD
 70
    -2
  9
$DIMLWE
 70
    -2
  9
$DIMTMOVE
 70
     0
  9
$LUNITS
 70
     2
  9
$LUPREC
 70
     4
  9
$SKETCHINC
 40
1.0
  9
$FILLETRAD
 40
10.0
  9
$AUNITS
 70
     0
  9
$AUPREC
 70
     0
  9
$MENU
  1
.
  9
$ELEVATION
 40
0.0
  9
$PELEVATION
 40
0.0
  9
$THICKNESS
 40
0.0
  9
$LIMCHECK
 70
     0
  9
$CHAMFERA
 40
10.0
  9
$CHAMFERB
 40
10.0
  9
$CHAMFERC
 40
20.0
  9
$CHAMFERD
 40
0.0
  9
$SKPOLY
 70
     0
  9
$TDCREATE
 40
2454278.656830151
  9
$TDUCREATE
 40
2454278.281830150
  9
$TDUPDATE
 40
2456899.668074571
  9
$TDUUPDATE
 40
2456899.293074571
  9
$TDINDWG
 40
0.0008661690
  9
$TDUSRTIMER
 40
0.0008661690
  9
$USRTIMER
 70
     1
  9
$ANGBASE
 50
0.0
  9
$ANGDIR
 70
     0
  9
$PDMODE
 70
     0
  9
$PDSIZE
 40
0.0
  9
$PLINEWID
 40
0.0
  9
$SPLFRAME
 70
     0
  9
$SPLINETYPE
 70
     6
  9
$SPLINESEGS
 70
     8
  9
$HANDSEED
  5
28F
  9
$SURFTAB1
 70
     6
  9
$SURFTAB2
 70
     6
  9
$SURFTYPE
 70
     6
  9
$SURFU
 70
     6
  9
$SURFV
 70
     6
  9
$UCSBASE
  2

  9
$UCSNAME
  2

  9
$UCSORG
 10
0.0
 20
0.0
 30
0.0
  9
$UCSXDIR
 10
1.0
 20
0.0
 30
0.0
  9
$UCSYDIR
 10
0.0
 20
1.0
 30
0.0
  9
$UCSORTHOREF
  2

  9
$UCSORTHOVIEW
 70
     0
  9
$UCSORGTOP
 10
0.0
 20
0.0
 30
0.0
  9
$UCSORGBOTTOM
 10
0.0
 20
0.0
 30
0.0
  9
$UCSORGLEFT
 10
0.0
 20
0.0
 30
0.0
  9
$UCSORGRIGHT
 10
0.0
 20
0.0
 30
0.0
  9
$UCSORGFRONT
 10
0.0
 20
0.0
 30
0.0
  9
$UCSORGBACK
 10
0.0
 20
0.0
 30
0.0
  9
$PUCSBASE
  2

  9
$PUCSNAME
  2

  9
$PUCSORG
 10
0.0
 20
0.0
 30
0.0
  9
$PUCSXDIR
 10
1.0
 20
0.0
 30
0.0
  9
$PUCSYDIR
 10
0.0
 20
1.0
 30
0.0
  9
$PUCSORTHOREF
  2

  9
$PUCSORTHOVIEW
 70
     0
  9
$PUCSORGTOP
 10
0.0
 20
0.0
 30
0.0
  9
$PUCSORGBOTTOM
 10
0.0
 20
0.0
 30
0.0
  9
$PUCSORGLEFT
 10
0.0
 20
0.0
 30
0.0
  9
$PUCSORGRIGHT
 10
0.0
 20
0.0
 30
0.0
  9
$PUCSORGFRONT
 10
0.0
 20
0.0
 30
0.0
  9
$PUCSORGBACK
 10
0.0
 20
0.0
 30
0.0
  9
$USERI1
 70
     0
  9
$USERI2
 70
     0
  9
$USERI3
 70
     0
  9
$USERI4
 70
     0
  9
$USERI5
 70
     0
  9
$USERR1
 40
0.0
  9
$USERR2
 40
0.0
  9
$USERR3
 40
0.0
  9
$USERR4
 40
0.0
  9
$USERR5
 40
0.0
  9
$WORLDVIEW
 70
     1
  9
$SHADEDGE
 70
     3
  9
$SHADEDIF
 70
    70
  9
$TILEMODE
 70
     1
  9
$MAXACTVP
 70
    48
  9
$PINSBASE
 10
0.0
 20
0.0
 30
0.0
  9
$PLIMCHECK
 70
     0
  9
$PEXTMIN
 10
26.66076962115562
 20
20.31135699206657
 30
-0.0015258207003583
  9
$PEXTMAX
 10
240.039213369355
 20
182.8886381005154
 30
0.0000000349246037
  9
$PLIMMIN
 10
-6.350006103515625
 20
-6.349999904632568
  9
$PLIMMAX
 10
273.0499877929687
 20
209.5499939918517
  9
$UNITMODE
 70
     0
  9
$VISRETAIN
 70
     1
  9
$PLINEGEN
 70
     0
  9
$PSLTSCALE
 70
     1
  9
$TREEDEPTH
 70
  3020
  9
$CMLSTYLE
  2
Standard
  9
$CMLJUST
 70
     0
  9
$CMLSCALE
 40
20.0
  9
$PROXYGRAPHICS
 70
     1
  9
$MEASUREMENT
 70
     1
  9
$CELWEIGHT
370
    -1
  9
$ENDCAPS
280
     0
  9
$JOINSTYLE
280
     0
  9
$LWDISPLAY
290
     0
  9
$INSUNITS
 70
     4
  9
$HYPERLINKBASE
  1

  9
$STYLESHEET
  1

  9
$XEDIT
290
     1
  9
$CEPSNTYPE
380
     0
  9
$PSTYLEMODE
290
     1
  9
$FINGERPRINTGUID
  2
{FDEAD578-A652-11D2-9A35-0060089B3A3F}
  9
$VERSIONGUID
  2
{1E228096-4FB4-40CA-874D-2D19671BC9EA}
  9
$EXTNAMES
290
     1
  9
$PSVPSCALE
 40
0.0
  9
$OLESTARTUP
290
     0
  0
ENDSEC
  0
SECTION
  2
CLASSES
  0
CLASS
  1
ACDBDICTIONARYWDFLT
  2
AcDbDictionaryWithDefault
  3
AutoCAD 2000
 90
        0
280
     0
281
     0
  0
CLASS
  1
ACDBPLACEHOLDER
  2
AcDbPlaceHolder
  3
AutoCAD 2000
 90
        0
280
     0
281
     0
  0
CLASS
  1
LAYOUT
  2
AcDbLayout
  3
AutoCAD 2000
 90
        0
280
     0
281
     0
  0
CLASS
  1
DICTIONARYVAR
  2
AcDbDictionaryVar
  3
AutoCAD 2000
 90
        0
280
     0
281
     0
  0
CLASS
  1
LONG_TRANSACTION
  2
AcDbLongTransaction
  3
AutoCAD 2000
 90
    32768
280
     0
281
     0
  0
CLASS
  1
LWPOLYLINE
  2
AcDbPolyline
  3
AutoCAD 2000
 90
    32768
280
     0
281
     1
  0
CLASS
  1
HATCH
  2
AcDbHatch
  3
AutoCAD 2000
 90
    32768
280
     0
281
     1
  0
CLASS
  1
XRECORD
  2
AcDbXrecord
  3
AutoCAD 2000
 90
    32768
280
     0
281
     0
  0
ENDSEC
  0
SECTION
  2
TABLES
  0
TABLE
  2
VPORT
  5
8
330
0
100
AcDbSymbolTable
 70
     2
  0
VPORT
  5
28E
330
8
100
AcDbSymbolTableRecord
100
AcDbViewportTableRecord
  2
*Active
 70
     0
 10
0.0
 20
0.0
 11
1.0
 21
1.0
 12
644.1950965287745
 22
516.4778300004775
 13
0.0
 23
0.0
 14
10.0
 24
10.0
 15
10.0
 25
10.0
 16
0.0
 26
0.0
 36
1.0
 17
0.0
 27
0.0
 37
0.0
 40
1179.225191254949
 41
1.592161016949152
 42
50.0
 43
0.0
 44
0.0
 50
0.0
 51
0.0
 71
     0
 72
   100
 73
     1
 74
     3
 75
     0
 76
     0
 77
     0
 78
     0
281
     0
 65
     1
110
0.0
120
0.0
130
0.0
111
1.0
121
0.0
131
0.0
112
0.0
122
1.0
132
0.0
 79
     0
146
0.0
  0
ENDTAB
  0
TABLE
  2
LTYPE
  5
5
330
0
100
AcDbSymbolTable
 70
     2
  0
LTYPE
  5
14
330
5
100
AcDbSymbolTableRecord
100
AcDbLinetypeTableRecord
  2
ByBlock
 70
     0
  3

 72
    65
 73
     0
 40
0.0
  0
LTYPE
  5
15
330
5
100
AcDbSymbolTableRecord
100
AcDbLinetypeTableRecord
  2
ByLayer
 70
     0
  3

 72
    65
 73
     0
 40
0.0
  0
LTYPE
  5
16
330
5
100
AcDbSymbolTableRecord
100
AcDbLinetypeTableRecord
  2
Continuous
 70
     0
  3
Solid line
 72
    65
 73
     0
 40
0.0
  0
LTYPE
  5
278
330
5
100
AcDbSymbolTableRecord
100
AcDbLinetypeTableRecord
  2
CENTER
 70
     0
  3
__ . __
 72
    65
 73
     4
 40
7.0
 49
4.0
 74
     0
 49
-1.0
 74
     0
 49
1.0
 74
     0
 49
-1.0
 74
     0
  0
ENDTAB
  0
TABLE
  2
LAYER
  5
2
102
{ACAD_XDICTIONARY
360
279
102
}
330
0
100
AcDbSymbolTable
 70
     1
  0
LAYER
  5
10
330
2
100
AcDbSymbolTableRecord
100
AcDbLayerTableRecord
  2
0
 70
     0
 62
     7
  6
Continuous
370
    -3
390
F
  0
ENDTAB
  0
TABLE
  2
STYLE
  5
3
330
0
100
AcDbSymbolTable
 70
     1
  0
STYLE
  5
11
330
3
100
AcDbSymbolTableRecord
100
AcDbTextStyleTableRecord
  2
Standard
 70
     0
 40
0.0
 41
1.0
 50
0.0
 71
     0
 42
2.5
  3
txt
  4

  0
ENDTAB
  0
TABLE
  2
VIEW
  5
6
330
0
100
AcDbSymbolTable
 70
     0
  0
ENDTAB
  0
TABLE
  2
UCS
  5
7
330
0
100
AcDbSymbolTable
 70
     0
  0
ENDTAB
  0
TABLE
  2
APPID
  5
9
330
0
100
AcDbSymbolTable
 70
     2
  0
APPID
  5
12
330
9
100
AcDbSymbolTableRecord
100
AcDbRegAppTableRecord
  2
ACAD
 70
     0
  0
APPID
  5
87
330
9
100
AcDbSymbolTableRecord
100
AcDbRegAppTableRecord
  2
ACAD_PSEXT
 70
     0
  0
ENDTAB
  0
TABLE
  2
DIMSTYLE
  5
A
330
0
100
AcDbSymbolTable
 70
     1
100
AcDbDimStyleTable
 71
     0
  0
DIMSTYLE
105
27
330
A
100
AcDbSymbolTableRecord
100
AcDbDimStyleTableRecord
  2
ISO-25
 70
     0
 41
2.5
 42
0.625
 43
3.75
 44
1.25
 73
     0
 74
     0
 77
     1
 78
     8
140
2.5
141
2.5
143
0.03937007874016
147
0.625
171
     3
172
     1
271
     2
272
     2
274
     3
278
    44
283
     0
284
     8
340
11
  0
ENDTAB
  0
TABLE
  2
BLOCK_RECORD
  5
1
330
0
100
AcDbSymbolTable
 70
     1
  0
BLOCK_RECORD
  5
1F
102
{ACAD_XDICTIONARY
360
231
102
}
330
1
100
AcDbSymbolTableRecord
100
AcDbBlockTableRecord
  2
*Model_Space
340
22
  0
BLOCK_RECORD
  5
55
102
{ACAD_XDICTIONARY
360
233
102
}
330
1
100
AcDbSymbolTableRecord
100
AcDbBlockTableRecord
  2
*Paper_Space
340
56
  0
BLOCK_RECORD
  5
50
102
{ACAD_XDICTIONARY
360
235
102
}
330
1
100
AcDbSymbolTableRecord
100
AcDbBlockTableRecord
  2
*Paper_Space0
340
51
  0
ENDTAB
  0
ENDSEC
  0
SECTION
  2
BLOCKS
  0
BLOCK
  5
20
330
1F
100
AcDbEntity
  8
0
100
AcDbBlockBegin
  2
*Model_Space
 70
     0
 10
0.0
 20
0.0
 30
0.0
  3
*Model_Space
  1

  0
ENDBLK
  5
21
330
1F
100
AcDbEntity
  8
0
100
AcDbBlockEnd
  0
BLOCK
  5
57
330
55
100
AcDbEntity
 67
     1
  8
0
100
AcDbBlockBegin
  2
*Paper_Space
 70
     0
 10
0.0
 20
0.0
 30
0.0
  3
*Paper_Space
  1

  0
ENDBLK
  5
58
330
55
100
AcDbEntity
 67
     1
  8
0
100
AcDbBlockEnd
  0
BLOCK
  5
52
330
50
100
AcDbEntity
  8
0
100
AcDbBlockBegin
  2
*Paper_Space0
 70
     0
 10
0.0
 20
0.0
 30
0.0
  3
*Paper_Space0
  1

  0
VIEWPORT
  5
6B
330
50
100
AcDbEntity
  8
0
100
AcDbViewport
 10
133.3499908447265
 20
101.5999970436096
 30
0.0
 40
381.3957395593834
 41
218.2856291881582
 69
     0
 12
133.3499908447265
 22
101.5999970436096
 13
0.0
 23
0.0
 14
10.0
 24
10.0
 15
10.0
 25
10.0
 16
0.0
 26
0.0
 36
1.0
 17
0.0
 27
0.0
 37
0.0
 42
50.0
 43
0.0
 44
0.0
 45
218.2856291881582
 50
0.0
 51
0.0
 72
   100
 90
    32800
  1

281
     0
 71
     1
 74
     0
110
0.0
120
0.0
130
0.0
111
1.0
121
0.0
131
0.0
112
0.0
122
1.0
132
0.0
 79
     0
146
0.0
  0
VIEWPORT
  5
6D
330
50
100
AcDbEntity
  8
0
100
AcDbViewport
 10
133.349993944168
 20
101.599993944168
 30
0.0
 40
213.3599903106689
 41
162.5599903106689
 69
     0
 12
210.0
 22
148.5
 13
0.0
 23
0.0
 14
10.0
 24
10.0
 15
10.0
 25
10.0
 16
0.0
 26
0.0
 36
1.0
 17
0.0
 27
0.0
 37
0.0
 42
50.0
 43
0.0
 44
0.0
 45
324.0677920111345
 50
0.0
 51
0.0
 72
   100
 90
    32864
  1

281
     0
 71
     1
 74
     0
110
0.0
120
0.0
130
0.0
111
1.0
121
0.0
131
0.0
112
0.0
122
1.0
132
0.0
 79
     0
146
0.0
  0
ENDBLK
  5
53
330
50
100
AcDbEntity
  8
0
100
AcDbBlockEnd
  0
ENDSEC
  0
SECTION
  2
ENTITIES
  0
TEXT
  5
15C
330
1F
100
AcDbEntity
  8
0
  6
Continuous
100
AcDbText
 10
205.6682958543861
 20
1054.353576519206
 30
0.0
 40
48.000002
  1
DAC3J17RD000 3S
 41
1.32095
100
AcDbText
  0
CIRCLE
  5
15D
330
1F
100
AcDbEntity
  8
0
100
AcDbCircle
 10
570.970905077343
 20
832.8457176356142
 30
0.0
 40
13.5
  0
CIRCLE
  5
15E
330
1F
100
AcDbEntity
  8
0
100
AcDbCircle
 10
570.970905077343
 20
832.8457176356142
 30
0.0
 40
9.999999
  0
CIRCLE
  5
15F
330
1F
100
AcDbEntity
  8
0
100
AcDbCircle
 10
570.9709050773426
 20
832.8457176356142
 30
0.0
 40
13.5
  0
CIRCLE
  5
160
330
1F
100
AcDbEntity
  8
0
100
AcDbCircle
 10
570.9709050773426
 20
832.8457176356142
 30
0.0
 40
9.999999
  0
ARC
  5
161
330
1F
100
AcDbEntity
  8
0
100
AcDbCircle
 10
570.970905077343
 20
832.8457176356142
 30
0.0
 40
89.00002500000017
100
AcDbArc
 50
182.0283073825525
 51
177.9716926174474
  0
ARC
  5
162
330
1F
100
AcDbEntity
  8
0
100
AcDbCircle
 10
570.970905077343
 20
832.8457176356142
 30
0.0
 40
98.49999000000014
100
AcDbArc
 50
2.909636857686355
 51
178.1673857756427
  0
ARC
  5
163
330
1F
100
AcDbEntity
  8
0
100
AcDbCircle
 10
570.970905077343
 20
832.8457176356142
 30
0.0
 40
98.49999000000014
100
AcDbArc
 50
181.8326142243572
 51
357.0903107232475
  0
CIRCLE
  5
164
330
1F
100
AcDbEntity
  8
0
100
AcDbCircle
 10
570.9709050773426
 20
832.8457176356142
 30
0.0
 40
25.00001999999994
  0
LINE
  5
165
330
1F
100
AcDbEntity
  8
0
100
AcDbLine
 10
518.4709050773428
 20
276.9745887949678
 30
0.0
 11
623.4709050773428
 21
276.9745887949678
 31
0.0
  0
LINE
  5
166
330
1F
100
AcDbEntity
  8
0
100
AcDbLine
 10
518.4709050773428
 20
293.9746137949679
 30
0.0
 11
623.4709050773428
 21
293.9746137949679
 31
0.0
  0
LINE
  5
167
330
1F
100
AcDbEntity
  8
0
100
AcDbLine
 10
518.4709050773428
 20
293.9746137949679
 30
0.0
 11
518.4709050773428
 21
276.9745887949678
 31
0.0
  0
LINE
  5
168
330
1F
100
AcDbEntity
  8
0
100
AcDbLine
 10
623.4709050773428
 20
293.9746137949679
 30
0.0
 11
623.4709050773428
 21
276.9745887949678
 31
0.0
  0
LINE
  5
169
330
1F
100
AcDbEntity
  8
0
100
AcDbLine
 10
610.4709150773429
 20
295.4746137949679
 30
0.0
 11
610.4709150773429
 21
293.9746137949679
 31
0.0
  0
LINE
  5
16A
330
1F
100
AcDbEntity
  8
0
100
AcDbLine
 10
531.470910077343
 20
295.4746137949679
 30
0.0
 11
531.470910077343
 21
293.9746137949679
 31
0.0
  0
LINE
  5
16B
330
1F
100
AcDbEntity
  8
0
100
AcDbLine
 10
489.9709050773429
 20
437.4753701983199
 30
0.0
 11
489.9709050773428
 21
423.875348794968
 31
0.0
  0
LINE
  5
16C
330
1F
100
AcDbEntity
  8
0
100
AcDbLine
 10
481.4495873771879
 20
429.9753694966438
 30
0.0
 11
483.4495133082064
 21
437.475350676956
 31
0.0
  0
LINE
  5
16D
330
1F
100
AcDbEntity
  8
0
100
AcDbLine
 10
481.4495573773708
 20
429.9753693918585
 30
0.0
 11
483.4495409818052
 21
422.4753492736041
 31
0.0
  0
LINE
  5
16E
330
1F
100
AcDbEntity
  8
0
100
AcDbLine
 10
488.4496264141422
 20
422.4753687949679
 30
0.0
 11
483.4496009814393
 21
422.4753494831748
 31
0.0
  0
LINE
  5
16F
330
1F
100
AcDbEntity
  8
0
100
AcDbLine
 10
483.4495733078049
 20
437.4753701983198
 30
0.0
 11
483.4496009814393
 21
422.4753494831748
 31
0.0
  0
LINE
  5
170
330
1F
100
AcDbEntity
  8
0
100
AcDbLine
 10
488.4495987405434
 20
437.4753701983197
 30
0.0
 11
488.4496264141422
 21
422.4753687949679
 31
0.0
  0
LINE
  5
171
330
1F
100
AcDbEntity
  8
0
100
AcDbLine
 10
669.4708800773428
 20
318.4753137949677
 30
0.0
 11
570.9708300773429
 21
318.4753137949679
 31
0.0
  0
LINE
  5
172
330
1F
100
AcDbEntity
  8
0
100
AcDbLine
 10
659.9708700773428
 20
343.9601187949678
 30
0.0
 11
570.9708600773429
 21
343.960118794968
 31
0.0
  0
LINE
  5
173
330
1F
100
AcDbEntity
  8
0
100
AcDbLine
 10
570.9709050773429
 20
403.5429537949681
 30
0.0
 11
483.0621900773429
 21
403.5429537949681
 31
0.0
  0
LINE
  5
174
330
1F
100
AcDbEntity
  8
0
100
AcDbLine
 10
476.4641550773428
 20
338.4752787949679
 30
0.0
 11
570.9708600773429
 21
338.4752787949679
 31
0.0
  0
LINE
  5
175
330
1F
100
AcDbEntity
  8
0
100
AcDbLine
 10
481.970820077343
 20
343.960118794968
 30
0.0
 11
570.9708600773429
 21
343.960118794968
 31
0.0
  0
LINE
  5
176
330
1F
100
AcDbEntity
  8
0
100
AcDbLine
 10
497.7967200773427
 20
310.4752437949679
 30
0.0
 11
484.7967300773429
 21
310.4752437949679
 31
0.0
  0
LINE
  5
177
330
1F
100
AcDbEntity
  8
0
100
AcDbLine
 10
497.7967800773428
 20
310.4753037949679
 30
0.0
 11
497.7967800773428
 21
312.4752687949679
 31
0.0
  0
LINE
  5
178
330
1F
100
AcDbEntity
  8
0
100
AcDbLine
 10
484.7968050773429
 20
310.4753037949679
 30
0.0
 11
484.7968050773429
 21
312.4752687949679
 31
0.0
  0
LINE
  5
179
330
1F
100
AcDbEntity
  8
0
100
AcDbLine
 10
496.930695077343
 20
302.4753237949681
 30
0.0
 11
497.7967350773428
 21
302.975348794968
 31
0.0
  0
LINE
  5
17A
330
1F
100
AcDbEntity
  8
0
100
AcDbLine
 10
485.6627100773428
 20
302.4753687949679
 30
0.0
 11
484.7966850773428
 21
302.975393794968
 31
0.0
  0
LINE
  5
17B
330
1F
100
AcDbEntity
  8
0
100
AcDbLine
 10
484.7967300773429
 20
302.9752437949679
 30
0.0
 11
497.7967200773427
 21
302.9752437949679
 31
0.0
  0
LINE
  5
17C
330
1F
100
AcDbEntity
  8
0
100
AcDbLine
 10
484.7967300773429
 20
309.2252337949679
 30
0.0
 11
497.7967200773427
 21
309.2252337949679
 31
0.0
  0
LINE
  5
17D
330
1F
100
AcDbEntity
  8
0
100
AcDbLine
 10
497.7967800773428
 20
302.975303794968
 30
0.0
 11
497.7967800773428
 21
310.4753037949679
 31
0.0
  0
LINE
  5
17E
330
1F
100
AcDbEntity
  8
0
100
AcDbLine
 10
484.7968050773429
 20
302.975303794968
 30
0.0
 11
484.7968050773429
 21
310.4753037949679
 31
0.0
  0
LINE
  5
17F
330
1F
100
AcDbEntity
  8
0
100
AcDbLine
 10
485.6627250773429
 20
302.4752337949679
 30
0.0
 11
496.9307100773428
 21
302.4752337949679
 31
0.0
  0
LINE
  5
180
330
1F
100
AcDbEntity
  8
0
100
AcDbLine
 10
577.4709150773428
 20
310.4753037949679
 30
0.0
 11
577.4709150773428
 21
312.4752687949679
 31
0.0
  0
LINE
  5
181
330
1F
100
AcDbEntity
  8
0
100
AcDbLine
 10
564.4708800773428
 20
310.4753037949679
 30
0.0
 11
564.4708800773428
 21
312.4752687949679
 31
0.0
  0
LINE
  5
182
330
1F
100
AcDbEntity
  8
0
100
AcDbLine
 10
576.6048300773429
 20
302.4753237949681
 30
0.0
 11
577.4707950773429
 21
302.975303794968
 31
0.0
  0
LINE
  5
183
330
1F
100
AcDbEntity
  8
0
100
AcDbLine
 10
565.3368300773429
 20
302.4753687949679
 30
0.0
 11
564.4708200773429
 21
302.975393794968
 31
0.0
  0
LINE
  5
184
330
1F
100
AcDbEntity
  8
0
100
AcDbLine
 10
564.4708200773429
 20
302.9752437949679
 30
0.0
 11
577.4708400773429
 21
302.9752437949679
 31
0.0
  0
LINE
  5
185
330
1F
100
AcDbEntity
  8
0
100
AcDbLine
 10
564.4708200773429
 20
309.2252337949679
 30
0.0
 11
577.4708400773429
 21
309.2252337949679
 31
0.0
  0
LINE
  5
186
330
1F
100
AcDbEntity
  8
0
100
AcDbLine
 10
577.4709150773428
 20
302.975303794968
 30
0.0
 11
577.4709150773428
 21
310.4753037949679
 31
0.0
  0
LINE
  5
187
330
1F
100
AcDbEntity
  8
0
100
AcDbLine
 10
564.4708800773428
 20
302.975303794968
 30
0.0
 11
564.4708800773428
 21
310.4753037949679
 31
0.0
  0
LINE
  5
188
330
1F
100
AcDbEntity
  8
0
100
AcDbLine
 10
565.3368150773428
 20
302.4752337949679
 30
0.0
 11
576.6048000773428
 21
302.4752337949679
 31
0.0
  0
LINE
  5
189
330
1F
100
AcDbEntity
  8
0
100
AcDbLine
 10
564.4708200773429
 20
310.4752437949679
 30
0.0
 11
577.4708400773429
 21
310.4752437949679
 31
0.0
  0
LINE
  5
18A
330
1F
100
AcDbEntity
  8
0
100
AcDbLine
 10
657.1429050773429
 20
310.4753037949677
 30
0.0
 11
657.1429050773429
 21
312.4752687949677
 31
0.0
  0
LINE
  5
18B
330
1F
100
AcDbEntity
  8
0
100
AcDbLine
 10
644.1428700773428
 20
310.4753037949677
 30
0.0
 11
644.1428700773428
 21
312.4752687949677
 31
0.0
  0
LINE
  5
18C
330
1F
100
AcDbEntity
  8
0
100
AcDbLine
 10
645.0087750773427
 20
302.4753687949677
 30
0.0
 11
644.1427800773428
 21
302.9753487949677
 31
0.0
  0
LINE
  5
18D
330
1F
100
AcDbEntity
  8
0
100
AcDbLine
 10
656.2767600773429
 20
302.4753237949679
 30
0.0
 11
657.1428450773428
 21
302.9753487949677
 31
0.0
  0
LINE
  5
18E
330
1F
100
AcDbEntity
  8
0
100
AcDbLine
 10
657.1429050773429
 20
302.9753037949677
 30
0.0
 11
657.1429050773429
 21
310.4753037949677
 31
0.0
  0
LINE
  5
18F
330
1F
100
AcDbEntity
  8
0
100
AcDbLine
 10
491.4709200773429
 20
298.4746137949679
 30
0.0
 11
570.9708300773429
 21
298.4746137949679
 31
0.0
  0
LINE
  5
190
330
1F
100
AcDbEntity
  8
0
100
AcDbLine
 10
650.4707700773429
 20
298.4746137949676
 30
0.0
 11
570.9708300773429
 21
298.4746137949679
 31
0.0
  0
LINE
  5
191
330
1F
100
AcDbEntity
  8
0
100
AcDbLine
 10
472.4709150773428
 20
318.4753137949679
 30
0.0
 11
570.9708300773429
 21
318.4753137949679
 31
0.0
  0
LINE
  5
192
330
1F
100
AcDbEntity
  8
0
100
AcDbLine
 10
570.9709050773429
 20
403.5429537949681
 30
0.0
 11
658.8795150773428
 21
403.542953794968
 31
0.0
  0
LINE
  5
193
330
1F
100
AcDbEntity
  8
0
100
AcDbLine
 10
665.4775350773429
 20
338.4752787949677
 30
0.0
 11
570.9708600773429
 21
338.4752787949679
 31
0.0
  0
LINE
  5
194
330
1F
100
AcDbEntity
  8
0
100
AcDbLine
 10
644.1428250773428
 20
302.9752437949677
 30
0.0
 11
657.1428450773428
 21
302.9752437949677
 31
0.0
  0
LINE
  5
195
330
1F
100
AcDbEntity
  8
0
100
AcDbLine
 10
669.4708800773428
 20
312.4752237949677
 30
0.0
 11
472.4709150773428
 21
312.4752237949679
 31
0.0
  0
LINE
  5
196
330
1F
100
AcDbEntity
  8
0
100
AcDbLine
 10
644.1428250773428
 20
310.4752437949676
 30
0.0
 11
657.1428450773428
 21
310.4752437949676
 31
0.0
  0
LINE
  5
197
330
1F
100
AcDbEntity
  8
0
100
AcDbLine
 10
644.1428700773428
 20
302.9753037949677
 30
0.0
 11
644.1428700773428
 21
310.4753037949677
 31
0.0
  0
LINE
  5
198
330
1F
100
AcDbEntity
  8
0
100
AcDbLine
 10
644.1428250773428
 20
309.2252337949677
 30
0.0
 11
657.1428450773428
 21
309.2252337949677
 31
0.0
  0
LINE
  5
199
330
1F
100
AcDbEntity
  8
0
100
AcDbLine
 10
645.0088200773429
 20
302.4752337949677
 30
0.0
 11
656.2768050773429
 21
302.4752337949677
 31
0.0
  0
LINE
  5
19A
330
1F
100
AcDbEntity
  8
0
100
AcDbLine
 10
662.4708600773429
 20
342.5167437949677
 30
0.0
 11
665.4708150773428
 21
340.7846937949676
 31
0.0
  0
LINE
  5
19B
330
1F
100
AcDbEntity
  8
0
100
AcDbLine
 10
479.4707700773428
 20
342.5168337949677
 30
0.0
 11
476.4708750773429
 21
340.7848437949679
 31
0.0
  0
LINE
  5
19C
330
1F
100
AcDbEntity
  8
0
100
AcDbLine
 10
485.9950800773429
 20
422.4754587949679
 30
0.0
 11
483.0634950773428
 21
408.6833637949679
 31
0.0
  0
LINE
  5
19D
330
1F
100
AcDbEntity
  8
0
100
AcDbLine
 10
654.3177600773429
 20
430.1387487949677
 30
0.0
 11
658.8782850773429
 21
408.6833187949677
 31
0.0
  0
LINE
  5
19E
330
1F
100
AcDbEntity
  8
0
100
AcDbLine
 10
489.9708600773428
 20
422.4753687949679
 30
0.0
 11
485.9950350773429
 21
422.4753687949679
 31
0.0
  0
LINE
  5
19F
330
1F
100
AcDbEntity
  8
0
100
AcDbLine
 10
659.9709150773428
 20
398.3216037949677
 30
0.0
 11
659.9709150773428
 21
346.8393537949676
 31
0.0
  0
LINE
  5
1A0
330
1F
100
AcDbEntity
  8
0
100
AcDbLine
 10
669.4708800773428
 20
312.4752237949677
 30
0.0
 11
669.4708800773428
 21
333.8565387949678
 31
0.0
  0
LINE
  5
1A1
330
1F
100
AcDbEntity
  8
0
100
AcDbLine
 10
489.9709050773428
 20
434.3054037949679
 30
0.0
 11
489.9709050773428
 21
422.4754137949679
 31
0.0
  0
LINE
  5
1A2
330
1F
100
AcDbEntity
  8
0
100
AcDbLine
 10
472.4709150773428
 20
312.4752237949679
 30
0.0
 11
472.4709150773428
 21
333.856538794968
 31
0.0
  0
LINE
  5
1A3
330
1F
100
AcDbEntity
  8
0
100
AcDbLine
 10
481.9708800773428
 20
398.3116737949679
 30
0.0
 11
481.9708800773428
 21
346.8422787949681
 31
0.0
  0
LINE
  5
1A4
330
1F
100
AcDbEntity
  8
0
100
AcDbLine
 10
661.9709250773428
 20
403.6921887949678
 30
0.0
 11
661.9709250773428
 21
394.2586437949677
 31
0.0
  0
LINE
  5
1A5
330
1F
100
AcDbEntity
  8
0
100
AcDbLine
 10
677.5348050773427
 20
403.9753137949677
 30
0.0
 11
665.0348400773427
 21
403.9753137949677
 31
0.0
  0
LINE
  5
1A6
330
1F
100
AcDbEntity
  8
0
100
AcDbLine
 10
665.0348400773427
 20
403.7253237949679
 30
0.0
 11
663.0348150773429
 21
403.7253237949679
 31
0.0
  0
LINE
  5
1A7
330
1F
100
AcDbEntity
  8
0
100
AcDbLine
 10
665.0348400773427
 20
394.2253137949677
 30
0.0
 11
663.0348150773429
 21
394.2253137949677
 31
0.0
  0
LINE
  5
1A8
330
1F
100
AcDbEntity
  8
0
100
AcDbLine
 10
663.0347700773429
 20
403.7253687949677
 30
0.0
 11
659.9708700773428
 21
403.6296087949676
 31
0.0
  0
LINE
  5
1A9
330
1F
100
AcDbEntity
  8
0
100
AcDbLine
 10
663.0362400773428
 20
394.2253137949677
 30
0.0
 11
659.9708700773428
 21
394.3211187949676
 31
0.0
  0
LINE
  5
1AA
330
1F
100
AcDbEntity
  8
0
100
AcDbLine
 10
665.034885077343
 20
403.9753587949674
 30
0.0
 11
665.034885077343
 21
393.9753687949677
 31
0.0
  0
LINE
  5
1AB
330
1F
100
AcDbEntity
  8
0
100
AcDbLine
 10
677.5348500773427
 20
403.9753587949674
 30
0.0
 11
677.5348500773427
 21
393.9753687949677
 31
0.0
  0
LINE
  5
1AC
330
1F
100
AcDbEntity
  8
0
100
AcDbLine
 10
677.5348050773427
 20
393.9753237949679
 30
0.0
 11
665.0348400773427
 21
393.9753237949679
 31
0.0
  0
LINE
  5
1AD
330
1F
100
AcDbEntity
  8
0
100
AcDbLine
 10
659.9709150773428
 20
403.6296087949676
 30
0.0
 11
659.9709150773428
 21
400.0363437949675
 31
0.0
  0
ARC
  5
1AE
330
1F
100
AcDbEntity
  8
0
100
AcDbCircle
 10
528.4709100773429
 20
295.4746137949679
 30
0.0
 40
3.0
100
AcDbArc
 50
0.0
 51
90.0
  0
ARC
  5
1AF
330
1F
100
AcDbEntity
  8
0
100
AcDbCircle
 10
613.4709150773428
 20
295.4746137949679
 30
0.0
 40
3.0
100
AcDbArc
 50
90.0
 51
180.0
  0
ARC
  5
1B0
330
1F
100
AcDbEntity
  8
0
100
AcDbCircle
 10
471.4495568773709
 20
429.9753693918585
 30
0.0
 40
16.3000005
100
AcDbArc
 50
27.39498897833679
 51
332.6049731951564
  0
CIRCLE
  5
1B1
330
1F
100
AcDbEntity
  8
0
100
AcDbCircle
 10
471.4495568773709
 20
429.9753693918585
 30
0.0
 40
10.00000049999999
  0
ARC
  5
1B2
330
1F
100
AcDbEntity
  8
0
100
AcDbCircle
 10
650.4707700773429
 20
303.4746687949676
 30
0.0
 40
4.99999995
100
AcDbArc
 50
270.0
 51
348.4696487029233
  0
ARC
  5
1B3
330
1F
100
AcDbEntity
  8
0
100
AcDbCircle
 10
661.4708250773428
 20
333.8565387949678
 30
0.0
 40
8.000000249999999
100
AcDbArc
 50
0.0
 51
60.00010999999966
  0
ARC
  5
1B4
330
1F
100
AcDbEntity
  8
0
100
AcDbCircle
 10
664.9708800773428
 20
346.8468687949676
 30
0.0
 40
4.99999995
100
AcDbArc
 50
180.0
 51
240.0001300000056
  0
ARC
  5
1B5
330
1F
100
AcDbEntity
  8
0
100
AcDbCircle
 10
480.4708650773427
 20
333.856493794968
 30
0.0
 40
8.000000249999999
100
AcDbArc
 50
120.0000299999897
 51
180.0
  0
ARC
  5
1B6
330
1F
100
AcDbEntity
  8
0
100
AcDbCircle
 10
476.9708700773428
 20
346.8469137949679
 30
0.0
 40
4.99999995
100
AcDbArc
 50
300.0000940000028
 51
0.0
  0
ARC
  5
1B7
330
1F
100
AcDbEntity
  8
0
100
AcDbCircle
 10
646.492620077343
 20
428.4754137949676
 30
0.0
 40
8.000000249999999
100
AcDbArc
 50
11.99990999999654
 51
90.0
  0
ARC
  5
1B8
330
1F
100
AcDbEntity
  8
0
100
AcDbCircle
 10
495.4491150773428
 20
428.4754137949679
 30
0.0
 40
8.000000249999999
100
AcDbArc
 50
89.88803999999737
 51
133.2188399999991
  0
ARC
  5
1B9
330
1F
100
AcDbEntity
  8
0
100
AcDbCircle
 10
531.9708750773429
 20
398.2877787949679
 30
0.0
 40
50.00000399999999
100
AcDbArc
 50
167.999999999984
 51
180.0
  0
ARC
  5
1BA
330
1F
100
AcDbEntity
  8
0
100
AcDbCircle
 10
609.9708750773429
 20
398.2877337949679
 30
0.0
 40
50.00000399999999
100
AcDbArc
 50
0.0
 51
11.99998999998894
  0
ARC
  5
1BB
330
1F
100
AcDbEntity
  8
0
100
AcDbCircle
 10
491.4709200773429
 20
303.4746237949679
 30
0.0
 40
4.99999995
100
AcDbArc
 50
191.529830000005
 51
270.0
  0
LINE
  5
1BC
330
1F
100
AcDbEntity
  8
0
100
AcDbLine
 10
563.9709150773428
 20
474.4753587949677
 30
0.0
 11
577.9709250773428
 21
474.4753587949677
 31
0.0
  0
LINE
  5
1BD
330
1F
100
AcDbEntity
  8
0
100
AcDbLine
 10
560.9709150773428
 20
445.207553794968
 30
0.0
 11
560.9709150773428
 21
471.4754037949679
 31
0.0
  0
LINE
  5
1BE
330
1F
100
AcDbEntity
  8
0
100
AcDbLine
 10
560.9709600773428
 20
445.207508794968
 30
0.0
 11
580.9709700773428
 21
445.207508794968
 31
0.0
  0
LINE
  5
1BF
330
1F
100
AcDbEntity
  8
0
100
AcDbLine
 10
580.9709250773428
 20
445.207553794968
 30
0.0
 11
580.9709250773428
 21
471.4754037949679
 31
0.0
  0
LINE
  5
1C0
330
1F
100
AcDbEntity
  8
0
100
AcDbLine
 10
581.9712150773427
 20
441.475448794968
 30
0.0
 11
580.9711800773429
 21
445.207598794968
 31
0.0
  0
LINE
  5
1C1
330
1F
100
AcDbEntity
  8
0
100
AcDbLine
 10
570.9709050773429
 20
436.475393794968
 30
0.0
 11
495.449190077343
 21
436.475393794968
 31
0.0
  0
LINE
  5
1C2
330
1F
100
AcDbEntity
  8
0
100
AcDbLine
 10
570.9709950773429
 20
441.4753587949677
 30
0.0
 11
594.9709950773429
 21
441.4753587949677
 31
0.0
  0
LINE
  5
1C3
330
1F
100
AcDbEntity
  8
0
100
AcDbLine
 10
545.9709600773428
 20
436.4754387949679
 30
0.0
 11
545.9709600773428
 21
440.4753687949679
 31
0.0
  0
LINE
  5
1C4
330
1F
100
AcDbEntity
  8
0
100
AcDbLine
 10
570.9709950773429
 20
441.4753587949677
 30
0.0
 11
546.9709950773428
 21
441.4753587949677
 31
0.0
  0
LINE
  5
1C5
330
1F
100
AcDbEntity
  8
0
100
AcDbLine
 10
595.9709250773427
 20
436.4754387949679
 30
0.0
 11
595.9709250773427
 21
440.4753687949679
 31
0.0
  0
LINE
  5
1C6
330
1F
100
AcDbEntity
  8
0
100
AcDbLine
 10
570.9709050773429
 20
436.475393794968
 30
0.0
 11
646.4926650773429
 21
436.4753937949678
 31
0.0
  0
ARC
  5
1C7
330
1F
100
AcDbEntity
  8
0
100
AcDbCircle
 10
563.9709150773428
 20
471.4754037949679
 30
0.0
 40
3.0
100
AcDbArc
 50
90.0
 51
180.0
  0
ARC
  5
1C8
330
1F
100
AcDbEntity
  8
0
100
AcDbCircle
 10
577.9709250773428
 20
471.4754037949679
 30
0.0
 40
3.0
100
AcDbArc
 50
0.0
 51
90.0
  0
ARC
  5
1C9
330
1F
100
AcDbEntity
  8
0
100
AcDbCircle
 10
594.9709950773429
 20
440.4753237949681
 30
0.0
 40
1.000000035
100
AcDbArc
 50
0.0
 51
90.0
  0
ARC
  5
1CA
330
1F
100
AcDbEntity
  8
0
100
AcDbCircle
 10
546.9709950773428
 20
440.4753237949681
 30
0.0
 40
1.000000035
100
AcDbArc
 50
90.0
 51
180.0
  0
LINE
  5
1CB
330
1F
100
AcDbEntity
  8
0
100
AcDbLine
 10
559.9706850773429
 20
441.475448794968
 30
0.0
 11
560.9707200773427
 21
445.207598794968
 31
0.0
  0
LINE
  5
1CC
330
1F
100
AcDbEntity
  8
0
100
AcDbLine
 10
489.9709050773429
 20
437.4753701983199
 30
0.0
 11
483.4495733078049
 21
437.4753701983198
 31
0.0
  0
LINE
  5
1CD
330
1F
100
AcDbEntity
  8
0
100
AcDbLine
 10
661.9709400773435
 20
837.5625426356075
 30
0.0
 11
661.9709400773435
 21
828.1289976356074
 31
0.0
  0
LINE
  5
1CE
330
1F
100
AcDbEntity
  8
0
100
AcDbLine
 10
677.5348200773434
 20
837.8456676356073
 30
0.0
 11
665.0348550773434
 21
837.8456676356073
 31
0.0
  0
LINE
  5
1CF
330
1F
100
AcDbEntity
  8
0
100
AcDbLine
 10
665.0348550773434
 20
837.5956776356074
 30
0.0
 11
663.0348300773436
 21
837.5956776356074
 31
0.0
  0
LINE
  5
1D0
330
1F
100
AcDbEntity
  8
0
100
AcDbLine
 10
665.0348550773434
 20
828.0956676356073
 30
0.0
 11
663.0348300773436
 21
828.0956676356073
 31
0.0
  0
LINE
  5
1D1
330
1F
100
AcDbEntity
  8
0
100
AcDbLine
 10
663.0347850773436
 20
837.5957226356073
 30
0.0
 11
659.8493490193927
 21
837.4961641131655
 31
0.0
  0
LINE
  5
1D2
330
1F
100
AcDbEntity
  8
0
100
AcDbLine
 10
663.0362550773435
 20
828.0956676356073
 30
0.0
 11
659.8493490174372
 21
828.1952711206903
 31
0.0
  0
LINE
  5
1D3
330
1F
100
AcDbEntity
  8
0
100
AcDbLine
 10
665.0349000773436
 20
837.8457126356071
 30
0.0
 11
665.0349000773436
 21
827.8457226356072
 31
0.0
  0
LINE
  5
1D4
330
1F
100
AcDbEntity
  8
0
100
AcDbLine
 10
677.5348650773434
 20
837.8457126356071
 30
0.0
 11
677.5348650773434
 21
827.8457226356072
 31
0.0
  0
LINE
  5
1D5
330
1F
100
AcDbEntity
  8
0
100
AcDbLine
 10
677.5348200773434
 20
827.8456776356076
 30
0.0
 11
665.0348550773434
 21
827.8456776356076
 31
0.0
  0
LINE
  5
1D6
330
1F
100
AcDbEntity
  8
0
100
AcDbLine
 10
489.9709050773426
 20
840.3457184420755
 30
0.0
 11
489.9709050773425
 21
825.3457170387234
 31
0.0
  0
LINE
  5
1D7
330
1F
100
AcDbEntity
  8
0
100
AcDbLine
 10
482.2895583480056
 20
835.9957176356131
 30
0.0
 11
483.4495133082062
 21
840.3456989207116
 31
0.0
  0
LINE
  5
1D8
330
1F
100
AcDbEntity
  8
0
100
AcDbLine
 10
482.2895482380128
 20
829.6957176356151
 30
0.0
 11
483.4495357761646
 21
825.3457170387234
 31
0.0
  0
LINE
  5
1D9
330
1F
100
AcDbEntity
  8
0
100
AcDbLine
 10
483.4495733078046
 20
840.3457184420753
 30
0.0
 11
483.449581333149
 21
835.9957176356132
 31
0.0
  0
LINE
  5
1DA
330
1F
100
AcDbEntity
  8
0
100
AcDbLine
 10
483.4495929560595
 20
829.6957176356151
 30
0.0
 11
483.449600981439
 21
825.3456977269305
 31
0.0
  0
LINE
  5
1DB
330
1F
100
AcDbEntity
  8
0
100
AcDbLine
 10
488.4495987405431
 20
840.3457184420753
 30
0.0
 11
488.449626414142
 21
825.3457170387234
 31
0.0
  0
LINE
  5
1DC
330
1F
100
AcDbEntity
  8
0
100
AcDbLine
 10
489.9709050773425
 20
825.3457170387234
 30
0.0
 11
483.4495357761646
 21
825.3457170387234
 31
0.0
  0
LINE
  5
1DD
330
1F
100
AcDbEntity
  8
0
100
AcDbLine
 10
489.9709050773426
 20
840.3457184420755
 30
0.0
 11
483.4495733078046
 21
840.3457184420753
 31
0.0
  0
ARC
  5
1DE
330
1F
100
AcDbEntity
  8
0
100
AcDbCircle
 10
458.2995563773708
 20
832.8457176356142
 30
0.0
 40
3.149999999999067
100
AcDbArc
 50
90.0
 51
270.0
  0
LINE
  5
1DF
330
1F
100
AcDbEntity
  8
0
100
AcDbLine
 10
458.2995563773708
 20
835.9957176356132
 30
0.0
 11
483.6855957220072
 21
835.9957176356132
 31
0.0
  0
LINE
  5
1E0
330
1F
100
AcDbEntity
  8
0
100
AcDbLine
 10
458.2995563773708
 20
829.6957176356151
 30
0.0
 11
483.6855957220072
 21
829.6957176356151
 31
0.0
  0
ELLIPSE
  5
1E1
330
1F
100
AcDbEntity
  8
0
100
AcDbEllipse
 10
483.6855957220072
 20
832.8457176356142
 30
0.0
 11
0.0
 21
-3.149999999999067
 31
0.0
210
0.0
220
0.0
230
1.0
 40
0.709843927860892
 41
0.0
 42
3.141592653589793
  0
LINE
  5
1E2
330
1F
100
AcDbEntity
  8
0
100
AcDbLine
 10
618.2708485083865
 20
248.1746787949679
 30
0.0
 11
635.9708700773428
 21
230.4744024816333
 31
0.0
  0
LINE
  5
1E3
330
1F
100
AcDbEntity
  8
0
100
AcDbLine
 10
635.9708700773428
 20
230.4744024816333
 30
0.0
 11
635.9708700773428
 21
229.7246487949679
 31
0.0
  0
LINE
  5
1E4
330
1F
100
AcDbEntity
  8
0
100
AcDbLine
 10
610.970910077343
 20
276.9745887949678
 30
0.0
 11
610.970910077343
 21
248.1746787949679
 31
0.0
  0
LINE
  5
1E5
330
1F
100
AcDbEntity
  8
0
100
AcDbLine
 10
680.9709600773429
 20
216.824588794968
 30
0.0
 11
680.9709600773429
 21
125.8246737949679
 31
0.0
  0
LINE
  5
1E6
330
1F
100
AcDbEntity
  8
0
100
AcDbLine
 10
506.971035077343
 20
211.2246237949678
 30
0.0
 11
506.971035077343
 21
131.424638794968
 31
0.0
  0
LINE
  5
1E7
330
1F
100
AcDbEntity
  8
0
100
AcDbLine
 10
675.4457475705205
 20
133.1746437949678
 30
0.0
 11
634.9707750773427
 21
133.1746437949678
 31
0.0
  0
LINE
  5
1E8
330
1F
100
AcDbEntity
  8
0
100
AcDbLine
 10
678.120889712475
 20
125.8246737949679
 30
0.0
 11
675.4457475705205
 21
133.1746437949678
 31
0.0
  0
LINE
  5
1E9
330
1F
100
AcDbEntity
  8
0
100
AcDbLine
 10
680.9709600773429
 20
125.8246737949679
 30
0.0
 11
678.120889712475
 21
125.8246737949679
 31
0.0
  0
LINE
  5
1EA
330
1F
100
AcDbEntity
  8
0
100
AcDbLine
 10
680.9709600773429
 20
216.824588794968
 30
0.0
 11
678.1209341906949
 21
216.824588794968
 31
0.0
  0
LINE
  5
1EB
330
1F
100
AcDbEntity
  8
0
100
AcDbLine
 10
678.1209341906949
 20
216.824588794968
 30
0.0
 11
675.4458102534442
 21
209.4746487949679
 31
0.0
  0
LINE
  5
1EC
330
1F
100
AcDbEntity
  8
0
100
AcDbLine
 10
675.4458102534442
 20
209.4746487949679
 30
0.0
 11
634.9707750773427
 21
209.4746487949679
 31
0.0
  0
LINE
  5
1ED
330
1F
100
AcDbEntity
  8
0
100
AcDbLine
 10
506.9708550773429
 20
112.9246437949678
 30
0.0
 11
506.9708550773429
 21
73.02467379496795
 31
0.0
  0
LINE
  5
1EE
330
1F
100
AcDbEntity
  8
0
100
AcDbLine
 10
460.970910077343
 20
118.524668794968
 30
0.0
 11
460.970910077343
 21
27.52467879496782
 31
0.0
  0
LINE
  5
1EF
330
1F
100
AcDbEntity
  8
0
100
AcDbLine
 10
460.970910077343
 20
118.524668794968
 30
0.0
 11
463.8210142098912
 21
118.524668794968
 31
0.0
  0
LINE
  5
1F0
330
1F
100
AcDbEntity
  8
0
100
AcDbLine
 10
532.8208800773429
 20
-31.45011873552153
 30
0.0
 11
532.8208800773429
 21
22.87464879496803
 31
0.0
  0
LINE
  5
1F1
330
1F
100
AcDbEntity
  8
0
100
AcDbLine
 10
609.120930077343
 20
-31.45022639916235
 30
0.0
 11
609.120930077343
 21
22.87464879496803
 31
0.0
  0
LINE
  5
1F2
330
1F
100
AcDbEntity
  8
0
100
AcDbLine
 10
466.4961025286946
 20
34.87464879496803
 30
0.0
 11
510.8972565573305
 21
34.87464879496803
 31
0.0
  0
LINE
  5
1F3
330
1F
100
AcDbEntity
  8
0
100
AcDbLine
 10
466.4962018139211
 20
111.174638794968
 30
0.0
 11
506.9708550773429
 21
111.174638794968
 31
0.0
  0
LINE
  5
1F4
330
1F
100
AcDbEntity
  8
0
100
AcDbLine
 10
630.9709050773428
 20
34.52291570526483
 30
0.0
 11
630.9709050773428
 21
22.87464879496803
 31
0.0
  0
LINE
  5
1F5
330
1F
100
AcDbEntity
  8
0
100
AcDbLine
 10
634.9709400773429
 20
112.9246437949678
 30
0.0
 11
634.9709400773429
 21
73.02467379496795
 31
0.0
  0
LINE
  5
1F6
330
1F
100
AcDbEntity
  8
0
100
AcDbLine
 10
616.4709000773427
 20
-34.12537398723985
 30
0.0
 11
609.120930077343
 21
-31.45022639916235
 31
0.0
  0
LINE
  5
1F7
330
1F
100
AcDbEntity
  8
0
100
AcDbLine
 10
616.4709000773427
 20
-36.97532120503194
 30
0.0
 11
616.4709000773427
 21
-34.12537398723985
 31
0.0
  0
LINE
  5
1F8
330
1F
100
AcDbEntity
  8
0
100
AcDbLine
 10
460.970910077343
 20
27.52467879496782
 30
0.0
 11
463.8209276372394
 21
27.52467879496782
 31
0.0
  0
LINE
  5
1F9
330
1F
100
AcDbEntity
  8
0
100
AcDbLine
 10
463.8209276372394
 20
27.52467879496782
 30
0.0
 11
466.4961025286946
 21
34.87464879496803
 31
0.0
  0
LINE
  5
1FA
330
1F
100
AcDbEntity
  8
0
100
AcDbLine
 10
463.8210142098912
 20
118.524668794968
 30
0.0
 11
466.4962018139211
 21
111.174638794968
 31
0.0
  0
LINE
  5
1FB
330
1F
100
AcDbEntity
  8
0
100
AcDbLine
 10
510.970830077343
 20
34.5227014688639
 30
0.0
 11
510.9708300773429
 21
22.87464879496803
 31
0.0
  0
LINE
  5
1FC
330
1F
100
AcDbEntity
  8
0
100
AcDbLine
 10
630.9709050773428
 20
22.87464879496803
 30
0.0
 11
510.9708300773429
 21
22.87464879496803
 31
0.0
  0
LINE
  5
1FD
330
1F
100
AcDbEntity
  8
0
100
AcDbLine
 10
525.4708500773428
 20
-36.97532120503194
 30
0.0
 11
616.4709000773427
 21
-36.97532120503194
 31
0.0
  0
LINE
  5
1FE
330
1F
100
AcDbEntity
  8
0
100
AcDbLine
 10
525.4708500773428
 20
-34.12530273329924
 30
0.0
 11
532.8208800773429
 21
-31.45011873552153
 31
0.0
  0
LINE
  5
1FF
330
1F
100
AcDbEntity
  8
0
100
AcDbLine
 10
525.4708500773428
 20
-36.97532120503194
 30
0.0
 11
525.4708500773428
 21
-34.12530273329924
 31
0.0
  0
LINE
  5
200
330
1F
100
AcDbEntity
  8
0
100
AcDbLine
 10
649.7209050773428
 20
229.7246487949679
 30
0.0
 11
649.7209050773428
 21
211.2246237949678
 31
0.0
  0
LINE
  5
201
330
1F
100
AcDbEntity
  8
0
100
AcDbLine
 10
492.2209050773428
 20
229.7246487949679
 30
0.0
 11
649.7209050773428
 21
229.7246487949679
 31
0.0
  0
LINE
  5
202
330
1F
100
AcDbEntity
  8
0
100
AcDbLine
 10
492.2209050773428
 20
211.2246237949678
 30
0.0
 11
649.7209050773428
 21
211.2246237949678
 31
0.0
  0
LINE
  5
203
330
1F
100
AcDbEntity
  8
0
100
AcDbLine
 10
492.2209050773428
 20
229.7246487949679
 30
0.0
 11
492.2209050773428
 21
211.2246237949678
 31
0.0
  0
LINE
  5
204
330
1F
100
AcDbEntity
  8
0
100
AcDbLine
 10
649.7209050773428
 20
131.424638794968
 30
0.0
 11
649.7209050773428
 21
112.9246437949678
 31
0.0
  0
LINE
  5
205
330
1F
100
AcDbEntity
  8
0
100
AcDbLine
 10
492.2209050773428
 20
131.4246387949679
 30
0.0
 11
649.7209050773428
 21
131.424638794968
 31
0.0
  0
LINE
  5
206
330
1F
100
AcDbEntity
  8
0
100
AcDbLine
 10
492.2209050773428
 20
112.9246437949678
 30
0.0
 11
649.7209050773428
 21
112.9246437949678
 31
0.0
  0
LINE
  5
207
330
1F
100
AcDbEntity
  8
0
100
AcDbLine
 10
492.2209050773428
 20
131.4246387949679
 30
0.0
 11
492.2209050773428
 21
112.9246437949678
 31
0.0
  0
LINE
  5
208
330
1F
100
AcDbEntity
  8
0
100
AcDbLine
 10
610.970910077343
 20
248.1746787949679
 30
0.0
 11
618.2708485083865
 21
248.1746787949679
 31
0.0
  0
LINE
  5
209
330
1F
100
AcDbEntity
  8
0
100
AcDbLine
 10
523.6709887008771
 20
248.1746787949678
 30
0.0
 11
505.9709400773429
 21
230.474649432474
 31
0.0
  0
ARC
  5
20A
330
1F
100
AcDbEntity
  8
0
100
AcDbCircle
 10
694.2708300773428
 20
73.02467379496795
 30
0.0
 40
187.3000049999999
100
AcDbArc
 50
179.9999899999989
 51
191.8624652003444
  0
ARC
  5
20B
330
1F
100
AcDbEntity
  8
0
100
AcDbCircle
 10
447.6708600773429
 20
73.02467379496795
 30
0.0
 40
187.3000049999999
100
AcDbArc
 50
348.1376017655043
 51
0.0000069999902825
  0
LINE
  5
20C
330
1F
100
AcDbEntity
  8
0
100
AcDbLine
 10
505.9709400773429
 20
230.474649432474
 30
0.0
 11
505.970940077343
 21
229.7246487949679
 31
0.0
  0
LINE
  5
20D
330
1F
100
AcDbEntity
  8
0
100
AcDbLine
 10
530.9709000773429
 20
276.9745887949678
 30
0.0
 11
530.9709000773426
 21
248.1746787949679
 31
0.0
  0
LINE
  5
20E
330
1F
100
AcDbEntity
  8
0
100
AcDbLine
 10
530.9709000773426
 20
248.1746787949679
 30
0.0
 11
523.6709887008771
 21
248.1746787949678
 31
0.0
  0
LINE
  5
20F
330
1F
100
AcDbEntity
  8
0
100
AcDbLine
 10
466.4962018139211
 20
111.174638794968
 30
0.0
 11
466.4962018139211
 21
34.87464879496803
 31
0.0
  0
LINE
  5
210
330
1F
100
AcDbEntity
  8
0
100
AcDbLine
 10
463.8209276372394
 20
27.52467879496782
 30
0.0
 11
463.8210142098912
 21
118.524668794968
 31
0.0
  0
LINE
  5
211
330
1F
100
AcDbEntity
  8
0
100
AcDbLine
 10
634.9707750773427
 20
211.2246237949678
 30
0.0
 11
634.9707750773427
 21
131.424638794968
 31
0.0
  0
LINE
  5
212
330
1F
100
AcDbEntity
  8
0
100
AcDbLine
 10
675.4458102534442
 20
209.4746487949679
 30
0.0
 11
675.4457475705205
 21
133.1746437949678
 31
0.0
  0
LINE
  5
213
330
1F
100
AcDbEntity
  8
0
100
AcDbLine
 10
678.1209341906949
 20
216.824588794968
 30
0.0
 11
678.120889712475
 21
125.8246737949679
 31
0.0
  0
LINE
  5
214
330
1F
100
AcDbEntity
  8
0
100
AcDbLine
 10
532.8208800773429
 20
-31.45011873552153
 30
0.0
 11
609.120930077343
 21
-31.45022639916235
 31
0.0
  0
LINE
  5
215
330
1F
100
AcDbEntity
  8
0
100
AcDbLine
 10
525.4708500773428
 20
-34.12530273329924
 30
0.0
 11
616.4709000773427
 21
-34.12537398723985
 31
0.0
  0
LINE
  5
216
330
1F
100
AcDbEntity
  8
0
100
AcDbLine
 10
630.9709050773429
 20
34.52270146886402
 30
0.0
 11
510.970830077343
 21
34.52270146886402
 31
0.0
  0
LINE
  5
217
330
1F
100
AcDbEntity
  8
0
100
AcDbLine
 10
460.970910077343
 20
878.3457126356143
 30
0.0
 11
460.9709100773429
 21
835.9957176356131
 31
0.0
  0
LINE
  5
218
330
1F
100
AcDbEntity
  8
0
100
AcDbLine
 10
460.9709100773429
 20
829.6957176356151
 30
0.0
 11
460.970910077343
 21
787.345722635614
 31
0.0
  0
LINE
  5
219
330
1F
100
AcDbEntity
  8
0
100
AcDbLine
 10
460.970910077343
 20
878.3457126356143
 30
0.0
 11
463.8210142098912
 21
878.3457126356143
 31
0.0
  0
LINE
  5
21A
330
1F
100
AcDbEntity
  8
0
100
AcDbLine
 10
466.4961025286946
 20
794.6956926356143
 30
0.0
 11
480.1588815204399
 21
794.6956926356141
 31
0.0
  0
LINE
  5
21B
330
1F
100
AcDbEntity
  8
0
100
AcDbLine
 10
466.4962018139211
 20
870.9956826356142
 30
0.0
 11
480.1588563145334
 21
870.995682635614
 31
0.0
  0
LINE
  5
21C
330
1F
100
AcDbEntity
  8
0
100
AcDbLine
 10
460.970910077343
 20
787.345722635614
 30
0.0
 11
463.8209276372394
 21
787.345722635614
 31
0.0
  0
LINE
  5
21D
330
1F
100
AcDbEntity
  8
0
100
AcDbLine
 10
463.8209276372394
 20
787.345722635614
 30
0.0
 11
466.4961025286946
 21
794.6956926356143
 31
0.0
  0
LINE
  5
21E
330
1F
100
AcDbEntity
  8
0
100
AcDbLine
 10
463.8210142098912
 20
878.3457126356143
 30
0.0
 11
466.4962018139211
 21
870.9956826356142
 31
0.0
  0
LINE
  5
21F
330
1F
100
AcDbEntity
  8
0
100
AcDbLine
 10
466.4962018139211
 20
870.9956826356142
 30
0.0
 11
466.4962018139211
 21
835.9957176356132
 31
0.0
  0
LINE
  5
220
330
1F
100
AcDbEntity
  8
0
100
AcDbLine
 10
466.4962018139211
 20
829.6957176356151
 30
0.0
 11
466.4962018139211
 21
794.6956926356143
 31
0.0
  0
LINE
  5
221
330
1F
100
AcDbEntity
  8
0
100
AcDbLine
 10
463.8209276372394
 20
787.345722635614
 30
0.0
 11
463.8209679268192
 21
829.6957176356151
 31
0.0
  0
LINE
  5
222
330
1F
100
AcDbEntity
  8
0
100
AcDbLine
 10
463.8209739203111
 20
835.9957176356131
 30
0.0
 11
463.8210142098912
 21
878.3457126356143
 31
0.0
  0
LINE
  5
223
330
1F
100
AcDbEntity
  8
0
100
AcDbLine
 10
680.9709600773427
 20
787.3457226356141
 30
0.0
 11
680.9709600773427
 21
878.3457126356143
 31
0.0
  0
LINE
  5
224
330
1F
100
AcDbEntity
  8
0
100
AcDbLine
 10
680.9709600773427
 20
787.3457226356141
 30
0.0
 11
678.1208559447945
 21
787.3457226356141
 31
0.0
  0
LINE
  5
225
330
1F
100
AcDbEntity
  8
0
100
AcDbLine
 10
675.445767625991
 20
870.9957426356142
 30
0.0
 11
661.782928634246
 21
870.9957426356142
 31
0.0
  0
LINE
  5
226
330
1F
100
AcDbEntity
  8
0
100
AcDbLine
 10
675.4456683407646
 20
794.6957526356142
 30
0.0
 11
661.7829538401525
 21
794.6957526356141
 31
0.0
  0
LINE
  5
227
330
1F
100
AcDbEntity
  8
0
100
AcDbLine
 10
680.9709600773427
 20
878.3457126356143
 30
0.0
 11
678.1209425174462
 21
878.3457126356143
 31
0.0
  0
LINE
  5
228
330
1F
100
AcDbEntity
  8
0
100
AcDbLine
 10
678.1209425174462
 20
878.3457126356143
 30
0.0
 11
675.445767625991
 21
870.9957426356142
 31
0.0
  0
LINE
  5
229
330
1F
100
AcDbEntity
  8
0
100
AcDbLine
 10
678.1208559447945
 20
787.3457226356141
 30
0.0
 11
675.4456683407646
 21
794.6957526356142
 31
0.0
  0
LINE
  5
22A
330
1F
100
AcDbEntity
  8
0
100
AcDbLine
 10
675.4456683407646
 20
794.6957526356142
 30
0.0
 11
675.4456683407646
 21
870.9957426356142
 31
0.0
  0
LINE
  5
22B
330
1F
100
AcDbEntity
  8
0
100
AcDbLine
 10
678.1209425174462
 20
878.3457126356143
 30
0.0
 11
678.1208559447945
 21
787.3457226356141
 31
0.0
  0
LINE
  5
281
330
1F
100
AcDbEntity
  8
0
  6
CENTER
100
AcDbLine
 10
441.2356075557827
 20
832.8457176356142
 30
0.0
 11
700.7062025989033
 21
832.8457176356142
 31
0.0
  0
LINE
  5
282
330
1F
100
AcDbEntity
  8
0
  6
CENTER
100
AcDbLine
 10
570.970905077343
 20
716.177506543419
 30
0.0
 11
570.970905077343
 21
949.5139287278091
 31
0.0
  0
LINE
  5
283
330
1F
100
AcDbEntity
  8
0
  6
CENTER
100
AcDbLine
 10
486.717538159608
 20
171.3246312949679
 30
0.0
 11
713.966613186897
 21
171.3246312949679
 31
0.0
  0
LINE
  5
284
330
1F
100
AcDbEntity
  8
0
  6
CENTER
100
AcDbLine
 10
570.9709050773429
 20
-69.40307363559077
 30
0.0
 11
570.9709050773429
 21
508.4073267779404
 31
0.0
  0
LINE
  5
285
330
1F
100
AcDbEntity
  8
0
  6
CENTER
100
AcDbLine
 10
428.8998248588813
 20
73.02467379496795
 30
0.0
 11
654.7060775989031
 21
73.02467379496795
 31
0.0
  0
VIEWPORT
  5
71
330
55
100
AcDbEntity
 67
     1
  8
0
100
AcDbViewport
 10
133.3499908447265
 20
101.5999970436096
 30
0.0
 40
381.3957395593834
 41
218.2856291881582
 68
     1
 69
     1
 12
133.3499908447265
 22
101.5999970436096
 13
0.0
 23
0.0
 14
10.0
 24
10.0
 15
10.0
 25
10.0
 16
0.0
 26
0.0
 36
1.0
 17
0.0
 27
0.0
 37
0.0
 42
50.0
 43
0.0
 44
0.0
 45
218.2856291881582
 50
0.0
 51
0.0
 72
   100
 90
    32800
  1

281
     0
 71
     1
 74
     0
110
0.0
120
0.0
130
0.0
111
1.0
121
0.0
131
0.0
112
0.0
122
1.0
132
0.0
 79
     0
146
0.0
  0
VIEWPORT
  5
73
330
55
100
AcDbEntity
 67
     1
  8
0
100
AcDbViewport
 10
133.349993944168
 20
101.599993944168
 30
0.0
 40
213.3599903106689
 41
162.5599903106689
 68
     2
 69
     2
 12
210.0
 22
148.5
 13
0.0
 23
0.0
 14
10.0
 24
10.0
 15
10.0
 25
10.0
 16
0.0
 26
0.0
 36
1.0
 17
0.0
 27
0.0
 37
0.0
 42
50.0
 43
0.0
 44
0.0
 45
324.0677920111345
 50
0.0
 51
0.0
 72
   100
 90
    32864
  1

281
     0
 71
     1
 74
     0
110
0.0
120
0.0
130
0.0
111
1.0
121
0.0
131
0.0
112
0.0
122
1.0
132
0.0
 79
     0
146
0.0
  0
ENDSEC
  0
SECTION
  2
OBJECTS
  0
DICTIONARY
  5
C
330
0
100
AcDbDictionary
281
     1
  3
ACAD_GROUP
350
D
  3
ACAD_LAYOUT
350
1A
  3
ACAD_MLINESTYLE
350
17
  3
ACAD_PLOTSETTINGS
350
19
  3
ACAD_PLOTSTYLENAME
350
E
  3
AcDbVariableDictionary
350
5E
  0
DICTIONARY
  5
279
330
2
100
AcDbDictionary
280
     1
281
     1
  3
ACAD_LAYERSTATES
360
27A
  0
DICTIONARY
  5
231
330
1F
100
AcDbDictionary
280
     1
281
     1
  3
ACAD_LAYOUTSELFREF
360
268
  0
DICTIONARY
  5
233
330
55
100
AcDbDictionary
280
     1
281
     1
  3
ACAD_LAYOUTSELFREF
360
26C
  0
DICTIONARY
  5
235
330
50
100
AcDbDictionary
280
     1
281
     1
  3
ACAD_LAYOUTSELFREF
360
26B
  0
DICTIONARY
  5
D
102
{ACAD_REACTORS
330
C
102
}
330
C
100
AcDbDictionary
281
     1
  0
DICTIONARY
  5
1A
102
{ACAD_REACTORS
330
C
102
}
330
C
100
AcDbDictionary
281
     1
  3
Model
350
22
  3
ﾚｲｱｳﾄ1
350
51
  3
ﾚｲｱｳﾄ2
350
56
  0
DICTIONARY
  5
17
102
{ACAD_REACTORS
330
C
102
}
330
C
100
AcDbDictionary
281
     1
  3
Standard
350
18
  0
DICTIONARY
  5
19
102
{ACAD_REACTORS
330
C
102
}
330
C
100
AcDbDictionary
281
     1
  0
ACDBDICTIONARYWDFLT
  5
E
102
{ACAD_REACTORS
330
C
102
}
330
C
100
AcDbDictionary
281
     1
  3
Normal
350
F
100
AcDbDictionaryWithDefault
340
F
  0
DICTIONARY
  5
5E
102
{ACAD_REACTORS
330
C
102
}
330
C
100
AcDbDictionary
281
     1
  3
DIMASSOC
350
5F
  3
HIDETEXT
350
63
  0
DICTIONARY
  5
27A
102
{ACAD_REACTORS
330
279
102
}
330
279
100
AcDbDictionary
281
     1
  0
XRECORD
  5
268
102
{ACAD_REACTORS
330
231
102
}
330
231
100
AcDbXrecord
280
     1
340
1F
  0
XRECORD
  5
26C
102
{ACAD_REACTORS
330
233
102
}
330
233
100
AcDbXrecord
280
     1
340
55
  0
XRECORD
  5
26B
102
{ACAD_REACTORS
330
235
102
}
330
235
100
AcDbXrecord
280
     1
340
50
  0
LAYOUT
  5
22
102
{ACAD_REACTORS
330
1A
102
}
330
1A
100
AcDbPlotSettings
  1

  2
none_device
  4
ANSI_A_(8.50_x_11.00_Inches)
  6

 40
6.349999904632568
 41
19.04999923706054
 42
6.350006103515625
 43
19.04998779296875
 44
215.8999938964843
 45
279.3999938964843
 46
0.0
 47
0.0
 48
0.0
 49
0.0
140
0.0
141
0.0
142
1.0
143
78.436453180766
 70
 11952
 72
     0
 73
     1
 74
     0
  7

 75
     0
147
0.0127491741332998
148
0.0
149
0.0
100
AcDbLayout
  1
Model
 70
     1
 71
     0
 10
0.0
 20
0.0
 11
12.0
 21
9.0
 12
0.0
 22
0.0
 32
0.0
 14
0.0
 24
0.0
 34
0.0
 15
0.0
 25
0.0
 35
0.0
146
0.0
 13
0.0
 23
0.0
 33
0.0
 16
1.0
 26
0.0
 36
0.0
 17
0.0
 27
1.0
 37
0.0
 76
     0
330
1F
  0
LAYOUT
  5
51
102
{ACAD_REACTORS
330
1A
102
}
330
1A
100
AcDbPlotSettings
  1

  2
none_device
  4
Letter_(8.50_x_11.00_Inches)
  6

 40
6.349999904632568
 41
6.349999904632568
 42
6.350006103515625
 43
6.350006103515625
 44
215.8999938964843
 45
279.3999938964843
 46
0.0
 47
0.0
 48
0.0
 49
0.0
140
0.0
141
0.0
142
1.0
143
1.0
 70
   688
 72
     1
 73
     1
 74
     5
  7

 75
    16
147
1.0
148
0.0
149
0.0
100
AcDbLayout
  1
ﾚｲｱｳﾄ1
 70
     1
 71
     1
 10
-6.350006103515625
 20
-6.349999904632568
 11
273.0499877929687
 21
209.5499939918517
 12
0.0
 22
0.0
 32
0.0
 14
26.66076962115562
 24
20.31135699206657
 34
-0.0015258207003583
 15
240.039213369355
 25
182.8886381005154
 35
0.0000000349246037
146
0.0
 13
0.0
 23
0.0
 33
0.0
 16
1.0
 26
0.0
 36
0.0
 17
0.0
 27
1.0
 37
0.0
 76
     0
330
50
331
6B
  0
LAYOUT
  5
56
102
{ACAD_REACTORS
330
1A
102
}
330
1A
100
AcDbPlotSettings
  1

  2
none_device
  4
Letter_(8.50_x_11.00_Inches)
  6

 40
6.349999904632568
 41
6.349999904632568
 42
6.350006103515625
 43
6.350006103515625
 44
215.8999938964843
 45
279.3999938964843
 46
0.0
 47
0.0
 48
0.0
 49
0.0
140
0.0
141
0.0
142
1.0
143
1.0
 70
   688
 72
     1
 73
     1
 74
     5
  7

 75
    16
147
1.0
148
0.0
149
0.0
100
AcDbLayout
  1
ﾚｲｱｳﾄ2
 70
     1
 71
     2
 10
-6.350006103515625
 20
-6.349999904632568
 11
273.0499877929687
 21
209.5499939918517
 12
0.0
 22
0.0
 32
0.0
 14
26.66076962115562
 24
20.31135699206657
 34
-0.0015258207003583
 15
240.039213369355
 25
182.8886381005154
 35
0.0000000349246037
146
0.0
 13
0.0
 23
0.0
 33
0.0
 16
1.0
 26
0.0
 36
0.0
 17
0.0
 27
1.0
 37
0.0
 76
     0
330
55
331
71
  0
MLINESTYLE
  5
18
102
{ACAD_REACTORS
330
17
102
}
330
17
100
AcDbMlineStyle
  2
STANDARD
 70
     0
  3

 62
   256
 51
90.0
 52
90.0
 71
     2
 49
0.5
 62
   256
  6
BYLAYER
 49
-0.5
 62
   256
  6
BYLAYER
  0
ACDBPLACEHOLDER
  5
F
102
{ACAD_REACTORS
330
E
102
}
330
E
  0
DICTIONARYVAR
  5
5F
102
{ACAD_REACTORS
330
5E
102
}
330
5E
100
DictionaryVariables
280
     0
  1
2
  0
DICTIONARYVAR
  5
63
102
{ACAD_REACTORS
330
5E
102
}
330
5E
100
DictionaryVariables
280
     0
  1
1
  0
ENDSEC
  0
EOF
