  0
SECTION
  2
HEADER
  9
$ACADVER
  1
AC1015
  9
$ACADMAINTVER
 70
    14
  9
$DWGCODEPAGE
  3
ANSI_932
  9
$INSBASE
 10
0.0
 20
0.0
 30
0.0
  9
$EXTMIN
 10
531.5604633319367
 20
39.67535749224476
 30
-0.0000000000112498
  9
$EXTMAX
 10
1440.464444621809
 20
818.1387919220238
 30
0.0000000000002956
  9
$LIMMIN
 10
0.0
 20
0.0
  9
$LIMMAX
 10
420.0
 20
297.0
  9
$ORTHOMODE
 70
     0
  9
$REGENMODE
 70
     1
  9
$FILLMODE
 70
     1
  9
$QTEXTMODE
 70
     0
  9
$MIRRTEXT
 70
     1
  9
$LTSCALE
 40
1.0
  9
$ATTMODE
 70
     1
  9
$TEXTSIZE
 40
2.5
  9
$TRACEWID
 40
1.0
  9
$TEXTSTYLE
  7
Standard
  9
$CLAYER
  8
0
  9
$CELTYPE
  6
ByLayer
  9
$CECOLOR
 62
   256
  9
$CELTSCALE
 40
1.0
  9
$DISPSILH
 70
     0
  9
$DIMSCALE
 40
1.0
  9
$DIMASZ
 40
2.5
  9
$DIMEXO
 40
0.625
  9
$DIMDLI
 40
3.75
  9
$DIMRND
 40
0.0
  9
$DIMDLE
 40
0.0
  9
$DIMEXE
 40
1.25
  9
$DIMTP
 40
0.0
  9
$DIMTM
 40
0.0
  9
$DIMTXT
 40
2.5
  9
$DIMCEN
 40
2.5
  9
$DIMTSZ
 40
0.0
  9
$DIMTOL
 70
     0
  9
$DIMLIM
 70
     0
  9
$DIMTIH
 70
     0
  9
$DIMTOH
 70
     0
  9
$DIMSE1
 70
     0
  9
$DIMSE2
 70
     0
  9
$DIMTAD
 70
     1
  9
$DIMZIN
 70
     8
  9
$DIMBLK
  1

  9
$DIMASO
 70
     1
  9
$DIMSHO
 70
     1
  9
$DIMPOST
  1

  9
$DIMAPOST
  1

  9
$DIMALT
 70
     0
  9
$DIMALTD
 70
     3
  9
$DIMALTF
 40
0.03937007874016
  9
$DIMLFAC
 40
1.0
  9
$DIMTOFL
 70
     1
  9
$DIMTVP
 40
0.0
  9
$DIMTIX
 70
     0
  9
$DIMSOXD
 70
     0
  9
$DIMSAH
 70
     0
  9
$DIMBLK1
  1

  9
$DIMBLK2
  1

  9
$DIMSTYLE
  2
ISO-25
  9
$DIMCLRD
 70
     0
  9
$DIMCLRE
 70
     0
  9
$DIMCLRT
 70
     0
  9
$DIMTFAC
 40
1.0
  9
$DIMGAP
 40
0.625
  9
$DIMJUST
 70
     0
  9
$DIMSD1
 70
     0
  9
$DIMSD2
 70
     0
  9
$DIMTOLJ
 70
     0
  9
$DIMTZIN
 70
     8
  9
$DIMALTZ
 70
     0
  9
$DIMALTTZ
 70
     0
  9
$DIMUPT
 70
     0
  9
$DIMDEC
 70
     2
  9
$DIMTDEC
 70
     2
  9
$DIMALTU
 70
     2
  9
$DIMALTTD
 70
     3
  9
$DIMTXSTY
  7
Standard
  9
$DIMAUNIT
 70
     0
  9
$DIMADEC
 70
     0
  9
$DIMALTRND
 40
0.0
  9
$DIMAZIN
 70
     0
  9
$DIMDSEP
 70
    44
  9
$DIMATFIT
 70
     3
  9
$DIMFRAC
 70
     0
  9
$DIMLDRBLK
  1

  9
$DIMLUNIT
 70
     2
  9
$DIMLWD
 70
    -2
  9
$DIMLWE
 70
    -2
  9
$DIMTMOVE
 70
     0
  9
$LUNITS
 70
     2
  9
$LUPREC
 70
     4
  9
$SKETCHINC
 40
1.0
  9
$FILLETRAD
 40
10.0
  9
$AUNITS
 70
     0
  9
$AUPREC
 70
     0
  9
$MENU
  1
.
  9
$ELEVATION
 40
0.0
  9
$PELEVATION
 40
0.0
  9
$THICKNESS
 40
0.0
  9
$LIMCHECK
 70
     0
  9
$CHAMFERA
 40
10.0
  9
$CHAMFERB
 40
10.0
  9
$CHAMFERC
 40
20.0
  9
$CHAMFERD
 40
0.0
  9
$SKPOLY
 70
     0
  9
$TDCREATE
 40
2454278.651021227
  9
$TDUCREATE
 40
2454278.276021226
  9
$TDUPDATE
 40
2456899.670389803
  9
$TDUUPDATE
 40
2456899.295389803
  9
$TDINDWG
 40
0.0008059375
  9
$TDUSRTIMER
 40
0.0008059375
  9
$USRTIMER
 70
     1
  9
$ANGBASE
 50
0.0
  9
$ANGDIR
 70
     0
  9
$PDMODE
 70
     0
  9
$PDSIZE
 40
0.0
  9
$PLINEWID
 40
0.0
  9
$SPLFRAME
 70
     0
  9
$SPLINETYPE
 70
     6
  9
$SPLINESEGS
 70
     8
  9
$HANDSEED
  5
2A4
  9
$SURFTAB1
 70
     6
  9
$SURFTAB2
 70
     6
  9
$SURFTYPE
 70
     6
  9
$SURFU
 70
     6
  9
$SURFV
 70
     6
  9
$UCSBASE
  2

  9
$UCSNAME
  2

  9
$UCSORG
 10
0.0
 20
0.0
 30
0.0
  9
$UCSXDIR
 10
1.0
 20
0.0
 30
0.0
  9
$UCSYDIR
 10
0.0
 20
1.0
 30
0.0
  9
$UCSORTHOREF
  2

  9
$UCSORTHOVIEW
 70
     0
  9
$UCSORGTOP
 10
0.0
 20
0.0
 30
0.0
  9
$UCSORGBOTTOM
 10
0.0
 20
0.0
 30
0.0
  9
$UCSORGLEFT
 10
0.0
 20
0.0
 30
0.0
  9
$UCSORGRIGHT
 10
0.0
 20
0.0
 30
0.0
  9
$UCSORGFRONT
 10
0.0
 20
0.0
 30
0.0
  9
$UCSORGBACK
 10
0.0
 20
0.0
 30
0.0
  9
$PUCSBASE
  2

  9
$PUCSNAME
  2

  9
$PUCSORG
 10
0.0
 20
0.0
 30
0.0
  9
$PUCSXDIR
 10
1.0
 20
0.0
 30
0.0
  9
$PUCSYDIR
 10
0.0
 20
1.0
 30
0.0
  9
$PUCSORTHOREF
  2

  9
$PUCSORTHOVIEW
 70
     0
  9
$PUCSORGTOP
 10
0.0
 20
0.0
 30
0.0
  9
$PUCSORGBOTTOM
 10
0.0
 20
0.0
 30
0.0
  9
$PUCSORGLEFT
 10
0.0
 20
0.0
 30
0.0
  9
$PUCSORGRIGHT
 10
0.0
 20
0.0
 30
0.0
  9
$PUCSORGFRONT
 10
0.0
 20
0.0
 30
0.0
  9
$PUCSORGBACK
 10
0.0
 20
0.0
 30
0.0
  9
$USERI1
 70
     0
  9
$USERI2
 70
     0
  9
$USERI3
 70
     0
  9
$USERI4
 70
     0
  9
$USERI5
 70
     0
  9
$USERR1
 40
0.0
  9
$USERR2
 40
0.0
  9
$USERR3
 40
0.0
  9
$USERR4
 40
0.0
  9
$USERR5
 40
0.0
  9
$WORLDVIEW
 70
     1
  9
$SHADEDGE
 70
     3
  9
$SHADEDIF
 70
    70
  9
$TILEMODE
 70
     1
  9
$MAXACTVP
 70
    48
  9
$PINSBASE
 10
0.0
 20
0.0
 30
0.0
  9
$PLIMCHECK
 70
     0
  9
$PEXTMIN
 10
26.66076962115562
 20
20.31135699206657
 30
-0.0015258207003583
  9
$PEXTMAX
 10
240.039213369355
 20
182.8886381005154
 30
0.0000000349246037
  9
$PLIMMIN
 10
-6.350006103515625
 20
-6.349999904632568
  9
$PLIMMAX
 10
273.0499877929687
 20
209.5499939918517
  9
$UNITMODE
 70
     0
  9
$VISRETAIN
 70
     1
  9
$PLINEGEN
 70
     0
  9
$PSLTSCALE
 70
     1
  9
$TREEDEPTH
 70
  3020
  9
$CMLSTYLE
  2
Standard
  9
$CMLJUST
 70
     0
  9
$CMLSCALE
 40
20.0
  9
$PROXYGRAPHICS
 70
     1
  9
$MEASUREMENT
 70
     1
  9
$CELWEIGHT
370
    -1
  9
$ENDCAPS
280
     0
  9
$JOINSTYLE
280
     0
  9
$LWDISPLAY
290
     0
  9
$INSUNITS
 70
     4
  9
$HYPERLINKBASE
  1

  9
$STYLESHEET
  1

  9
$XEDIT
290
     1
  9
$CEPSNTYPE
380
     0
  9
$PSTYLEMODE
290
     1
  9
$FINGERPRINTGUID
  2
{FDEAD578-A652-11D2-9A35-0060089B3A3F}
  9
$VERSIONGUID
  2
{D2889A5F-F7D0-4B56-BBAC-B1A775B2A938}
  9
$EXTNAMES
290
     1
  9
$PSVPSCALE
 40
0.0
  9
$OLESTARTUP
290
     0
  0
ENDSEC
  0
SECTION
  2
CLASSES
  0
CLASS
  1
ACDBDICTIONARYWDFLT
  2
AcDbDictionaryWithDefault
  3
AutoCAD 2000
 90
        0
280
     0
281
     0
  0
CLASS
  1
ACDBPLACEHOLDER
  2
AcDbPlaceHolder
  3
AutoCAD 2000
 90
        0
280
     0
281
     0
  0
CLASS
  1
LAYOUT
  2
AcDbLayout
  3
AutoCAD 2000
 90
        0
280
     0
281
     0
  0
CLASS
  1
DICTIONARYVAR
  2
AcDbDictionaryVar
  3
AutoCAD 2000
 90
        0
280
     0
281
     0
  0
CLASS
  1
LONG_TRANSACTION
  2
AcDbLongTransaction
  3
AutoCAD 2000
 90
    32768
280
     0
281
     0
  0
CLASS
  1
LWPOLYLINE
  2
AcDbPolyline
  3
AutoCAD 2000
 90
    32768
280
     0
281
     1
  0
CLASS
  1
HATCH
  2
AcDbHatch
  3
AutoCAD 2000
 90
    32768
280
     0
281
     1
  0
CLASS
  1
XRECORD
  2
AcDbXrecord
  3
AutoCAD 2000
 90
    32768
280
     0
281
     0
  0
ENDSEC
  0
SECTION
  2
TABLES
  0
TABLE
  2
VPORT
  5
8
330
0
100
AcDbSymbolTable
 70
     2
  0
VPORT
  5
2A3
330
8
100
AcDbSymbolTableRecord
100
AcDbViewportTableRecord
  2
*Active
 70
     0
 10
0.0
 20
0.0
 11
1.0
 21
1.0
 12
986.0124539768728
 22
428.9070747071342
 13
0.0
 23
0.0
 14
10.0
 24
10.0
 15
10.0
 25
10.0
 16
0.0
 26
0.0
 36
1.0
 17
0.0
 27
0.0
 37
0.0
 40
783.4060594102854
 41
1.592161016949152
 42
50.0
 43
0.0
 44
0.0
 50
0.0
 51
0.0
 71
     0
 72
   100
 73
     1
 74
     3
 75
     0
 76
     0
 77
     0
 78
     0
281
     0
 65
     1
110
0.0
120
0.0
130
0.0
111
1.0
121
0.0
131
0.0
112
0.0
122
1.0
132
0.0
 79
     0
146
0.0
  0
ENDTAB
  0
TABLE
  2
LTYPE
  5
5
330
0
100
AcDbSymbolTable
 70
     2
  0
LTYPE
  5
14
330
5
100
AcDbSymbolTableRecord
100
AcDbLinetypeTableRecord
  2
ByBlock
 70
     0
  3

 72
    65
 73
     0
 40
0.0
  0
LTYPE
  5
15
330
5
100
AcDbSymbolTableRecord
100
AcDbLinetypeTableRecord
  2
ByLayer
 70
     0
  3

 72
    65
 73
     0
 40
0.0
  0
LTYPE
  5
16
330
5
100
AcDbSymbolTableRecord
100
AcDbLinetypeTableRecord
  2
Continuous
 70
     0
  3
Solid line
 72
    65
 73
     0
 40
0.0
  0
LTYPE
  5
28B
330
5
100
AcDbSymbolTableRecord
100
AcDbLinetypeTableRecord
  2
CENTER
 70
     0
  3
__ . __
 72
    65
 73
     4
 40
7.0
 49
4.0
 74
     0
 49
-1.0
 74
     0
 49
1.0
 74
     0
 49
-1.0
 74
     0
  0
ENDTAB
  0
TABLE
  2
LAYER
  5
2
102
{ACAD_XDICTIONARY
360
28C
102
}
330
0
100
AcDbSymbolTable
 70
     1
  0
LAYER
  5
10
330
2
100
AcDbSymbolTableRecord
100
AcDbLayerTableRecord
  2
0
 70
     0
 62
     7
  6
Continuous
370
    -3
390
F
  0
ENDTAB
  0
TABLE
  2
STYLE
  5
3
330
0
100
AcDbSymbolTable
 70
     1
  0
STYLE
  5
11
330
3
100
AcDbSymbolTableRecord
100
AcDbTextStyleTableRecord
  2
Standard
 70
     0
 40
0.0
 41
1.0
 50
0.0
 71
     0
 42
2.5
  3
txt
  4

  0
ENDTAB
  0
TABLE
  2
VIEW
  5
6
330
0
100
AcDbSymbolTable
 70
     0
  0
ENDTAB
  0
TABLE
  2
UCS
  5
7
330
0
100
AcDbSymbolTable
 70
     0
  0
ENDTAB
  0
TABLE
  2
APPID
  5
9
330
0
100
AcDbSymbolTable
 70
     1
  0
APPID
  5
12
330
9
100
AcDbSymbolTableRecord
100
AcDbRegAppTableRecord
  2
ACAD
 70
     0
  0
ENDTAB
  0
TABLE
  2
DIMSTYLE
  5
A
330
0
100
AcDbSymbolTable
 70
     1
100
AcDbDimStyleTable
 71
     0
  0
DIMSTYLE
105
27
330
A
100
AcDbSymbolTableRecord
100
AcDbDimStyleTableRecord
  2
ISO-25
 70
     0
 41
2.5
 42
0.625
 43
3.75
 44
1.25
 73
     0
 74
     0
 77
     1
 78
     8
140
2.5
141
2.5
143
0.03937007874016
147
0.625
171
     3
172
     1
271
     2
272
     2
274
     3
278
    44
283
     0
284
     8
340
11
  0
ENDTAB
  0
TABLE
  2
BLOCK_RECORD
  5
1
330
0
100
AcDbSymbolTable
 70
     1
  0
BLOCK_RECORD
  5
1F
102
{ACAD_XDICTIONARY
360
244
102
}
330
1
100
AcDbSymbolTableRecord
100
AcDbBlockTableRecord
  2
*Model_Space
340
22
  0
BLOCK_RECORD
  5
55
102
{ACAD_XDICTIONARY
360
246
102
}
330
1
100
AcDbSymbolTableRecord
100
AcDbBlockTableRecord
  2
*Paper_Space
340
56
  0
BLOCK_RECORD
  5
50
102
{ACAD_XDICTIONARY
360
248
102
}
330
1
100
AcDbSymbolTableRecord
100
AcDbBlockTableRecord
  2
*Paper_Space0
340
51
  0
ENDTAB
  0
ENDSEC
  0
SECTION
  2
BLOCKS
  0
BLOCK
  5
20
330
1F
100
AcDbEntity
  8
0
100
AcDbBlockBegin
  2
*Model_Space
 70
     0
 10
0.0
 20
0.0
 30
0.0
  3
*Model_Space
  1

  0
ENDBLK
  5
21
330
1F
100
AcDbEntity
  8
0
100
AcDbBlockEnd
  0
BLOCK
  5
57
330
55
100
AcDbEntity
 67
     1
  8
0
100
AcDbBlockBegin
  2
*Paper_Space
 70
     0
 10
0.0
 20
0.0
 30
0.0
  3
*Paper_Space
  1

  0
ENDBLK
  5
58
330
55
100
AcDbEntity
 67
     1
  8
0
100
AcDbBlockEnd
  0
BLOCK
  5
52
330
50
100
AcDbEntity
  8
0
100
AcDbBlockBegin
  2
*Paper_Space0
 70
     0
 10
0.0
 20
0.0
 30
0.0
  3
*Paper_Space0
  1

  0
VIEWPORT
  5
6B
330
50
100
AcDbEntity
  8
0
100
AcDbViewport
 10
133.3499908447265
 20
101.5999970436096
 30
0.0
 40
381.3957395593834
 41
218.2856291881582
 69
     0
 12
133.3499908447265
 22
101.5999970436096
 13
0.0
 23
0.0
 14
10.0
 24
10.0
 15
10.0
 25
10.0
 16
0.0
 26
0.0
 36
1.0
 17
0.0
 27
0.0
 37
0.0
 42
50.0
 43
0.0
 44
0.0
 45
218.2856291881582
 50
0.0
 51
0.0
 72
   100
 90
    32800
  1

281
     0
 71
     1
 74
     0
110
0.0
120
0.0
130
0.0
111
1.0
121
0.0
131
0.0
112
0.0
122
1.0
132
0.0
 79
     0
146
0.0
  0
VIEWPORT
  5
6D
330
50
100
AcDbEntity
  8
0
100
AcDbViewport
 10
133.349993944168
 20
101.599993944168
 30
0.0
 40
213.3599903106689
 41
162.5599903106689
 69
     0
 12
210.0
 22
148.5
 13
0.0
 23
0.0
 14
10.0
 24
10.0
 15
10.0
 25
10.0
 16
0.0
 26
0.0
 36
1.0
 17
0.0
 27
0.0
 37
0.0
 42
50.0
 43
0.0
 44
0.0
 45
324.0677920111345
 50
0.0
 51
0.0
 72
   100
 90
    32864
  1

281
     0
 71
     1
 74
     0
110
0.0
120
0.0
130
0.0
111
1.0
121
0.0
131
0.0
112
0.0
122
1.0
132
0.0
 79
     0
146
0.0
  0
ENDBLK
  5
53
330
50
100
AcDbEntity
  8
0
100
AcDbBlockEnd
  0
ENDSEC
  0
SECTION
  2
ENTITIES
  0
TEXT
  5
165
330
1F
100
AcDbEntity
  8
0
  6
Continuous
100
AcDbText
 10
531.6288199685459
 20
770.126302114617
 30
0.0
 40
48.000002
  1
DAC2T10AD000 15A
 41
1.32095
100
AcDbText
  0
LINE
  5
166
330
1F
100
AcDbEntity
  8
0
100
AcDbLine
 10
900.0105384425816
 20
174.025907153738
 30
0.0
 11
900.0105384425811
 21
159.525907153738
 31
0.0
  0
LINE
  5
167
330
1F
100
AcDbEntity
  8
0
100
AcDbLine
 10
824.0105537013706
 20
174.0259071537375
 30
0.0
 11
824.0105537013702
 21
159.525907153738
 31
0.0
  0
LINE
  5
168
330
1F
100
AcDbEntity
  8
0
100
AcDbLine
 10
888.1950400905315
 20
85.37590562785998
 30
0.0
 11
835.8260520534219
 21
85.37590562785998
 31
0.0
  0
LINE
  5
169
330
1F
100
AcDbEntity
  8
0
100
AcDbLine
 10
879.0105613307657
 20
60.57588731731311
 30
0.0
 11
845.0105613307655
 21
60.57588731731311
 31
0.0
  0
LINE
  5
16A
330
1F
100
AcDbEntity
  8
0
100
AcDbLine
 10
851.1605552272499
 20
65.66432769762696
 30
0.0
 11
872.8605674342814
 21
65.66429290654649
 31
0.0
  0
LINE
  5
16B
330
1F
100
AcDbEntity
  8
0
100
AcDbLine
 10
835.8260520534219
 20
88.71651172943392
 30
0.0
 11
888.1950400905315
 21
88.71651172943392
 31
0.0
  0
LINE
  5
16C
330
1F
100
AcDbEntity
  8
0
100
AcDbLine
 10
816.2605613307656
 20
115.0259071537351
 30
0.0
 11
907.7605308131875
 21
115.0259071537393
 31
0.0
  0
LINE
  5
16D
330
1F
100
AcDbEntity
  8
0
100
AcDbLine
 10
816.2605613307656
 20
130.5259071537389
 30
0.0
 11
907.7605308131875
 21
130.5259071537389
 31
0.0
  0
LINE
  5
16E
330
1F
100
AcDbEntity
  8
0
100
AcDbLine
 10
824.0105537013702
 20
159.525907153738
 30
0.0
 11
900.0105384425811
 21
159.525907153738
 31
0.0
  0
ARC
  5
16F
330
1F
100
AcDbEntity
  8
0
100
AcDbCircle
 10
845.0105613307655
 20
100.5758873173131
 30
0.0
 40
15.0
100
AcDbArc
 50
179.9999913485851
 51
232.243960794762
  0
LINE
  5
170
330
1F
100
AcDbEntity
  8
0
100
AcDbLine
 10
835.8260520534219
 20
88.71651172943392
 30
0.0
 11
835.8260520534219
 21
85.37590562785998
 31
0.0
  0
LINE
  5
171
330
1F
100
AcDbEntity
  8
0
100
AcDbLine
 10
845.0105613307655
 20
63.42591289823303
 30
0.0
 11
851.1605552272499
 21
65.66432769762696
 31
0.0
  0
LINE
  5
172
330
1F
100
AcDbEntity
  8
0
100
AcDbLine
 10
845.0105613307655
 20
60.57588731731311
 30
0.0
 11
845.0105613307655
 21
63.42591289823303
 31
0.0
  0
LINE
  5
173
330
1F
100
AcDbEntity
  8
0
100
AcDbLine
 10
851.1605552272499
 20
65.66432769762696
 30
0.0
 11
851.1605552272499
 21
85.37590562785998
 31
0.0
  0
LINE
  5
174
330
1F
100
AcDbEntity
  8
0
100
AcDbLine
 10
816.2605613307656
 20
130.5259071537389
 30
0.0
 11
816.2605613307656
 21
115.0259071537351
 31
0.0
  0
LINE
  5
175
330
1F
100
AcDbEntity
  8
0
100
AcDbLine
 10
830.0105918483437
 20
115.0259071537351
 30
0.0
 11
830.0105918483437
 21
100.5758873173131
 31
0.0
  0
LINE
  5
176
330
1F
100
AcDbEntity
  8
0
100
AcDbLine
 10
926.9221423243298
 20
111.4259315678018
 30
0.0
 11
926.9221555608961
 21
89.72591173137606
 31
0.0
  0
LINE
  5
177
330
1F
100
AcDbEntity
  8
0
100
AcDbLine
 10
932.0105308131875
 20
117.5758949467075
 30
0.0
 11
932.0105308131875
 21
83.5758873173131
 31
0.0
  0
ARC
  5
178
330
1F
100
AcDbEntity
  8
0
100
AcDbCircle
 10
879.0105308131876
 20
100.5758873173131
 30
0.0
 40
15.0
100
AcDbArc
 50
307.7560392052379
 51
0.0000086514148811
  0
LINE
  5
179
330
1F
100
AcDbEntity
  8
0
100
AcDbLine
 10
932.0105308131875
 20
83.5758873173131
 30
0.0
 11
929.1605814677796
 21
83.5758873173131
 31
0.0
  0
LINE
  5
17A
330
1F
100
AcDbEntity
  8
0
100
AcDbLine
 10
926.9221555608961
 20
89.72591173137606
 30
0.0
 11
889.3680416041327
 21
89.72591173137471
 31
0.0
  0
LINE
  5
17B
330
1F
100
AcDbEntity
  8
0
100
AcDbLine
 10
879.0105613307662
 20
63.42587810715213
 30
0.0
 11
872.8605674342814
 21
65.66429290654649
 31
0.0
  0
LINE
  5
17C
330
1F
100
AcDbEntity
  8
0
100
AcDbLine
 10
879.0105613307657
 20
60.57588731731311
 30
0.0
 11
879.0105613307662
 21
63.42587810715213
 31
0.0
  0
LINE
  5
17D
330
1F
100
AcDbEntity
  8
0
100
AcDbLine
 10
872.8605674342814
 20
85.37590562785998
 30
0.0
 11
872.8605674342814
 21
65.66429290654649
 31
0.0
  0
LINE
  5
17E
330
1F
100
AcDbEntity
  8
0
100
AcDbLine
 10
888.1950400905315
 20
88.71651172943392
 30
0.0
 11
888.1950400905315
 21
85.37590562785998
 31
0.0
  0
LINE
  5
17F
330
1F
100
AcDbEntity
  8
0
100
AcDbLine
 10
929.1605814677796
 20
83.5758873173131
 30
0.0
 11
926.9221555608961
 21
89.72591173137606
 31
0.0
  0
LINE
  5
180
330
1F
100
AcDbEntity
  8
0
100
AcDbLine
 10
932.0105308131875
 20
117.5758949467075
 30
0.0
 11
929.1605460162314
 21
117.5758949467075
 31
0.0
  0
LINE
  5
181
330
1F
100
AcDbEntity
  8
0
100
AcDbLine
 10
926.9221423243298
 20
111.4259315678018
 30
0.0
 11
894.0105002956094
 21
111.4259315678014
 31
0.0
  0
LINE
  5
182
330
1F
100
AcDbEntity
  8
0
100
AcDbLine
 10
894.0105002956094
 20
115.0259071537351
 30
0.0
 11
894.0105002956094
 21
100.5758873173131
 31
0.0
  0
LINE
  5
183
330
1F
100
AcDbEntity
  8
0
100
AcDbLine
 10
907.7605308131875
 20
130.5259071537389
 30
0.0
 11
907.7605308131875
 21
115.0259071537393
 31
0.0
  0
LINE
  5
184
330
1F
100
AcDbEntity
  8
0
100
AcDbLine
 10
929.1605460162314
 20
117.5758949467075
 30
0.0
 11
926.9221423243298
 21
111.4259315678018
 31
0.0
  0
LINE
  5
185
330
1F
100
AcDbEntity
  8
0
100
AcDbLine
 10
824.0105537013706
 20
174.0259071537375
 30
0.0
 11
900.0105384425816
 21
174.025907153738
 31
0.0
  0
LINE
  5
186
330
1F
100
AcDbEntity
  8
0
100
AcDbLine
 10
926.9221457559876
 20
595.3424837976781
 30
0.0
 11
926.9221446782543
 21
593.4925071765841
 31
0.0
  0
LINE
  5
187
330
1F
100
AcDbEntity
  8
0
100
AcDbLine
 10
926.9221341919992
 20
575.492387176584
 30
0.0
 11
926.9221331143015
 21
573.6424715906467
 31
0.0
  0
LINE
  5
188
330
1F
100
AcDbEntity
  8
0
100
AcDbLine
 10
932.0105308131875
 20
601.492447176584
 30
0.0
 11
932.0105308131877
 21
589.492447176584
 31
0.0
  0
LINE
  5
189
330
1F
100
AcDbEntity
  8
0
100
AcDbLine
 10
932.0105308131877
 20
579.492447176584
 30
0.0
 11
932.0105308131875
 21
567.492447176584
 31
0.0
  0
LINE
  5
18A
330
1F
100
AcDbEntity
  8
0
100
AcDbLine
 10
932.0105308131875
 20
567.492447176584
 30
0.0
 11
929.1605590211855
 21
567.4924471765835
 31
0.0
  0
LINE
  5
18B
330
1F
100
AcDbEntity
  8
0
100
AcDbLine
 10
929.1605590211855
 20
567.4924471765835
 30
0.0
 11
926.9221331143015
 21
573.6424715906467
 31
0.0
  0
LINE
  5
18C
330
1F
100
AcDbEntity
  8
0
100
AcDbLine
 10
926.9221331143015
 20
573.6424715906467
 30
0.0
 11
917.9683849998884
 21
573.6424715906467
 31
0.0
  0
LINE
  5
18D
330
1F
100
AcDbEntity
  8
0
100
AcDbLine
 10
932.0105308131875
 20
601.492447176584
 30
0.0
 11
929.1605494478899
 21
601.492447176584
 31
0.0
  0
LINE
  5
18E
330
1F
100
AcDbEntity
  8
0
100
AcDbLine
 10
929.1605494478899
 20
601.492447176584
 30
0.0
 11
926.9221457559876
 21
595.3424837976781
 31
0.0
  0
LINE
  5
18F
330
1F
100
AcDbEntity
  8
0
100
AcDbLine
 10
926.9221457559876
 20
595.3424837976781
 30
0.0
 11
917.9683731654058
 21
595.3424837976776
 31
0.0
  0
LINE
  5
190
330
1F
100
AcDbEntity
  8
0
100
AcDbLine
 10
807.1970236934237
 20
621.0380393070504
 30
0.0
 11
820.6273146738698
 21
624.6366929684837
 31
0.0
  0
LINE
  5
191
330
1F
100
AcDbEntity
  8
0
100
AcDbLine
 10
802.9543733342219
 20
613.6895652879384
 30
0.0
 11
806.5530269956552
 21
600.2592743074923
 31
0.0
  0
LINE
  5
192
330
1F
100
AcDbEntity
  8
0
100
AcDbLine
 10
916.8241062886171
 20
621.0380119865423
 30
0.0
 11
903.3938053081712
 21
624.6366483274676
 31
0.0
  0
LINE
  5
193
330
1F
100
AcDbEntity
  8
0
100
AcDbLine
 10
916.8240889681094
 20
547.9468723666258
 30
0.0
 11
903.3938153081711
 21
544.3482287051925
 31
0.0
  0
LINE
  5
194
330
1F
100
AcDbEntity
  8
0
100
AcDbLine
 10
802.9544079752378
 20
555.2953090652295
 30
0.0
 11
806.5530343161629
 21
568.7255927251674
 31
0.0
  0
LINE
  5
195
330
1F
100
AcDbEntity
  8
0
100
AcDbLine
 10
921.0667293273107
 20
613.6895306469223
 30
0.0
 11
917.4680956658777
 21
600.2592743074923
 31
0.0
  0
LINE
  5
196
330
1F
100
AcDbEntity
  8
0
100
AcDbLine
 10
921.066739327311
 20
555.2953463857376
 30
0.0
 11
917.4680956658777
 21
568.7256200456757
 31
0.0
  0
LINE
  5
197
330
1F
100
AcDbEntity
  8
0
100
AcDbLine
 10
807.1970583344398
 20
547.9468350461173
 30
0.0
 11
820.62732467387
 21
544.3482187051921
 31
0.0
  0
ARC
  5
198
330
1F
100
AcDbEntity
  8
0
100
AcDbCircle
 10
808.7499701643947
 20
615.2424971178935
 30
0.0
 40
5.999999999999999
100
AcDbArc
 50
104.9999900000008
 51
194.9999899999998
  0
ARC
  5
199
330
1F
100
AcDbEntity
  8
0
100
AcDbCircle
 10
808.7499701643947
 20
553.7423972352743
 30
0.0
 40
5.999999999999999
100
AcDbArc
 50
165.0000100000001
 51
255.000049999996
  0
ARC
  5
19A
330
1F
100
AcDbEntity
  8
0
100
AcDbCircle
 10
819.3332281489071
 20
539.5185777740588
 30
0.0
 40
4.999999999999999
100
AcDbArc
 50
46.50094799999725
 51
75.00000999999916
  0
ARC
  5
19B
330
1F
100
AcDbEntity
  8
0
100
AcDbCircle
 10
819.3332281489073
 20
629.466316579109
 30
0.0
 40
4.999999999999999
100
AcDbArc
 50
284.9999400000125
 51
313.4990099999924
  0
ARC
  5
19C
330
1F
100
AcDbEntity
  8
0
100
AcDbCircle
 10
801.7234207055377
 20
598.9651977825298
 30
0.0
 40
4.999999999999999
100
AcDbArc
 50
346.5009100000029
 51
14.99994000000004
  0
ARC
  5
19D
330
1F
100
AcDbEntity
  8
0
100
AcDbCircle
 10
801.7234207055377
 20
570.019696570638
 30
0.0
 40
4.999999999999999
100
AcDbArc
 50
345.0000560000028
 51
13.49921600000363
  0
ARC
  5
19E
330
1F
100
AcDbEntity
  8
0
100
AcDbCircle
 10
922.2977539175193
 20
570.0197265706383
 30
0.0
 40
4.999999999999999
100
AcDbArc
 50
166.5009100000029
 51
194.99994
  0
ARC
  5
19F
330
1F
100
AcDbEntity
  8
0
100
AcDbCircle
 10
915.2712044586623
 20
553.7424272352744
 30
0.0
 40
5.999999999999999
100
AcDbArc
 50
284.9999500000039
 51
14.99998999999981
  0
ARC
  5
1A0
330
1F
100
AcDbEntity
  8
0
100
AcDbCircle
 10
904.6879118331336
 20
539.518587774059
 30
0.0
 40
4.999999999999999
100
AcDbArc
 50
104.9999900000008
 51
133.4990499999992
  0
ARC
  5
1A1
330
1F
100
AcDbEntity
  8
0
100
AcDbCircle
 10
862.0105613307663
 20
584.492447176584
 30
0.0
 40
56.99999999999999
100
AcDbArc
 50
9.084781364902381
 51
350.9152186350976
  0
ARC
  5
1A2
330
1F
100
AcDbEntity
  8
0
100
AcDbCircle
 10
922.2977539175193
 20
598.9651677825299
 30
0.0
 40
4.999999999999999
100
AcDbArc
 50
165.0000599999999
 51
193.499090000001
  0
ARC
  5
1A3
330
1F
100
AcDbEntity
  8
0
100
AcDbCircle
 10
915.2712044586619
 20
615.2424671178935
 30
0.0
 40
5.999999999999999
100
AcDbArc
 50
345.0000100000002
 51
75.00000999999916
  0
ARC
  5
1A4
330
1F
100
AcDbEntity
  8
0
100
AcDbCircle
 10
904.6879118331336
 20
629.466306579109
 30
0.0
 40
4.999999999999999
100
AcDbArc
 50
226.5009900000071
 51
255.0000599999874
  0
LINE
  5
1A5
330
1F
100
AcDbEntity
  8
0
100
AcDbLine
 10
857.7679462886173
 20
650.2351519865425
 30
0.0
 11
847.936285308171
 21
640.4034883274676
 31
0.0
  0
LINE
  5
1A6
330
1F
100
AcDbEntity
  8
0
100
AcDbLine
 10
857.7679479752379
 20
518.7497490652296
 30
0.0
 11
847.936294316163
 21
528.5813927251677
 31
0.0
  0
LINE
  5
1A7
330
1F
100
AcDbEntity
  8
0
100
AcDbLine
 10
866.2532293273111
 20
650.2351306469223
 30
0.0
 11
876.0848556658778
 21
640.4034943074925
 31
0.0
  0
LINE
  5
1A8
330
1F
100
AcDbEntity
  8
0
100
AcDbLine
 10
866.2532383344396
 20
518.7497550461176
 30
0.0
 11
876.0848646738699
 21
528.5813987051924
 31
0.0
  0
ARC
  5
1A9
330
1F
100
AcDbEntity
  8
0
100
AcDbCircle
 10
862.0105901643951
 20
522.9923972352744
 30
0.0
 40
5.999999999999999
100
AcDbArc
 50
225.0000099999907
 51
315.0000500000004
  0
ARC
  5
1AA
330
1F
100
AcDbEntity
  8
0
100
AcDbCircle
 10
879.620408148907
 20
525.0458577740589
 30
0.0
 40
4.999999999999999
100
AcDbArc
 50
106.500947999995
 51
135.0000100000114
  0
ARC
  5
1AB
330
1F
100
AcDbEntity
  8
0
100
AcDbCircle
 10
844.4007607055377
 20
525.0458765706383
 30
0.0
 40
4.999999999999999
100
AcDbArc
 50
45.00005600000968
 51
73.49921600000346
  0
ARC
  5
1AC
330
1F
100
AcDbEntity
  8
0
100
AcDbCircle
 10
879.6204139175191
 20
643.9390477825298
 30
0.0
 40
4.999999999999999
100
AcDbArc
 50
225.0000600000024
 51
253.4990900000055
  0
ARC
  5
1AD
330
1F
100
AcDbEntity
  8
0
100
AcDbCircle
 10
862.0105844586619
 20
645.9925271178937
 30
0.0
 40
5.999999999999999
100
AcDbArc
 50
45.00000999999076
 51
135.0000100000114
  0
ARC
  5
1AE
330
1F
100
AcDbEntity
  8
0
100
AcDbCircle
 10
844.4007318331335
 20
643.9390465791092
 30
0.0
 40
4.999999999999999
100
AcDbArc
 50
286.5009900000027
 51
315.0000599999926
  0
CIRCLE
  5
1AF
330
1F
100
AcDbEntity
  8
0
100
AcDbCircle
 10
862.0105613307663
 20
584.492447176584
 30
0.0
 40
25.00001525878963
  0
CIRCLE
  5
1B0
330
1F
100
AcDbEntity
  8
0
100
AcDbCircle
 10
862.0105613307663
 20
584.492447176584
 30
0.0
 40
8.0
  0
CIRCLE
  5
1B1
330
1F
100
AcDbEntity
  8
0
100
AcDbCircle
 10
862.0105613307663
 20
584.492447176584
 30
0.0
 40
7.50000000024
  0
LINE
  5
1B2
330
1F
100
AcDbEntity
  8
0
100
AcDbLine
 10
927.5105460719768
 20
593.492507176584
 30
0.0
 11
912.0560651982779
 21
593.492507176584
 31
0.0
  0
LINE
  5
1B3
330
1F
100
AcDbEntity
  8
0
100
AcDbLine
 10
927.5105460719768
 20
575.492387176584
 30
0.0
 11
912.0560651982779
 21
575.492387176584
 31
0.0
  0
LINE
  5
1B4
330
1F
100
AcDbEntity
  8
0
100
AcDbLine
 10
918.5105460719768
 20
575.492387176584
 30
0.0
 11
918.5105460719766
 21
593.492507176584
 31
0.0
  0
LINE
  5
1B5
330
1F
100
AcDbEntity
  8
0
100
AcDbLine
 10
912.0560651982779
 20
593.492507176584
 30
0.0
 11
912.0560651982779
 21
575.492387176584
 31
0.0
  0
LINE
  5
1B6
330
1F
100
AcDbEntity
  8
0
100
AcDbLine
 10
921.5744860719766
 20
589.242507176584
 30
0.0
 11
918.5105460719766
 21
589.1467471765841
 31
0.0
  0
LINE
  5
1B7
330
1F
100
AcDbEntity
  8
0
100
AcDbLine
 10
921.5759060719767
 20
579.742447176584
 30
0.0
 11
918.5105860719767
 21
579.8382671765839
 31
0.0
  0
LINE
  5
1B8
330
1F
100
AcDbEntity
  8
0
100
AcDbLine
 10
920.5105460719765
 20
589.209307176584
 30
0.0
 11
920.5105460719765
 21
579.775707176584
 31
0.0
  0
LINE
  5
1B9
330
1F
100
AcDbEntity
  8
0
100
AcDbLine
 10
923.5745060719764
 20
579.742447176584
 30
0.0
 11
921.5745060719765
 21
579.742447176584
 31
0.0
  0
LINE
  5
1BA
330
1F
100
AcDbEntity
  8
0
100
AcDbLine
 10
923.5745060719764
 20
589.242447176584
 30
0.0
 11
921.5745060719765
 21
589.242447176584
 31
0.0
  0
LINE
  5
1BB
330
1F
100
AcDbEntity
  8
0
100
AcDbLine
 10
923.5745060719764
 20
589.492447176584
 30
0.0
 11
923.5745060719764
 21
579.492447176584
 31
0.0
  0
LINE
  5
1BC
330
1F
100
AcDbEntity
  8
0
100
AcDbLine
 10
936.0744860719766
 20
589.492447176584
 30
0.0
 11
923.5745060719764
 21
589.492447176584
 31
0.0
  0
LINE
  5
1BD
330
1F
100
AcDbEntity
  8
0
100
AcDbLine
 10
936.0744860719766
 20
579.492447176584
 30
0.0
 11
923.5745060719764
 21
579.492447176584
 31
0.0
  0
LINE
  5
1BE
330
1F
100
AcDbEntity
  8
0
100
AcDbLine
 10
936.0744860719766
 20
589.492447176584
 30
0.0
 11
936.0744860719766
 21
579.492447176584
 31
0.0
  0
LINE
  5
1BF
330
1F
100
AcDbEntity
  8
0
100
AcDbLine
 10
927.5105460719768
 20
593.492507176584
 30
0.0
 11
927.5105460719766
 21
589.492447176584
 31
0.0
  0
LINE
  5
1C0
330
1F
100
AcDbEntity
  8
0
100
AcDbLine
 10
927.5105460719766
 20
579.4924471765839
 30
0.0
 11
927.5105460719768
 21
575.492387176584
 31
0.0
  0
LINE
  5
1C1
330
1F
100
AcDbEntity
  8
0
100
AcDbLine
 10
856.0105460719764
 20
284.7757871537377
 30
0.0
 11
868.0105460719765
 21
284.7757871537377
 31
0.0
  0
LINE
  5
1C2
330
1F
100
AcDbEntity
  8
0
100
AcDbLine
 10
854.0105460719765
 20
260.7757871537377
 30
0.0
 11
870.0105460719765
 21
260.7757871537377
 31
0.0
  0
LINE
  5
1C3
330
1F
100
AcDbEntity
  8
0
100
AcDbLine
 10
870.0105460719765
 20
260.7757871537377
 30
0.0
 11
870.0105460719765
 21
259.7757871537377
 31
0.0
  0
LINE
  5
1C4
330
1F
100
AcDbEntity
  8
0
100
AcDbLine
 10
854.0105460719765
 20
260.7757871537377
 30
0.0
 11
854.0105460719765
 21
259.7757871537377
 31
0.0
  0
LINE
  5
1C5
330
1F
100
AcDbEntity
  8
0
100
AcDbLine
 10
854.0105460719765
 20
260.7757871537377
 30
0.0
 11
854.5105460719765
 21
262.6418671537377
 31
0.0
  0
LINE
  5
1C6
330
1F
100
AcDbEntity
  8
0
100
AcDbLine
 10
869.5105460719764
 20
262.6418071537378
 30
0.0
 11
870.0105460719765
 21
260.7758471537378
 31
0.0
  0
LINE
  5
1C7
330
1F
100
AcDbEntity
  8
0
100
AcDbLine
 10
854.5105460719765
 20
283.2757871537377
 30
0.0
 11
854.5105460719765
 21
262.6418071537378
 31
0.0
  0
LINE
  5
1C8
330
1F
100
AcDbEntity
  8
0
100
AcDbLine
 10
869.5105460719764
 20
283.2757871537377
 30
0.0
 11
869.5105460719764
 21
262.6418071537378
 31
0.0
  0
LINE
  5
1C9
330
1F
100
AcDbEntity
  8
0
100
AcDbLine
 10
856.0105460719764
 20
284.7757871537377
 30
0.0
 11
854.5105460719765
 21
283.2757871537377
 31
0.0
  0
LINE
  5
1CA
330
1F
100
AcDbEntity
  8
0
100
AcDbLine
 10
868.0105860719763
 20
284.7757871537377
 30
0.0
 11
869.5105460719764
 21
283.2758471537378
 31
0.0
  0
LINE
  5
1CB
330
1F
100
AcDbEntity
  8
0
100
AcDbLine
 10
854.5105460719765
 20
262.6418071537378
 30
0.0
 11
869.5105460719764
 21
262.6418071537378
 31
0.0
  0
LINE
  5
1CC
330
1F
100
AcDbEntity
  8
0
100
AcDbLine
 10
854.5105460719765
 20
283.2757871537377
 30
0.0
 11
869.5105460719764
 21
283.2757871537377
 31
0.0
  0
LINE
  5
1CD
330
1F
100
AcDbEntity
  8
0
100
AcDbLine
 10
862.0105460719765
 20
189.275907153738
 30
0.0
 11
921.2711060719767
 21
189.275907153738
 31
0.0
  0
LINE
  5
1CE
330
1F
100
AcDbEntity
  8
0
100
AcDbLine
 10
926.5105460719764
 20
207.775907153738
 30
0.0
 11
921.2711060719767
 21
207.775907153738
 31
0.0
  0
LINE
  5
1CF
330
1F
100
AcDbEntity
  8
0
100
AcDbLine
 10
903.3719260719763
 20
254.7759071537378
 30
0.0
 11
820.6491660719766
 21
254.7759071537378
 31
0.0
  0
LINE
  5
1D0
330
1F
100
AcDbEntity
  8
0
100
AcDbLine
 10
870.6809660719764
 20
210.778227153738
 30
0.0
 11
864.1100660719766
 21
207.7380671537378
 31
0.0
  0
LINE
  5
1D1
330
1F
100
AcDbEntity
  8
0
100
AcDbLine
 10
886.0105460719765
 20
259.7759071537378
 30
0.0
 11
838.0105460719764
 21
259.7759071537378
 31
0.0
  0
LINE
  5
1D2
330
1F
100
AcDbEntity
  8
0
100
AcDbLine
 10
927.5105460719764
 20
206.775907153738
 30
0.0
 11
927.5105460719764
 21
190.775907153738
 31
0.0
  0
LINE
  5
1D3
330
1F
100
AcDbEntity
  8
0
100
AcDbLine
 10
921.2711060719767
 20
208.7030871537379
 30
0.0
 11
921.2711060719767
 21
189.275907153738
 31
0.0
  0
LINE
  5
1D4
330
1F
100
AcDbEntity
  8
0
100
AcDbLine
 10
837.0105460719765
 20
254.7759071537378
 30
0.0
 11
837.0105460719765
 21
258.7759071537378
 31
0.0
  0
LINE
  5
1D5
330
1F
100
AcDbEntity
  8
0
100
AcDbLine
 10
877.0027060719762
 20
208.7030871537379
 30
0.0
 11
877.0027060719762
 21
181.2759671537379
 31
0.0
  0
LINE
  5
1D6
330
1F
100
AcDbEntity
  8
0
100
AcDbLine
 10
887.0105460719765
 20
254.7759071537378
 30
0.0
 11
887.0105460719765
 21
258.7759071537378
 31
0.0
  0
LINE
  5
1D7
330
1F
100
AcDbEntity
  8
0
100
AcDbLine
 10
853.3401060719766
 20
210.778227153738
 30
0.0
 11
859.9110260719763
 21
207.7380671537378
 31
0.0
  0
LINE
  5
1D8
330
1F
100
AcDbEntity
  8
0
100
AcDbLine
 10
920.0756460719762
 20
210.778227153738
 30
0.0
 11
919.9145660719764
 21
210.3841871537379
 31
0.0
  0
LINE
  5
1D9
330
1F
100
AcDbEntity
  8
0
100
AcDbLine
 10
907.5464660719763
 20
210.778227153738
 30
0.0
 11
912.9071460719766
 21
207.878207153738
 31
0.0
  0
LINE
  5
1DA
330
1F
100
AcDbEntity
  8
0
100
AcDbLine
 10
837.0105460719765
 20
254.7759071537378
 30
0.0
 11
837.0105460719765
 21
258.7759071537378
 31
0.0
  0
LINE
  5
1DB
330
1F
100
AcDbEntity
  8
0
100
AcDbLine
 10
847.0183660719763
 20
208.7030871537379
 30
0.0
 11
847.0183660719763
 21
181.2759671537379
 31
0.0
  0
LINE
  5
1DC
330
1F
100
AcDbEntity
  8
0
100
AcDbLine
 10
918.5105460719764
 20
244.2759071537378
 30
0.0
 11
918.5105460719764
 21
213.1735471537378
 31
0.0
  0
LINE
  5
1DD
330
1F
100
AcDbEntity
  8
0
100
AcDbLine
 10
812.9217460719765
 20
248.8464071537378
 30
0.0
 11
809.3849460719766
 21
235.6468871537378
 31
0.0
  0
LINE
  5
1DE
330
1F
100
AcDbEntity
  8
0
100
AcDbLine
 10
911.6588660719763
 20
246.7582671537377
 30
0.0
 11
914.6361660719762
 21
235.6468871537378
 31
0.0
  0
LINE
  5
1DF
330
1F
100
AcDbEntity
  8
0
100
AcDbLine
 10
921.2711060719767
 20
189.775907153738
 30
0.0
 11
926.5105460719764
 21
189.775907153738
 31
0.0
  0
LINE
  5
1E0
330
1F
100
AcDbEntity
  8
0
100
AcDbLine
 10
913.5906860719765
 20
245.2759071537378
 30
0.0
 11
917.5105460719764
 21
245.2759071537378
 31
0.0
  0
LINE
  5
1E1
330
1F
100
AcDbEntity
  8
0
100
AcDbLine
 10
911.0993460719765
 20
248.8464071537378
 30
0.0
 11
911.6588660719763
 21
246.7582671537377
 31
0.0
  0
LINE
  5
1E2
330
1F
100
AcDbEntity
  8
0
100
AcDbLine
 10
862.0105460719765
 20
189.275907153738
 30
0.0
 11
802.7499660719763
 21
189.275907153738
 31
0.0
  0
LINE
  5
1E3
330
1F
100
AcDbEntity
  8
0
100
AcDbLine
 10
916.2711060719766
 20
213.7030871537378
 30
0.0
 11
907.1398860719764
 21
213.7030871537378
 31
0.0
  0
LINE
  5
1E4
330
1F
100
AcDbEntity
  8
0
100
AcDbLine
 10
902.1398860719765
 20
208.7030871537379
 30
0.0
 11
902.1398860719765
 21
181.2759671537379
 31
0.0
  0
LINE
  5
1E5
330
1F
100
AcDbEntity
  8
0
100
AcDbLine
 10
872.0027060719763
 20
213.7030871537378
 30
0.0
 11
852.0183660719762
 21
213.7030871537378
 31
0.0
  0
LINE
  5
1E6
330
1F
100
AcDbEntity
  8
0
100
AcDbLine
 10
821.8812060719765
 20
208.7030871537379
 30
0.0
 11
821.8812060719765
 21
181.2759671537379
 31
0.0
  0
LINE
  5
1E7
330
1F
100
AcDbEntity
  8
0
100
AcDbLine
 10
807.7499660719762
 20
213.7030871537378
 30
0.0
 11
816.8812060719766
 21
213.7030871537378
 31
0.0
  0
LINE
  5
1E8
330
1F
100
AcDbEntity
  8
0
100
AcDbLine
 10
802.7499660719763
 20
208.7030871537379
 30
0.0
 11
802.7499660719763
 21
189.275907153738
 31
0.0
  0
LINE
  5
1E9
330
1F
100
AcDbEntity
  8
0
100
AcDbLine
 10
803.9454660719766
 20
210.7781671537377
 30
0.0
 11
804.1065260719765
 21
210.3841871537379
 31
0.0
  0
LINE
  5
1EA
330
1F
100
AcDbEntity
  8
0
100
AcDbLine
 10
816.4746260719763
 20
210.778227153738
 30
0.0
 11
811.1139260719765
 21
207.878207153738
 31
0.0
  0
LINE
  5
1EB
330
1F
100
AcDbEntity
  8
0
100
AcDbLine
 10
889.0104460719763
 20
175.7759671537378
 30
0.0
 11
889.0104460719765
 21
174.025907153738
 31
0.0
  0
LINE
  5
1EC
330
1F
100
AcDbEntity
  8
0
100
AcDbLine
 10
815.4247660719766
 20
179.7759671537378
 30
0.0
 11
855.1351860719764
 21
179.7759671537378
 31
0.0
  0
LINE
  5
1ED
330
1F
100
AcDbEntity
  8
0
100
AcDbLine
 10
921.2711060719767
 20
189.275907153738
 30
0.0
 11
921.2711060719767
 21
182.2759671537379
 31
0.0
  0
LINE
  5
1EE
330
1F
100
AcDbEntity
  8
0
100
AcDbLine
 10
803.7499660719763
 20
181.2759671537379
 30
0.0
 11
920.2711060719765
 21
181.2759671537379
 31
0.0
  0
LINE
  5
1EF
330
1F
100
AcDbEntity
  8
0
100
AcDbLine
 10
921.2711060719767
 20
189.275907153738
 30
0.0
 11
805.0105460719764
 21
189.275907153738
 31
0.0
  0
LINE
  5
1F0
330
1F
100
AcDbEntity
  8
0
100
AcDbLine
 10
868.6394860719765
 20
179.7759671537378
 30
0.0
 11
908.5963260719763
 21
179.7759671537378
 31
0.0
  0
LINE
  5
1F1
330
1F
100
AcDbEntity
  8
0
100
AcDbLine
 10
921.5744860719764
 20
241.0259071537378
 30
0.0
 11
918.5105460719764
 21
240.9301471537379
 31
0.0
  0
LINE
  5
1F2
330
1F
100
AcDbEntity
  8
0
100
AcDbLine
 10
921.5759060719765
 20
231.5258471537378
 30
0.0
 11
918.5105860719763
 21
231.6216671537377
 31
0.0
  0
LINE
  5
1F3
330
1F
100
AcDbEntity
  8
0
100
AcDbLine
 10
835.0106460719766
 20
175.7759671537378
 30
0.0
 11
835.0106460719766
 21
174.025907153738
 31
0.0
  0
LINE
  5
1F4
330
1F
100
AcDbEntity
  8
0
100
AcDbLine
 10
920.5105460719764
 20
240.9927071537378
 30
0.0
 11
920.5105460719764
 21
231.5591071537377
 31
0.0
  0
LINE
  5
1F5
330
1F
100
AcDbEntity
  8
0
100
AcDbLine
 10
802.7499660719763
 20
189.275907153738
 30
0.0
 11
802.7499660719763
 21
182.2759671537379
 31
0.0
  0
LINE
  5
1F6
330
1F
100
AcDbEntity
  8
0
100
AcDbLine
 10
923.5745060719764
 20
231.5258471537378
 30
0.0
 11
921.5745060719765
 21
231.5258471537378
 31
0.0
  0
LINE
  5
1F7
330
1F
100
AcDbEntity
  8
0
100
AcDbLine
 10
923.5745060719764
 20
241.0258471537378
 30
0.0
 11
921.5745060719765
 21
241.0258471537378
 31
0.0
  0
LINE
  5
1F8
330
1F
100
AcDbEntity
  8
0
100
AcDbLine
 10
923.5745060719764
 20
241.2758471537378
 30
0.0
 11
923.5745060719764
 21
231.2758471537378
 31
0.0
  0
LINE
  5
1F9
330
1F
100
AcDbEntity
  8
0
100
AcDbLine
 10
936.0744860719764
 20
241.2758471537378
 30
0.0
 11
923.5745060719764
 21
241.2758471537378
 31
0.0
  0
LINE
  5
1FA
330
1F
100
AcDbEntity
  8
0
100
AcDbLine
 10
936.0744860719764
 20
231.2758471537378
 30
0.0
 11
923.5745060719764
 21
231.2758471537378
 31
0.0
  0
LINE
  5
1FB
330
1F
100
AcDbEntity
  8
0
100
AcDbLine
 10
936.0744860719764
 20
241.2758471537378
 30
0.0
 11
936.0744860719764
 21
231.2758471537378
 31
0.0
  0
LINE
  5
1FC
330
1F
100
AcDbEntity
  8
0
100
AcDbLine
 10
805.9298460719764
 20
176.3759471537378
 30
0.0
 11
811.5398260719763
 21
176.3759471537378
 31
0.0
  0
LINE
  5
1FD
330
1F
100
AcDbEntity
  8
0
100
AcDbLine
 10
802.7348260719763
 20
179.6759871537379
 30
0.0
 11
814.7348260719763
 21
179.6759871537379
 31
0.0
  0
LINE
  5
1FE
330
1F
100
AcDbEntity
  8
0
100
AcDbLine
 10
814.7348260719763
 20
181.2759671537379
 30
0.0
 11
814.7348260719763
 21
179.6759871537379
 31
0.0
  0
LINE
  5
1FF
330
1F
100
AcDbEntity
  8
0
100
AcDbLine
 10
802.7348260719763
 20
181.2759671537379
 30
0.0
 11
802.7348260719763
 21
179.6759871537379
 31
0.0
  0
LINE
  5
200
330
1F
100
AcDbEntity
  8
0
100
AcDbLine
 10
864.8155460719763
 20
176.3759471537378
 30
0.0
 11
859.2055460719766
 21
176.3759471537378
 31
0.0
  0
LINE
  5
201
330
1F
100
AcDbEntity
  8
0
100
AcDbLine
 10
868.0105460719765
 20
179.6759871537379
 30
0.0
 11
856.0105460719764
 21
179.6759871537379
 31
0.0
  0
LINE
  5
202
330
1F
100
AcDbEntity
  8
0
100
AcDbLine
 10
856.0105460719764
 20
181.2759671537379
 30
0.0
 11
856.0105460719764
 21
179.6759871537379
 31
0.0
  0
LINE
  5
203
330
1F
100
AcDbEntity
  8
0
100
AcDbLine
 10
868.0105460719765
 20
181.2759671537379
 30
0.0
 11
868.0105460719765
 21
179.6759871537379
 31
0.0
  0
LINE
  5
204
330
1F
100
AcDbEntity
  8
0
100
AcDbLine
 10
918.0912260719765
 20
176.3759471537378
 30
0.0
 11
912.4812460719763
 21
176.3759471537378
 31
0.0
  0
LINE
  5
205
330
1F
100
AcDbEntity
  8
0
100
AcDbLine
 10
921.2862460719765
 20
179.6759871537379
 30
0.0
 11
909.2862460719766
 21
179.6759871537379
 31
0.0
  0
LINE
  5
206
330
1F
100
AcDbEntity
  8
0
100
AcDbLine
 10
909.2862460719766
 20
181.2759671537379
 30
0.0
 11
909.2862460719766
 21
179.6759871537379
 31
0.0
  0
LINE
  5
207
330
1F
100
AcDbEntity
  8
0
100
AcDbLine
 10
921.2862460719765
 20
181.2759671537379
 30
0.0
 11
921.2862460719765
 21
179.6759871537379
 31
0.0
  0
ARC
  5
208
330
1F
100
AcDbEntity
  8
0
100
AcDbCircle
 10
916.2711060719766
 20
208.7030871537379
 30
0.0
 40
5.0
100
AcDbArc
 50
0.0
 51
90.0
  0
ARC
  5
209
330
1F
100
AcDbEntity
  8
0
100
AcDbCircle
 10
907.1398860719764
 20
208.7030871537379
 30
0.0
 40
5.0
100
AcDbArc
 50
90.0
 51
180.0
  0
ARC
  5
20A
330
1F
100
AcDbEntity
  8
0
100
AcDbCircle
 10
808.7348260719764
 20
212.275907153738
 30
0.0
 40
5.0
100
AcDbArc
 50
202.2312400000125
 51
298.4125379999988
  0
ARC
  5
20B
330
1F
100
AcDbEntity
  8
0
100
AcDbCircle
 10
925.2960660719763
 20
204.588587153738
 30
0.0
 40
120.0
100
AcDbArc
 50
174.4255299999989
 51
175.8749800000029
  0
ARC
  5
20C
330
1F
100
AcDbEntity
  8
0
100
AcDbCircle
 10
925.2960660719763
 20
204.588587153738
 30
0.0
 40
120.0
100
AcDbArc
 50
165.0000000000055
 51
174.4255299999989
  0
ARC
  5
20D
330
1F
100
AcDbEntity
  8
0
100
AcDbCircle
 10
798.7250460719764
 20
204.588587153738
 30
0.0
 40
120.0
100
AcDbArc
 50
4.12501900000419
 51
14.99999999999445
  0
ARC
  5
20E
330
1F
100
AcDbEntity
  8
0
100
AcDbCircle
 10
926.5105460719764
 20
190.775907153738
 30
0.0
 40
1.0
100
AcDbArc
 50
270.0
 51
0.0
  0
ARC
  5
20F
330
1F
100
AcDbEntity
  8
0
100
AcDbCircle
 10
917.5105460719764
 20
244.2759071537378
 30
0.0
 40
1.0
100
AcDbArc
 50
0.0
 51
90.0
  0
ARC
  5
210
330
1F
100
AcDbEntity
  8
0
100
AcDbCircle
 10
926.5105460719764
 20
206.775907153738
 30
0.0
 40
1.0
100
AcDbArc
 50
0.0
 51
90.0
  0
ARC
  5
211
330
1F
100
AcDbEntity
  8
0
100
AcDbCircle
 10
913.5906860719765
 20
247.2759071537378
 30
0.0
 40
2.0
100
AcDbArc
 50
195.0000100000045
 51
270.0
  0
ARC
  5
212
330
1F
100
AcDbEntity
  8
0
100
AcDbCircle
 10
903.3719260719763
 20
246.7759071537378
 30
0.0
 40
8.0
100
AcDbArc
 50
15.00001000000454
 51
90.0
  0
ARC
  5
213
330
1F
100
AcDbEntity
  8
0
100
AcDbCircle
 10
838.0105460719764
 20
258.7759071537378
 30
0.0
 40
1.0
100
AcDbArc
 50
90.0
 51
180.0
  0
ARC
  5
214
330
1F
100
AcDbEntity
  8
0
100
AcDbCircle
 10
838.0105460719764
 20
258.7759071537378
 30
0.0
 40
1.0
100
AcDbArc
 50
90.0
 51
180.0
  0
ARC
  5
215
330
1F
100
AcDbEntity
  8
0
100
AcDbCircle
 10
820.6491660719766
 20
246.7759071537378
 30
0.0
 40
8.0
100
AcDbArc
 50
90.0
 51
164.9999600000012
  0
ARC
  5
216
330
1F
100
AcDbEntity
  8
0
100
AcDbCircle
 10
886.0105460719765
 20
258.7759071537378
 30
0.0
 40
1.0
100
AcDbArc
 50
0.0
 51
90.0
  0
ARC
  5
217
330
1F
100
AcDbEntity
  8
0
100
AcDbCircle
 10
862.0105460719765
 20
212.275907153738
 30
0.0
 40
5.0
100
AcDbArc
 50
245.1714900000007
 51
294.8285079999942
  0
ARC
  5
218
330
1F
100
AcDbEntity
  8
0
100
AcDbCircle
 10
915.2862460719767
 20
212.275907153738
 30
0.0
 40
5.0
100
AcDbArc
 50
241.587309999998
 51
337.7688219999971
  0
ARC
  5
219
330
1F
100
AcDbEntity
  8
0
100
AcDbCircle
 10
872.0027060719763
 20
208.7030871537379
 30
0.0
 40
5.0
100
AcDbArc
 50
0.0
 51
90.0
  0
ARC
  5
21A
330
1F
100
AcDbEntity
  8
0
100
AcDbCircle
 10
852.0183660719762
 20
208.7030871537379
 30
0.0
 40
5.0
100
AcDbArc
 50
90.0
 51
180.0
  0
ARC
  5
21B
330
1F
100
AcDbEntity
  8
0
100
AcDbCircle
 10
807.7499660719762
 20
208.7030871537379
 30
0.0
 40
5.0
100
AcDbArc
 50
90.0
 51
180.0
  0
ARC
  5
21C
330
1F
100
AcDbEntity
  8
0
100
AcDbCircle
 10
816.8812060719766
 20
208.7030871537379
 30
0.0
 40
5.0
100
AcDbArc
 50
0.0
 51
90.0
  0
ARC
  5
21D
330
1F
100
AcDbEntity
  8
0
100
AcDbCircle
 10
803.7499660719763
 20
182.2759671537379
 30
0.0
 40
1.0
100
AcDbArc
 50
180.0
 51
270.0
  0
ARC
  5
21E
330
1F
100
AcDbEntity
  8
0
100
AcDbCircle
 10
815.4247660719766
 20
180.7759671537379
 30
0.0
 40
1.0
100
AcDbArc
 50
249.7967700000103
 51
270.0
  0
ARC
  5
21F
330
1F
100
AcDbEntity
  8
0
100
AcDbCircle
 10
908.5963260719763
 20
180.7759671537379
 30
0.0
 40
1.0
100
AcDbArc
 50
270.0
 51
290.244980000008
  0
ARC
  5
220
330
1F
100
AcDbEntity
  8
0
100
AcDbCircle
 10
920.2711060719765
 20
182.2759671537379
 30
0.0
 40
1.0
100
AcDbArc
 50
270.0
 51
0.0
  0
ARC
  5
221
330
1F
100
AcDbEntity
  8
0
100
AcDbCircle
 10
831.0106460719767
 20
175.7759671537378
 30
0.0
 40
4.0
100
AcDbArc
 50
0.0
 51
90.0
  0
ARC
  5
222
330
1F
100
AcDbEntity
  8
0
100
AcDbCircle
 10
893.0104460719762
 20
175.7759671537378
 30
0.0
 40
4.0
100
AcDbArc
 50
90.0
 51
180.0
  0
ARC
  5
223
330
1F
100
AcDbEntity
  8
0
100
AcDbCircle
 10
808.7348260719764
 20
181.0099671537378
 30
0.0
 40
5.4168334
100
AcDbArc
 50
301.1866320000053
 51
345.7432929999969
  0
ARC
  5
224
330
1F
100
AcDbEntity
  8
0
100
AcDbCircle
 10
808.7348260719764
 20
181.0099671537378
 30
0.0
 40
5.4168334
100
AcDbArc
 50
194.2567100000059
 51
238.8133699999983
  0
ARC
  5
225
330
1F
100
AcDbEntity
  8
0
100
AcDbCircle
 10
862.0105460719765
 20
181.0099671537378
 30
0.0
 40
5.4168334
100
AcDbArc
 50
194.2567100000059
 51
238.8133699999983
  0
ARC
  5
226
330
1F
100
AcDbEntity
  8
0
100
AcDbCircle
 10
862.0105460719765
 20
181.0099671537378
 30
0.0
 40
5.4168334
100
AcDbArc
 50
301.1866320000053
 51
345.7432929999969
  0
ARC
  5
227
330
1F
100
AcDbEntity
  8
0
100
AcDbCircle
 10
915.2862460719767
 20
181.0099671537378
 30
0.0
 40
5.4168334
100
AcDbArc
 50
194.2567100000059
 51
238.8133699999983
  0
ARC
  5
228
330
1F
100
AcDbEntity
  8
0
100
AcDbCircle
 10
915.2862460719767
 20
181.0099671537378
 30
0.0
 40
5.4168334
100
AcDbArc
 50
301.1866320000053
 51
345.7432929999969
  0
LINE
  5
229
330
1F
100
AcDbEntity
  8
0
100
AcDbLine
 10
828.0105537013703
 20
131.7759079194956
 30
0.0
 11
828.0105537013703
 21
130.5259071537389
 31
0.0
  0
LINE
  5
22A
330
1F
100
AcDbEntity
  8
0
100
AcDbLine
 10
834.5105460719766
 20
159.525907153738
 30
0.0
 11
834.5105460719766
 21
138.275880557412
 31
0.0
  0
LINE
  5
22B
330
1F
100
AcDbEntity
  8
0
100
AcDbLine
 10
834.5105460719766
 20
138.275880557412
 30
0.0
 11
828.0105660719767
 21
131.7759737496153
 31
0.0
  0
LINE
  5
22C
330
1F
100
AcDbEntity
  8
0
100
AcDbLine
 10
896.0105384425826
 20
131.7759079194977
 30
0.0
 11
896.0105384425828
 21
130.5259071537409
 31
0.0
  0
LINE
  5
22D
330
1F
100
AcDbEntity
  8
0
100
AcDbLine
 10
889.5105460719745
 20
159.5259071537396
 30
0.0
 11
889.510546071976
 21
138.2758805574137
 31
0.0
  0
LINE
  5
22E
330
1F
100
AcDbEntity
  8
0
100
AcDbLine
 10
889.510546071976
 20
138.2758805574137
 30
0.0
 11
896.0105260719762
 21
131.7759737496174
 31
0.0
  0
LINE
  5
22F
330
1F
100
AcDbEntity
  8
0
100
AcDbLine
 10
797.0989518373102
 20
111.4258951868292
 30
0.0
 11
797.0989507629441
 21
89.72587535039947
 31
0.0
  0
LINE
  5
230
330
1F
100
AcDbEntity
  8
0
100
AcDbLine
 10
792.010559901586
 20
117.5758557138472
 30
0.0
 11
792.010578957555
 21
83.57584808445807
 31
0.0
  0
LINE
  5
231
330
1F
100
AcDbEntity
  8
0
100
AcDbLine
 10
792.010578957555
 20
83.57584808445807
 30
0.0
 11
794.8605283029625
 21
83.57584968176789
 31
0.0
  0
LINE
  5
232
330
1F
100
AcDbEntity
  8
0
100
AcDbLine
 10
797.0989507629441
 20
89.72587535039947
 30
0.0
 11
834.6530647197017
 21
89.72589639833548
 31
0.0
  0
LINE
  5
233
330
1F
100
AcDbEntity
  8
0
100
AcDbLine
 10
794.8605283029625
 20
83.57584968176789
 30
0.0
 11
797.0989507629441
 21
89.72587535039947
 31
0.0
  0
LINE
  5
234
330
1F
100
AcDbEntity
  8
0
100
AcDbLine
 10
792.010559901586
 20
117.5758557138472
 30
0.0
 11
794.8605446985417
 21
117.5758573111769
 31
0.0
  0
LINE
  5
235
330
1F
100
AcDbEntity
  8
0
100
AcDbLine
 10
797.0989518373102
 20
111.4258951868292
 30
0.0
 11
830.0105938660255
 21
111.425913632802
 31
0.0
  0
LINE
  5
236
330
1F
100
AcDbEntity
  8
0
100
AcDbLine
 10
794.8605446985417
 20
117.5758573111769
 30
0.0
 11
797.0989518373102
 21
111.4258951868292
 31
0.0
  0
LINE
  5
237
330
1F
100
AcDbEntity
  8
0
100
AcDbLine
 10
797.0989518373102
 20
595.3424904642605
 30
0.0
 11
797.0989507629441
 21
573.6424706278308
 31
0.0
  0
LINE
  5
238
330
1F
100
AcDbEntity
  8
0
100
AcDbLine
 10
792.010559901586
 20
601.4924509912786
 30
0.0
 11
792.010578957555
 21
567.4924433618894
 31
0.0
  0
LINE
  5
239
330
1F
100
AcDbEntity
  8
0
100
AcDbLine
 10
792.010578957555
 20
567.4924433618894
 30
0.0
 11
794.8605283029625
 21
567.4924449591992
 31
0.0
  0
LINE
  5
23A
330
1F
100
AcDbEntity
  8
0
100
AcDbLine
 10
797.0989507629441
 20
573.6424706278308
 30
0.0
 11
806.0527368752991
 21
573.642475646155
 31
0.0
  0
LINE
  5
23B
330
1F
100
AcDbEntity
  8
0
100
AcDbLine
 10
794.8605283029625
 20
567.4924449591992
 30
0.0
 11
797.0989507629441
 21
573.6424706278308
 31
0.0
  0
LINE
  5
23C
330
1F
100
AcDbEntity
  8
0
100
AcDbLine
 10
792.010559901586
 20
601.4924509912786
 30
0.0
 11
794.8605446985417
 21
601.4924525886083
 31
0.0
  0
LINE
  5
23D
330
1F
100
AcDbEntity
  8
0
100
AcDbLine
 10
797.0989518373102
 20
595.3424904642605
 30
0.0
 11
806.0527517617948
 21
595.3424954825926
 31
0.0
  0
LINE
  5
23E
330
1F
100
AcDbEntity
  8
0
100
AcDbLine
 10
794.8605446985417
 20
601.4924525886083
 30
0.0
 11
797.0989518373102
 21
595.3424904642605
 31
0.0
  0
LINE
  5
297
330
1F
100
AcDbEntity
  8
0
  6
CENTER
100
AcDbLine
 10
862.0105613307663
 20
512.6318651144707
 30
0.0
 11
862.0105613307663
 21
656.3530292386973
 31
0.0
  0
LINE
  5
298
330
1F
100
AcDbEntity
  8
0
  6
CENTER
100
AcDbLine
 10
862.0105460719763
 20
39.73136550037429
 30
0.0
 11
862.0105460719763
 21
305.6315878088075
 31
0.0
  0
LINE
  5
299
330
1F
100
AcDbEntity
  8
0
  6
CENTER
100
AcDbLine
 10
771.8969586163949
 20
100.5758911320103
 30
0.0
 11
952.1241335275577
 21
100.5758911320103
 31
0.0
  0
LINE
  5
29A
330
1F
100
AcDbEntity
  8
0
  6
CENTER
100
AcDbLine
 10
771.8969738751849
 20
584.492447176584
 30
0.0
 11
952.1241487863477
 21
584.492447176584
 31
0.0
  0
VIEWPORT
  5
71
330
55
100
AcDbEntity
 67
     1
  8
0
100
AcDbViewport
 10
133.3499908447265
 20
101.5999970436096
 30
0.0
 40
381.3957395593834
 41
218.2856291881582
 68
     1
 69
     1
 12
133.3499908447265
 22
101.5999970436096
 13
0.0
 23
0.0
 14
10.0
 24
10.0
 15
10.0
 25
10.0
 16
0.0
 26
0.0
 36
1.0
 17
0.0
 27
0.0
 37
0.0
 42
50.0
 43
0.0
 44
0.0
 45
218.2856291881582
 50
0.0
 51
0.0
 72
   100
 90
    32800
  1

281
     0
 71
     1
 74
     0
110
0.0
120
0.0
130
0.0
111
1.0
121
0.0
131
0.0
112
0.0
122
1.0
132
0.0
 79
     0
146
0.0
  0
VIEWPORT
  5
73
330
55
100
AcDbEntity
 67
     1
  8
0
100
AcDbViewport
 10
133.349993944168
 20
101.599993944168
 30
0.0
 40
213.3599903106689
 41
162.5599903106689
 68
     2
 69
     2
 12
210.0
 22
148.5
 13
0.0
 23
0.0
 14
10.0
 24
10.0
 15
10.0
 25
10.0
 16
0.0
 26
0.0
 36
1.0
 17
0.0
 27
0.0
 37
0.0
 42
50.0
 43
0.0
 44
0.0
 45
324.0677920111345
 50
0.0
 51
0.0
 72
   100
 90
    32864
  1

281
     0
 71
     1
 74
     0
110
0.0
120
0.0
130
0.0
111
1.0
121
0.0
131
0.0
112
0.0
122
1.0
132
0.0
 79
     0
146
0.0
  0
ENDSEC
  0
SECTION
  2
OBJECTS
  0
DICTIONARY
  5
C
330
0
100
AcDbDictionary
281
     1
  3
ACAD_GROUP
350
D
  3
ACAD_LAYOUT
350
1A
  3
ACAD_MLINESTYLE
350
17
  3
ACAD_PLOTSETTINGS
350
19
  3
ACAD_PLOTSTYLENAME
350
E
  3
AcDbVariableDictionary
350
5E
  0
DICTIONARY
  5
28C
330
2
100
AcDbDictionary
280
     1
281
     1
  3
ACAD_LAYERSTATES
360
28D
  0
DICTIONARY
  5
244
330
1F
100
AcDbDictionary
280
     1
281
     1
  3
ACAD_LAYOUTSELFREF
360
27B
  0
DICTIONARY
  5
246
330
55
100
AcDbDictionary
280
     1
281
     1
  3
ACAD_LAYOUTSELFREF
360
27F
  0
DICTIONARY
  5
248
330
50
100
AcDbDictionary
280
     1
281
     1
  3
ACAD_LAYOUTSELFREF
360
27E
  0
DICTIONARY
  5
D
102
{ACAD_REACTORS
330
C
102
}
330
C
100
AcDbDictionary
281
     1
  0
DICTIONARY
  5
1A
102
{ACAD_REACTORS
330
C
102
}
330
C
100
AcDbDictionary
281
     1
  3
Model
350
22
  3
ﾚｲｱｳﾄ1
350
51
  3
ﾚｲｱｳﾄ2
350
56
  0
DICTIONARY
  5
17
102
{ACAD_REACTORS
330
C
102
}
330
C
100
AcDbDictionary
281
     1
  3
Standard
350
18
  0
DICTIONARY
  5
19
102
{ACAD_REACTORS
330
C
102
}
330
C
100
AcDbDictionary
281
     1
  0
ACDBDICTIONARYWDFLT
  5
E
102
{ACAD_REACTORS
330
C
102
}
330
C
100
AcDbDictionary
281
     1
  3
Normal
350
F
100
AcDbDictionaryWithDefault
340
F
  0
DICTIONARY
  5
5E
102
{ACAD_REACTORS
330
C
102
}
330
C
100
AcDbDictionary
281
     1
  3
DIMASSOC
350
5F
  3
HIDETEXT
350
63
  0
DICTIONARY
  5
28D
102
{ACAD_REACTORS
330
28C
102
}
330
28C
100
AcDbDictionary
281
     1
  0
XRECORD
  5
27B
102
{ACAD_REACTORS
330
244
102
}
330
244
100
AcDbXrecord
280
     1
340
1F
  0
XRECORD
  5
27F
102
{ACAD_REACTORS
330
246
102
}
330
246
100
AcDbXrecord
280
     1
340
55
  0
XRECORD
  5
27E
102
{ACAD_REACTORS
330
248
102
}
330
248
100
AcDbXrecord
280
     1
340
50
  0
LAYOUT
  5
22
102
{ACAD_REACTORS
330
1A
102
}
330
1A
100
AcDbPlotSettings
  1

  2
none_device
  4
ANSI_A_(8.50_x_11.00_Inches)
  6

 40
6.349999904632568
 41
19.04999923706054
 42
6.350006103515625
 43
19.04998779296875
 44
215.8999938964843
 45
279.3999938964843
 46
0.0
 47
0.0
 48
0.0
 49
0.0
140
0.0
141
0.0
142
1.0
143
78.436453180766
 70
 11952
 72
     0
 73
     1
 74
     0
  7

 75
     0
147
0.0127491741332998
148
0.0
149
0.0
100
AcDbLayout
  1
Model
 70
     1
 71
     0
 10
0.0
 20
0.0
 11
12.0
 21
9.0
 12
0.0
 22
0.0
 32
0.0
 14
0.0
 24
0.0
 34
0.0
 15
0.0
 25
0.0
 35
0.0
146
0.0
 13
0.0
 23
0.0
 33
0.0
 16
1.0
 26
0.0
 36
0.0
 17
0.0
 27
1.0
 37
0.0
 76
     0
330
1F
  0
LAYOUT
  5
51
102
{ACAD_REACTORS
330
1A
102
}
330
1A
100
AcDbPlotSettings
  1

  2
none_device
  4
Letter_(8.50_x_11.00_Inches)
  6

 40
6.349999904632568
 41
6.349999904632568
 42
6.350006103515625
 43
6.350006103515625
 44
215.8999938964843
 45
279.3999938964843
 46
0.0
 47
0.0
 48
0.0
 49
0.0
140
0.0
141
0.0
142
1.0
143
1.0
 70
   688
 72
     1
 73
     1
 74
     5
  7

 75
    16
147
1.0
148
0.0
149
0.0
100
AcDbLayout
  1
ﾚｲｱｳﾄ1
 70
     1
 71
     1
 10
-6.350006103515625
 20
-6.349999904632568
 11
273.0499877929687
 21
209.5499939918517
 12
0.0
 22
0.0
 32
0.0
 14
26.66076962115562
 24
20.31135699206657
 34
-0.0015258207003583
 15
240.039213369355
 25
182.8886381005154
 35
0.0000000349246037
146
0.0
 13
0.0
 23
0.0
 33
0.0
 16
1.0
 26
0.0
 36
0.0
 17
0.0
 27
1.0
 37
0.0
 76
     0
330
50
331
6B
  0
LAYOUT
  5
56
102
{ACAD_REACTORS
330
1A
102
}
330
1A
100
AcDbPlotSettings
  1

  2
none_device
  4
Letter_(8.50_x_11.00_Inches)
  6

 40
6.349999904632568
 41
6.349999904632568
 42
6.350006103515625
 43
6.350006103515625
 44
215.8999938964843
 45
279.3999938964843
 46
0.0
 47
0.0
 48
0.0
 49
0.0
140
0.0
141
0.0
142
1.0
143
1.0
 70
   688
 72
     1
 73
     1
 74
     5
  7

 75
    16
147
1.0
148
0.0
149
0.0
100
AcDbLayout
  1
ﾚｲｱｳﾄ2
 70
     1
 71
     2
 10
-6.350006103515625
 20
-6.349999904632568
 11
273.0499877929687
 21
209.5499939918517
 12
0.0
 22
0.0
 32
0.0
 14
26.66076962115562
 24
20.31135699206657
 34
-0.0015258207003583
 15
240.039213369355
 25
182.8886381005154
 35
0.0000000349246037
146
0.0
 13
0.0
 23
0.0
 33
0.0
 16
1.0
 26
0.0
 36
0.0
 17
0.0
 27
1.0
 37
0.0
 76
     0
330
55
331
71
  0
MLINESTYLE
  5
18
102
{ACAD_REACTORS
330
17
102
}
330
17
100
AcDbMlineStyle
  2
STANDARD
 70
     0
  3

 62
   256
 51
90.0
 52
90.0
 71
     2
 49
0.5
 62
   256
  6
BYLAYER
 49
-0.5
 62
   256
  6
BYLAYER
  0
ACDBPLACEHOLDER
  5
F
102
{ACAD_REACTORS
330
E
102
}
330
E
  0
DICTIONARYVAR
  5
5F
102
{ACAD_REACTORS
330
5E
102
}
330
5E
100
DictionaryVariables
280
     0
  1
2
  0
DICTIONARYVAR
  5
63
102
{ACAD_REACTORS
330
5E
102
}
330
5E
100
DictionaryVariables
280
     0
  1
1
  0
ENDSEC
  0
EOF
