  0
SECTION
  2
HEADER
  9
$ACADVER
  1
AC1015
  9
$ACADMAINTVER
 70
    14
  9
$DWGCODEPAGE
  3
ANSI_932
  9
$INSBASE
 10
0.0
 20
0.0
 30
0.0
  9
$EXTMIN
 10
205.6677330729399
 20
49.16731056264779
 30
-0.0000000000000058
  9
$EXTMAX
 10
1082.828706667656
 20
1102.404048988186
 30
0.0000000000000104
  9
$LIMMIN
 10
0.0
 20
0.0
  9
$LIMMAX
 10
420.0
 20
297.0
  9
$ORTHOMODE
 70
     0
  9
$REGENMODE
 70
     1
  9
$FILLMODE
 70
     1
  9
$QTEXTMODE
 70
     0
  9
$MIRRTEXT
 70
     1
  9
$LTSCALE
 40
1.0
  9
$ATTMODE
 70
     1
  9
$TEXTSIZE
 40
2.5
  9
$TRACEWID
 40
1.0
  9
$TEXTSTYLE
  7
Standard
  9
$CLAYER
  8
0
  9
$CELTYPE
  6
ByLayer
  9
$CECOLOR
 62
   256
  9
$CELTSCALE
 40
1.0
  9
$DISPSILH
 70
     0
  9
$DIMSCALE
 40
1.0
  9
$DIMASZ
 40
2.5
  9
$DIMEXO
 40
0.625
  9
$DIMDLI
 40
3.75
  9
$DIMRND
 40
0.0
  9
$DIMDLE
 40
0.0
  9
$DIMEXE
 40
1.25
  9
$DIMTP
 40
0.0
  9
$DIMTM
 40
0.0
  9
$DIMTXT
 40
2.5
  9
$DIMCEN
 40
2.5
  9
$DIMTSZ
 40
0.0
  9
$DIMTOL
 70
     0
  9
$DIMLIM
 70
     0
  9
$DIMTIH
 70
     0
  9
$DIMTOH
 70
     0
  9
$DIMSE1
 70
     0
  9
$DIMSE2
 70
     0
  9
$DIMTAD
 70
     1
  9
$DIMZIN
 70
     8
  9
$DIMBLK
  1

  9
$DIMASO
 70
     1
  9
$DIMSHO
 70
     1
  9
$DIMPOST
  1

  9
$DIMAPOST
  1

  9
$DIMALT
 70
     0
  9
$DIMALTD
 70
     3
  9
$DIMALTF
 40
0.03937007874016
  9
$DIMLFAC
 40
1.0
  9
$DIMTOFL
 70
     1
  9
$DIMTVP
 40
0.0
  9
$DIMTIX
 70
     0
  9
$DIMSOXD
 70
     0
  9
$DIMSAH
 70
     0
  9
$DIMBLK1
  1

  9
$DIMBLK2
  1

  9
$DIMSTYLE
  2
ISO-25
  9
$DIMCLRD
 70
     0
  9
$DIMCLRE
 70
     0
  9
$DIMCLRT
 70
     0
  9
$DIMTFAC
 40
1.0
  9
$DIMGAP
 40
0.625
  9
$DIMJUST
 70
     0
  9
$DIMSD1
 70
     0
  9
$DIMSD2
 70
     0
  9
$DIMTOLJ
 70
     0
  9
$DIMTZIN
 70
     8
  9
$DIMALTZ
 70
     0
  9
$DIMALTTZ
 70
     0
  9
$DIMUPT
 70
     0
  9
$DIMDEC
 70
     2
  9
$DIMTDEC
 70
     2
  9
$DIMALTU
 70
     2
  9
$DIMALTTD
 70
     3
  9
$DIMTXSTY
  7
Standard
  9
$DIMAUNIT
 70
     0
  9
$DIMADEC
 70
     0
  9
$DIMALTRND
 40
0.0
  9
$DIMAZIN
 70
     0
  9
$DIMDSEP
 70
    44
  9
$DIMATFIT
 70
     3
  9
$DIMFRAC
 70
     0
  9
$DIMLDRBLK
  1

  9
$DIMLUNIT
 70
     2
  9
$DIMLWD
 70
    -2
  9
$DIMLWE
 70
    -2
  9
$DIMTMOVE
 70
     0
  9
$LUNITS
 70
     2
  9
$LUPREC
 70
     4
  9
$SKETCHINC
 40
1.0
  9
$FILLETRAD
 40
10.0
  9
$AUNITS
 70
     0
  9
$AUPREC
 70
     0
  9
$MENU
  1
.
  9
$ELEVATION
 40
0.0
  9
$PELEVATION
 40
0.0
  9
$THICKNESS
 40
0.0
  9
$LIMCHECK
 70
     0
  9
$CHAMFERA
 40
10.0
  9
$CHAMFERB
 40
10.0
  9
$CHAMFERC
 40
20.0
  9
$CHAMFERD
 40
0.0
  9
$SKPOLY
 70
     0
  9
$TDCREATE
 40
2454278.646957997
  9
$TDUCREATE
 40
2454278.271957997
  9
$TDUPDATE
 40
2456899.669666065
  9
$TDUUPDATE
 40
2456899.294666065
  9
$TDINDWG
 40
0.0010630671
  9
$TDUSRTIMER
 40
0.0010628935
  9
$USRTIMER
 70
     1
  9
$ANGBASE
 50
0.0
  9
$ANGDIR
 70
     0
  9
$PDMODE
 70
     0
  9
$PDSIZE
 40
0.0
  9
$PLINEWID
 40
0.0
  9
$SPLFRAME
 70
     0
  9
$SPLINETYPE
 70
     6
  9
$SPLINESEGS
 70
     8
  9
$HANDSEED
  5
265
  9
$SURFTAB1
 70
     6
  9
$SURFTAB2
 70
     6
  9
$SURFTYPE
 70
     6
  9
$SURFU
 70
     6
  9
$SURFV
 70
     6
  9
$UCSBASE
  2

  9
$UCSNAME
  2

  9
$UCSORG
 10
0.0
 20
0.0
 30
0.0
  9
$UCSXDIR
 10
1.0
 20
0.0
 30
0.0
  9
$UCSYDIR
 10
0.0
 20
1.0
 30
0.0
  9
$UCSORTHOREF
  2

  9
$UCSORTHOVIEW
 70
     0
  9
$UCSORGTOP
 10
0.0
 20
0.0
 30
0.0
  9
$UCSORGBOTTOM
 10
0.0
 20
0.0
 30
0.0
  9
$UCSORGLEFT
 10
0.0
 20
0.0
 30
0.0
  9
$UCSORGRIGHT
 10
0.0
 20
0.0
 30
0.0
  9
$UCSORGFRONT
 10
0.0
 20
0.0
 30
0.0
  9
$UCSORGBACK
 10
0.0
 20
0.0
 30
0.0
  9
$PUCSBASE
  2

  9
$PUCSNAME
  2

  9
$PUCSORG
 10
0.0
 20
0.0
 30
0.0
  9
$PUCSXDIR
 10
1.0
 20
0.0
 30
0.0
  9
$PUCSYDIR
 10
0.0
 20
1.0
 30
0.0
  9
$PUCSORTHOREF
  2

  9
$PUCSORTHOVIEW
 70
     0
  9
$PUCSORGTOP
 10
0.0
 20
0.0
 30
0.0
  9
$PUCSORGBOTTOM
 10
0.0
 20
0.0
 30
0.0
  9
$PUCSORGLEFT
 10
0.0
 20
0.0
 30
0.0
  9
$PUCSORGRIGHT
 10
0.0
 20
0.0
 30
0.0
  9
$PUCSORGFRONT
 10
0.0
 20
0.0
 30
0.0
  9
$PUCSORGBACK
 10
0.0
 20
0.0
 30
0.0
  9
$USERI1
 70
     0
  9
$USERI2
 70
     0
  9
$USERI3
 70
     0
  9
$USERI4
 70
     0
  9
$USERI5
 70
     0
  9
$USERR1
 40
0.0
  9
$USERR2
 40
0.0
  9
$USERR3
 40
0.0
  9
$USERR4
 40
0.0
  9
$USERR5
 40
0.0
  9
$WORLDVIEW
 70
     1
  9
$SHADEDGE
 70
     3
  9
$SHADEDIF
 70
    70
  9
$TILEMODE
 70
     1
  9
$MAXACTVP
 70
    48
  9
$PINSBASE
 10
0.0
 20
0.0
 30
0.0
  9
$PLIMCHECK
 70
     0
  9
$PEXTMIN
 10
26.66076962115562
 20
20.31135699206657
 30
-0.0015258207003583
  9
$PEXTMAX
 10
240.039213369355
 20
182.8886381005154
 30
0.0000000349246037
  9
$PLIMMIN
 10
-6.350006103515625
 20
-6.349999904632568
  9
$PLIMMAX
 10
273.0499877929687
 20
209.5499939918517
  9
$UNITMODE
 70
     0
  9
$VISRETAIN
 70
     1
  9
$PLINEGEN
 70
     0
  9
$PSLTSCALE
 70
     1
  9
$TREEDEPTH
 70
  3020
  9
$CMLSTYLE
  2
Standard
  9
$CMLJUST
 70
     0
  9
$CMLSCALE
 40
20.0
  9
$PROXYGRAPHICS
 70
     1
  9
$MEASUREMENT
 70
     1
  9
$CELWEIGHT
370
    -1
  9
$ENDCAPS
280
     0
  9
$JOINSTYLE
280
     0
  9
$LWDISPLAY
290
     0
  9
$INSUNITS
 70
     4
  9
$HYPERLINKBASE
  1

  9
$STYLESHEET
  1

  9
$XEDIT
290
     1
  9
$CEPSNTYPE
380
     0
  9
$PSTYLEMODE
290
     1
  9
$FINGERPRINTGUID
  2
{FDEAD578-A652-11D2-9A35-0060089B3A3F}
  9
$VERSIONGUID
  2
{67F16496-336E-4597-A3BC-4FEB0280575A}
  9
$EXTNAMES
290
     1
  9
$PSVPSCALE
 40
0.0
  9
$OLESTARTUP
290
     0
  0
ENDSEC
  0
SECTION
  2
CLASSES
  0
CLASS
  1
ACDBDICTIONARYWDFLT
  2
AcDbDictionaryWithDefault
  3
AutoCAD 2000
 90
        0
280
     0
281
     0
  0
CLASS
  1
ACDBPLACEHOLDER
  2
AcDbPlaceHolder
  3
AutoCAD 2000
 90
        0
280
     0
281
     0
  0
CLASS
  1
LAYOUT
  2
AcDbLayout
  3
AutoCAD 2000
 90
        0
280
     0
281
     0
  0
CLASS
  1
DICTIONARYVAR
  2
AcDbDictionaryVar
  3
AutoCAD 2000
 90
        0
280
     0
281
     0
  0
CLASS
  1
LONG_TRANSACTION
  2
AcDbLongTransaction
  3
AutoCAD 2000
 90
    32768
280
     0
281
     0
  0
CLASS
  1
LWPOLYLINE
  2
AcDbPolyline
  3
AutoCAD 2000
 90
    32768
280
     0
281
     1
  0
CLASS
  1
HATCH
  2
AcDbHatch
  3
AutoCAD 2000
 90
    32768
280
     0
281
     1
  0
CLASS
  1
XRECORD
  2
AcDbXrecord
  3
AutoCAD 2000
 90
    32768
280
     0
281
     0
  0
ENDSEC
  0
SECTION
  2
TABLES
  0
TABLE
  2
VPORT
  5
8
330
0
100
AcDbSymbolTable
 70
     2
  0
VPORT
  5
264
330
8
100
AcDbSymbolTableRecord
100
AcDbViewportTableRecord
  2
*Active
 70
     0
 10
0.0
 20
0.0
 11
1.0
 21
1.0
 12
644.248219870298
 22
575.7856797754173
 13
0.0
 23
0.0
 14
10.0
 24
10.0
 15
10.0
 25
10.0
 16
0.0
 26
0.0
 36
1.0
 17
0.0
 27
0.0
 37
0.0
 40
1059.923955812367
 41
1.592161016949152
 42
50.0
 43
0.0
 44
0.0
 50
0.0
 51
0.0
 71
     0
 72
   100
 73
     1
 74
     3
 75
     0
 76
     0
 77
     0
 78
     0
281
     0
 65
     1
110
0.0
120
0.0
130
0.0
111
1.0
121
0.0
131
0.0
112
0.0
122
1.0
132
0.0
 79
     0
146
0.0
  0
ENDTAB
  0
TABLE
  2
LTYPE
  5
5
330
0
100
AcDbSymbolTable
 70
     2
  0
LTYPE
  5
14
330
5
100
AcDbSymbolTableRecord
100
AcDbLinetypeTableRecord
  2
ByBlock
 70
     0
  3

 72
    65
 73
     0
 40
0.0
  0
LTYPE
  5
15
330
5
100
AcDbSymbolTableRecord
100
AcDbLinetypeTableRecord
  2
ByLayer
 70
     0
  3

 72
    65
 73
     0
 40
0.0
  0
LTYPE
  5
16
330
5
100
AcDbSymbolTableRecord
100
AcDbLinetypeTableRecord
  2
Continuous
 70
     0
  3
Solid line
 72
    65
 73
     0
 40
0.0
  0
LTYPE
  5
249
330
5
100
AcDbSymbolTableRecord
100
AcDbLinetypeTableRecord
  2
CENTER
 70
     0
  3
__ . __
 72
    65
 73
     4
 40
7.0
 49
4.0
 74
     0
 49
-1.0
 74
     0
 49
1.0
 74
     0
 49
-1.0
 74
     0
  0
ENDTAB
  0
TABLE
  2
LAYER
  5
2
102
{ACAD_XDICTIONARY
360
24A
102
}
330
0
100
AcDbSymbolTable
 70
     1
  0
LAYER
  5
10
330
2
100
AcDbSymbolTableRecord
100
AcDbLayerTableRecord
  2
0
 70
     0
 62
     7
  6
Continuous
370
    -3
390
F
  0
ENDTAB
  0
TABLE
  2
STYLE
  5
3
330
0
100
AcDbSymbolTable
 70
     1
  0
STYLE
  5
11
330
3
100
AcDbSymbolTableRecord
100
AcDbTextStyleTableRecord
  2
Standard
 70
     0
 40
0.0
 41
1.0
 50
0.0
 71
     0
 42
2.5
  3
txt
  4

  0
ENDTAB
  0
TABLE
  2
VIEW
  5
6
330
0
100
AcDbSymbolTable
 70
     0
  0
ENDTAB
  0
TABLE
  2
UCS
  5
7
330
0
100
AcDbSymbolTable
 70
     0
  0
ENDTAB
  0
TABLE
  2
APPID
  5
9
330
0
100
AcDbSymbolTable
 70
     1
  0
APPID
  5
12
330
9
100
AcDbSymbolTableRecord
100
AcDbRegAppTableRecord
  2
ACAD
 70
     0
  0
ENDTAB
  0
TABLE
  2
DIMSTYLE
  5
A
330
0
100
AcDbSymbolTable
 70
     1
100
AcDbDimStyleTable
 71
     0
  0
DIMSTYLE
105
27
330
A
100
AcDbSymbolTableRecord
100
AcDbDimStyleTableRecord
  2
ISO-25
 70
     0
 41
2.5
 42
0.625
 43
3.75
 44
1.25
 73
     0
 74
     0
 77
     1
 78
     8
140
2.5
141
2.5
143
0.03937007874016
147
0.625
171
     3
172
     1
271
     2
272
     2
274
     3
278
    44
283
     0
284
     8
340
11
  0
ENDTAB
  0
TABLE
  2
BLOCK_RECORD
  5
1
330
0
100
AcDbSymbolTable
 70
     1
  0
BLOCK_RECORD
  5
1F
102
{ACAD_XDICTIONARY
360
202
102
}
330
1
100
AcDbSymbolTableRecord
100
AcDbBlockTableRecord
  2
*Model_Space
340
22
  0
BLOCK_RECORD
  5
55
102
{ACAD_XDICTIONARY
360
204
102
}
330
1
100
AcDbSymbolTableRecord
100
AcDbBlockTableRecord
  2
*Paper_Space
340
56
  0
BLOCK_RECORD
  5
50
102
{ACAD_XDICTIONARY
360
206
102
}
330
1
100
AcDbSymbolTableRecord
100
AcDbBlockTableRecord
  2
*Paper_Space0
340
51
  0
ENDTAB
  0
ENDSEC
  0
SECTION
  2
BLOCKS
  0
BLOCK
  5
20
330
1F
100
AcDbEntity
  8
0
100
AcDbBlockBegin
  2
*Model_Space
 70
     0
 10
0.0
 20
0.0
 30
0.0
  3
*Model_Space
  1

  0
ENDBLK
  5
21
330
1F
100
AcDbEntity
  8
0
100
AcDbBlockEnd
  0
BLOCK
  5
57
330
55
100
AcDbEntity
 67
     1
  8
0
100
AcDbBlockBegin
  2
*Paper_Space
 70
     0
 10
0.0
 20
0.0
 30
0.0
  3
*Paper_Space
  1

  0
ENDBLK
  5
58
330
55
100
AcDbEntity
 67
     1
  8
0
100
AcDbBlockEnd
  0
BLOCK
  5
52
330
50
100
AcDbEntity
  8
0
100
AcDbBlockBegin
  2
*Paper_Space0
 70
     0
 10
0.0
 20
0.0
 30
0.0
  3
*Paper_Space0
  1

  0
VIEWPORT
  5
6B
330
50
100
AcDbEntity
  8
0
100
AcDbViewport
 10
133.3499908447265
 20
101.5999970436096
 30
0.0
 40
381.3957395593834
 41
218.2856291881582
 69
     0
 12
133.3499908447265
 22
101.5999970436096
 13
0.0
 23
0.0
 14
10.0
 24
10.0
 15
10.0
 25
10.0
 16
0.0
 26
0.0
 36
1.0
 17
0.0
 27
0.0
 37
0.0
 42
50.0
 43
0.0
 44
0.0
 45
218.2856291881582
 50
0.0
 51
0.0
 72
   100
 90
    32800
  1

281
     0
 71
     1
 74
     0
110
0.0
120
0.0
130
0.0
111
1.0
121
0.0
131
0.0
112
0.0
122
1.0
132
0.0
 79
     0
146
0.0
  0
VIEWPORT
  5
6D
330
50
100
AcDbEntity
  8
0
100
AcDbViewport
 10
133.349993944168
 20
101.599993944168
 30
0.0
 40
213.3599903106689
 41
162.5599903106689
 69
     0
 12
210.0
 22
148.5
 13
0.0
 23
0.0
 14
10.0
 24
10.0
 15
10.0
 25
10.0
 16
0.0
 26
0.0
 36
1.0
 17
0.0
 27
0.0
 37
0.0
 42
50.0
 43
0.0
 44
0.0
 45
324.0677920111345
 50
0.0
 51
0.0
 72
   100
 90
    32864
  1

281
     0
 71
     1
 74
     0
110
0.0
120
0.0
130
0.0
111
1.0
121
0.0
131
0.0
112
0.0
122
1.0
132
0.0
 79
     0
146
0.0
  0
ENDBLK
  5
53
330
50
100
AcDbEntity
  8
0
100
AcDbBlockEnd
  0
ENDSEC
  0
SECTION
  2
ENTITIES
  0
CIRCLE
  5
144
330
1F
100
AcDbEntity
  8
0
100
AcDbCircle
 10
570.970905077343
 20
832.8457176356142
 30
0.0
 40
25.00000499999998
  0
ARC
  5
145
330
1F
100
AcDbEntity
  8
0
100
AcDbCircle
 10
570.9709050773426
 20
832.8457176356142
 30
0.0
 40
78.74999999999966
100
AcDbArc
 50
6.562457177840141
 51
19.63993613510772
  0
ARC
  5
146
330
1F
100
AcDbEntity
  8
0
100
AcDbCircle
 10
570.9709050773426
 20
832.8457176356142
 30
0.0
 40
78.74999999999966
100
AcDbArc
 50
100.3600619127617
 51
139.6399361351045
  0
ARC
  5
147
330
1F
100
AcDbEntity
  8
0
100
AcDbCircle
 10
570.9709050773426
 20
832.8457176356142
 30
0.0
 40
78.74999999999966
100
AcDbArc
 50
40.36006191276075
 51
79.63993613511267
  0
ARC
  5
148
330
1F
100
AcDbEntity
  8
0
100
AcDbCircle
 10
570.9709050773426
 20
832.8457176356142
 30
0.0
 40
78.74999999999966
100
AcDbArc
 50
280.3600619127617
 51
319.6399361351051
  0
ARC
  5
149
330
1F
100
AcDbEntity
  8
0
100
AcDbCircle
 10
570.9709050773426
 20
832.8457176356142
 30
0.0
 40
78.74999999999966
100
AcDbArc
 50
340.3600619127556
 51
353.4375428221598
  0
ARC
  5
14A
330
1F
100
AcDbEntity
  8
0
100
AcDbCircle
 10
570.9709050773426
 20
832.8457176356142
 30
0.0
 40
78.74999999999966
100
AcDbArc
 50
220.3600619127607
 51
259.6399361351126
  0
ARC
  5
14B
330
1F
100
AcDbEntity
  8
0
100
AcDbCircle
 10
570.9709050773426
 20
832.8457176356142
 30
0.0
 40
78.74999999999966
100
AcDbArc
 50
160.3600619127577
 51
199.6399361351077
  0
LINE
  5
14C
330
1F
100
AcDbEntity
  8
0
100
AcDbLine
 10
652.5353050973425
 20
837.595827635614
 30
0.0
 11
650.5352650973426
 21
837.595827635614
 31
0.0
  0
LINE
  5
14D
330
1F
100
AcDbEntity
  8
0
100
AcDbLine
 10
652.5353050973425
 20
828.095757635614
 30
0.0
 11
650.5352650973426
 21
828.095757635614
 31
0.0
  0
LINE
  5
14E
330
1F
100
AcDbEntity
  8
0
100
AcDbLine
 10
650.5352650973426
 20
837.595737635614
 30
0.0
 11
647.4712750973425
 21
837.4999776356144
 31
0.0
  0
LINE
  5
14F
330
1F
100
AcDbEntity
  8
0
100
AcDbLine
 10
649.4713750973424
 20
837.5624976356144
 30
0.0
 11
649.4713750973424
 21
828.1290876356143
 31
0.0
  0
LINE
  5
150
330
1F
100
AcDbEntity
  8
0
100
AcDbLine
 10
650.5366150973426
 20
828.095757635614
 30
0.0
 11
647.4712750973425
 21
828.1916376356139
 31
0.0
  0
LINE
  5
151
330
1F
100
AcDbEntity
  8
0
100
AcDbLine
 10
665.0352550973422
 20
837.845757635614
 30
0.0
 11
652.5353050973425
 21
837.845757635614
 31
0.0
  0
LINE
  5
152
330
1F
100
AcDbEntity
  8
0
100
AcDbLine
 10
665.0352550973422
 20
827.8458276356142
 30
0.0
 11
652.5353050973425
 21
827.8458276356142
 31
0.0
  0
LINE
  5
153
330
1F
100
AcDbEntity
  8
0
100
AcDbLine
 10
665.0352550973422
 20
837.845757635614
 30
0.0
 11
665.0352550973422
 21
827.8458276356142
 31
0.0
  0
LINE
  5
154
330
1F
100
AcDbEntity
  8
0
100
AcDbLine
 10
652.5353050973425
 20
837.845757635614
 30
0.0
 11
652.5353050973425
 21
827.8458276356142
 31
0.0
  0
LINE
  5
155
330
1F
100
AcDbEntity
  8
0
100
AcDbLine
 10
655.9713450773418
 20
827.8458276356142
 30
0.0
 11
655.9713450773418
 21
823.8456776156143
 31
0.0
  0
LINE
  5
156
330
1F
100
AcDbEntity
  8
0
100
AcDbLine
 10
655.9713450773418
 20
841.8457576556141
 30
0.0
 11
655.9713450773418
 21
837.845757635614
 31
0.0
  0
LINE
  5
157
330
1F
100
AcDbEntity
  8
0
100
AcDbLine
 10
655.9713450773418
 20
823.8456776156143
 30
0.0
 11
643.1164978994692
 21
823.8456776156143
 31
0.0
  0
LINE
  5
158
330
1F
100
AcDbEntity
  8
0
100
AcDbLine
 10
655.9713450773418
 20
841.8457576556141
 30
0.0
 11
643.1164978994692
 21
841.8457576556141
 31
0.0
  0
LINE
  5
159
330
1F
100
AcDbEntity
  8
0
100
AcDbLine
 10
643.1164978994692
 20
841.8457576556141
 30
0.0
 11
643.1164978994692
 21
823.8456776156143
 31
0.0
  0
LINE
  5
15A
330
1F
100
AcDbEntity
  8
0
100
AcDbLine
 10
647.4713350973424
 20
841.8457576556141
 30
0.0
 11
647.4713350973424
 21
823.8456776156143
 31
0.0
  0
ARC
  5
15B
330
1F
100
AcDbEntity
  8
0
100
AcDbCircle
 10
499.9564350773425
 20
873.8459076356141
 30
0.0
 40
8.999990699999999
100
AcDbArc
 50
94.99984999999567
 51
205.0000100000145
  0
LINE
  5
15C
330
1F
100
AcDbEntity
  8
0
100
AcDbLine
 10
499.1720550773425
 20
882.8116776356141
 30
0.0
 11
514.2039733086579
 21
884.1267869185362
 31
0.0
  0
LINE
  5
15D
330
1F
100
AcDbEntity
  8
0
100
AcDbLine
 10
491.7997050773426
 20
870.0423576356142
 30
0.0
 11
498.1767302051276
 21
856.366787209588
 31
0.0
  0
ARC
  5
15E
330
1F
100
AcDbEntity
  8
0
100
AcDbCircle
 10
499.9564639773537
 20
791.8454775793263
 30
0.0
 40
8.999990699999999
100
AcDbArc
 50
154.9998499999982
 51
265.0000100000137
  0
LINE
  5
15F
330
1F
100
AcDbEntity
  8
0
100
AcDbLine
 10
491.7996893928654
 20
795.6490695731059
 30
0.0
 11
498.1767304607598
 21
809.3246472704963
 31
0.0
  0
LINE
  5
160
330
1F
100
AcDbEntity
  8
0
100
AcDbLine
 10
499.172069901918
 20
782.8797671875157
 30
0.0
 11
514.2039738659923
 21
781.5646477357361
 31
0.0
  0
ARC
  5
161
330
1F
100
AcDbEntity
  8
0
100
AcDbCircle
 10
641.9853461773312
 20
873.8459576919019
 30
0.0
 40
8.999990699999999
100
AcDbArc
 50
334.9998499999902
 51
85.00001000001374
  0
LINE
  5
162
330
1F
100
AcDbEntity
  8
0
100
AcDbLine
 10
650.1421207618196
 20
870.0423656981225
 30
0.0
 11
643.7650796939252
 21
856.3667880007319
 31
0.0
  0
LINE
  5
163
330
1F
100
AcDbEntity
  8
0
100
AcDbLine
 10
642.769740252767
 20
882.8116680837124
 30
0.0
 11
627.7378362886928
 21
884.1267875354922
 31
0.0
  0
ARC
  5
164
330
1F
100
AcDbEntity
  8
0
100
AcDbCircle
 10
570.9708761773314
 20
914.8461476919022
 30
0.0
 40
8.999990699999999
100
AcDbArc
 50
34.99984999998738
 51
145.000010000014
  0
LINE
  5
165
330
1F
100
AcDbEntity
  8
0
100
AcDbLine
 10
578.3432707618199
 20
920.0083256981226
 30
0.0
 11
586.9981479252409
 21
907.647857283654
 31
0.0
  0
LINE
  5
166
330
1F
100
AcDbEntity
  8
0
100
AcDbLine
 10
563.5985402527673
 20
920.0083080837128
 30
0.0
 11
554.943661416478
 21
907.6478571094662
 31
0.0
  0
ARC
  5
167
330
1F
100
AcDbEntity
  8
0
100
AcDbCircle
 10
570.9709339773538
 20
750.8452875793262
 30
0.0
 40
8.999990699999997
100
AcDbArc
 50
214.9998499999919
 51
325.000010000014
  0
LINE
  5
168
330
1F
100
AcDbEntity
  8
0
100
AcDbLine
 10
563.5985393928655
 20
745.6831095731057
 30
0.0
 11
554.9436622294446
 21
758.0435779875743
 31
0.0
  0
LINE
  5
169
330
1F
100
AcDbEntity
  8
0
100
AcDbLine
 10
578.3432699019179
 20
745.6831271875155
 30
0.0
 11
586.9981487382074
 21
758.0435781617621
 31
0.0
  0
ARC
  5
16A
330
1F
100
AcDbEntity
  8
0
100
AcDbCircle
 10
570.9709050773426
 20
832.8457176356142
 30
0.0
 40
76.49988633475448
100
AcDbArc
 50
6.756367299292174
 51
353.2436327007077
  0
ARC
  5
16B
330
1F
100
AcDbEntity
  8
0
100
AcDbCircle
 10
641.9853750773426
 20
791.8455276356142
 30
0.0
 40
8.999990699999997
100
AcDbArc
 50
274.9998499999956
 51
25.00001000001455
  0
LINE
  5
16C
330
1F
100
AcDbEntity
  8
0
100
AcDbLine
 10
642.7697550773427
 20
782.879757635614
 30
0.0
 11
627.7378368460273
 21
781.564648352692
 31
0.0
  0
LINE
  5
16D
330
1F
100
AcDbEntity
  8
0
100
AcDbLine
 10
650.1421050773425
 20
795.6490776356138
 30
0.0
 11
643.7650799495576
 21
809.32464806164
 31
0.0
  0
LINE
  5
16E
330
1F
100
AcDbEntity
  8
0
100
AcDbLine
 10
610.9708950773424
 20
223.6252295079045
 30
0.0
 11
623.91629879175
 21
210.6799241551021
 31
0.0
  0
LINE
  5
16F
330
1F
100
AcDbEntity
  8
0
100
AcDbLine
 10
623.91629879175
 20
210.6799241551021
 30
0.0
 11
633.1133850773426
 21
209.8752739585426
 31
0.0
  0
LINE
  5
170
330
1F
100
AcDbEntity
  8
0
100
AcDbLine
 10
610.9708950773424
 20
257.1252739585426
 30
0.0
 11
610.9708950773424
 21
223.6252295079045
 31
0.0
  0
LINE
  5
171
330
1F
100
AcDbEntity
  8
0
100
AcDbLine
 10
623.4709050773426
 20
274.1252539585425
 30
0.0
 11
623.4709050773426
 21
257.1252739585426
 31
0.0
  0
LINE
  5
172
330
1F
100
AcDbEntity
  8
0
100
AcDbLine
 10
518.4709050773427
 20
274.1252539585427
 30
0.0
 11
518.4709050773427
 21
257.1252739585426
 31
0.0
  0
LINE
  5
173
330
1F
100
AcDbEntity
  8
0
100
AcDbLine
 10
518.4709050773427
 20
257.1252739585426
 30
0.0
 11
623.4709050773426
 21
257.1252739585426
 31
0.0
  0
LINE
  5
174
330
1F
100
AcDbEntity
  8
0
100
AcDbLine
 10
530.9709150773428
 20
223.6252295079045
 30
0.0
 11
518.0255113629352
 21
210.6799241551021
 31
0.0
  0
LINE
  5
175
330
1F
100
AcDbEntity
  8
0
100
AcDbLine
 10
518.0255113629352
 20
210.6799241551021
 30
0.0
 11
508.8284250773426
 21
209.8752739585426
 31
0.0
  0
LINE
  5
176
330
1F
100
AcDbEntity
  8
0
100
AcDbLine
 10
530.9709150773428
 20
257.1252739585426
 30
0.0
 11
530.9709150773428
 21
223.6252295079045
 31
0.0
  0
ARC
  5
177
330
1F
100
AcDbEntity
  8
0
100
AcDbCircle
 10
491.9567550773426
 20
284.6253515061425
 30
0.0
 40
1.000000019999999
100
AcDbArc
 50
180.0
 51
270.0
  0
ARC
  5
178
330
1F
100
AcDbEntity
  8
0
100
AcDbCircle
 10
649.9850850773428
 20
284.6253515061425
 30
0.0
 40
1.000000019999999
100
AcDbArc
 50
270.0
 51
0.0
  0
ARC
  5
179
330
1F
100
AcDbEntity
  8
0
100
AcDbCircle
 10
513.6441150773426
 20
385.6253015061424
 30
0.0
 40
10.00000049999999
100
AcDbArc
 50
90.0
 51
164.9999899999844
  0
ARC
  5
17A
330
1F
100
AcDbEntity
  8
0
100
AcDbCircle
 10
446.8267950773427
 20
328.7800415061428
 30
0.0
 40
200.0000159999999
100
AcDbArc
 50
0.9999900000149926
 51
14.99999999999445
  0
ARC
  5
17B
330
1F
100
AcDbEntity
  8
0
100
AcDbCircle
 10
644.7567450773426
 20
369.1253015061424
 30
0.0
 40
2.00000007
100
AcDbArc
 50
191.5208299999984
 51
270.0
  0
ARC
  5
17C
330
1F
100
AcDbEntity
  8
0
100
AcDbCircle
 10
695.1150450773423
 20
328.7800415061423
 30
0.0
 40
200.0000159999999
100
AcDbArc
 50
165.0000000000055
 51
178.9999799999985
  0
ARC
  5
17D
330
1F
100
AcDbEntity
  8
0
100
AcDbCircle
 10
503.4709050773426
 20
394.6253015061424
 30
0.0
 40
1.000000019999999
100
AcDbArc
 50
90.0
 51
180.0
  0
ARC
  5
17E
330
1F
100
AcDbEntity
  8
0
100
AcDbCircle
 10
613.4709150773426
 20
274.6253015061424
 30
0.0
 40
3.0
100
AcDbArc
 50
90.0
 51
180.0
  0
ARC
  5
17F
330
1F
100
AcDbEntity
  8
0
100
AcDbCircle
 10
528.4708950773427
 20
274.6253015061424
 30
0.0
 40
3.0
100
AcDbArc
 50
0.0
 51
90.0
  0
ARC
  5
180
330
1F
100
AcDbEntity
  8
0
100
AcDbCircle
 10
570.9709050773426
 20
322.2253115061425
 30
0.0
 40
5.0000001
100
AcDbArc
 50
239.3129599999983
 51
300.6870369999959
  0
ARC
  5
181
330
1F
100
AcDbEntity
  8
0
100
AcDbCircle
 10
559.9440750773426
 20
320.9223515061425
 30
0.0
 40
5.0000001
100
AcDbArc
 50
90.0
 51
180.0
  0
ARC
  5
182
330
1F
100
AcDbEntity
  8
0
100
AcDbCircle
 10
581.9977350773426
 20
320.9223515061425
 30
0.0
 40
5.0000001
100
AcDbArc
 50
0.0
 51
90.0
  0
ARC
  5
183
330
1F
100
AcDbEntity
  8
0
100
AcDbCircle
 10
495.9568050773428
 20
320.9223515061425
 30
0.0
 40
5.0000001
100
AcDbArc
 50
90.0
 51
180.0
  0
ARC
  5
184
330
1F
100
AcDbEntity
  8
0
100
AcDbCircle
 10
509.2036050773426
 20
320.9223515061425
 30
0.0
 40
5.0000001
100
AcDbArc
 50
0.0
 51
90.0
  0
ARC
  5
185
330
1F
100
AcDbEntity
  8
0
100
AcDbCircle
 10
649.7792550773426
 20
322.2253115061425
 30
0.0
 40
5.0000001
100
AcDbArc
 50
247.5499299999966
 51
270.0
  0
ARC
  5
186
330
1F
100
AcDbEntity
  8
0
100
AcDbCircle
 10
632.7382350773428
 20
320.9223515061425
 30
0.0
 40
5.0000001
100
AcDbArc
 50
90.0
 51
180.0
  0
ARC
  5
187
330
1F
100
AcDbEntity
  8
0
100
AcDbCircle
 10
645.9850050773427
 20
320.9223515061425
 30
0.0
 40
5.0000001
100
AcDbArc
 50
0.0
 51
90.0
  0
ARC
  5
188
330
1F
100
AcDbEntity
  8
0
100
AcDbCircle
 10
492.1625550773426
 20
322.2253115061425
 30
0.0
 40
5.0000001
100
AcDbArc
 50
270.0
 51
292.449825999995
  0
ARC
  5
189
330
1F
100
AcDbEntity
  8
0
100
AcDbCircle
 10
499.9567950773426
 20
284.0952515061425
 30
0.0
 40
7.299638399999999
100
AcDbArc
 50
196.4730500000087
 51
242.4167900000024
  0
ARC
  5
18A
330
1F
100
AcDbEntity
  8
0
100
AcDbCircle
 10
499.9567950773426
 20
284.0952515061425
 30
0.0
 40
7.299638399999999
100
AcDbArc
 50
297.5832129999935
 51
343.5268989999985
  0
ARC
  5
18B
330
1F
100
AcDbEntity
  8
0
100
AcDbCircle
 10
570.9709050773426
 20
284.0952515061425
 30
0.0
 40
7.299638399999999
100
AcDbArc
 50
297.5832129999935
 51
343.5268989999985
  0
ARC
  5
18C
330
1F
100
AcDbEntity
  8
0
100
AcDbCircle
 10
570.9709050773426
 20
284.0952515061425
 30
0.0
 40
7.299638399999999
100
AcDbArc
 50
196.4730999999986
 51
242.4167900000024
  0
ARC
  5
18D
330
1F
100
AcDbEntity
  8
0
100
AcDbCircle
 10
641.9850150773427
 20
284.0952515061425
 30
0.0
 40
7.299638399999999
100
AcDbArc
 50
196.4730999999986
 51
242.4167900000024
  0
ARC
  5
18E
330
1F
100
AcDbEntity
  8
0
100
AcDbCircle
 10
641.9850150773427
 20
284.0952515061425
 30
0.0
 40
7.299638399999999
100
AcDbArc
 50
297.5832129999935
 51
343.5268989999985
  0
ARC
  5
18F
330
1F
100
AcDbEntity
  8
0
100
AcDbCircle
 10
654.9713550773426
 20
311.1253715061424
 30
0.0
 40
1.000000019999999
100
AcDbArc
 50
0.0
 51
90.0
  0
ARC
  5
190
330
1F
100
AcDbEntity
  8
0
100
AcDbCircle
 10
646.4713350773426
 20
366.1253015061424
 30
0.0
 40
1.000000019999999
100
AcDbArc
 50
0.0
 51
90.0
  0
ARC
  5
191
330
1F
100
AcDbEntity
  8
0
100
AcDbCircle
 10
654.9713550773426
 20
295.1253515061425
 30
0.0
 40
1.000000019999999
100
AcDbArc
 50
270.0
 51
0.0
  0
ARC
  5
192
330
1F
100
AcDbEntity
  8
0
100
AcDbCircle
 10
628.2976050773427
 20
385.6253015061424
 30
0.0
 40
10.00000049999999
100
AcDbArc
 50
15.00001000001555
 51
90.0
  0
ARC
  5
193
330
1F
100
AcDbEntity
  8
0
100
AcDbCircle
 10
563.9709150773426
 20
430.6253015061423
 30
0.0
 40
3.0
100
AcDbArc
 50
90.0
 51
180.0
  0
ARC
  5
194
330
1F
100
AcDbEntity
  8
0
100
AcDbCircle
 10
577.9708950773426
 20
430.6253015061423
 30
0.0
 40
3.0
100
AcDbArc
 50
0.0
 51
90.0
  0
ARC
  5
195
330
1F
100
AcDbEntity
  8
0
100
AcDbCircle
 10
594.9709050773426
 20
399.6253715061424
 30
0.0
 40
1.000000019999999
100
AcDbArc
 50
0.0
 51
90.0
  0
ARC
  5
196
330
1F
100
AcDbEntity
  8
0
100
AcDbCircle
 10
546.9709050773426
 20
399.6253715061424
 30
0.0
 40
1.000000019999999
100
AcDbArc
 50
90.0
 51
180.0
  0
LINE
  5
197
330
1F
100
AcDbEntity
  8
0
100
AcDbLine
 10
638.6049750773427
 20
277.6253015061424
 30
0.0
 11
645.3649950773426
 21
277.6253015061424
 31
0.0
  0
LINE
  5
198
330
1F
100
AcDbEntity
  8
0
100
AcDbLine
 10
634.4850150773427
 20
283.6253015061424
 30
0.0
 11
634.4850150773427
 21
282.0253415061428
 31
0.0
  0
LINE
  5
199
330
1F
100
AcDbEntity
  8
0
100
AcDbLine
 10
649.4850150773427
 20
283.6253015061424
 30
0.0
 11
649.4850150773427
 21
282.0253415061428
 31
0.0
  0
LINE
  5
19A
330
1F
100
AcDbEntity
  8
0
100
AcDbLine
 10
634.4850150773427
 20
282.0253415061428
 30
0.0
 11
649.4850150773427
 21
282.0253415061428
 31
0.0
  0
LINE
  5
19B
330
1F
100
AcDbEntity
  8
0
100
AcDbLine
 10
578.4709050773426
 20
283.6253015061424
 30
0.0
 11
578.4709050773426
 21
282.0253415061428
 31
0.0
  0
LINE
  5
19C
330
1F
100
AcDbEntity
  8
0
100
AcDbLine
 10
563.4709050773426
 20
283.6253015061424
 30
0.0
 11
563.4709050773426
 21
282.0253415061428
 31
0.0
  0
LINE
  5
19D
330
1F
100
AcDbEntity
  8
0
100
AcDbLine
 10
578.4709050773426
 20
282.0253415061428
 30
0.0
 11
563.4709050773426
 21
282.0253415061428
 31
0.0
  0
LINE
  5
19E
330
1F
100
AcDbEntity
  8
0
100
AcDbLine
 10
503.3368350773425
 20
277.6253015061424
 30
0.0
 11
496.5768150773426
 21
277.6253015061424
 31
0.0
  0
LINE
  5
19F
330
1F
100
AcDbEntity
  8
0
100
AcDbLine
 10
492.4568250773427
 20
283.6253015061424
 30
0.0
 11
492.4568250773427
 21
282.0253415061428
 31
0.0
  0
LINE
  5
1A0
330
1F
100
AcDbEntity
  8
0
100
AcDbLine
 10
507.4567950773426
 20
283.6253015061424
 30
0.0
 11
507.4567950773426
 21
282.0253415061428
 31
0.0
  0
LINE
  5
1A1
330
1F
100
AcDbEntity
  8
0
100
AcDbLine
 10
507.4567950773426
 20
282.0253415061428
 30
0.0
 11
492.4568250773427
 21
282.0253415061428
 31
0.0
  0
LINE
  5
1A2
330
1F
100
AcDbEntity
  8
0
100
AcDbLine
 10
645.9850050773427
 20
325.9223915061424
 30
0.0
 11
632.7382350773428
 21
325.9223915061424
 31
0.0
  0
LINE
  5
1A3
330
1F
100
AcDbEntity
  8
0
100
AcDbLine
 10
632.0091150773426
 20
324.1578215061426
 30
0.0
 11
647.8699350773426
 21
317.6042915061425
 31
0.0
  0
LINE
  5
1A4
330
1F
100
AcDbEntity
  8
0
100
AcDbLine
 10
509.9327550773428
 20
324.1577315061426
 30
0.0
 11
494.0719050773427
 21
317.6042915061425
 31
0.0
  0
LINE
  5
1A5
330
1F
100
AcDbEntity
  8
0
100
AcDbLine
 10
495.9568050773428
 20
325.9223915061424
 30
0.0
 11
509.2036050773426
 21
325.9223915061424
 31
0.0
  0
LINE
  5
1A6
330
1F
100
AcDbEntity
  8
0
100
AcDbLine
 10
558.6418050773427
 20
323.7279815061423
 30
0.0
 11
568.4191950773427
 21
317.9255615061423
 31
0.0
  0
LINE
  5
1A7
330
1F
100
AcDbEntity
  8
0
100
AcDbLine
 10
583.3000950773425
 20
323.7279815061423
 30
0.0
 11
573.5226750773427
 21
317.9254415061427
 31
0.0
  0
LINE
  5
1A8
330
1F
100
AcDbEntity
  8
0
100
AcDbLine
 10
559.9440750773426
 20
325.9223915061424
 30
0.0
 11
581.9977350773426
 21
325.9223915061424
 31
0.0
  0
LINE
  5
1A9
330
1F
100
AcDbEntity
  8
0
100
AcDbLine
 10
652.5353850773426
 20
362.8753715061424
 30
0.0
 11
650.5353450773427
 21
362.8753715061424
 31
0.0
  0
LINE
  5
1AA
330
1F
100
AcDbEntity
  8
0
100
AcDbLine
 10
652.5353850773426
 20
353.3753015061424
 30
0.0
 11
650.5353450773427
 21
353.3753015061424
 31
0.0
  0
LINE
  5
1AB
330
1F
100
AcDbEntity
  8
0
100
AcDbLine
 10
650.5353450773427
 20
362.8752815061424
 30
0.0
 11
647.4713550773426
 21
362.7795215061427
 31
0.0
  0
LINE
  5
1AC
330
1F
100
AcDbEntity
  8
0
100
AcDbLine
 10
649.4714550773426
 20
362.8420415061427
 30
0.0
 11
649.4714550773426
 21
353.4086315061426
 31
0.0
  0
LINE
  5
1AD
330
1F
100
AcDbEntity
  8
0
100
AcDbLine
 10
650.5366950773427
 20
353.3753015061424
 30
0.0
 11
647.4713550773426
 21
353.4711815061422
 31
0.0
  0
LINE
  5
1AE
330
1F
100
AcDbEntity
  8
0
100
AcDbLine
 10
531.4708950773426
 20
274.6253015061424
 30
0.0
 11
531.4708950773426
 21
274.1252615061425
 31
0.0
  0
LINE
  5
1AF
330
1F
100
AcDbEntity
  8
0
100
AcDbLine
 10
665.0353350773423
 20
363.1253015061424
 30
0.0
 11
652.5353850773426
 21
363.1253015061424
 31
0.0
  0
LINE
  5
1B0
330
1F
100
AcDbEntity
  8
0
100
AcDbLine
 10
655.9713450773422
 20
295.1253515061425
 30
0.0
 11
655.9713450773422
 21
311.1253715061424
 31
0.0
  0
LINE
  5
1B1
330
1F
100
AcDbEntity
  8
0
100
AcDbLine
 10
665.0353350773423
 20
353.1253715061424
 30
0.0
 11
652.5353850773426
 21
353.1253715061424
 31
0.0
  0
LINE
  5
1B2
330
1F
100
AcDbEntity
  8
0
100
AcDbLine
 10
665.0353350773423
 20
363.1253015061424
 30
0.0
 11
665.0353350773423
 21
353.1253715061424
 31
0.0
  0
LINE
  5
1B3
330
1F
100
AcDbEntity
  8
0
100
AcDbLine
 10
647.4714150773425
 20
325.6963715061424
 30
0.0
 11
647.4714150773425
 21
366.1253015061424
 31
0.0
  0
LINE
  5
1B4
330
1F
100
AcDbEntity
  8
0
100
AcDbLine
 10
650.9850750773425
 20
312.1253015061424
 30
0.0
 11
654.9713550773426
 21
312.1253015061424
 31
0.0
  0
LINE
  5
1B5
330
1F
100
AcDbEntity
  8
0
100
AcDbLine
 10
650.9850750773425
 20
294.1253015061424
 30
0.0
 11
654.9713550773426
 21
294.1253015061424
 31
0.0
  0
LINE
  5
1B6
330
1F
100
AcDbEntity
  8
0
100
AcDbLine
 10
644.7567450773426
 20
367.1252615061425
 30
0.0
 11
646.4713350773426
 21
367.1252615061425
 31
0.0
  0
LINE
  5
1B7
330
1F
100
AcDbEntity
  8
0
100
AcDbLine
 10
502.4709150773426
 20
394.6253015061424
 30
0.0
 11
502.4709150773426
 21
382.5631415061424
 31
0.0
  0
LINE
  5
1B8
330
1F
100
AcDbEntity
  8
0
100
AcDbLine
 10
646.7963550773426
 20
332.2705715061424
 30
0.0
 11
646.9086450773424
 21
325.8364415061427
 31
0.0
  0
LINE
  5
1B9
330
1F
100
AcDbEntity
  8
0
100
AcDbLine
 10
637.9569150773427
 20
388.2136115061425
 30
0.0
 11
640.0120050773425
 21
380.5439615061427
 31
0.0
  0
LINE
  5
1BA
330
1F
100
AcDbEntity
  8
0
100
AcDbLine
 10
503.9848950773425
 20
388.2135215061424
 30
0.0
 11
501.9298050773427
 21
380.5438715061427
 31
0.0
  0
LINE
  5
1BB
330
1F
100
AcDbEntity
  8
0
100
AcDbLine
 10
495.0331641761228
 20
325.8362998662287
 30
0.0
 11
495.145455461184
 21
332.2705935002671
 31
0.0
  0
LINE
  5
1BC
330
1F
100
AcDbEntity
  8
0
100
AcDbLine
 10
652.5353850773426
 20
363.1253015061424
 30
0.0
 11
652.5353850773426
 21
353.1253715061424
 31
0.0
  0
LINE
  5
1BD
330
1F
100
AcDbEntity
  8
0
100
AcDbLine
 10
627.7381650773427
 20
320.9223515061425
 30
0.0
 11
627.7381650773427
 21
283.6253015061424
 31
0.0
  0
LINE
  5
1BE
330
1F
100
AcDbEntity
  8
0
100
AcDbLine
 10
610.4709150773426
 20
274.6253015061424
 30
0.0
 11
610.4709150773426
 21
274.1252539585425
 31
0.0
  0
LINE
  5
1BF
330
1F
100
AcDbEntity
  8
0
100
AcDbLine
 10
570.9709050773426
 20
293.6253515061425
 30
0.0
 11
650.9850750773425
 21
293.6253515061425
 31
0.0
  0
LINE
  5
1C0
330
1F
100
AcDbEntity
  8
0
100
AcDbLine
 10
628.2976050773427
 20
395.6253515061425
 30
0.0
 11
503.4709050773426
 21
395.6253515061425
 31
0.0
  0
LINE
  5
1C1
330
1F
100
AcDbEntity
  8
0
100
AcDbLine
 10
650.9850750773425
 20
320.9223515061425
 30
0.0
 11
650.9850750773425
 21
284.6253515061425
 31
0.0
  0
LINE
  5
1C2
330
1F
100
AcDbEntity
  8
0
100
AcDbLine
 10
636.9395550773426
 20
277.6253015061424
 30
0.0
 11
504.9906450773428
 21
277.6253015061424
 31
0.0
  0
LINE
  5
1C3
330
1F
100
AcDbEntity
  8
0
100
AcDbLine
 10
649.9850850773428
 20
283.6253015061424
 30
0.0
 11
491.9567550773426
 21
283.6253015061424
 31
0.0
  0
LINE
  5
1C4
330
1F
100
AcDbEntity
  8
0
100
AcDbLine
 10
514.2036450773425
 20
320.9223515061425
 30
0.0
 11
514.2036450773425
 21
283.6253015061424
 31
0.0
  0
LINE
  5
1C5
330
1F
100
AcDbEntity
  8
0
100
AcDbLine
 10
570.9709050773426
 20
293.6253515061425
 30
0.0
 11
490.9568250773427
 21
293.6253515061425
 31
0.0
  0
LINE
  5
1C6
330
1F
100
AcDbEntity
  8
0
100
AcDbLine
 10
586.9978050773425
 20
320.9223515061425
 30
0.0
 11
586.9978050773425
 21
283.6253015061424
 31
0.0
  0
LINE
  5
1C7
330
1F
100
AcDbEntity
  8
0
100
AcDbLine
 10
490.9568250773427
 20
320.9223515061425
 30
0.0
 11
490.9568250773427
 21
284.6253515061425
 31
0.0
  0
LINE
  5
1C8
330
1F
100
AcDbEntity
  8
0
100
AcDbLine
 10
554.9440350773427
 20
320.9223515061425
 30
0.0
 11
554.9440350773427
 21
283.6253015061424
 31
0.0
  0
LINE
  5
1C9
330
1F
100
AcDbEntity
  8
0
100
AcDbLine
 10
563.9709150773426
 20
433.6253015061424
 30
0.0
 11
577.9708950773426
 21
433.6253015061424
 31
0.0
  0
LINE
  5
1CA
330
1F
100
AcDbEntity
  8
0
100
AcDbLine
 10
580.9708950773426
 20
404.3575415061426
 30
0.0
 11
580.9708950773426
 21
430.6253015061423
 31
0.0
  0
LINE
  5
1CB
330
1F
100
AcDbEntity
  8
0
100
AcDbLine
 10
581.9709150773426
 20
400.6255115061425
 30
0.0
 11
580.9708950773426
 21
404.3576315061427
 31
0.0
  0
LINE
  5
1CC
330
1F
100
AcDbEntity
  8
0
100
AcDbLine
 10
580.9708950773426
 20
404.3575415061426
 30
0.0
 11
560.9709150773426
 21
404.3575415061426
 31
0.0
  0
LINE
  5
1CD
330
1F
100
AcDbEntity
  8
0
100
AcDbLine
 10
560.9709150773426
 20
404.3575415061426
 30
0.0
 11
560.9709150773426
 21
430.6253015061423
 31
0.0
  0
LINE
  5
1CE
330
1F
100
AcDbEntity
  8
0
100
AcDbLine
 10
559.9707150773427
 20
400.6255115061425
 30
0.0
 11
560.9707350773428
 21
404.3575415061426
 31
0.0
  0
LINE
  5
1CF
330
1F
100
AcDbEntity
  8
0
100
AcDbLine
 10
559.9707150773427
 20
400.6253015061424
 30
0.0
 11
581.9709150773426
 21
400.6253015061424
 31
0.0
  0
LINE
  5
1D0
330
1F
100
AcDbEntity
  8
0
100
AcDbLine
 10
546.9709050773426
 20
400.6253015061424
 30
0.0
 11
594.9709050773426
 21
400.6253015061424
 31
0.0
  0
LINE
  5
1D1
330
1F
100
AcDbEntity
  8
0
100
AcDbLine
 10
595.9708950773427
 20
395.6253515061425
 30
0.0
 11
595.9708950773427
 21
399.6253715061424
 31
0.0
  0
LINE
  5
1D2
330
1F
100
AcDbEntity
  8
0
100
AcDbLine
 10
545.9708850773426
 20
395.6253515061425
 30
0.0
 11
545.9708850773426
 21
399.6253715061424
 31
0.0
  0
LINE
  5
1D3
330
1F
100
AcDbEntity
  8
0
100
AcDbLine
 10
518.4709050773427
 20
274.1252539585429
 30
0.0
 11
623.4709050773426
 21
274.1252539585424
 31
0.0
  0
CIRCLE
  5
1D4
330
1F
100
AcDbEntity
  8
0
100
AcDbCircle
 10
570.9709050773426
 20
832.8457176356142
 30
0.0
 40
9.999999
  0
CIRCLE
  5
1D5
330
1F
100
AcDbEntity
  8
0
100
AcDbCircle
 10
570.9709050773426
 20
832.8457176356142
 30
0.0
 40
13.5
  0
CIRCLE
  5
1D6
330
1F
100
AcDbEntity
  8
0
100
AcDbCircle
 10
570.970905077343
 20
832.8457176356142
 30
0.0
 40
9.999999
  0
CIRCLE
  5
1D7
330
1F
100
AcDbEntity
  8
0
100
AcDbCircle
 10
570.970905077343
 20
832.8457176356142
 30
0.0
 40
13.5
  0
LINE
  5
1D8
330
1F
100
AcDbEntity
  8
0
100
AcDbLine
 10
670.9708898185534
 20
864.8457386164491
 30
0.0
 11
668.1208587151045
 21
864.8457386164491
 31
0.0
  0
LINE
  5
1D9
330
1F
100
AcDbEntity
  8
0
100
AcDbLine
 10
668.1208587151045
 20
864.8457386164491
 30
0.0
 11
665.718658415175
 21
858.2457477717225
 31
0.0
  0
LINE
  5
1DA
330
1F
100
AcDbEntity
  8
0
100
AcDbLine
 10
665.718658415175
 20
858.2457477717225
 30
0.0
 11
645.5121753179599
 21
858.2457477717223
 31
0.0
  0
LINE
  5
1DB
330
1F
100
AcDbEntity
  8
0
100
AcDbLine
 10
670.9708898185534
 20
800.8456966547791
 30
0.0
 11
668.1209001111392
 21
800.8456966547791
 31
0.0
  0
LINE
  5
1DC
330
1F
100
AcDbEntity
  8
0
100
AcDbLine
 10
668.1209001111392
 20
800.8456966547791
 30
0.0
 11
665.7186998112105
 21
807.4456874995057
 31
0.0
  0
LINE
  5
1DD
330
1F
100
AcDbEntity
  8
0
100
AcDbLine
 10
665.7186998112105
 20
807.4456874995057
 30
0.0
 11
645.5121753179598
 21
807.4456874995055
 31
0.0
  0
LINE
  5
1DE
330
1F
100
AcDbEntity
  8
0
100
AcDbLine
 10
670.9708898185534
 20
800.8456966547791
 30
0.0
 11
670.9708898185534
 21
864.8457386164491
 31
0.0
  0
LINE
  5
1DF
330
1F
100
AcDbEntity
  8
0
100
AcDbLine
 10
665.718658415175
 20
858.2457477717225
 30
0.0
 11
665.7186998112105
 21
807.4456874995057
 31
0.0
  0
LINE
  5
1E0
330
1F
100
AcDbEntity
  8
0
100
AcDbLine
 10
670.9708898185534
 20
195.725295320847
 30
0.0
 11
668.1208587151045
 21
195.725295320847
 31
0.0
  0
LINE
  5
1E1
330
1F
100
AcDbEntity
  8
0
100
AcDbLine
 10
649.7209050773427
 20
209.8752739585425
 30
0.0
 11
649.7209050773431
 21
191.3752586997534
 31
0.0
  0
LINE
  5
1E2
330
1F
100
AcDbEntity
  8
0
100
AcDbLine
 10
665.718658415175
 20
189.1253044761205
 30
0.0
 11
634.9708898185536
 21
189.1253044761205
 31
0.0
  0
LINE
  5
1E3
330
1F
100
AcDbEntity
  8
0
100
AcDbLine
 10
634.9708898185536
 20
191.1252739585425
 30
0.0
 11
634.9708898185536
 21
163.7252686179663
 31
0.0
  0
LINE
  5
1E4
330
1F
100
AcDbEntity
  8
0
100
AcDbLine
 10
668.1208587151045
 20
195.725295320847
 30
0.0
 11
665.718658415175
 21
189.1253044761205
 31
0.0
  0
LINE
  5
1E5
330
1F
100
AcDbEntity
  8
0
100
AcDbLine
 10
492.2209050773425
 20
209.8752739585428
 30
0.0
 11
492.2209050773425
 21
191.3752586997534
 31
0.0
  0
LINE
  5
1E6
330
1F
100
AcDbEntity
  8
0
100
AcDbLine
 10
506.9709203361316
 20
191.1252739585425
 30
0.0
 11
506.9709203361316
 21
163.7252686179663
 31
0.0
  0
LINE
  5
1E7
330
1F
100
AcDbEntity
  8
0
100
AcDbLine
 10
649.7209050773431
 20
191.3752586997534
 30
0.0
 11
492.2209050773425
 21
191.3752586997534
 31
0.0
  0
LINE
  5
1E8
330
1F
100
AcDbEntity
  8
0
100
AcDbLine
 10
649.7209050773427
 20
209.8752739585425
 30
0.0
 11
492.2209050773425
 21
209.8752739585428
 31
0.0
  0
LINE
  5
1E9
330
1F
100
AcDbEntity
  8
0
100
AcDbLine
 10
670.9708898185534
 20
131.7252533591771
 30
0.0
 11
668.1209001111392
 21
131.7252533591771
 31
0.0
  0
LINE
  5
1EA
330
1F
100
AcDbEntity
  8
0
100
AcDbLine
 10
668.1209001111392
 20
131.7252533591771
 30
0.0
 11
665.7186998112105
 21
138.3252442039037
 31
0.0
  0
LINE
  5
1EB
330
1F
100
AcDbEntity
  8
0
100
AcDbLine
 10
618.7323644279285
 20
137.8090775101012
 30
0.0
 11
618.7323644279285
 21
130.625247255661
 31
0.0
  0
LINE
  5
1EC
330
1F
100
AcDbEntity
  8
0
100
AcDbLine
 10
602.9709203361315
 20
93.72528387675536
 30
0.0
 11
602.9709203361315
 21
96.57524629526005
 31
0.0
  0
LINE
  5
1ED
330
1F
100
AcDbEntity
  8
0
100
AcDbLine
 10
602.9709203361315
 20
96.57524629526005
 30
0.0
 11
596.3708837150378
 21
98.97746325642538
 31
0.0
  0
LINE
  5
1EE
330
1F
100
AcDbEntity
  8
0
100
AcDbLine
 10
596.3708837150378
 20
130.6252472556616
 30
0.0
 11
596.3708837150378
 21
98.97746325642538
 31
0.0
  0
LINE
  5
1EF
330
1F
100
AcDbEntity
  8
0
100
AcDbLine
 10
665.7186998112105
 20
138.3252442039037
 30
0.0
 11
619.7458052346587
 21
138.3252442039037
 31
0.0
  0
LINE
  5
1F0
330
1F
100
AcDbEntity
  8
0
100
AcDbLine
 10
523.2094457267566
 20
137.8090775101012
 30
0.0
 11
523.209445726757
 21
130.625247255663
 31
0.0
  0
LINE
  5
1F1
330
1F
100
AcDbEntity
  8
0
100
AcDbLine
 10
538.9708898185536
 20
96.5752641927188
 30
0.0
 11
545.5708806632806
 21
98.97746449264785
 31
0.0
  0
LINE
  5
1F2
330
1F
100
AcDbEntity
  8
0
100
AcDbLine
 10
538.9708898185536
 20
93.72528387675536
 30
0.0
 11
538.9708898185536
 21
96.5752641927188
 31
0.0
  0
LINE
  5
1F3
330
1F
100
AcDbEntity
  8
0
100
AcDbLine
 10
545.5708806632806
 20
98.97746449264785
 30
0.0
 11
545.5708806632797
 21
130.6252472556639
 31
0.0
  0
LINE
  5
1F4
330
1F
100
AcDbEntity
  8
0
100
AcDbLine
 10
545.5708806632806
 20
98.97746449264785
 30
0.0
 11
596.3708837150378
 21
98.97746325642538
 31
0.0
  0
LINE
  5
1F5
330
1F
100
AcDbEntity
  8
0
100
AcDbLine
 10
602.9709203361315
 20
93.72528387675536
 30
0.0
 11
538.9708898185536
 21
93.72528387675536
 31
0.0
  0
LINE
  5
1F6
330
1F
100
AcDbEntity
  8
0
100
AcDbLine
 10
523.209445726757
 20
130.625247255663
 30
0.0
 11
618.7323644279285
 21
130.625247255661
 31
0.0
  0
LINE
  5
1F7
330
1F
100
AcDbEntity
  8
0
100
AcDbLine
 10
523.2094457267566
 20
137.8090775101012
 30
0.0
 11
618.7323644279285
 21
137.8090775101012
 31
0.0
  0
ARC
  5
1F8
330
1F
100
AcDbEntity
  8
0
100
AcDbCircle
 10
606.1708715080067
 20
163.7252686179663
 30
0.0
 40
28.80000114440917
100
AcDbArc
 50
295.8593161109874
 51
0.0000025044687019
  0
ARC
  5
1F9
330
1F
100
AcDbEntity
  8
0
100
AcDbCircle
 10
535.7709386466786
 20
163.7252686179663
 30
0.0
 40
28.80000114440917
100
AcDbArc
 50
179.9999974955312
 51
244.1406838890126
  0
LINE
  5
1FA
330
1F
100
AcDbEntity
  8
0
100
AcDbLine
 10
670.9708898185534
 20
131.7252533591771
 30
0.0
 11
670.9708898185534
 21
195.725295320847
 31
0.0
  0
LINE
  5
1FB
330
1F
100
AcDbEntity
  8
0
100
AcDbLine
 10
665.718658415175
 20
189.1253044761205
 30
0.0
 11
665.7186998112105
 21
138.3252442039037
 31
0.0
  0
TEXT
  5
1FC
330
1F
100
AcDbEntity
  8
0
  6
Continuous
100
AcDbText
 10
205.6682958543861
 20
1054.353576519206
 30
0.0
 40
48.000002
  1
DAC2L14AD000 2S
 41
1.32095
100
AcDbText
  0
LINE
  5
254
330
1F
100
AcDbEntity
  8
0
  6
CENTER
100
AcDbLine
 10
468.3983888041959
 20
832.8457176356142
 30
0.0
 11
702.4457372391034
 21
832.8457176356142
 31
0.0
  0
LINE
  5
255
330
1F
100
AcDbEntity
  8
0
  6
CENTER
100
AcDbLine
 10
570.9709050773426
 20
728.545012680238
 30
0.0
 11
570.9709050773426
 21
937.1464225909903
 31
0.0
  0
LINE
  5
256
330
1F
100
AcDbEntity
  8
0
  6
CENTER
100
AcDbLine
 10
570.9708898185532
 20
49.17579084141221
 30
0.0
 11
570.9708898185532
 21
459.5251490221494
 31
0.0
  0
LINE
  5
257
330
1F
100
AcDbEntity
  8
0
  6
CENTER
100
AcDbLine
 10
495.6993001253022
 20
163.7252743400121
 30
0.0
 11
707.3164438835119
 21
163.7252743400121
 31
0.0
  0
VIEWPORT
  5
71
330
55
100
AcDbEntity
 67
     1
  8
0
100
AcDbViewport
 10
133.3499908447265
 20
101.5999970436096
 30
0.0
 40
381.3957395593834
 41
218.2856291881582
 68
     1
 69
     1
 12
133.3499908447265
 22
101.5999970436096
 13
0.0
 23
0.0
 14
10.0
 24
10.0
 15
10.0
 25
10.0
 16
0.0
 26
0.0
 36
1.0
 17
0.0
 27
0.0
 37
0.0
 42
50.0
 43
0.0
 44
0.0
 45
218.2856291881582
 50
0.0
 51
0.0
 72
   100
 90
    32800
  1

281
     0
 71
     1
 74
     0
110
0.0
120
0.0
130
0.0
111
1.0
121
0.0
131
0.0
112
0.0
122
1.0
132
0.0
 79
     0
146
0.0
  0
VIEWPORT
  5
73
330
55
100
AcDbEntity
 67
     1
  8
0
100
AcDbViewport
 10
133.349993944168
 20
101.599993944168
 30
0.0
 40
213.3599903106689
 41
162.5599903106689
 68
     2
 69
     2
 12
210.0
 22
148.5
 13
0.0
 23
0.0
 14
10.0
 24
10.0
 15
10.0
 25
10.0
 16
0.0
 26
0.0
 36
1.0
 17
0.0
 27
0.0
 37
0.0
 42
50.0
 43
0.0
 44
0.0
 45
324.0677920111345
 50
0.0
 51
0.0
 72
   100
 90
    32864
  1

281
     0
 71
     1
 74
     0
110
0.0
120
0.0
130
0.0
111
1.0
121
0.0
131
0.0
112
0.0
122
1.0
132
0.0
 79
     0
146
0.0
  0
ENDSEC
  0
SECTION
  2
OBJECTS
  0
DICTIONARY
  5
C
330
0
100
AcDbDictionary
281
     1
  3
ACAD_GROUP
350
D
  3
ACAD_LAYOUT
350
1A
  3
ACAD_MLINESTYLE
350
17
  3
ACAD_PLOTSETTINGS
350
19
  3
ACAD_PLOTSTYLENAME
350
E
  3
AcDbVariableDictionary
350
5E
  0
DICTIONARY
  5
24A
330
2
100
AcDbDictionary
280
     1
281
     1
  3
ACAD_LAYERSTATES
360
24B
  0
DICTIONARY
  5
202
330
1F
100
AcDbDictionary
280
     1
281
     1
  3
ACAD_LAYOUTSELFREF
360
239
  0
DICTIONARY
  5
204
330
55
100
AcDbDictionary
280
     1
281
     1
  3
ACAD_LAYOUTSELFREF
360
23D
  0
DICTIONARY
  5
206
330
50
100
AcDbDictionary
280
     1
281
     1
  3
ACAD_LAYOUTSELFREF
360
23C
  0
DICTIONARY
  5
D
102
{ACAD_REACTORS
330
C
102
}
330
C
100
AcDbDictionary
281
     1
  0
DICTIONARY
  5
1A
102
{ACAD_REACTORS
330
C
102
}
330
C
100
AcDbDictionary
281
     1
  3
Model
350
22
  3
ﾚｲｱｳﾄ1
350
51
  3
ﾚｲｱｳﾄ2
350
56
  0
DICTIONARY
  5
17
102
{ACAD_REACTORS
330
C
102
}
330
C
100
AcDbDictionary
281
     1
  3
Standard
350
18
  0
DICTIONARY
  5
19
102
{ACAD_REACTORS
330
C
102
}
330
C
100
AcDbDictionary
281
     1
  0
ACDBDICTIONARYWDFLT
  5
E
102
{ACAD_REACTORS
330
C
102
}
330
C
100
AcDbDictionary
281
     1
  3
Normal
350
F
100
AcDbDictionaryWithDefault
340
F
  0
DICTIONARY
  5
5E
102
{ACAD_REACTORS
330
C
102
}
330
C
100
AcDbDictionary
281
     1
  3
DIMASSOC
350
5F
  3
HIDETEXT
350
63
  0
DICTIONARY
  5
24B
102
{ACAD_REACTORS
330
24A
102
}
330
24A
100
AcDbDictionary
281
     1
  0
XRECORD
  5
239
102
{ACAD_REACTORS
330
202
102
}
330
202
100
AcDbXrecord
280
     1
340
1F
  0
XRECORD
  5
23D
102
{ACAD_REACTORS
330
204
102
}
330
204
100
AcDbXrecord
280
     1
340
55
  0
XRECORD
  5
23C
102
{ACAD_REACTORS
330
206
102
}
330
206
100
AcDbXrecord
280
     1
340
50
  0
LAYOUT
  5
22
102
{ACAD_REACTORS
330
1A
102
}
330
1A
100
AcDbPlotSettings
  1

  2
none_device
  4
ANSI_A_(8.50_x_11.00_Inches)
  6

 40
6.349999904632568
 41
19.04999923706054
 42
6.350006103515625
 43
19.04998779296875
 44
215.8999938964843
 45
279.3999938964843
 46
0.0
 47
0.0
 48
0.0
 49
0.0
140
0.0
141
0.0
142
1.0
143
78.436453180766
 70
 11952
 72
     0
 73
     1
 74
     0
  7

 75
     0
147
0.0127491741332998
148
0.0
149
0.0
100
AcDbLayout
  1
Model
 70
     1
 71
     0
 10
0.0
 20
0.0
 11
12.0
 21
9.0
 12
0.0
 22
0.0
 32
0.0
 14
0.0
 24
0.0
 34
0.0
 15
0.0
 25
0.0
 35
0.0
146
0.0
 13
0.0
 23
0.0
 33
0.0
 16
1.0
 26
0.0
 36
0.0
 17
0.0
 27
1.0
 37
0.0
 76
     0
330
1F
  0
LAYOUT
  5
51
102
{ACAD_REACTORS
330
1A
102
}
330
1A
100
AcDbPlotSettings
  1

  2
none_device
  4
Letter_(8.50_x_11.00_Inches)
  6

 40
6.349999904632568
 41
6.349999904632568
 42
6.350006103515625
 43
6.350006103515625
 44
215.8999938964843
 45
279.3999938964843
 46
0.0
 47
0.0
 48
0.0
 49
0.0
140
0.0
141
0.0
142
1.0
143
1.0
 70
   688
 72
     1
 73
     1
 74
     5
  7

 75
    16
147
1.0
148
0.0
149
0.0
100
AcDbLayout
  1
ﾚｲｱｳﾄ1
 70
     1
 71
     1
 10
-6.350006103515625
 20
-6.349999904632568
 11
273.0499877929687
 21
209.5499939918517
 12
0.0
 22
0.0
 32
0.0
 14
26.66076962115562
 24
20.31135699206657
 34
-0.0015258207003583
 15
240.039213369355
 25
182.8886381005154
 35
0.0000000349246037
146
0.0
 13
0.0
 23
0.0
 33
0.0
 16
1.0
 26
0.0
 36
0.0
 17
0.0
 27
1.0
 37
0.0
 76
     0
330
50
331
6B
  0
LAYOUT
  5
56
102
{ACAD_REACTORS
330
1A
102
}
330
1A
100
AcDbPlotSettings
  1

  2
none_device
  4
Letter_(8.50_x_11.00_Inches)
  6

 40
6.349999904632568
 41
6.349999904632568
 42
6.350006103515625
 43
6.350006103515625
 44
215.8999938964843
 45
279.3999938964843
 46
0.0
 47
0.0
 48
0.0
 49
0.0
140
0.0
141
0.0
142
1.0
143
1.0
 70
   688
 72
     1
 73
     1
 74
     5
  7

 75
    16
147
1.0
148
0.0
149
0.0
100
AcDbLayout
  1
ﾚｲｱｳﾄ2
 70
     1
 71
     2
 10
-6.350006103515625
 20
-6.349999904632568
 11
273.0499877929687
 21
209.5499939918517
 12
0.0
 22
0.0
 32
0.0
 14
26.66076962115562
 24
20.31135699206657
 34
-0.0015258207003583
 15
240.039213369355
 25
182.8886381005154
 35
0.0000000349246037
146
0.0
 13
0.0
 23
0.0
 33
0.0
 16
1.0
 26
0.0
 36
0.0
 17
0.0
 27
1.0
 37
0.0
 76
     0
330
55
331
71
  0
MLINESTYLE
  5
18
102
{ACAD_REACTORS
330
17
102
}
330
17
100
AcDbMlineStyle
  2
STANDARD
 70
     0
  3

 62
   256
 51
90.0
 52
90.0
 71
     2
 49
0.5
 62
   256
  6
BYLAYER
 49
-0.5
 62
   256
  6
BYLAYER
  0
ACDBPLACEHOLDER
  5
F
102
{ACAD_REACTORS
330
E
102
}
330
E
  0
DICTIONARYVAR
  5
5F
102
{ACAD_REACTORS
330
5E
102
}
330
5E
100
DictionaryVariables
280
     0
  1
2
  0
DICTIONARYVAR
  5
63
102
{ACAD_REACTORS
330
5E
102
}
330
5E
100
DictionaryVariables
280
     0
  1
1
  0
ENDSEC
  0
EOF
