  0
SECTION
  2
HEADER
  9
$ACADVER
  1
AC1015
  9
$ACADMAINTVER
 70
    14
  9
$DWGCODEPAGE
  3
ANSI_932
  9
$INSBASE
 10
0.0
 20
0.0
 30
0.0
  9
$EXTMIN
 10
245.9851181782264
 20
73.63607243312912
 30
-0.0000000000000058
  9
$EXTMAX
 10
1176.055771409388
 20
942.0185002927555
 30
0.0000000000000104
  9
$LIMMIN
 10
0.0
 20
0.0
  9
$LIMMAX
 10
420.0
 20
297.0
  9
$ORTHOMODE
 70
     0
  9
$REGENMODE
 70
     1
  9
$FILLMODE
 70
     1
  9
$QTEXTMODE
 70
     0
  9
$MIRRTEXT
 70
     1
  9
$LTSCALE
 40
1.0
  9
$ATTMODE
 70
     1
  9
$TEXTSIZE
 40
2.5
  9
$TRACEWID
 40
1.0
  9
$TEXTSTYLE
  7
Standard
  9
$CLAYER
  8
0
  9
$CELTYPE
  6
ByLayer
  9
$CECOLOR
 62
   256
  9
$CELTSCALE
 40
1.0
  9
$DISPSILH
 70
     0
  9
$DIMSCALE
 40
1.0
  9
$DIMASZ
 40
2.5
  9
$DIMEXO
 40
0.625
  9
$DIMDLI
 40
3.75
  9
$DIMRND
 40
0.0
  9
$DIMDLE
 40
0.0
  9
$DIMEXE
 40
1.25
  9
$DIMTP
 40
0.0
  9
$DIMTM
 40
0.0
  9
$DIMTXT
 40
2.5
  9
$DIMCEN
 40
2.5
  9
$DIMTSZ
 40
0.0
  9
$DIMTOL
 70
     0
  9
$DIMLIM
 70
     0
  9
$DIMTIH
 70
     0
  9
$DIMTOH
 70
     0
  9
$DIMSE1
 70
     0
  9
$DIMSE2
 70
     0
  9
$DIMTAD
 70
     1
  9
$DIMZIN
 70
     8
  9
$DIMBLK
  1

  9
$DIMASO
 70
     1
  9
$DIMSHO
 70
     1
  9
$DIMPOST
  1

  9
$DIMAPOST
  1

  9
$DIMALT
 70
     0
  9
$DIMALTD
 70
     3
  9
$DIMALTF
 40
0.03937007874016
  9
$DIMLFAC
 40
1.0
  9
$DIMTOFL
 70
     1
  9
$DIMTVP
 40
0.0
  9
$DIMTIX
 70
     0
  9
$DIMSOXD
 70
     0
  9
$DIMSAH
 70
     0
  9
$DIMBLK1
  1

  9
$DIMBLK2
  1

  9
$DIMSTYLE
  2
ISO-25
  9
$DIMCLRD
 70
     0
  9
$DIMCLRE
 70
     0
  9
$DIMCLRT
 70
     0
  9
$DIMTFAC
 40
1.0
  9
$DIMGAP
 40
0.625
  9
$DIMJUST
 70
     0
  9
$DIMSD1
 70
     0
  9
$DIMSD2
 70
     0
  9
$DIMTOLJ
 70
     0
  9
$DIMTZIN
 70
     8
  9
$DIMALTZ
 70
     0
  9
$DIMALTTZ
 70
     0
  9
$DIMUPT
 70
     0
  9
$DIMDEC
 70
     2
  9
$DIMTDEC
 70
     2
  9
$DIMALTU
 70
     2
  9
$DIMALTTD
 70
     3
  9
$DIMTXSTY
  7
Standard
  9
$DIMAUNIT
 70
     0
  9
$DIMADEC
 70
     0
  9
$DIMALTRND
 40
0.0
  9
$DIMAZIN
 70
     0
  9
$DIMDSEP
 70
    44
  9
$DIMATFIT
 70
     3
  9
$DIMFRAC
 70
     0
  9
$DIMLDRBLK
  1

  9
$DIMLUNIT
 70
     2
  9
$DIMLWD
 70
    -2
  9
$DIMLWE
 70
    -2
  9
$DIMTMOVE
 70
     0
  9
$LUNITS
 70
     2
  9
$LUPREC
 70
     4
  9
$SKETCHINC
 40
1.0
  9
$FILLETRAD
 40
10.0
  9
$AUNITS
 70
     0
  9
$AUPREC
 70
     0
  9
$MENU
  1
.
  9
$ELEVATION
 40
0.0
  9
$PELEVATION
 40
0.0
  9
$THICKNESS
 40
0.0
  9
$LIMCHECK
 70
     0
  9
$CHAMFERA
 40
10.0
  9
$CHAMFERB
 40
10.0
  9
$CHAMFERC
 40
20.0
  9
$CHAMFERD
 40
0.0
  9
$SKPOLY
 70
     0
  9
$TDCREATE
 40
2454284.628481979
  9
$TDUCREATE
 40
2454284.253481979
  9
$TDUPDATE
 40
2456899.669689051
  9
$TDUUPDATE
 40
2456899.294689050
  9
$TDINDWG
 40
0.0013897222
  9
$TDUSRTIMER
 40
0.0013897222
  9
$USRTIMER
 70
     1
  9
$ANGBASE
 50
0.0
  9
$ANGDIR
 70
     0
  9
$PDMODE
 70
     0
  9
$PDSIZE
 40
0.0
  9
$PLINEWID
 40
0.0
  9
$SPLFRAME
 70
     0
  9
$SPLINETYPE
 70
     6
  9
$SPLINESEGS
 70
     8
  9
$HANDSEED
  5
290
  9
$SURFTAB1
 70
     6
  9
$SURFTAB2
 70
     6
  9
$SURFTYPE
 70
     6
  9
$SURFU
 70
     6
  9
$SURFV
 70
     6
  9
$UCSBASE
  2

  9
$UCSNAME
  2

  9
$UCSORG
 10
0.0
 20
0.0
 30
0.0
  9
$UCSXDIR
 10
1.0
 20
0.0
 30
0.0
  9
$UCSYDIR
 10
0.0
 20
1.0
 30
0.0
  9
$UCSORTHOREF
  2

  9
$UCSORTHOVIEW
 70
     0
  9
$UCSORGTOP
 10
0.0
 20
0.0
 30
0.0
  9
$UCSORGBOTTOM
 10
0.0
 20
0.0
 30
0.0
  9
$UCSORGLEFT
 10
0.0
 20
0.0
 30
0.0
  9
$UCSORGRIGHT
 10
0.0
 20
0.0
 30
0.0
  9
$UCSORGFRONT
 10
0.0
 20
0.0
 30
0.0
  9
$UCSORGBACK
 10
0.0
 20
0.0
 30
0.0
  9
$PUCSBASE
  2

  9
$PUCSNAME
  2

  9
$PUCSORG
 10
0.0
 20
0.0
 30
0.0
  9
$PUCSXDIR
 10
1.0
 20
0.0
 30
0.0
  9
$PUCSYDIR
 10
0.0
 20
1.0
 30
0.0
  9
$PUCSORTHOREF
  2

  9
$PUCSORTHOVIEW
 70
     0
  9
$PUCSORGTOP
 10
0.0
 20
0.0
 30
0.0
  9
$PUCSORGBOTTOM
 10
0.0
 20
0.0
 30
0.0
  9
$PUCSORGLEFT
 10
0.0
 20
0.0
 30
0.0
  9
$PUCSORGRIGHT
 10
0.0
 20
0.0
 30
0.0
  9
$PUCSORGFRONT
 10
0.0
 20
0.0
 30
0.0
  9
$PUCSORGBACK
 10
0.0
 20
0.0
 30
0.0
  9
$USERI1
 70
     0
  9
$USERI2
 70
     0
  9
$USERI3
 70
     0
  9
$USERI4
 70
     0
  9
$USERI5
 70
     0
  9
$USERR1
 40
0.0
  9
$USERR2
 40
0.0
  9
$USERR3
 40
0.0
  9
$USERR4
 40
0.0
  9
$USERR5
 40
0.0
  9
$WORLDVIEW
 70
     1
  9
$SHADEDGE
 70
     3
  9
$SHADEDIF
 70
    70
  9
$TILEMODE
 70
     1
  9
$MAXACTVP
 70
    48
  9
$PINSBASE
 10
0.0
 20
0.0
 30
0.0
  9
$PLIMCHECK
 70
     0
  9
$PEXTMIN
 10
26.66076962115562
 20
20.31135699206657
 30
-0.0015258207003583
  9
$PEXTMAX
 10
240.039213369355
 20
182.8886381005154
 30
0.0000000349246037
  9
$PLIMMIN
 10
-6.350006103515625
 20
-6.349999904632568
  9
$PLIMMAX
 10
273.0499877929687
 20
209.5499939918517
  9
$UNITMODE
 70
     0
  9
$VISRETAIN
 70
     1
  9
$PLINEGEN
 70
     0
  9
$PSLTSCALE
 70
     1
  9
$TREEDEPTH
 70
  3020
  9
$CMLSTYLE
  2
Standard
  9
$CMLJUST
 70
     0
  9
$CMLSCALE
 40
20.0
  9
$PROXYGRAPHICS
 70
     1
  9
$MEASUREMENT
 70
     1
  9
$CELWEIGHT
370
    -1
  9
$ENDCAPS
280
     0
  9
$JOINSTYLE
280
     0
  9
$LWDISPLAY
290
     0
  9
$INSUNITS
 70
     4
  9
$HYPERLINKBASE
  1

  9
$STYLESHEET
  1

  9
$XEDIT
290
     1
  9
$CEPSNTYPE
380
     0
  9
$PSTYLEMODE
290
     1
  9
$FINGERPRINTGUID
  2
{FDEAD578-A652-11D2-9A35-0060089B3A3F}
  9
$VERSIONGUID
  2
{56800A70-593B-4DF1-8040-DC74A8EE1E5E}
  9
$EXTNAMES
290
     1
  9
$PSVPSCALE
 40
0.0
  9
$OLESTARTUP
290
     0
  0
ENDSEC
  0
SECTION
  2
CLASSES
  0
CLASS
  1
ACDBDICTIONARYWDFLT
  2
AcDbDictionaryWithDefault
  3
AutoCAD 2000
 90
        0
280
     0
281
     0
  0
CLASS
  1
ACDBPLACEHOLDER
  2
AcDbPlaceHolder
  3
AutoCAD 2000
 90
        0
280
     0
281
     0
  0
CLASS
  1
LAYOUT
  2
AcDbLayout
  3
AutoCAD 2000
 90
        0
280
     0
281
     0
  0
CLASS
  1
DICTIONARYVAR
  2
AcDbDictionaryVar
  3
AutoCAD 2000
 90
        0
280
     0
281
     0
  0
CLASS
  1
LONG_TRANSACTION
  2
AcDbLongTransaction
  3
AutoCAD 2000
 90
    32768
280
     0
281
     0
  0
CLASS
  1
LWPOLYLINE
  2
AcDbPolyline
  3
AutoCAD 2000
 90
    32768
280
     0
281
     1
  0
CLASS
  1
HATCH
  2
AcDbHatch
  3
AutoCAD 2000
 90
    32768
280
     0
281
     1
  0
CLASS
  1
XRECORD
  2
AcDbXrecord
  3
AutoCAD 2000
 90
    32768
280
     0
281
     0
  0
ENDSEC
  0
SECTION
  2
TABLES
  0
TABLE
  2
VPORT
  5
8
330
0
100
AcDbSymbolTable
 70
     2
  0
VPORT
  5
28F
330
8
100
AcDbSymbolTableRecord
100
AcDbViewportTableRecord
  2
*Active
 70
     0
 10
0.0
 20
0.0
 11
1.0
 21
1.0
 12
711.0204447938076
 22
507.8272863629423
 13
0.0
 23
0.0
 14
10.0
 24
10.0
 15
10.0
 25
10.0
 16
0.0
 26
0.0
 36
1.0
 17
0.0
 27
0.0
 37
0.0
 40
873.8959670841321
 41
1.592161016949152
 42
50.0
 43
0.0
 44
0.0
 50
0.0
 51
0.0
 71
     0
 72
   100
 73
     1
 74
     3
 75
     0
 76
     0
 77
     0
 78
     0
281
     0
 65
     1
110
0.0
120
0.0
130
0.0
111
1.0
121
0.0
131
0.0
112
0.0
122
1.0
132
0.0
 79
     0
146
0.0
  0
ENDTAB
  0
TABLE
  2
LTYPE
  5
5
330
0
100
AcDbSymbolTable
 70
     2
  0
LTYPE
  5
14
330
5
100
AcDbSymbolTableRecord
100
AcDbLinetypeTableRecord
  2
ByBlock
 70
     0
  3

 72
    65
 73
     0
 40
0.0
  0
LTYPE
  5
15
330
5
100
AcDbSymbolTableRecord
100
AcDbLinetypeTableRecord
  2
ByLayer
 70
     0
  3

 72
    65
 73
     0
 40
0.0
  0
LTYPE
  5
16
330
5
100
AcDbSymbolTableRecord
100
AcDbLinetypeTableRecord
  2
Continuous
 70
     0
  3
Solid line
 72
    65
 73
     0
 40
0.0
  0
LTYPE
  5
274
330
5
100
AcDbSymbolTableRecord
100
AcDbLinetypeTableRecord
  2
CENTER
 70
     0
  3
__ . __
 72
    65
 73
     4
 40
7.0
 49
4.0
 74
     0
 49
-1.0
 74
     0
 49
1.0
 74
     0
 49
-1.0
 74
     0
  0
ENDTAB
  0
TABLE
  2
LAYER
  5
2
102
{ACAD_XDICTIONARY
360
275
102
}
330
0
100
AcDbSymbolTable
 70
     1
  0
LAYER
  5
10
330
2
100
AcDbSymbolTableRecord
100
AcDbLayerTableRecord
  2
0
 70
     0
 62
     7
  6
Continuous
370
    -3
390
F
  0
ENDTAB
  0
TABLE
  2
STYLE
  5
3
330
0
100
AcDbSymbolTable
 70
     1
  0
STYLE
  5
11
330
3
100
AcDbSymbolTableRecord
100
AcDbTextStyleTableRecord
  2
Standard
 70
     0
 40
0.0
 41
1.0
 50
0.0
 71
     0
 42
2.5
  3
txt
  4

  0
ENDTAB
  0
TABLE
  2
VIEW
  5
6
330
0
100
AcDbSymbolTable
 70
     0
  0
ENDTAB
  0
TABLE
  2
UCS
  5
7
330
0
100
AcDbSymbolTable
 70
     0
  0
ENDTAB
  0
TABLE
  2
APPID
  5
9
330
0
100
AcDbSymbolTable
 70
     1
  0
APPID
  5
12
330
9
100
AcDbSymbolTableRecord
100
AcDbRegAppTableRecord
  2
ACAD
 70
     0
  0
ENDTAB
  0
TABLE
  2
DIMSTYLE
  5
A
330
0
100
AcDbSymbolTable
 70
     1
100
AcDbDimStyleTable
 71
     0
  0
DIMSTYLE
105
27
330
A
100
AcDbSymbolTableRecord
100
AcDbDimStyleTableRecord
  2
ISO-25
 70
     0
 41
2.5
 42
0.625
 43
3.75
 44
1.25
 73
     0
 74
     0
 77
     1
 78
     8
140
2.5
141
2.5
143
0.03937007874016
147
0.625
171
     3
172
     1
271
     2
272
     2
274
     3
278
    44
283
     0
284
     8
340
11
  0
ENDTAB
  0
TABLE
  2
BLOCK_RECORD
  5
1
330
0
100
AcDbSymbolTable
 70
     1
  0
BLOCK_RECORD
  5
1F
102
{ACAD_XDICTIONARY
360
22D
102
}
330
1
100
AcDbSymbolTableRecord
100
AcDbBlockTableRecord
  2
*Model_Space
340
22
  0
BLOCK_RECORD
  5
55
102
{ACAD_XDICTIONARY
360
22F
102
}
330
1
100
AcDbSymbolTableRecord
100
AcDbBlockTableRecord
  2
*Paper_Space
340
56
  0
BLOCK_RECORD
  5
50
102
{ACAD_XDICTIONARY
360
231
102
}
330
1
100
AcDbSymbolTableRecord
100
AcDbBlockTableRecord
  2
*Paper_Space0
340
51
  0
ENDTAB
  0
ENDSEC
  0
SECTION
  2
BLOCKS
  0
BLOCK
  5
20
330
1F
100
AcDbEntity
  8
0
100
AcDbBlockBegin
  2
*Model_Space
 70
     0
 10
0.0
 20
0.0
 30
0.0
  3
*Model_Space
  1

  0
ENDBLK
  5
21
330
1F
100
AcDbEntity
  8
0
100
AcDbBlockEnd
  0
BLOCK
  5
57
330
55
100
AcDbEntity
 67
     1
  8
0
100
AcDbBlockBegin
  2
*Paper_Space
 70
     0
 10
0.0
 20
0.0
 30
0.0
  3
*Paper_Space
  1

  0
ENDBLK
  5
58
330
55
100
AcDbEntity
 67
     1
  8
0
100
AcDbBlockEnd
  0
BLOCK
  5
52
330
50
100
AcDbEntity
  8
0
100
AcDbBlockBegin
  2
*Paper_Space0
 70
     0
 10
0.0
 20
0.0
 30
0.0
  3
*Paper_Space0
  1

  0
VIEWPORT
  5
6B
330
50
100
AcDbEntity
  8
0
100
AcDbViewport
 10
133.3499908447265
 20
101.5999970436096
 30
0.0
 40
381.3957395593834
 41
218.2856291881582
 69
     0
 12
133.3499908447265
 22
101.5999970436096
 13
0.0
 23
0.0
 14
10.0
 24
10.0
 15
10.0
 25
10.0
 16
0.0
 26
0.0
 36
1.0
 17
0.0
 27
0.0
 37
0.0
 42
50.0
 43
0.0
 44
0.0
 45
218.2856291881582
 50
0.0
 51
0.0
 72
   100
 90
    32800
  1

281
     0
 71
     1
 74
     0
110
0.0
120
0.0
130
0.0
111
1.0
121
0.0
131
0.0
112
0.0
122
1.0
132
0.0
 79
     0
146
0.0
  0
VIEWPORT
  5
6D
330
50
100
AcDbEntity
  8
0
100
AcDbViewport
 10
133.349993944168
 20
101.599993944168
 30
0.0
 40
213.3599903106689
 41
162.5599903106689
 69
     0
 12
210.0
 22
148.5
 13
0.0
 23
0.0
 14
10.0
 24
10.0
 15
10.0
 25
10.0
 16
0.0
 26
0.0
 36
1.0
 17
0.0
 27
0.0
 37
0.0
 42
50.0
 43
0.0
 44
0.0
 45
324.0677920111345
 50
0.0
 51
0.0
 72
   100
 90
    32864
  1

281
     0
 71
     1
 74
     0
110
0.0
120
0.0
130
0.0
111
1.0
121
0.0
131
0.0
112
0.0
122
1.0
132
0.0
 79
     0
146
0.0
  0
ENDBLK
  5
53
330
50
100
AcDbEntity
  8
0
100
AcDbBlockEnd
  0
ENDSEC
  0
SECTION
  2
ENTITIES
  0
ARC
  5
157
330
1F
100
AcDbEntity
  8
0
100
AcDbCircle
 10
645.8686029662359
 20
200.4064811008977
 30
0.0
 40
0.9999999999999998
100
AcDbArc
 50
41.78432219480383
 51
85.46180982894018
  0
LINE
  5
158
330
1F
100
AcDbEntity
  8
0
100
AcDbLine
 10
626.3685943882473
 20
209.8227833369547
 30
0.0
 11
632.3685926715945
 21
209.8227888027806
 31
0.0
  0
LINE
  5
159
330
1F
100
AcDbEntity
  8
0
100
AcDbLine
 10
626.3685718416675
 20
234.5728291133105
 30
0.0
 11
626.3685943882473
 21
209.8227833369547
 31
0.0
  0
LINE
  5
15A
330
1F
100
AcDbEntity
  8
0
100
AcDbLine
 10
640.293405800531
 20
201.898013337824
 30
0.0
 11
645.9477265339791
 21
201.4033459167216
 31
0.0
  0
LINE
  5
15B
330
1F
100
AcDbEntity
  8
0
100
AcDbLine
 10
632.3685926715945
 20
209.8227888027806
 30
0.0
 11
640.293405800531
 21
201.898013337824
 31
0.0
  0
ARC
  5
15C
330
1F
100
AcDbEntity
  8
0
100
AcDbCircle
 10
551.868602359257
 20
200.4064382852494
 30
0.0
 40
1.0
100
AcDbArc
 50
94.53824236587179
 51
138.2157300000021
  0
LINE
  5
15D
330
1F
100
AcDbEntity
  8
0
100
AcDbLine
 10
571.368602359257
 20
209.8227582852493
 30
0.0
 11
565.3686040759073
 21
209.8227582852493
 31
0.0
  0
LINE
  5
15E
330
1F
100
AcDbEntity
  8
0
100
AcDbLine
 10
571.368602359257
 20
234.5728040616155
 30
0.0
 11
571.368602359257
 21
209.8227582852493
 31
0.0
  0
LINE
  5
15F
330
1F
100
AcDbEntity
  8
0
100
AcDbLine
 10
557.4437981662164
 20
201.8979756010192
 30
0.0
 11
551.7894778833985
 21
201.4033030289935
 31
0.0
  0
LINE
  5
160
330
1F
100
AcDbEntity
  8
0
100
AcDbLine
 10
565.3686040759073
 20
209.8227582852493
 30
0.0
 11
557.4437981662164
 21
201.8979756010192
 31
0.0
  0
ARC
  5
161
330
1F
100
AcDbEntity
  8
0
100
AcDbCircle
 10
652.1442871004685
 20
256.0568488028264
 30
0.0
 40
5.4168334
100
AcDbArc
 50
301.1866320000056
 51
345.7432929999997
  0
ARC
  5
162
330
1F
100
AcDbEntity
  8
0
100
AcDbCircle
 10
652.1442871004685
 20
256.0568488028264
 30
0.0
 40
5.4168334
100
AcDbArc
 50
194.2567100000087
 51
238.8133699999983
  0
ARC
  5
163
330
1F
100
AcDbEntity
  8
0
100
AcDbCircle
 10
598.8685871004683
 20
256.0568488028264
 30
0.0
 40
5.4168334
100
AcDbArc
 50
301.1866320000056
 51
345.7432929999997
  0
ARC
  5
164
330
1F
100
AcDbEntity
  8
0
100
AcDbCircle
 10
598.8685871004683
 20
256.0568488028264
 30
0.0
 40
5.4168334
100
AcDbArc
 50
194.2567100000087
 51
238.8133699999983
  0
ARC
  5
165
330
1F
100
AcDbEntity
  8
0
100
AcDbCircle
 10
545.5928671004683
 20
256.0568488028264
 30
0.0
 40
5.4168334
100
AcDbArc
 50
194.2567100000087
 51
238.8133699999983
  0
ARC
  5
166
330
1F
100
AcDbEntity
  8
0
100
AcDbCircle
 10
545.5928671004683
 20
256.0568488028264
 30
0.0
 40
5.4168334
100
AcDbArc
 50
301.1866320000056
 51
345.7432929999997
  0
ARC
  5
167
330
1F
100
AcDbEntity
  8
0
100
AcDbCircle
 10
629.8684871004682
 20
250.8228488028265
 30
0.0
 40
4.0
100
AcDbArc
 50
90.0
 51
180.0
  0
ARC
  5
168
330
1F
100
AcDbEntity
  8
0
100
AcDbCircle
 10
567.8686871004686
 20
250.8228488028265
 30
0.0
 40
4.0
100
AcDbArc
 50
0.0
 51
90.0
  0
ARC
  5
169
330
1F
100
AcDbEntity
  8
0
100
AcDbCircle
 10
657.1291471004685
 20
257.3228488028265
 30
0.0
 40
1.0
100
AcDbArc
 50
270.0
 51
0.0
  0
ARC
  5
16A
330
1F
100
AcDbEntity
  8
0
100
AcDbCircle
 10
645.4543671004683
 20
255.8228488028265
 30
0.0
 40
1.0
100
AcDbArc
 50
270.0
 51
290.2449800000078
  0
ARC
  5
16B
330
1F
100
AcDbEntity
  8
0
100
AcDbCircle
 10
552.2828071004685
 20
255.8228488028265
 30
0.0
 40
1.0
100
AcDbArc
 50
249.7967700000102
 51
270.0
  0
ARC
  5
16C
330
1F
100
AcDbEntity
  8
0
100
AcDbCircle
 10
540.6080071004683
 20
257.3228488028265
 30
0.0
 40
1.0
100
AcDbArc
 50
180.0
 51
270.0
  0
ARC
  5
16D
330
1F
100
AcDbEntity
  8
0
100
AcDbCircle
 10
553.7392471004684
 20
283.7499688028265
 30
0.0
 40
5.0
100
AcDbArc
 50
0.0
 51
90.0
  0
ARC
  5
16E
330
1F
100
AcDbEntity
  8
0
100
AcDbCircle
 10
544.6080071004683
 20
283.7499688028265
 30
0.0
 40
5.0
100
AcDbArc
 50
90.0
 51
180.0
  0
ARC
  5
16F
330
1F
100
AcDbEntity
  8
0
100
AcDbCircle
 10
588.8764071004682
 20
283.7499688028265
 30
0.0
 40
5.0
100
AcDbArc
 50
90.0
 51
180.0
  0
ARC
  5
170
330
1F
100
AcDbEntity
  8
0
100
AcDbCircle
 10
608.8607471004682
 20
283.7499688028265
 30
0.0
 40
5.0
100
AcDbArc
 50
0.0
 51
90.0
  0
ARC
  5
171
330
1F
100
AcDbEntity
  8
0
100
AcDbCircle
 10
652.1442871004685
 20
287.3227888028266
 30
0.0
 40
5.0
100
AcDbArc
 50
241.5873099999978
 51
337.7688219999951
  0
ARC
  5
172
330
1F
100
AcDbEntity
  8
0
100
AcDbCircle
 10
598.8685871004683
 20
287.3227888028266
 30
0.0
 40
5.0
100
AcDbArc
 50
245.1714900000007
 51
294.8285079999942
  0
ARC
  5
173
330
1F
100
AcDbEntity
  8
0
100
AcDbCircle
 10
622.8685871004683
 20
333.8227888028264
 30
0.0
 40
1.0
100
AcDbArc
 50
0.0
 51
90.0
  0
ARC
  5
174
330
1F
100
AcDbEntity
  8
0
100
AcDbCircle
 10
557.5072071004686
 20
321.8227888028264
 30
0.0
 40
8.0
100
AcDbArc
 50
90.0
 51
164.9999600000035
  0
ARC
  5
175
330
1F
100
AcDbEntity
  8
0
100
AcDbCircle
 10
574.8685871004684
 20
333.8227888028264
 30
0.0
 40
1.0
100
AcDbArc
 50
90.0
 51
180.0
  0
ARC
  5
176
330
1F
100
AcDbEntity
  8
0
100
AcDbCircle
 10
574.8685871004684
 20
333.8227888028264
 30
0.0
 40
1.0
100
AcDbArc
 50
90.0
 51
180.0
  0
ARC
  5
177
330
1F
100
AcDbEntity
  8
0
100
AcDbCircle
 10
640.2299671004682
 20
321.8227888028264
 30
0.0
 40
8.0
100
AcDbArc
 50
15.00001000000648
 51
90.0
  0
ARC
  5
178
330
1F
100
AcDbEntity
  8
0
100
AcDbCircle
 10
650.4487271004684
 20
322.3227888028264
 30
0.0
 40
2.0
100
AcDbArc
 50
195.0000100000064
 51
270.0
  0
ARC
  5
179
330
1F
100
AcDbEntity
  8
0
100
AcDbCircle
 10
663.3685871004684
 20
281.8227888028266
 30
0.0
 40
1.0
100
AcDbArc
 50
0.0
 51
90.0
  0
ARC
  5
17A
330
1F
100
AcDbEntity
  8
0
100
AcDbCircle
 10
654.3685871004684
 20
319.3227888028264
 30
0.0
 40
1.0
100
AcDbArc
 50
0.0
 51
90.0
  0
ARC
  5
17B
330
1F
100
AcDbEntity
  8
0
100
AcDbCircle
 10
663.3685871004684
 20
265.8227888028266
 30
0.0
 40
1.0
100
AcDbArc
 50
270.0
 51
0.0
  0
ARC
  5
17C
330
1F
100
AcDbEntity
  8
0
100
AcDbCircle
 10
535.5830871004684
 20
279.6354688028266
 30
0.0
 40
120.0
100
AcDbArc
 50
4.12501900000419
 51
14.99999999999445
  0
ARC
  5
17D
330
1F
100
AcDbEntity
  8
0
100
AcDbCircle
 10
662.1541071004683
 20
279.6354688028266
 30
0.0
 40
120.0
100
AcDbArc
 50
165.0000000000055
 51
174.4255299999991
  0
ARC
  5
17E
330
1F
100
AcDbEntity
  8
0
100
AcDbCircle
 10
662.1541071004683
 20
279.6354688028266
 30
0.0
 40
120.0
100
AcDbArc
 50
174.4255299999991
 51
175.8749800000028
  0
ARC
  5
17F
330
1F
100
AcDbEntity
  8
0
100
AcDbCircle
 10
545.5928671004683
 20
287.3227888028266
 30
0.0
 40
5.0
100
AcDbArc
 50
202.231240000014
 51
298.4125379999988
  0
ARC
  5
180
330
1F
100
AcDbEntity
  8
0
100
AcDbCircle
 10
643.9979271004683
 20
283.7499688028265
 30
0.0
 40
5.0
100
AcDbArc
 50
90.0
 51
180.0
  0
ARC
  5
181
330
1F
100
AcDbEntity
  8
0
100
AcDbCircle
 10
653.1291471004685
 20
283.7499688028265
 30
0.0
 40
5.0
100
AcDbArc
 50
0.0
 51
90.0
  0
LINE
  5
182
330
1F
100
AcDbEntity
  8
0
100
AcDbLine
 10
658.1442871004685
 20
256.3228488028264
 30
0.0
 11
658.1442871004685
 21
254.7228688028265
 31
0.0
  0
LINE
  5
183
330
1F
100
AcDbEntity
  8
0
100
AcDbLine
 10
646.1442871004685
 20
256.3228488028264
 30
0.0
 11
646.1442871004685
 21
254.7228688028265
 31
0.0
  0
LINE
  5
184
330
1F
100
AcDbEntity
  8
0
100
AcDbLine
 10
658.1442871004685
 20
254.7228688028265
 30
0.0
 11
646.1442871004685
 21
254.7228688028265
 31
0.0
  0
LINE
  5
185
330
1F
100
AcDbEntity
  8
0
100
AcDbLine
 10
654.9492671004684
 20
251.4228288028264
 30
0.0
 11
649.3392871004682
 21
251.4228288028264
 31
0.0
  0
LINE
  5
186
330
1F
100
AcDbEntity
  8
0
100
AcDbLine
 10
604.8685871004684
 20
256.3228488028264
 30
0.0
 11
604.8685871004684
 21
254.7228688028265
 31
0.0
  0
LINE
  5
187
330
1F
100
AcDbEntity
  8
0
100
AcDbLine
 10
592.8685871004684
 20
256.3228488028264
 30
0.0
 11
592.8685871004684
 21
254.7228688028265
 31
0.0
  0
LINE
  5
188
330
1F
100
AcDbEntity
  8
0
100
AcDbLine
 10
604.8685871004684
 20
254.7228688028265
 30
0.0
 11
592.8685871004684
 21
254.7228688028265
 31
0.0
  0
LINE
  5
189
330
1F
100
AcDbEntity
  8
0
100
AcDbLine
 10
601.6735871004682
 20
251.4228288028264
 30
0.0
 11
596.0635871004686
 21
251.4228288028264
 31
0.0
  0
LINE
  5
18A
330
1F
100
AcDbEntity
  8
0
100
AcDbLine
 10
539.5928671004683
 20
256.3228488028264
 30
0.0
 11
539.5928671004683
 21
254.7228688028265
 31
0.0
  0
LINE
  5
18B
330
1F
100
AcDbEntity
  8
0
100
AcDbLine
 10
551.5928671004683
 20
256.3228488028264
 30
0.0
 11
551.5928671004683
 21
254.7228688028265
 31
0.0
  0
LINE
  5
18C
330
1F
100
AcDbEntity
  8
0
100
AcDbLine
 10
539.5928671004683
 20
254.7228688028265
 30
0.0
 11
551.5928671004683
 21
254.7228688028265
 31
0.0
  0
LINE
  5
18D
330
1F
100
AcDbEntity
  8
0
100
AcDbLine
 10
542.7878871004684
 20
251.4228288028264
 30
0.0
 11
548.3978671004681
 21
251.4228288028264
 31
0.0
  0
LINE
  5
18E
330
1F
100
AcDbEntity
  8
0
100
AcDbLine
 10
672.9325271004683
 20
316.3227288028264
 30
0.0
 11
672.9325271004683
 21
306.3227288028264
 31
0.0
  0
LINE
  5
18F
330
1F
100
AcDbEntity
  8
0
100
AcDbLine
 10
672.9325271004683
 20
306.3227288028264
 30
0.0
 11
660.4325471004683
 21
306.3227288028264
 31
0.0
  0
LINE
  5
190
330
1F
100
AcDbEntity
  8
0
100
AcDbLine
 10
672.9325271004683
 20
316.3227288028264
 30
0.0
 11
660.4325471004683
 21
316.3227288028264
 31
0.0
  0
LINE
  5
191
330
1F
100
AcDbEntity
  8
0
100
AcDbLine
 10
660.4325471004683
 20
316.3227288028264
 30
0.0
 11
660.4325471004683
 21
306.3227288028264
 31
0.0
  0
LINE
  5
192
330
1F
100
AcDbEntity
  8
0
100
AcDbLine
 10
660.4325471004683
 20
316.0727288028264
 30
0.0
 11
658.4325471004683
 21
316.0727288028264
 31
0.0
  0
LINE
  5
193
330
1F
100
AcDbEntity
  8
0
100
AcDbLine
 10
660.4325471004683
 20
306.5727288028264
 30
0.0
 11
658.4325471004683
 21
306.5727288028264
 31
0.0
  0
LINE
  5
194
330
1F
100
AcDbEntity
  8
0
100
AcDbLine
 10
539.6080071004682
 20
264.3227888028266
 30
0.0
 11
539.6080071004682
 21
257.3228488028265
 31
0.0
  0
LINE
  5
195
330
1F
100
AcDbEntity
  8
0
100
AcDbLine
 10
657.3685871004684
 20
316.0395888028264
 30
0.0
 11
657.3685871004684
 21
306.6059888028263
 31
0.0
  0
LINE
  5
196
330
1F
100
AcDbEntity
  8
0
100
AcDbLine
 10
571.8686871004686
 20
250.8228488028265
 30
0.0
 11
571.8686871004686
 21
249.0727888028266
 31
0.0
  0
LINE
  5
197
330
1F
100
AcDbEntity
  8
0
100
AcDbLine
 10
658.4339471004684
 20
306.5727288028264
 30
0.0
 11
655.3686271004683
 21
306.6685488028263
 31
0.0
  0
LINE
  5
198
330
1F
100
AcDbEntity
  8
0
100
AcDbLine
 10
658.4325271004684
 20
316.0727888028264
 30
0.0
 11
655.3685871004684
 21
315.9770288028265
 31
0.0
  0
LINE
  5
199
330
1F
100
AcDbEntity
  8
0
100
AcDbLine
 10
605.4975271004685
 20
254.8228488028265
 30
0.0
 11
645.4543671004683
 21
254.8228488028265
 31
0.0
  0
LINE
  5
19A
330
1F
100
AcDbEntity
  8
0
100
AcDbLine
 10
658.1291471004686
 20
264.3227888028266
 30
0.0
 11
541.8685871004684
 21
264.3227888028266
 31
0.0
  0
LINE
  5
19B
330
1F
100
AcDbEntity
  8
0
100
AcDbLine
 10
540.6080071004683
 20
256.3228488028264
 30
0.0
 11
657.1291471004685
 21
256.3228488028264
 31
0.0
  0
LINE
  5
19C
330
1F
100
AcDbEntity
  8
0
100
AcDbLine
 10
658.1291471004686
 20
264.3227888028266
 30
0.0
 11
658.1291471004686
 21
257.3228488028265
 31
0.0
  0
LINE
  5
19D
330
1F
100
AcDbEntity
  8
0
100
AcDbLine
 10
552.2828071004685
 20
254.8228488028265
 30
0.0
 11
591.9932271004683
 21
254.8228488028265
 31
0.0
  0
LINE
  5
19E
330
1F
100
AcDbEntity
  8
0
100
AcDbLine
 10
625.8684871004682
 20
250.8228488028265
 30
0.0
 11
625.8684871004684
 21
249.0727888028266
 31
0.0
  0
LINE
  5
19F
330
1F
100
AcDbEntity
  8
0
100
AcDbLine
 10
553.3326671004681
 20
285.8251088028267
 30
0.0
 11
547.9719671004684
 21
282.9250888028266
 31
0.0
  0
LINE
  5
1A0
330
1F
100
AcDbEntity
  8
0
100
AcDbLine
 10
540.8035071004685
 20
285.8250488028264
 30
0.0
 11
540.9645671004684
 21
285.4310688028265
 31
0.0
  0
LINE
  5
1A1
330
1F
100
AcDbEntity
  8
0
100
AcDbLine
 10
539.6080071004682
 20
283.7499688028265
 30
0.0
 11
539.6080071004682
 21
264.3227888028266
 31
0.0
  0
LINE
  5
1A2
330
1F
100
AcDbEntity
  8
0
100
AcDbLine
 10
544.6080071004683
 20
288.7499688028264
 30
0.0
 11
553.7392471004684
 21
288.7499688028264
 31
0.0
  0
LINE
  5
1A3
330
1F
100
AcDbEntity
  8
0
100
AcDbLine
 10
558.7392471004684
 20
283.7499688028265
 30
0.0
 11
558.7392471004684
 21
256.3228488028264
 31
0.0
  0
LINE
  5
1A4
330
1F
100
AcDbEntity
  8
0
100
AcDbLine
 10
608.8607471004682
 20
288.7499688028264
 30
0.0
 11
588.8764071004682
 21
288.7499688028264
 31
0.0
  0
LINE
  5
1A5
330
1F
100
AcDbEntity
  8
0
100
AcDbLine
 10
638.9979271004683
 20
283.7499688028265
 30
0.0
 11
638.9979271004683
 21
256.3228488028264
 31
0.0
  0
LINE
  5
1A6
330
1F
100
AcDbEntity
  8
0
100
AcDbLine
 10
653.1291471004685
 20
288.7499688028264
 30
0.0
 11
643.9979271004683
 21
288.7499688028264
 31
0.0
  0
LINE
  5
1A7
330
1F
100
AcDbEntity
  8
0
100
AcDbLine
 10
598.8685871004683
 20
264.3227888028266
 30
0.0
 11
539.6080071004682
 21
264.3227888028266
 31
0.0
  0
LINE
  5
1A8
330
1F
100
AcDbEntity
  8
0
100
AcDbLine
 10
647.9573871004683
 20
323.8932888028264
 30
0.0
 11
648.5169071004682
 21
321.8051488028264
 31
0.0
  0
LINE
  5
1A9
330
1F
100
AcDbEntity
  8
0
100
AcDbLine
 10
650.4487271004684
 20
320.3227888028264
 30
0.0
 11
654.3685871004684
 21
320.3227888028264
 31
0.0
  0
LINE
  5
1AA
330
1F
100
AcDbEntity
  8
0
100
AcDbLine
 10
658.1291471004686
 20
264.8227888028266
 30
0.0
 11
663.3685871004684
 21
264.8227888028266
 31
0.0
  0
LINE
  5
1AB
330
1F
100
AcDbEntity
  8
0
100
AcDbLine
 10
648.5169071004682
 20
321.8051488028264
 30
0.0
 11
651.4942071004682
 21
310.6937688028264
 31
0.0
  0
LINE
  5
1AC
330
1F
100
AcDbEntity
  8
0
100
AcDbLine
 10
549.7797871004684
 20
323.8932888028264
 30
0.0
 11
546.2429871004685
 21
310.6937688028264
 31
0.0
  0
LINE
  5
1AD
330
1F
100
AcDbEntity
  8
0
100
AcDbLine
 10
655.3685871004684
 20
319.3227888028264
 30
0.0
 11
655.3685871004684
 21
288.2204288028264
 31
0.0
  0
LINE
  5
1AE
330
1F
100
AcDbEntity
  8
0
100
AcDbLine
 10
583.8764071004682
 20
283.7499688028265
 30
0.0
 11
583.8764071004682
 21
256.3228488028264
 31
0.0
  0
LINE
  5
1AF
330
1F
100
AcDbEntity
  8
0
100
AcDbLine
 10
573.8685871004683
 20
329.8227888028264
 30
0.0
 11
573.8685871004683
 21
333.8227888028264
 31
0.0
  0
LINE
  5
1B0
330
1F
100
AcDbEntity
  8
0
100
AcDbLine
 10
644.4045071004682
 20
285.8251088028267
 30
0.0
 11
649.7651871004684
 21
282.9250888028266
 31
0.0
  0
LINE
  5
1B1
330
1F
100
AcDbEntity
  8
0
100
AcDbLine
 10
656.9336871004682
 20
285.8251088028267
 30
0.0
 11
656.7726071004683
 21
285.4310688028265
 31
0.0
  0
LINE
  5
1B2
330
1F
100
AcDbEntity
  8
0
100
AcDbLine
 10
590.1981471004685
 20
285.8251088028267
 30
0.0
 11
596.7690671004682
 21
282.7849488028265
 31
0.0
  0
LINE
  5
1B3
330
1F
100
AcDbEntity
  8
0
100
AcDbLine
 10
623.8685871004683
 20
329.8227888028264
 30
0.0
 11
623.8685871004683
 21
333.8227888028264
 31
0.0
  0
LINE
  5
1B4
330
1F
100
AcDbEntity
  8
0
100
AcDbLine
 10
613.8607471004681
 20
283.7499688028265
 30
0.0
 11
613.8607471004681
 21
256.3228488028264
 31
0.0
  0
LINE
  5
1B5
330
1F
100
AcDbEntity
  8
0
100
AcDbLine
 10
573.8685871004683
 20
329.8227888028264
 30
0.0
 11
573.8685871004683
 21
333.8227888028264
 31
0.0
  0
LINE
  5
1B6
330
1F
100
AcDbEntity
  8
0
100
AcDbLine
 10
658.1291471004686
 20
283.7499688028265
 30
0.0
 11
658.1291471004686
 21
264.3227888028266
 31
0.0
  0
LINE
  5
1B7
330
1F
100
AcDbEntity
  8
0
100
AcDbLine
 10
664.3685871004683
 20
281.8227888028266
 30
0.0
 11
664.3685871004683
 21
265.8227888028266
 31
0.0
  0
LINE
  5
1B8
330
1F
100
AcDbEntity
  8
0
100
AcDbLine
 10
622.8685871004683
 20
334.8227888028264
 30
0.0
 11
574.8685871004684
 21
334.8227888028264
 31
0.0
  0
LINE
  5
1B9
330
1F
100
AcDbEntity
  8
0
100
AcDbLine
 10
607.5390071004683
 20
285.8251088028267
 30
0.0
 11
600.9681071004686
 21
282.7849488028265
 31
0.0
  0
LINE
  5
1BA
330
1F
100
AcDbEntity
  8
0
100
AcDbLine
 10
640.2299671004682
 20
329.8227888028264
 30
0.0
 11
557.5072071004686
 21
329.8227888028264
 31
0.0
  0
LINE
  5
1BB
330
1F
100
AcDbEntity
  8
0
100
AcDbLine
 10
663.3685871004684
 20
282.8227888028266
 30
0.0
 11
658.1291471004686
 21
282.8227888028266
 31
0.0
  0
LINE
  5
1BC
330
1F
100
AcDbEntity
  8
0
100
AcDbLine
 10
598.8685871004683
 20
264.3227888028266
 30
0.0
 11
658.1291471004686
 21
264.3227888028266
 31
0.0
  0
LINE
  5
1BD
330
1F
100
AcDbEntity
  8
0
100
AcDbLine
 10
591.3685871004684
 20
358.3226688028263
 30
0.0
 11
606.3685871004683
 21
358.3226688028263
 31
0.0
  0
LINE
  5
1BE
330
1F
100
AcDbEntity
  8
0
100
AcDbLine
 10
591.3685871004684
 20
337.6886888028264
 30
0.0
 11
606.3685871004683
 21
337.6886888028264
 31
0.0
  0
LINE
  5
1BF
330
1F
100
AcDbEntity
  8
0
100
AcDbLine
 10
604.8686271004683
 20
359.8226688028264
 30
0.0
 11
606.3685871004683
 21
358.3227288028264
 31
0.0
  0
LINE
  5
1C0
330
1F
100
AcDbEntity
  8
0
100
AcDbLine
 10
592.8685871004684
 20
359.8226688028264
 30
0.0
 11
591.3685871004684
 21
358.3226688028263
 31
0.0
  0
LINE
  5
1C1
330
1F
100
AcDbEntity
  8
0
100
AcDbLine
 10
606.3685871004683
 20
358.3226688028263
 30
0.0
 11
606.3685871004683
 21
337.6886888028264
 31
0.0
  0
LINE
  5
1C2
330
1F
100
AcDbEntity
  8
0
100
AcDbLine
 10
591.3685871004684
 20
358.3226688028263
 30
0.0
 11
591.3685871004684
 21
337.6886888028264
 31
0.0
  0
LINE
  5
1C3
330
1F
100
AcDbEntity
  8
0
100
AcDbLine
 10
606.3685871004683
 20
337.6886888028264
 30
0.0
 11
606.8685871004683
 21
335.8227288028264
 31
0.0
  0
LINE
  5
1C4
330
1F
100
AcDbEntity
  8
0
100
AcDbLine
 10
590.8685871004684
 20
335.8226688028263
 30
0.0
 11
591.3685871004684
 21
337.6887488028263
 31
0.0
  0
LINE
  5
1C5
330
1F
100
AcDbEntity
  8
0
100
AcDbLine
 10
590.8685871004684
 20
335.8226688028263
 30
0.0
 11
590.8685871004684
 21
334.8226688028264
 31
0.0
  0
LINE
  5
1C6
330
1F
100
AcDbEntity
  8
0
100
AcDbLine
 10
606.8685871004683
 20
335.8226688028263
 30
0.0
 11
606.8685871004683
 21
334.8226688028264
 31
0.0
  0
LINE
  5
1C7
330
1F
100
AcDbEntity
  8
0
100
AcDbLine
 10
590.8685871004684
 20
335.8226688028263
 30
0.0
 11
606.8685871004683
 21
335.8226688028263
 31
0.0
  0
LINE
  5
1C8
330
1F
100
AcDbEntity
  8
0
100
AcDbLine
 10
592.8685871004684
 20
359.8226688028264
 30
0.0
 11
604.8685871004684
 21
359.8226688028264
 31
0.0
  0
LINE
  5
1C9
330
1F
100
AcDbEntity
  8
0
100
AcDbLine
 10
678.7619732016243
 20
760.0841375880172
 30
0.0
 11
655.2058598276804
 21
760.0841375880172
 31
0.0
  0
LINE
  5
1CA
330
1F
100
AcDbEntity
  8
0
100
AcDbLine
 10
681.0185709628965
 20
766.2840887598921
 30
0.0
 11
678.7619732016243
 21
760.0841375880172
 31
0.0
  0
LINE
  5
1CB
330
1F
100
AcDbEntity
  8
0
100
AcDbLine
 10
683.868602359257
 20
766.2840887598921
 30
0.0
 11
681.0185709628965
 21
766.2840887598921
 31
0.0
  0
LINE
  5
1CC
330
1F
100
AcDbEntity
  8
0
100
AcDbLine
 10
678.7619362756457
 20
721.9841314845016
 30
0.0
 11
655.2058366061904
 21
721.9841314845016
 31
0.0
  0
LINE
  5
1CD
330
1F
100
AcDbEntity
  8
0
100
AcDbLine
 10
681.0185673593876
 20
715.7840887598922
 30
0.0
 11
678.7619362756457
 21
721.9841314845016
 31
0.0
  0
LINE
  5
1CE
330
1F
100
AcDbEntity
  8
0
100
AcDbLine
 10
683.868602359257
 20
715.7840887598922
 30
0.0
 11
681.0185673593876
 21
715.7840887598922
 31
0.0
  0
LINE
  5
1CF
330
1F
100
AcDbEntity
  8
0
100
AcDbLine
 10
678.7619732016243
 20
760.0841375880172
 30
0.0
 11
678.7619362756457
 21
721.9841314845016
 31
0.0
  0
LINE
  5
1D0
330
1F
100
AcDbEntity
  8
0
100
AcDbLine
 10
683.868602359257
 20
766.2840887598921
 30
0.0
 11
683.868602359257
 21
715.7840887598922
 31
0.0
  0
LINE
  5
1D1
330
1F
100
AcDbEntity
  8
0
100
AcDbLine
 10
664.3685718416784
 20
736.034088759892
 30
0.0
 11
664.3685718416787
 21
732.0340287598922
 31
0.0
  0
LINE
  5
1D2
330
1F
100
AcDbEntity
  8
0
100
AcDbLine
 10
664.3685718416787
 20
750.034148759892
 30
0.0
 11
664.3685718416784
 21
746.0340887598921
 31
0.0
  0
LINE
  5
1D3
330
1F
100
AcDbEntity
  8
0
100
AcDbLine
 10
672.9325118416784
 20
746.0340887598921
 30
0.0
 11
672.9325118416784
 21
736.0340887598921
 31
0.0
  0
LINE
  5
1D4
330
1F
100
AcDbEntity
  8
0
100
AcDbLine
 10
672.9325118416784
 20
736.0340887598921
 30
0.0
 11
660.4325318416783
 21
736.0340887598921
 31
0.0
  0
LINE
  5
1D5
330
1F
100
AcDbEntity
  8
0
100
AcDbLine
 10
672.9325118416784
 20
746.0340887598921
 30
0.0
 11
660.4325318416783
 21
746.0340887598921
 31
0.0
  0
LINE
  5
1D6
330
1F
100
AcDbEntity
  8
0
100
AcDbLine
 10
660.4325318416783
 20
746.0340887598921
 30
0.0
 11
660.4325318416783
 21
736.0340887598921
 31
0.0
  0
LINE
  5
1D7
330
1F
100
AcDbEntity
  8
0
100
AcDbLine
 10
660.4325318416783
 20
745.7840887598921
 30
0.0
 11
658.4325318416784
 21
745.7840887598921
 31
0.0
  0
LINE
  5
1D8
330
1F
100
AcDbEntity
  8
0
100
AcDbLine
 10
660.4325318416783
 20
736.2840887598921
 30
0.0
 11
658.4325318416784
 21
736.2840887598921
 31
0.0
  0
LINE
  5
1D9
330
1F
100
AcDbEntity
  8
0
100
AcDbLine
 10
657.3685718416784
 20
745.7509487598921
 30
0.0
 11
657.3685718416784
 21
736.317348759892
 31
0.0
  0
LINE
  5
1DA
330
1F
100
AcDbEntity
  8
0
100
AcDbLine
 10
658.4339318416785
 20
736.2840887598921
 30
0.0
 11
655.3686118416785
 21
736.379908759892
 31
0.0
  0
LINE
  5
1DB
330
1F
100
AcDbEntity
  8
0
100
AcDbLine
 10
658.4325118416784
 20
745.7841487598921
 30
0.0
 11
655.3685718416784
 21
745.6883887598921
 31
0.0
  0
LINE
  5
1DC
330
1F
100
AcDbEntity
  8
0
100
AcDbLine
 10
648.9140909679797
 20
750.034148759892
 30
0.0
 11
648.9140909679797
 21
732.0340287598922
 31
0.0
  0
LINE
  5
1DD
330
1F
100
AcDbEntity
  8
0
100
AcDbLine
 10
655.3685718416787
 20
732.0340287598922
 30
0.0
 11
655.3685718416784
 21
750.034148759892
 31
0.0
  0
LINE
  5
1DE
330
1F
100
AcDbEntity
  8
0
100
AcDbLine
 10
664.3685718416787
 20
732.0340287598922
 30
0.0
 11
648.9140909679797
 21
732.0340287598922
 31
0.0
  0
LINE
  5
1DF
330
1F
100
AcDbEntity
  8
0
100
AcDbLine
 10
664.3685718416787
 20
750.034148759892
 30
0.0
 11
648.9140909679797
 21
750.034148759892
 31
0.0
  0
CIRCLE
  5
1E0
330
1F
100
AcDbEntity
  8
0
100
AcDbCircle
 10
598.8685871004681
 20
741.0340887598921
 30
0.0
 40
7.50000000024
  0
CIRCLE
  5
1E1
330
1F
100
AcDbEntity
  8
0
100
AcDbCircle
 10
598.8685871004681
 20
741.0340887598921
 30
0.0
 40
8.0
  0
CIRCLE
  5
1E2
330
1F
100
AcDbEntity
  8
0
100
AcDbCircle
 10
598.8685871004681
 20
741.0340887598921
 30
0.0
 40
25.00001525878963
  0
ARC
  5
1E3
330
1F
100
AcDbEntity
  8
0
100
AcDbCircle
 10
581.2587576028354
 20
800.4806881624173
 30
0.0
 40
4.999999999999999
100
AcDbArc
 50
286.5009900000027
 51
315.0000599999923
  0
ARC
  5
1E4
330
1F
100
AcDbEntity
  8
0
100
AcDbCircle
 10
598.8686102283638
 20
802.5341687012017
 30
0.0
 40
5.999999999999999
100
AcDbArc
 50
45.00000999999018
 51
135.000010000012
  0
ARC
  5
1E5
330
1F
100
AcDbEntity
  8
0
100
AcDbCircle
 10
616.4784396872209
 20
800.4806893658379
 30
0.0
 40
4.999999999999999
100
AcDbArc
 50
225.0000600000026
 51
253.4990900000053
  0
ARC
  5
1E6
330
1F
100
AcDbEntity
  8
0
100
AcDbCircle
 10
581.2587864752394
 20
681.5875181539464
 30
0.0
 40
4.999999999999999
100
AcDbArc
 50
45.00005600000998
 51
73.49921600000357
  0
ARC
  5
1E7
330
1F
100
AcDbEntity
  8
0
100
AcDbCircle
 10
616.4784339186089
 20
681.587499357367
 30
0.0
 40
4.999999999999999
100
AcDbArc
 50
106.500947999995
 51
135.000010000012
  0
ARC
  5
1E8
330
1F
100
AcDbEntity
  8
0
100
AcDbCircle
 10
598.8686159340968
 20
679.5340388185825
 30
0.0
 40
5.999999999999999
100
AcDbArc
 50
225.0000099999902
 51
315.0000500000004
  0
LINE
  5
1E9
330
1F
100
AcDbEntity
  8
0
100
AcDbLine
 10
603.1112641041415
 20
675.2913966294258
 30
0.0
 11
612.9428904435717
 21
685.1230402885005
 31
0.0
  0
LINE
  5
1EA
330
1F
100
AcDbEntity
  8
0
100
AcDbLine
 10
603.1112550970128
 20
806.7767722302304
 30
0.0
 11
612.9428814355796
 21
796.9451358908005
 31
0.0
  0
LINE
  5
1EB
330
1F
100
AcDbEntity
  8
0
100
AcDbLine
 10
594.6259737449397
 20
675.2913906485376
 30
0.0
 11
584.7943200858649
 21
685.1230343084758
 31
0.0
  0
LINE
  5
1EC
330
1F
100
AcDbEntity
  8
0
100
AcDbLine
 10
594.6259720583191
 20
806.7767935698507
 30
0.0
 11
584.7943110778728
 21
796.9451299107758
 31
0.0
  0
ARC
  5
1ED
330
1F
100
AcDbEntity
  8
0
100
AcDbCircle
 10
641.5459376028354
 20
786.0079481624171
 30
0.0
 40
4.999999999999999
100
AcDbArc
 50
226.5009900000071
 51
255.0000599999873
  0
ARC
  5
1EE
330
1F
100
AcDbEntity
  8
0
100
AcDbCircle
 10
652.1292302283638
 20
771.7841087012016
 30
0.0
 40
5.999999999999999
100
AcDbArc
 50
345.0000100000033
 51
75.00000999999916
  0
ARC
  5
1EF
330
1F
100
AcDbEntity
  8
0
100
AcDbCircle
 10
659.1557796872211
 20
755.506809365838
 30
0.0
 40
4.999999999999999
100
AcDbArc
 50
165.0000599999968
 51
193.4990900000002
  0
ARC
  5
1F0
330
1F
100
AcDbEntity
  8
0
100
AcDbCircle
 10
598.8685871004681
 20
741.0340887598921
 30
0.0
 40
56.99999999999999
100
AcDbArc
 50
9.084781364902381
 51
350.9152186350976
  0
ARC
  5
1F1
330
1F
100
AcDbEntity
  8
0
100
AcDbCircle
 10
641.5459376028354
 20
696.0602293573671
 30
0.0
 40
4.999999999999999
100
AcDbArc
 50
104.9999900000008
 51
133.4990499999992
  0
ARC
  5
1F2
330
1F
100
AcDbEntity
  8
0
100
AcDbCircle
 10
652.1292302283641
 20
710.2840688185826
 30
0.0
 40
5.999999999999999
100
AcDbArc
 50
284.9999500000039
 51
14.99998999999669
  0
ARC
  5
1F3
330
1F
100
AcDbEntity
  8
0
100
AcDbCircle
 10
659.1557796872211
 20
726.5613681539464
 30
0.0
 40
4.999999999999999
100
AcDbArc
 50
166.5009099999997
 51
194.9999400000031
  0
ARC
  5
1F4
330
1F
100
AcDbEntity
  8
0
100
AcDbCircle
 10
538.5814464752395
 20
726.5613381539461
 30
0.0
 40
4.999999999999999
100
AcDbArc
 50
345.0000560000039
 51
13.49921600000363
  0
ARC
  5
1F5
330
1F
100
AcDbEntity
  8
0
100
AcDbCircle
 10
538.5814464752395
 20
755.5068393658379
 30
0.0
 40
4.999999999999999
100
AcDbArc
 50
346.5009099999997
 51
14.99994000000315
  0
ARC
  5
1F6
330
1F
100
AcDbEntity
  8
0
100
AcDbCircle
 10
556.1912539186091
 20
786.0079581624171
 30
0.0
 40
4.999999999999999
100
AcDbArc
 50
284.9999400000126
 51
313.4990099999928
  0
ARC
  5
1F7
330
1F
100
AcDbEntity
  8
0
100
AcDbCircle
 10
556.1912539186089
 20
696.0602193573669
 30
0.0
 40
4.999999999999999
100
AcDbArc
 50
46.50094799999725
 51
75.00000999999916
  0
ARC
  5
1F8
330
1F
100
AcDbEntity
  8
0
100
AcDbCircle
 10
545.6079959340966
 20
710.2840388185824
 30
0.0
 40
5.999999999999999
100
AcDbArc
 50
165.0000100000033
 51
255.000049999996
  0
ARC
  5
1F9
330
1F
100
AcDbEntity
  8
0
100
AcDbCircle
 10
545.6079959340966
 20
771.7841387012016
 30
0.0
 40
5.999999999999999
100
AcDbArc
 50
104.9999900000008
 51
194.9999899999967
  0
LINE
  5
1FA
330
1F
100
AcDbEntity
  8
0
100
AcDbLine
 10
544.0550841041417
 20
704.4884766294254
 30
0.0
 11
557.4853504435719
 21
700.8898602885002
 31
0.0
  0
LINE
  5
1FB
330
1F
100
AcDbEntity
  8
0
100
AcDbLine
 10
657.9247650970128
 20
711.8369879690458
 30
0.0
 11
654.3261214355795
 21
725.2672616289839
 31
0.0
  0
LINE
  5
1FC
330
1F
100
AcDbEntity
  8
0
100
AcDbLine
 10
657.9247550970126
 20
770.2311722302304
 30
0.0
 11
654.3261214355795
 21
756.8009158908004
 31
0.0
  0
LINE
  5
1FD
330
1F
100
AcDbEntity
  8
0
100
AcDbLine
 10
539.8124337449396
 20
711.8369506485377
 30
0.0
 11
543.4110600858648
 21
725.2672343084754
 31
0.0
  0
LINE
  5
1FE
330
1F
100
AcDbEntity
  8
0
100
AcDbLine
 10
653.6821147378112
 20
704.4885139499339
 30
0.0
 11
640.2518410778729
 21
700.8898702885006
 31
0.0
  0
LINE
  5
1FF
330
1F
100
AcDbEntity
  8
0
100
AcDbLine
 10
653.6821320583189
 20
777.5796535698503
 30
0.0
 11
640.251831077873
 21
781.1782899107757
 31
0.0
  0
LINE
  5
200
330
1F
100
AcDbEntity
  8
0
100
AcDbLine
 10
539.8123991039238
 20
770.2312068712465
 30
0.0
 11
543.411052765357
 21
756.8009158908004
 31
0.0
  0
LINE
  5
201
330
1F
100
AcDbEntity
  8
0
100
AcDbLine
 10
544.0550494631256
 20
777.5796808903585
 30
0.0
 11
557.4853404435716
 21
781.1783345517918
 31
0.0
  0
LINE
  5
202
330
1F
100
AcDbEntity
  8
0
100
AcDbLine
 10
683.8686328768353
 20
186.7727399747026
 30
0.0
 11
681.0186014804744
 21
186.7727399747026
 31
0.0
  0
LINE
  5
203
330
1F
100
AcDbEntity
  8
0
100
AcDbLine
 10
681.0186014804744
 20
186.7727399747026
 30
0.0
 11
678.762003719203
 21
180.5727888028276
 31
0.0
  0
LINE
  5
204
330
1F
100
AcDbEntity
  8
0
100
AcDbLine
 10
659.368602359257
 20
201.0727582852495
 30
0.0
 11
659.368602359257
 21
183.5727888028281
 31
0.0
  0
LINE
  5
205
330
1F
100
AcDbEntity
  8
0
100
AcDbLine
 10
683.8686328768353
 20
136.2727399747026
 30
0.0
 11
681.0185978769658
 21
136.2727399747026
 31
0.0
  0
LINE
  5
206
330
1F
100
AcDbEntity
  8
0
100
AcDbLine
 10
681.0185978769658
 20
136.2727399747026
 30
0.0
 11
678.761966793224
 21
142.472782699312
 31
0.0
  0
LINE
  5
207
330
1F
100
AcDbEntity
  8
0
100
AcDbLine
 10
678.761966793224
 20
142.472782699312
 30
0.0
 11
637.1990658491583
 21
142.472782699312
 31
0.0
  0
LINE
  5
208
330
1F
100
AcDbEntity
  8
0
100
AcDbLine
 10
678.762003719203
 20
180.5727888028276
 30
0.0
 11
678.761966793224
 21
142.472782699312
 31
0.0
  0
LINE
  5
209
330
1F
100
AcDbEntity
  8
0
100
AcDbLine
 10
683.8686328768353
 20
186.7727399747026
 30
0.0
 11
683.8686328768353
 21
136.2727399747026
 31
0.0
  0
LINE
  5
20A
330
1F
100
AcDbEntity
  8
0
100
AcDbLine
 10
560.8685947298623
 20
249.0727888028264
 30
0.0
 11
636.8685794710735
 21
249.0727888028264
 31
0.0
  0
LINE
  5
20B
330
1F
100
AcDbEntity
  8
0
100
AcDbLine
 10
646.868602359257
 20
183.5727888028281
 30
0.0
 11
646.868602359257
 21
161.5227704922808
 31
0.0
  0
LINE
  5
20C
330
1F
100
AcDbEntity
  8
0
100
AcDbLine
 10
550.8685898432303
 20
183.5727860603591
 30
0.0
 11
550.8685850055187
 21
161.5227810233536
 31
0.0
  0
LINE
  5
20D
330
1F
100
AcDbEntity
  8
0
100
AcDbLine
 10
538.368602359257
 20
201.0727582852491
 30
0.0
 11
538.368602359257
 21
183.5727888028227
 31
0.0
  0
LINE
  5
20E
330
1F
100
AcDbEntity
  8
0
100
AcDbLine
 10
560.8685947298623
 20
234.5728040616155
 30
0.0
 11
636.8685794710735
 21
234.5728040616155
 31
0.0
  0
LINE
  5
20F
330
1F
100
AcDbEntity
  8
0
100
AcDbLine
 10
617.9185901522262
 20
131.4441342683579
 30
0.0
 11
626.3686675268395
 21
136.3227888028276
 31
0.0
  0
LINE
  5
210
330
1F
100
AcDbEntity
  8
0
100
AcDbLine
 10
636.1975818514443
 20
141.7793830050403
 30
0.0
 11
636.1975818514443
 21
136.3227888028271
 31
0.0
  0
LINE
  5
211
330
1F
100
AcDbEntity
  8
0
100
AcDbLine
 10
624.1185718416788
 20
104.3727936872745
 30
0.0
 11
617.9185901522255
 21
106.6294025560355
 31
0.0
  0
LINE
  5
212
330
1F
100
AcDbEntity
  8
0
100
AcDbLine
 10
624.1185718416788
 20
101.5227704922807
 30
0.0
 11
624.1185718416788
 21
104.3727936872745
 31
0.0
  0
LINE
  5
213
330
1F
100
AcDbEntity
  8
0
100
AcDbLine
 10
573.618602359257
 20
104.3727665898004
 30
0.0
 11
579.818614566288
 21
106.6293865660532
 31
0.0
  0
LINE
  5
214
330
1F
100
AcDbEntity
  8
0
100
AcDbLine
 10
573.618602359257
 20
101.5227704922807
 30
0.0
 11
573.618602359257
 21
104.3727665898004
 31
0.0
  0
LINE
  5
215
330
1F
100
AcDbEntity
  8
0
100
AcDbLine
 10
624.1185718416788
 20
101.5227704922807
 30
0.0
 11
573.618602359257
 21
101.5227704922807
 31
0.0
  0
LINE
  5
216
330
1F
100
AcDbEntity
  8
0
100
AcDbLine
 10
579.818614566288
 20
106.6293865660532
 30
0.0
 11
617.9185901522255
 21
106.6294025560355
 31
0.0
  0
LINE
  5
217
330
1F
100
AcDbEntity
  8
0
100
AcDbLine
 10
617.9185901522262
 20
131.4441342683579
 30
0.0
 11
617.9185901522255
 21
106.6294025560355
 31
0.0
  0
LINE
  5
218
330
1F
100
AcDbEntity
  8
0
100
AcDbLine
 10
579.818614566288
 20
106.6293865660532
 30
0.0
 11
579.8186145662883
 21
131.4441246186502
 31
0.0
  0
LINE
  5
219
330
1F
100
AcDbEntity
  8
0
100
AcDbLine
 10
561.5396011816849
 20
141.7793911949206
 30
0.0
 11
561.5395999845209
 21
136.3227888028304
 31
0.0
  0
LINE
  5
21A
330
1F
100
AcDbEntity
  8
0
100
AcDbLine
 10
579.8186145662883
 20
131.4441246186502
 30
0.0
 11
571.3685143091272
 21
136.3227948362708
 31
0.0
  0
LINE
  5
21B
330
1F
100
AcDbEntity
  8
0
100
AcDbLine
 10
561.5395999845209
 20
136.3227888028304
 30
0.0
 11
636.1975818514443
 21
136.3227888028271
 31
0.0
  0
ARC
  5
21C
330
1F
100
AcDbEntity
  8
0
100
AcDbCircle
 10
574.4685911090336
 20
161.5227758455757
 30
0.0
 40
23.60000038146973
100
AcDbArc
 50
179.9999849249915
 51
236.781145711038
  0
LINE
  5
21D
330
1F
100
AcDbEntity
  8
0
100
AcDbLine
 10
560.8685947298623
 20
249.0727888028264
 30
0.0
 11
560.8685947298623
 21
234.5728040616155
 31
0.0
  0
LINE
  5
21E
330
1F
100
AcDbEntity
  8
0
100
AcDbLine
 10
636.8685794710735
 20
249.0727888028264
 30
0.0
 11
636.8685794710735
 21
234.5728040616155
 31
0.0
  0
LINE
  5
21F
330
1F
100
AcDbEntity
  8
0
100
AcDbLine
 10
538.368602359257
 20
183.5727888028227
 30
0.0
 11
659.368602359257
 21
183.5727888028281
 31
0.0
  0
LINE
  5
220
330
1F
100
AcDbEntity
  8
0
100
AcDbLine
 10
538.368602359257
 20
201.0727582852491
 30
0.0
 11
659.368602359257
 21
201.0727582852495
 31
0.0
  0
LINE
  5
221
330
1F
100
AcDbEntity
  8
0
100
AcDbLine
 10
678.762003719203
 20
180.5727888028276
 30
0.0
 11
646.868602359257
 21
180.5727888028276
 31
0.0
  0
ARC
  5
222
330
1F
100
AcDbEntity
  8
0
100
AcDbCircle
 10
623.2685962557414
 20
161.5227704922808
 30
0.0
 40
23.60000038146973
100
AcDbArc
 50
303.2188417184227
 51
0.0000025044687019
  0
TEXT
  5
223
330
1F
100
AcDbEntity
  8
0
  6
Continuous
100
AcDbText
 10
246.0530902555692
 20
893.9753706250542
 30
0.0
 40
48.000002
  1
DAC2L10AD000 1.5S
 41
1.32095
100
AcDbText
  0
LINE
  5
27F
330
1F
100
AcDbEntity
  8
0
  6
CENTER
100
AcDbLine
 10
531.2988377498355
 20
741.0340887598921
 30
0.0
 11
688.2148582349347
 21
741.0340887598921
 31
0.0
  0
LINE
  5
280
330
1F
100
AcDbEntity
  8
0
  6
CENTER
100
AcDbLine
 10
598.8685871004681
 20
669.1735066977789
 30
0.0
 11
598.8685871004681
 21
812.8946708220054
 31
0.0
  0
LINE
  5
281
330
1F
100
AcDbEntity
  8
0
  6
CENTER
100
AcDbLine
 10
598.8685718416784
 20
73.67572843936227
 30
0.0
 11
598.8685718416784
 21
377.7609671939076
 31
0.0
  0
LINE
  5
282
330
1F
100
AcDbEntity
  8
0
  6
CENTER
100
AcDbLine
 10
536.649547703983
 20
161.5227399747027
 30
0.0
 11
706.2208596215955
 21
161.5227399747027
 31
0.0
  0
VIEWPORT
  5
71
330
55
100
AcDbEntity
 67
     1
  8
0
100
AcDbViewport
 10
133.3499908447265
 20
101.5999970436096
 30
0.0
 40
381.3957395593834
 41
218.2856291881582
 68
     1
 69
     1
 12
133.3499908447265
 22
101.5999970436096
 13
0.0
 23
0.0
 14
10.0
 24
10.0
 15
10.0
 25
10.0
 16
0.0
 26
0.0
 36
1.0
 17
0.0
 27
0.0
 37
0.0
 42
50.0
 43
0.0
 44
0.0
 45
218.2856291881582
 50
0.0
 51
0.0
 72
   100
 90
    32800
  1

281
     0
 71
     1
 74
     0
110
0.0
120
0.0
130
0.0
111
1.0
121
0.0
131
0.0
112
0.0
122
1.0
132
0.0
 79
     0
146
0.0
  0
VIEWPORT
  5
73
330
55
100
AcDbEntity
 67
     1
  8
0
100
AcDbViewport
 10
133.349993944168
 20
101.599993944168
 30
0.0
 40
213.3599903106689
 41
162.5599903106689
 68
     2
 69
     2
 12
210.0
 22
148.5
 13
0.0
 23
0.0
 14
10.0
 24
10.0
 15
10.0
 25
10.0
 16
0.0
 26
0.0
 36
1.0
 17
0.0
 27
0.0
 37
0.0
 42
50.0
 43
0.0
 44
0.0
 45
324.0677920111345
 50
0.0
 51
0.0
 72
   100
 90
    32864
  1

281
     0
 71
     1
 74
     0
110
0.0
120
0.0
130
0.0
111
1.0
121
0.0
131
0.0
112
0.0
122
1.0
132
0.0
 79
     0
146
0.0
  0
ENDSEC
  0
SECTION
  2
OBJECTS
  0
DICTIONARY
  5
C
330
0
100
AcDbDictionary
281
     1
  3
ACAD_GROUP
350
D
  3
ACAD_LAYOUT
350
1A
  3
ACAD_MLINESTYLE
350
17
  3
ACAD_PLOTSETTINGS
350
19
  3
ACAD_PLOTSTYLENAME
350
E
  3
AcDbVariableDictionary
350
5E
  0
DICTIONARY
  5
275
330
2
100
AcDbDictionary
280
     1
281
     1
  3
ACAD_LAYERSTATES
360
276
  0
DICTIONARY
  5
22D
330
1F
100
AcDbDictionary
280
     1
281
     1
  3
ACAD_LAYOUTSELFREF
360
264
  0
DICTIONARY
  5
22F
330
55
100
AcDbDictionary
280
     1
281
     1
  3
ACAD_LAYOUTSELFREF
360
268
  0
DICTIONARY
  5
231
330
50
100
AcDbDictionary
280
     1
281
     1
  3
ACAD_LAYOUTSELFREF
360
267
  0
DICTIONARY
  5
D
102
{ACAD_REACTORS
330
C
102
}
330
C
100
AcDbDictionary
281
     1
  0
DICTIONARY
  5
1A
102
{ACAD_REACTORS
330
C
102
}
330
C
100
AcDbDictionary
281
     1
  3
Model
350
22
  3
ﾚｲｱｳﾄ1
350
51
  3
ﾚｲｱｳﾄ2
350
56
  0
DICTIONARY
  5
17
102
{ACAD_REACTORS
330
C
102
}
330
C
100
AcDbDictionary
281
     1
  3
Standard
350
18
  0
DICTIONARY
  5
19
102
{ACAD_REACTORS
330
C
102
}
330
C
100
AcDbDictionary
281
     1
  0
ACDBDICTIONARYWDFLT
  5
E
102
{ACAD_REACTORS
330
C
102
}
330
C
100
AcDbDictionary
281
     1
  3
Normal
350
F
100
AcDbDictionaryWithDefault
340
F
  0
DICTIONARY
  5
5E
102
{ACAD_REACTORS
330
C
102
}
330
C
100
AcDbDictionary
281
     1
  3
DIMASSOC
350
5F
  3
HIDETEXT
350
63
  0
DICTIONARY
  5
276
102
{ACAD_REACTORS
330
275
102
}
330
275
100
AcDbDictionary
281
     1
  0
XRECORD
  5
264
102
{ACAD_REACTORS
330
22D
102
}
330
22D
100
AcDbXrecord
280
     1
340
1F
  0
XRECORD
  5
268
102
{ACAD_REACTORS
330
22F
102
}
330
22F
100
AcDbXrecord
280
     1
340
55
  0
XRECORD
  5
267
102
{ACAD_REACTORS
330
231
102
}
330
231
100
AcDbXrecord
280
     1
340
50
  0
LAYOUT
  5
22
102
{ACAD_REACTORS
330
1A
102
}
330
1A
100
AcDbPlotSettings
  1

  2
none_device
  4
ANSI_A_(8.50_x_11.00_Inches)
  6

 40
6.349999904632568
 41
19.04999923706054
 42
6.350006103515625
 43
19.04998779296875
 44
215.8999938964843
 45
279.3999938964843
 46
0.0
 47
0.0
 48
0.0
 49
0.0
140
0.0
141
0.0
142
1.0
143
78.436453180766
 70
 11952
 72
     0
 73
     1
 74
     0
  7

 75
     0
147
0.0127491741332998
148
0.0
149
0.0
100
AcDbLayout
  1
Model
 70
     1
 71
     0
 10
0.0
 20
0.0
 11
12.0
 21
9.0
 12
0.0
 22
0.0
 32
0.0
 14
0.0
 24
0.0
 34
0.0
 15
0.0
 25
0.0
 35
0.0
146
0.0
 13
0.0
 23
0.0
 33
0.0
 16
1.0
 26
0.0
 36
0.0
 17
0.0
 27
1.0
 37
0.0
 76
     0
330
1F
  0
LAYOUT
  5
51
102
{ACAD_REACTORS
330
1A
102
}
330
1A
100
AcDbPlotSettings
  1

  2
none_device
  4
Letter_(8.50_x_11.00_Inches)
  6

 40
6.349999904632568
 41
6.349999904632568
 42
6.350006103515625
 43
6.350006103515625
 44
215.8999938964843
 45
279.3999938964843
 46
0.0
 47
0.0
 48
0.0
 49
0.0
140
0.0
141
0.0
142
1.0
143
1.0
 70
   688
 72
     1
 73
     1
 74
     5
  7

 75
    16
147
1.0
148
0.0
149
0.0
100
AcDbLayout
  1
ﾚｲｱｳﾄ1
 70
     1
 71
     1
 10
-6.350006103515625
 20
-6.349999904632568
 11
273.0499877929687
 21
209.5499939918517
 12
0.0
 22
0.0
 32
0.0
 14
26.66076962115562
 24
20.31135699206657
 34
-0.0015258207003583
 15
240.039213369355
 25
182.8886381005154
 35
0.0000000349246037
146
0.0
 13
0.0
 23
0.0
 33
0.0
 16
1.0
 26
0.0
 36
0.0
 17
0.0
 27
1.0
 37
0.0
 76
     0
330
50
331
6B
  0
LAYOUT
  5
56
102
{ACAD_REACTORS
330
1A
102
}
330
1A
100
AcDbPlotSettings
  1

  2
none_device
  4
Letter_(8.50_x_11.00_Inches)
  6

 40
6.349999904632568
 41
6.349999904632568
 42
6.350006103515625
 43
6.350006103515625
 44
215.8999938964843
 45
279.3999938964843
 46
0.0
 47
0.0
 48
0.0
 49
0.0
140
0.0
141
0.0
142
1.0
143
1.0
 70
   688
 72
     1
 73
     1
 74
     5
  7

 75
    16
147
1.0
148
0.0
149
0.0
100
AcDbLayout
  1
ﾚｲｱｳﾄ2
 70
     1
 71
     2
 10
-6.350006103515625
 20
-6.349999904632568
 11
273.0499877929687
 21
209.5499939918517
 12
0.0
 22
0.0
 32
0.0
 14
26.66076962115562
 24
20.31135699206657
 34
-0.0015258207003583
 15
240.039213369355
 25
182.8886381005154
 35
0.0000000349246037
146
0.0
 13
0.0
 23
0.0
 33
0.0
 16
1.0
 26
0.0
 36
0.0
 17
0.0
 27
1.0
 37
0.0
 76
     0
330
55
331
71
  0
MLINESTYLE
  5
18
102
{ACAD_REACTORS
330
17
102
}
330
17
100
AcDbMlineStyle
  2
STANDARD
 70
     0
  3

 62
   256
 51
90.0
 52
90.0
 71
     2
 49
0.5
 62
   256
  6
BYLAYER
 49
-0.5
 62
   256
  6
BYLAYER
  0
ACDBPLACEHOLDER
  5
F
102
{ACAD_REACTORS
330
E
102
}
330
E
  0
DICTIONARYVAR
  5
5F
102
{ACAD_REACTORS
330
5E
102
}
330
5E
100
DictionaryVariables
280
     0
  1
2
  0
DICTIONARYVAR
  5
63
102
{ACAD_REACTORS
330
5E
102
}
330
5E
100
DictionaryVariables
280
     0
  1
1
  0
ENDSEC
  0
EOF
