  0
SECTION
  2
HEADER
  9
$ACADVER
  1
AC1015
  9
$ACADMAINTVER
 70
    14
  9
$DWGCODEPAGE
  3
ANSI_932
  9
$INSBASE
 10
0.0
 20
0.0
 30
0.0
  9
$EXTMIN
 10
600.9006154647172
 20
77.26572376702211
 30
-0.0000000000000058
  9
$EXTMAX
 10
1499.231930615466
 20
833.8285662614648
 30
0.0000000000000104
  9
$LIMMIN
 10
0.0
 20
0.0
  9
$LIMMAX
 10
420.0
 20
297.0
  9
$ORTHOMODE
 70
     0
  9
$REGENMODE
 70
     1
  9
$FILLMODE
 70
     1
  9
$QTEXTMODE
 70
     0
  9
$MIRRTEXT
 70
     1
  9
$LTSCALE
 40
1.0
  9
$ATTMODE
 70
     1
  9
$TEXTSIZE
 40
2.5
  9
$TRACEWID
 40
1.0
  9
$TEXTSTYLE
  7
Standard
  9
$CLAYER
  8
0
  9
$CELTYPE
  6
ByLayer
  9
$CECOLOR
 62
   256
  9
$CELTSCALE
 40
1.0
  9
$DISPSILH
 70
     0
  9
$DIMSCALE
 40
1.0
  9
$DIMASZ
 40
2.5
  9
$DIMEXO
 40
0.625
  9
$DIMDLI
 40
3.75
  9
$DIMRND
 40
0.0
  9
$DIMDLE
 40
0.0
  9
$DIMEXE
 40
1.25
  9
$DIMTP
 40
0.0
  9
$DIMTM
 40
0.0
  9
$DIMTXT
 40
2.5
  9
$DIMCEN
 40
2.5
  9
$DIMTSZ
 40
0.0
  9
$DIMTOL
 70
     0
  9
$DIMLIM
 70
     0
  9
$DIMTIH
 70
     0
  9
$DIMTOH
 70
     0
  9
$DIMSE1
 70
     0
  9
$DIMSE2
 70
     0
  9
$DIMTAD
 70
     1
  9
$DIMZIN
 70
     8
  9
$DIMBLK
  1

  9
$DIMASO
 70
     1
  9
$DIMSHO
 70
     1
  9
$DIMPOST
  1

  9
$DIMAPOST
  1

  9
$DIMALT
 70
     0
  9
$DIMALTD
 70
     3
  9
$DIMALTF
 40
0.03937007874016
  9
$DIMLFAC
 40
1.0
  9
$DIMTOFL
 70
     1
  9
$DIMTVP
 40
0.0
  9
$DIMTIX
 70
     0
  9
$DIMSOXD
 70
     0
  9
$DIMSAH
 70
     0
  9
$DIMBLK1
  1

  9
$DIMBLK2
  1

  9
$DIMSTYLE
  2
ISO-25
  9
$DIMCLRD
 70
     0
  9
$DIMCLRE
 70
     0
  9
$DIMCLRT
 70
     0
  9
$DIMTFAC
 40
1.0
  9
$DIMGAP
 40
0.625
  9
$DIMJUST
 70
     0
  9
$DIMSD1
 70
     0
  9
$DIMSD2
 70
     0
  9
$DIMTOLJ
 70
     0
  9
$DIMTZIN
 70
     8
  9
$DIMALTZ
 70
     0
  9
$DIMALTTZ
 70
     0
  9
$DIMUPT
 70
     0
  9
$DIMDEC
 70
     2
  9
$DIMTDEC
 70
     2
  9
$DIMALTU
 70
     2
  9
$DIMALTTD
 70
     3
  9
$DIMTXSTY
  7
Standard
  9
$DIMAUNIT
 70
     0
  9
$DIMADEC
 70
     0
  9
$DIMALTRND
 40
0.0
  9
$DIMAZIN
 70
     0
  9
$DIMDSEP
 70
    44
  9
$DIMATFIT
 70
     3
  9
$DIMFRAC
 70
     0
  9
$DIMLDRBLK
  1

  9
$DIMLUNIT
 70
     2
  9
$DIMLWD
 70
    -2
  9
$DIMLWE
 70
    -2
  9
$DIMTMOVE
 70
     0
  9
$LUNITS
 70
     2
  9
$LUPREC
 70
     4
  9
$SKETCHINC
 40
1.0
  9
$FILLETRAD
 40
10.0
  9
$AUNITS
 70
     0
  9
$AUPREC
 70
     0
  9
$MENU
  1
.
  9
$ELEVATION
 40
0.0
  9
$PELEVATION
 40
0.0
  9
$THICKNESS
 40
0.0
  9
$LIMCHECK
 70
     0
  9
$CHAMFERA
 40
10.0
  9
$CHAMFERB
 40
10.0
  9
$CHAMFERC
 40
20.0
  9
$CHAMFERD
 40
0.0
  9
$SKPOLY
 70
     0
  9
$TDCREATE
 40
2454278.643815277
  9
$TDUCREATE
 40
2454278.268815277
  9
$TDUPDATE
 40
2456899.669752302
  9
$TDUUPDATE
 40
2456899.294752303
  9
$TDINDWG
 40
0.0014525579
  9
$TDUSRTIMER
 40
0.0014525579
  9
$USRTIMER
 70
     1
  9
$ANGBASE
 50
0.0
  9
$ANGDIR
 70
     0
  9
$PDMODE
 70
     0
  9
$PDSIZE
 40
0.0
  9
$PLINEWID
 40
0.0
  9
$SPLFRAME
 70
     0
  9
$SPLINETYPE
 70
     6
  9
$SPLINESEGS
 70
     8
  9
$HANDSEED
  5
280
  9
$SURFTAB1
 70
     6
  9
$SURFTAB2
 70
     6
  9
$SURFTYPE
 70
     6
  9
$SURFU
 70
     6
  9
$SURFV
 70
     6
  9
$UCSBASE
  2

  9
$UCSNAME
  2

  9
$UCSORG
 10
0.0
 20
0.0
 30
0.0
  9
$UCSXDIR
 10
1.0
 20
0.0
 30
0.0
  9
$UCSYDIR
 10
0.0
 20
1.0
 30
0.0
  9
$UCSORTHOREF
  2

  9
$UCSORTHOVIEW
 70
     0
  9
$UCSORGTOP
 10
0.0
 20
0.0
 30
0.0
  9
$UCSORGBOTTOM
 10
0.0
 20
0.0
 30
0.0
  9
$UCSORGLEFT
 10
0.0
 20
0.0
 30
0.0
  9
$UCSORGRIGHT
 10
0.0
 20
0.0
 30
0.0
  9
$UCSORGFRONT
 10
0.0
 20
0.0
 30
0.0
  9
$UCSORGBACK
 10
0.0
 20
0.0
 30
0.0
  9
$PUCSBASE
  2

  9
$PUCSNAME
  2

  9
$PUCSORG
 10
0.0
 20
0.0
 30
0.0
  9
$PUCSXDIR
 10
1.0
 20
0.0
 30
0.0
  9
$PUCSYDIR
 10
0.0
 20
1.0
 30
0.0
  9
$PUCSORTHOREF
  2

  9
$PUCSORTHOVIEW
 70
     0
  9
$PUCSORGTOP
 10
0.0
 20
0.0
 30
0.0
  9
$PUCSORGBOTTOM
 10
0.0
 20
0.0
 30
0.0
  9
$PUCSORGLEFT
 10
0.0
 20
0.0
 30
0.0
  9
$PUCSORGRIGHT
 10
0.0
 20
0.0
 30
0.0
  9
$PUCSORGFRONT
 10
0.0
 20
0.0
 30
0.0
  9
$PUCSORGBACK
 10
0.0
 20
0.0
 30
0.0
  9
$USERI1
 70
     0
  9
$USERI2
 70
     0
  9
$USERI3
 70
     0
  9
$USERI4
 70
     0
  9
$USERI5
 70
     0
  9
$USERR1
 40
0.0
  9
$USERR2
 40
0.0
  9
$USERR3
 40
0.0
  9
$USERR4
 40
0.0
  9
$USERR5
 40
0.0
  9
$WORLDVIEW
 70
     1
  9
$SHADEDGE
 70
     3
  9
$SHADEDIF
 70
    70
  9
$TILEMODE
 70
     1
  9
$MAXACTVP
 70
    48
  9
$PINSBASE
 10
0.0
 20
0.0
 30
0.0
  9
$PLIMCHECK
 70
     0
  9
$PEXTMIN
 10
26.66076962115562
 20
20.31135699206657
 30
-0.0015258207003583
  9
$PEXTMAX
 10
240.039213369355
 20
182.8886381005154
 30
0.0000000349246037
  9
$PLIMMIN
 10
-6.350006103515625
 20
-6.349999904632568
  9
$PLIMMAX
 10
273.0499877929687
 20
209.5499939918517
  9
$UNITMODE
 70
     0
  9
$VISRETAIN
 70
     1
  9
$PLINEGEN
 70
     0
  9
$PSLTSCALE
 70
     1
  9
$TREEDEPTH
 70
  3020
  9
$CMLSTYLE
  2
Standard
  9
$CMLJUST
 70
     0
  9
$CMLSCALE
 40
20.0
  9
$PROXYGRAPHICS
 70
     1
  9
$MEASUREMENT
 70
     1
  9
$CELWEIGHT
370
    -1
  9
$ENDCAPS
280
     0
  9
$JOINSTYLE
280
     0
  9
$LWDISPLAY
290
     0
  9
$INSUNITS
 70
     4
  9
$HYPERLINKBASE
  1

  9
$STYLESHEET
  1

  9
$XEDIT
290
     1
  9
$CEPSNTYPE
380
     0
  9
$PSTYLEMODE
290
     1
  9
$FINGERPRINTGUID
  2
{FDEAD578-A652-11D2-9A35-0060089B3A3F}
  9
$VERSIONGUID
  2
{BD0E773F-95FD-4274-AF52-8E51F51D46D2}
  9
$EXTNAMES
290
     1
  9
$PSVPSCALE
 40
0.0
  9
$OLESTARTUP
290
     0
  0
ENDSEC
  0
SECTION
  2
CLASSES
  0
CLASS
  1
ACDBDICTIONARYWDFLT
  2
AcDbDictionaryWithDefault
  3
AutoCAD 2000
 90
        0
280
     0
281
     0
  0
CLASS
  1
ACDBPLACEHOLDER
  2
AcDbPlaceHolder
  3
AutoCAD 2000
 90
        0
280
     0
281
     0
  0
CLASS
  1
LAYOUT
  2
AcDbLayout
  3
AutoCAD 2000
 90
        0
280
     0
281
     0
  0
CLASS
  1
DICTIONARYVAR
  2
AcDbDictionaryVar
  3
AutoCAD 2000
 90
        0
280
     0
281
     0
  0
CLASS
  1
LONG_TRANSACTION
  2
AcDbLongTransaction
  3
AutoCAD 2000
 90
    32768
280
     0
281
     0
  0
CLASS
  1
LWPOLYLINE
  2
AcDbPolyline
  3
AutoCAD 2000
 90
    32768
280
     0
281
     1
  0
CLASS
  1
HATCH
  2
AcDbHatch
  3
AutoCAD 2000
 90
    32768
280
     0
281
     1
  0
CLASS
  1
XRECORD
  2
AcDbXrecord
  3
AutoCAD 2000
 90
    32768
280
     0
281
     0
  0
ENDSEC
  0
SECTION
  2
TABLES
  0
TABLE
  2
VPORT
  5
8
330
0
100
AcDbSymbolTable
 70
     2
  0
VPORT
  5
27F
330
8
100
AcDbSymbolTableRecord
100
AcDbViewportTableRecord
  2
*Active
 70
     0
 10
0.0
 20
0.0
 11
1.0
 21
1.0
 12
1050.066273040092
 22
455.5471450142435
 13
0.0
 23
0.0
 14
10.0
 24
10.0
 15
10.0
 25
10.0
 16
0.0
 26
0.0
 36
1.0
 17
0.0
 27
0.0
 37
0.0
 40
761.366416097582
 41
1.592161016949152
 42
50.0
 43
0.0
 44
0.0
 50
0.0
 51
0.0
 71
     0
 72
   100
 73
     1
 74
     3
 75
     0
 76
     0
 77
     0
 78
     0
281
     0
 65
     1
110
0.0
120
0.0
130
0.0
111
1.0
121
0.0
131
0.0
112
0.0
122
1.0
132
0.0
 79
     0
146
0.0
  0
ENDTAB
  0
TABLE
  2
LTYPE
  5
5
330
0
100
AcDbSymbolTable
 70
     2
  0
LTYPE
  5
14
330
5
100
AcDbSymbolTableRecord
100
AcDbLinetypeTableRecord
  2
ByBlock
 70
     0
  3

 72
    65
 73
     0
 40
0.0
  0
LTYPE
  5
15
330
5
100
AcDbSymbolTableRecord
100
AcDbLinetypeTableRecord
  2
ByLayer
 70
     0
  3

 72
    65
 73
     0
 40
0.0
  0
LTYPE
  5
16
330
5
100
AcDbSymbolTableRecord
100
AcDbLinetypeTableRecord
  2
Continuous
 70
     0
  3
Solid line
 72
    65
 73
     0
 40
0.0
  0
LTYPE
  5
265
330
5
100
AcDbSymbolTableRecord
100
AcDbLinetypeTableRecord
  2
CENTER
 70
     0
  3
__ . __
 72
    65
 73
     4
 40
7.0
 49
4.0
 74
     0
 49
-1.0
 74
     0
 49
1.0
 74
     0
 49
-1.0
 74
     0
  0
ENDTAB
  0
TABLE
  2
LAYER
  5
2
102
{ACAD_XDICTIONARY
360
266
102
}
330
0
100
AcDbSymbolTable
 70
     1
  0
LAYER
  5
10
330
2
100
AcDbSymbolTableRecord
100
AcDbLayerTableRecord
  2
0
 70
     0
 62
     7
  6
Continuous
370
    -3
390
F
  0
ENDTAB
  0
TABLE
  2
STYLE
  5
3
330
0
100
AcDbSymbolTable
 70
     1
  0
STYLE
  5
11
330
3
100
AcDbSymbolTableRecord
100
AcDbTextStyleTableRecord
  2
Standard
 70
     0
 40
0.0
 41
1.0
 50
0.0
 71
     0
 42
2.5
  3
txt
  4

  0
ENDTAB
  0
TABLE
  2
VIEW
  5
6
330
0
100
AcDbSymbolTable
 70
     0
  0
ENDTAB
  0
TABLE
  2
UCS
  5
7
330
0
100
AcDbSymbolTable
 70
     0
  0
ENDTAB
  0
TABLE
  2
APPID
  5
9
330
0
100
AcDbSymbolTable
 70
     1
  0
APPID
  5
12
330
9
100
AcDbSymbolTableRecord
100
AcDbRegAppTableRecord
  2
ACAD
 70
     0
  0
ENDTAB
  0
TABLE
  2
DIMSTYLE
  5
A
330
0
100
AcDbSymbolTable
 70
     1
100
AcDbDimStyleTable
 71
     0
  0
DIMSTYLE
105
27
330
A
100
AcDbSymbolTableRecord
100
AcDbDimStyleTableRecord
  2
ISO-25
 70
     0
 41
2.5
 42
0.625
 43
3.75
 44
1.25
 73
     0
 74
     0
 77
     1
 78
     8
140
2.5
141
2.5
143
0.03937007874016
147
0.625
171
     3
172
     1
271
     2
272
     2
274
     3
278
    44
283
     0
284
     8
340
11
  0
ENDTAB
  0
TABLE
  2
BLOCK_RECORD
  5
1
330
0
100
AcDbSymbolTable
 70
     1
  0
BLOCK_RECORD
  5
1F
102
{ACAD_XDICTIONARY
360
21E
102
}
330
1
100
AcDbSymbolTableRecord
100
AcDbBlockTableRecord
  2
*Model_Space
340
22
  0
BLOCK_RECORD
  5
55
102
{ACAD_XDICTIONARY
360
220
102
}
330
1
100
AcDbSymbolTableRecord
100
AcDbBlockTableRecord
  2
*Paper_Space
340
56
  0
BLOCK_RECORD
  5
50
102
{ACAD_XDICTIONARY
360
222
102
}
330
1
100
AcDbSymbolTableRecord
100
AcDbBlockTableRecord
  2
*Paper_Space0
340
51
  0
ENDTAB
  0
ENDSEC
  0
SECTION
  2
BLOCKS
  0
BLOCK
  5
20
330
1F
100
AcDbEntity
  8
0
100
AcDbBlockBegin
  2
*Model_Space
 70
     0
 10
0.0
 20
0.0
 30
0.0
  3
*Model_Space
  1

  0
ENDBLK
  5
21
330
1F
100
AcDbEntity
  8
0
100
AcDbBlockEnd
  0
BLOCK
  5
57
330
55
100
AcDbEntity
 67
     1
  8
0
100
AcDbBlockBegin
  2
*Paper_Space
 70
     0
 10
0.0
 20
0.0
 30
0.0
  3
*Paper_Space
  1

  0
ENDBLK
  5
58
330
55
100
AcDbEntity
 67
     1
  8
0
100
AcDbBlockEnd
  0
BLOCK
  5
52
330
50
100
AcDbEntity
  8
0
100
AcDbBlockBegin
  2
*Paper_Space0
 70
     0
 10
0.0
 20
0.0
 30
0.0
  3
*Paper_Space0
  1

  0
VIEWPORT
  5
6B
330
50
100
AcDbEntity
  8
0
100
AcDbViewport
 10
133.3499908447265
 20
101.5999970436096
 30
0.0
 40
381.3957395593834
 41
218.2856291881582
 69
     0
 12
133.3499908447265
 22
101.5999970436096
 13
0.0
 23
0.0
 14
10.0
 24
10.0
 15
10.0
 25
10.0
 16
0.0
 26
0.0
 36
1.0
 17
0.0
 27
0.0
 37
0.0
 42
50.0
 43
0.0
 44
0.0
 45
218.2856291881582
 50
0.0
 51
0.0
 72
   100
 90
    32800
  1

281
     0
 71
     1
 74
     0
110
0.0
120
0.0
130
0.0
111
1.0
121
0.0
131
0.0
112
0.0
122
1.0
132
0.0
 79
     0
146
0.0
  0
VIEWPORT
  5
6D
330
50
100
AcDbEntity
  8
0
100
AcDbViewport
 10
133.349993944168
 20
101.599993944168
 30
0.0
 40
213.3599903106689
 41
162.5599903106689
 69
     0
 12
210.0
 22
148.5
 13
0.0
 23
0.0
 14
10.0
 24
10.0
 15
10.0
 25
10.0
 16
0.0
 26
0.0
 36
1.0
 17
0.0
 27
0.0
 37
0.0
 42
50.0
 43
0.0
 44
0.0
 45
324.0677920111345
 50
0.0
 51
0.0
 72
   100
 90
    32864
  1

281
     0
 71
     1
 74
     0
110
0.0
120
0.0
130
0.0
111
1.0
121
0.0
131
0.0
112
0.0
122
1.0
132
0.0
 79
     0
146
0.0
  0
ENDBLK
  5
53
330
50
100
AcDbEntity
  8
0
100
AcDbBlockEnd
  0
ENDSEC
  0
SECTION
  2
ENTITIES
  0
LINE
  5
152
330
1F
100
AcDbEntity
  8
0
100
AcDbLine
 10
967.287635051419
 20
172.3938181220043
 30
0.0
 11
973.7876150514194
 21
165.893911314208
 31
0.0
  0
LINE
  5
153
330
1F
100
AcDbEntity
  8
0
100
AcDbLine
 10
967.2876350514178
 20
193.6438447183302
 30
0.0
 11
967.287635051419
 21
172.3938181220043
 31
0.0
  0
LINE
  5
154
330
1F
100
AcDbEntity
  8
0
100
AcDbLine
 10
973.7876274220258
 20
165.8938454840883
 30
0.0
 11
973.7876274220258
 21
164.6438447183315
 31
0.0
  0
LINE
  5
155
330
1F
100
AcDbEntity
  8
0
100
AcDbLine
 10
912.2876350514198
 20
172.3938181220026
 30
0.0
 11
905.7876550514198
 21
165.8939113142058
 31
0.0
  0
LINE
  5
156
330
1F
100
AcDbEntity
  8
0
100
AcDbLine
 10
912.2876350514198
 20
193.6438447183285
 30
0.0
 11
912.2876350514198
 21
172.3938181220026
 31
0.0
  0
LINE
  5
157
330
1F
100
AcDbEntity
  8
0
100
AcDbLine
 10
905.7876426808135
 20
165.8938454840862
 30
0.0
 11
905.7876426808135
 21
164.6438447183294
 31
0.0
  0
ARC
  5
158
330
1F
100
AcDbEntity
  8
0
100
AcDbCircle
 10
993.0633350514201
 20
215.1279047183284
 30
0.0
 40
5.4168334
100
AcDbArc
 50
301.1866320000056
 51
345.7432929999961
  0
ARC
  5
159
330
1F
100
AcDbEntity
  8
0
100
AcDbCircle
 10
993.0633350514201
 20
215.1279047183284
 30
0.0
 40
5.4168334
100
AcDbArc
 50
194.2567100000051
 51
238.8133699999987
  0
ARC
  5
15A
330
1F
100
AcDbEntity
  8
0
100
AcDbCircle
 10
939.78763505142
 20
215.1279047183284
 30
0.0
 40
5.4168334
100
AcDbArc
 50
301.1866320000056
 51
345.7432929999961
  0
ARC
  5
15B
330
1F
100
AcDbEntity
  8
0
100
AcDbCircle
 10
939.78763505142
 20
215.1279047183284
 30
0.0
 40
5.4168334
100
AcDbArc
 50
194.2567100000051
 51
238.8133699999987
  0
ARC
  5
15C
330
1F
100
AcDbEntity
  8
0
100
AcDbCircle
 10
886.51191505142
 20
215.1279047183284
 30
0.0
 40
5.4168334
100
AcDbArc
 50
194.2567100000051
 51
238.8133699999987
  0
ARC
  5
15D
330
1F
100
AcDbEntity
  8
0
100
AcDbCircle
 10
886.51191505142
 20
215.1279047183284
 30
0.0
 40
5.4168334
100
AcDbArc
 50
301.1866320000056
 51
345.7432929999961
  0
ARC
  5
15E
330
1F
100
AcDbEntity
  8
0
100
AcDbCircle
 10
970.7875350514198
 20
209.8939047183284
 30
0.0
 40
4.0
100
AcDbArc
 50
90.0
 51
180.0
  0
ARC
  5
15F
330
1F
100
AcDbEntity
  8
0
100
AcDbCircle
 10
908.7877350514203
 20
209.8939047183284
 30
0.0
 40
4.0
100
AcDbArc
 50
0.0
 51
90.0
  0
ARC
  5
160
330
1F
100
AcDbEntity
  8
0
100
AcDbCircle
 10
998.0481950514201
 20
216.3939047183284
 30
0.0
 40
1.0
100
AcDbArc
 50
270.0
 51
0.0
  0
ARC
  5
161
330
1F
100
AcDbEntity
  8
0
100
AcDbCircle
 10
986.3734150514199
 20
214.8939047183284
 30
0.0
 40
1.0
100
AcDbArc
 50
270.0
 51
290.2449800000078
  0
ARC
  5
162
330
1F
100
AcDbEntity
  8
0
100
AcDbCircle
 10
893.20185505142
 20
214.8939047183284
 30
0.0
 40
1.0
100
AcDbArc
 50
249.7967700000102
 51
270.0
  0
ARC
  5
163
330
1F
100
AcDbEntity
  8
0
100
AcDbCircle
 10
881.5270550514199
 20
216.3939047183284
 30
0.0
 40
1.0
100
AcDbArc
 50
180.0
 51
270.0
  0
ARC
  5
164
330
1F
100
AcDbEntity
  8
0
100
AcDbCircle
 10
894.65829505142
 20
242.8210247183285
 30
0.0
 40
5.0
100
AcDbArc
 50
0.0
 51
90.0
  0
ARC
  5
165
330
1F
100
AcDbEntity
  8
0
100
AcDbCircle
 10
885.5270550514198
 20
242.8210247183285
 30
0.0
 40
5.0
100
AcDbArc
 50
90.0
 51
180.0
  0
ARC
  5
166
330
1F
100
AcDbEntity
  8
0
100
AcDbCircle
 10
929.7954550514198
 20
242.8210247183285
 30
0.0
 40
5.0
100
AcDbArc
 50
90.0
 51
180.0
  0
ARC
  5
167
330
1F
100
AcDbEntity
  8
0
100
AcDbCircle
 10
949.7797950514197
 20
242.8210247183285
 30
0.0
 40
5.0
100
AcDbArc
 50
0.0
 51
90.0
  0
ARC
  5
168
330
1F
100
AcDbEntity
  8
0
100
AcDbCircle
 10
993.0633350514201
 20
246.3938447183286
 30
0.0
 40
5.0
100
AcDbArc
 50
241.5873099999978
 51
337.7688219999974
  0
ARC
  5
169
330
1F
100
AcDbEntity
  8
0
100
AcDbCircle
 10
939.78763505142
 20
246.3938447183286
 30
0.0
 40
5.0
100
AcDbArc
 50
245.1714900000007
 51
294.8285079999942
  0
ARC
  5
16A
330
1F
100
AcDbEntity
  8
0
100
AcDbCircle
 10
963.7876350514201
 20
292.8938447183284
 30
0.0
 40
1.0
100
AcDbArc
 50
0.0
 51
90.0
  0
ARC
  5
16B
330
1F
100
AcDbEntity
  8
0
100
AcDbCircle
 10
898.4262550514202
 20
280.8938447183284
 30
0.0
 40
8.0
100
AcDbArc
 50
90.0
 51
164.9999600000015
  0
ARC
  5
16C
330
1F
100
AcDbEntity
  8
0
100
AcDbCircle
 10
915.78763505142
 20
292.8938447183284
 30
0.0
 40
1.0
100
AcDbArc
 50
90.0
 51
180.0
  0
ARC
  5
16D
330
1F
100
AcDbEntity
  8
0
100
AcDbCircle
 10
915.78763505142
 20
292.8938447183284
 30
0.0
 40
1.0
100
AcDbArc
 50
90.0
 51
180.0
  0
ARC
  5
16E
330
1F
100
AcDbEntity
  8
0
100
AcDbCircle
 10
981.1490150514199
 20
280.8938447183284
 30
0.0
 40
8.0
100
AcDbArc
 50
15.00001000000454
 51
90.0
  0
ARC
  5
16F
330
1F
100
AcDbEntity
  8
0
100
AcDbCircle
 10
991.3677750514199
 20
281.3938447183284
 30
0.0
 40
2.0
100
AcDbArc
 50
195.0000100000045
 51
270.0
  0
ARC
  5
170
330
1F
100
AcDbEntity
  8
0
100
AcDbCircle
 10
1004.28763505142
 20
240.8938447183286
 30
0.0
 40
1.0
100
AcDbArc
 50
0.0
 51
90.0
  0
ARC
  5
171
330
1F
100
AcDbEntity
  8
0
100
AcDbCircle
 10
995.28763505142
 20
278.3938447183284
 30
0.0
 40
1.0
100
AcDbArc
 50
0.0
 51
90.0
  0
ARC
  5
172
330
1F
100
AcDbEntity
  8
0
100
AcDbCircle
 10
1004.28763505142
 20
224.8938447183286
 30
0.0
 40
1.0
100
AcDbArc
 50
270.0
 51
0.0
  0
ARC
  5
173
330
1F
100
AcDbEntity
  8
0
100
AcDbCircle
 10
876.5021350514201
 20
238.7065247183286
 30
0.0
 40
120.0
100
AcDbArc
 50
4.12501900000419
 51
14.99999999999445
  0
ARC
  5
174
330
1F
100
AcDbEntity
  8
0
100
AcDbCircle
 10
1003.07315505142
 20
238.7065247183286
 30
0.0
 40
120.0
100
AcDbArc
 50
165.0000000000055
 51
174.4255299999997
  0
ARC
  5
175
330
1F
100
AcDbEntity
  8
0
100
AcDbCircle
 10
1003.07315505142
 20
238.7065247183286
 30
0.0
 40
120.0
100
AcDbArc
 50
174.4255299999997
 51
175.8749800000029
  0
ARC
  5
176
330
1F
100
AcDbEntity
  8
0
100
AcDbCircle
 10
886.51191505142
 20
246.3938447183286
 30
0.0
 40
5.0
100
AcDbArc
 50
202.2312400000102
 51
298.4125379999988
  0
ARC
  5
177
330
1F
100
AcDbEntity
  8
0
100
AcDbCircle
 10
984.9169750514199
 20
242.8210247183285
 30
0.0
 40
5.0
100
AcDbArc
 50
90.0
 51
180.0
  0
ARC
  5
178
330
1F
100
AcDbEntity
  8
0
100
AcDbCircle
 10
994.0481950514202
 20
242.8210247183285
 30
0.0
 40
5.0
100
AcDbArc
 50
0.0
 51
90.0
  0
LINE
  5
179
330
1F
100
AcDbEntity
  8
0
100
AcDbLine
 10
999.0633350514201
 20
215.3939047183285
 30
0.0
 11
999.0633350514201
 21
213.7939247183285
 31
0.0
  0
LINE
  5
17A
330
1F
100
AcDbEntity
  8
0
100
AcDbLine
 10
987.0633350514202
 20
215.3939047183285
 30
0.0
 11
987.0633350514202
 21
213.7939247183285
 31
0.0
  0
LINE
  5
17B
330
1F
100
AcDbEntity
  8
0
100
AcDbLine
 10
999.0633350514201
 20
213.7939247183285
 30
0.0
 11
987.0633350514202
 21
213.7939247183285
 31
0.0
  0
LINE
  5
17C
330
1F
100
AcDbEntity
  8
0
100
AcDbLine
 10
995.86831505142
 20
210.4938847183284
 30
0.0
 11
990.2583350514198
 21
210.4938847183284
 31
0.0
  0
LINE
  5
17D
330
1F
100
AcDbEntity
  8
0
100
AcDbLine
 10
945.7876350514199
 20
215.3939047183285
 30
0.0
 11
945.7876350514199
 21
213.7939247183285
 31
0.0
  0
LINE
  5
17E
330
1F
100
AcDbEntity
  8
0
100
AcDbLine
 10
933.78763505142
 20
215.3939047183285
 30
0.0
 11
933.78763505142
 21
213.7939247183285
 31
0.0
  0
LINE
  5
17F
330
1F
100
AcDbEntity
  8
0
100
AcDbLine
 10
945.7876350514199
 20
213.7939247183285
 30
0.0
 11
933.78763505142
 21
213.7939247183285
 31
0.0
  0
LINE
  5
180
330
1F
100
AcDbEntity
  8
0
100
AcDbLine
 10
942.5926350514199
 20
210.4938847183284
 30
0.0
 11
936.9826350514202
 21
210.4938847183284
 31
0.0
  0
LINE
  5
181
330
1F
100
AcDbEntity
  8
0
100
AcDbLine
 10
880.5119150514199
 20
215.3939047183285
 30
0.0
 11
880.5119150514199
 21
213.7939247183285
 31
0.0
  0
LINE
  5
182
330
1F
100
AcDbEntity
  8
0
100
AcDbLine
 10
892.5119150514198
 20
215.3939047183285
 30
0.0
 11
892.5119150514198
 21
213.7939247183285
 31
0.0
  0
LINE
  5
183
330
1F
100
AcDbEntity
  8
0
100
AcDbLine
 10
880.5119150514199
 20
213.7939247183285
 30
0.0
 11
892.5119150514198
 21
213.7939247183285
 31
0.0
  0
LINE
  5
184
330
1F
100
AcDbEntity
  8
0
100
AcDbLine
 10
883.70693505142
 20
210.4938847183284
 30
0.0
 11
889.3169150514196
 21
210.4938847183284
 31
0.0
  0
LINE
  5
185
330
1F
100
AcDbEntity
  8
0
100
AcDbLine
 10
1013.85157505142
 20
275.3937847183284
 30
0.0
 11
1013.85157505142
 21
265.3937847183284
 31
0.0
  0
LINE
  5
186
330
1F
100
AcDbEntity
  8
0
100
AcDbLine
 10
1013.85157505142
 20
265.3937847183284
 30
0.0
 11
1001.35159505142
 21
265.3937847183284
 31
0.0
  0
LINE
  5
187
330
1F
100
AcDbEntity
  8
0
100
AcDbLine
 10
1013.85157505142
 20
275.3937847183284
 30
0.0
 11
1001.35159505142
 21
275.3937847183284
 31
0.0
  0
LINE
  5
188
330
1F
100
AcDbEntity
  8
0
100
AcDbLine
 10
1001.35159505142
 20
275.3937847183284
 30
0.0
 11
1001.35159505142
 21
265.3937847183284
 31
0.0
  0
LINE
  5
189
330
1F
100
AcDbEntity
  8
0
100
AcDbLine
 10
1001.35159505142
 20
275.1437847183284
 30
0.0
 11
999.3515950514199
 21
275.1437847183284
 31
0.0
  0
LINE
  5
18A
330
1F
100
AcDbEntity
  8
0
100
AcDbLine
 10
1001.35159505142
 20
265.6437847183284
 30
0.0
 11
999.3515950514199
 21
265.6437847183284
 31
0.0
  0
LINE
  5
18B
330
1F
100
AcDbEntity
  8
0
100
AcDbLine
 10
880.5270550514199
 20
223.3938447183286
 30
0.0
 11
880.5270550514199
 21
216.3939047183284
 31
0.0
  0
LINE
  5
18C
330
1F
100
AcDbEntity
  8
0
100
AcDbLine
 10
998.2876350514199
 20
275.1106447183284
 30
0.0
 11
998.2876350514199
 21
265.6770447183283
 31
0.0
  0
LINE
  5
18D
330
1F
100
AcDbEntity
  8
0
100
AcDbLine
 10
912.7877350514202
 20
209.8939047183284
 30
0.0
 11
912.7877350514202
 21
208.1438447183286
 31
0.0
  0
LINE
  5
18E
330
1F
100
AcDbEntity
  8
0
100
AcDbLine
 10
999.3529950514201
 20
265.6437847183284
 30
0.0
 11
996.2876750514199
 21
265.7396047183283
 31
0.0
  0
LINE
  5
18F
330
1F
100
AcDbEntity
  8
0
100
AcDbLine
 10
999.35157505142
 20
275.1438447183284
 30
0.0
 11
996.28763505142
 21
275.0480847183284
 31
0.0
  0
LINE
  5
190
330
1F
100
AcDbEntity
  8
0
100
AcDbLine
 10
946.4165750514201
 20
213.8939047183284
 30
0.0
 11
986.3734150514199
 21
213.8939047183284
 31
0.0
  0
LINE
  5
191
330
1F
100
AcDbEntity
  8
0
100
AcDbLine
 10
999.0481950514201
 20
223.3938447183286
 30
0.0
 11
882.78763505142
 21
223.3938447183286
 31
0.0
  0
LINE
  5
192
330
1F
100
AcDbEntity
  8
0
100
AcDbLine
 10
881.5270550514199
 20
215.3939047183285
 30
0.0
 11
998.0481950514201
 21
215.3939047183285
 31
0.0
  0
LINE
  5
193
330
1F
100
AcDbEntity
  8
0
100
AcDbLine
 10
999.0481950514201
 20
223.3938447183286
 30
0.0
 11
999.0481950514201
 21
216.3939047183284
 31
0.0
  0
LINE
  5
194
330
1F
100
AcDbEntity
  8
0
100
AcDbLine
 10
893.20185505142
 20
213.8939047183284
 30
0.0
 11
932.91227505142
 21
213.8939047183284
 31
0.0
  0
LINE
  5
195
330
1F
100
AcDbEntity
  8
0
100
AcDbLine
 10
966.7875350514197
 20
209.8939047183284
 30
0.0
 11
966.7875350514201
 21
208.1438447183285
 31
0.0
  0
LINE
  5
196
330
1F
100
AcDbEntity
  8
0
100
AcDbLine
 10
894.2517150514197
 20
244.8961647183287
 30
0.0
 11
888.8910150514201
 21
241.9961447183286
 31
0.0
  0
LINE
  5
197
330
1F
100
AcDbEntity
  8
0
100
AcDbLine
 10
881.7225550514201
 20
244.8961047183284
 30
0.0
 11
881.8836150514201
 21
244.5021247183285
 31
0.0
  0
LINE
  5
198
330
1F
100
AcDbEntity
  8
0
100
AcDbLine
 10
880.5270550514199
 20
242.8210247183285
 30
0.0
 11
880.5270550514199
 21
223.3938447183286
 31
0.0
  0
LINE
  5
199
330
1F
100
AcDbEntity
  8
0
100
AcDbLine
 10
885.5270550514198
 20
247.8210247183284
 30
0.0
 11
894.65829505142
 21
247.8210247183284
 31
0.0
  0
LINE
  5
19A
330
1F
100
AcDbEntity
  8
0
100
AcDbLine
 10
899.65829505142
 20
242.8210247183285
 30
0.0
 11
899.65829505142
 21
215.3939047183285
 31
0.0
  0
LINE
  5
19B
330
1F
100
AcDbEntity
  8
0
100
AcDbLine
 10
949.7797950514197
 20
247.8210247183284
 30
0.0
 11
929.7954550514198
 21
247.8210247183284
 31
0.0
  0
LINE
  5
19C
330
1F
100
AcDbEntity
  8
0
100
AcDbLine
 10
979.9169750514199
 20
242.8210247183285
 30
0.0
 11
979.9169750514199
 21
215.3939047183285
 31
0.0
  0
LINE
  5
19D
330
1F
100
AcDbEntity
  8
0
100
AcDbLine
 10
994.0481950514202
 20
247.8210247183284
 30
0.0
 11
984.9169750514199
 21
247.8210247183284
 31
0.0
  0
LINE
  5
19E
330
1F
100
AcDbEntity
  8
0
100
AcDbLine
 10
939.78763505142
 20
223.3938447183286
 30
0.0
 11
880.5270550514199
 21
223.3938447183286
 31
0.0
  0
LINE
  5
19F
330
1F
100
AcDbEntity
  8
0
100
AcDbLine
 10
988.87643505142
 20
282.9643447183284
 30
0.0
 11
989.4359550514197
 21
280.8762047183283
 31
0.0
  0
LINE
  5
1A0
330
1F
100
AcDbEntity
  8
0
100
AcDbLine
 10
991.3677750514199
 20
279.3938447183283
 30
0.0
 11
995.28763505142
 21
279.3938447183283
 31
0.0
  0
LINE
  5
1A1
330
1F
100
AcDbEntity
  8
0
100
AcDbLine
 10
999.0481950514201
 20
223.8938447183286
 30
0.0
 11
1004.28763505142
 21
223.8938447183286
 31
0.0
  0
LINE
  5
1A2
330
1F
100
AcDbEntity
  8
0
100
AcDbLine
 10
989.4359550514197
 20
280.8762047183283
 30
0.0
 11
992.4132550514197
 21
269.7648247183284
 31
0.0
  0
LINE
  5
1A3
330
1F
100
AcDbEntity
  8
0
100
AcDbLine
 10
890.69883505142
 20
282.9643447183284
 30
0.0
 11
887.1620350514202
 21
269.7648247183284
 31
0.0
  0
LINE
  5
1A4
330
1F
100
AcDbEntity
  8
0
100
AcDbLine
 10
996.28763505142
 20
278.3938447183284
 30
0.0
 11
996.28763505142
 21
247.2914847183284
 31
0.0
  0
LINE
  5
1A5
330
1F
100
AcDbEntity
  8
0
100
AcDbLine
 10
924.7954550514197
 20
242.8210247183285
 30
0.0
 11
924.7954550514197
 21
215.3939047183285
 31
0.0
  0
LINE
  5
1A6
330
1F
100
AcDbEntity
  8
0
100
AcDbLine
 10
914.78763505142
 20
288.8938447183284
 30
0.0
 11
914.78763505142
 21
292.8938447183284
 31
0.0
  0
LINE
  5
1A7
330
1F
100
AcDbEntity
  8
0
100
AcDbLine
 10
985.3235550514197
 20
244.8961647183287
 30
0.0
 11
990.68423505142
 21
241.9961447183286
 31
0.0
  0
LINE
  5
1A8
330
1F
100
AcDbEntity
  8
0
100
AcDbLine
 10
997.8527350514198
 20
244.8961647183287
 30
0.0
 11
997.69165505142
 21
244.5021247183285
 31
0.0
  0
LINE
  5
1A9
330
1F
100
AcDbEntity
  8
0
100
AcDbLine
 10
931.1171950514202
 20
244.8961647183287
 30
0.0
 11
937.6881150514197
 21
241.8560047183284
 31
0.0
  0
LINE
  5
1AA
330
1F
100
AcDbEntity
  8
0
100
AcDbLine
 10
964.78763505142
 20
288.8938447183284
 30
0.0
 11
964.78763505142
 21
292.8938447183284
 31
0.0
  0
LINE
  5
1AB
330
1F
100
AcDbEntity
  8
0
100
AcDbLine
 10
954.7797950514198
 20
242.8210247183285
 30
0.0
 11
954.7797950514198
 21
215.3939047183285
 31
0.0
  0
LINE
  5
1AC
330
1F
100
AcDbEntity
  8
0
100
AcDbLine
 10
914.78763505142
 20
288.8938447183284
 30
0.0
 11
914.78763505142
 21
292.8938447183284
 31
0.0
  0
LINE
  5
1AD
330
1F
100
AcDbEntity
  8
0
100
AcDbLine
 10
999.0481950514201
 20
242.8210247183285
 30
0.0
 11
999.0481950514201
 21
223.3938447183286
 31
0.0
  0
LINE
  5
1AE
330
1F
100
AcDbEntity
  8
0
100
AcDbLine
 10
1005.28763505142
 20
240.8938447183286
 30
0.0
 11
1005.28763505142
 21
224.8938447183286
 31
0.0
  0
LINE
  5
1AF
330
1F
100
AcDbEntity
  8
0
100
AcDbLine
 10
963.7876350514201
 20
293.8938447183284
 30
0.0
 11
915.78763505142
 21
293.8938447183284
 31
0.0
  0
LINE
  5
1B0
330
1F
100
AcDbEntity
  8
0
100
AcDbLine
 10
948.4580550514198
 20
244.8961647183287
 30
0.0
 11
941.8871550514202
 21
241.8560047183284
 31
0.0
  0
LINE
  5
1B1
330
1F
100
AcDbEntity
  8
0
100
AcDbLine
 10
981.1490150514199
 20
288.8938447183284
 30
0.0
 11
898.4262550514202
 21
288.8938447183284
 31
0.0
  0
LINE
  5
1B2
330
1F
100
AcDbEntity
  8
0
100
AcDbLine
 10
1004.28763505142
 20
241.8938447183286
 30
0.0
 11
999.0481950514201
 21
241.8938447183286
 31
0.0
  0
LINE
  5
1B3
330
1F
100
AcDbEntity
  8
0
100
AcDbLine
 10
939.78763505142
 20
223.3938447183286
 30
0.0
 11
999.0481950514201
 21
223.3938447183286
 31
0.0
  0
LINE
  5
1B4
330
1F
100
AcDbEntity
  8
0
100
AcDbLine
 10
932.2876350514199
 20
317.3937247183283
 30
0.0
 11
947.28763505142
 21
317.3937247183283
 31
0.0
  0
LINE
  5
1B5
330
1F
100
AcDbEntity
  8
0
100
AcDbLine
 10
932.2876350514199
 20
296.7597447183284
 30
0.0
 11
947.28763505142
 21
296.7597447183284
 31
0.0
  0
LINE
  5
1B6
330
1F
100
AcDbEntity
  8
0
100
AcDbLine
 10
945.7876750514198
 20
318.8937247183283
 30
0.0
 11
947.28763505142
 21
317.3937847183284
 31
0.0
  0
LINE
  5
1B7
330
1F
100
AcDbEntity
  8
0
100
AcDbLine
 10
933.78763505142
 20
318.8937247183283
 30
0.0
 11
932.2876350514199
 21
317.3937247183283
 31
0.0
  0
LINE
  5
1B8
330
1F
100
AcDbEntity
  8
0
100
AcDbLine
 10
947.28763505142
 20
317.3937247183283
 30
0.0
 11
947.28763505142
 21
296.7597447183284
 31
0.0
  0
LINE
  5
1B9
330
1F
100
AcDbEntity
  8
0
100
AcDbLine
 10
932.2876350514199
 20
317.3937247183283
 30
0.0
 11
932.2876350514199
 21
296.7597447183284
 31
0.0
  0
LINE
  5
1BA
330
1F
100
AcDbEntity
  8
0
100
AcDbLine
 10
947.28763505142
 20
296.7597447183284
 30
0.0
 11
947.78763505142
 21
294.8937847183284
 31
0.0
  0
LINE
  5
1BB
330
1F
100
AcDbEntity
  8
0
100
AcDbLine
 10
931.78763505142
 20
294.8937247183284
 30
0.0
 11
932.2876350514199
 21
296.7598047183283
 31
0.0
  0
LINE
  5
1BC
330
1F
100
AcDbEntity
  8
0
100
AcDbLine
 10
931.78763505142
 20
294.8937247183284
 30
0.0
 11
931.78763505142
 21
293.8937247183283
 31
0.0
  0
LINE
  5
1BD
330
1F
100
AcDbEntity
  8
0
100
AcDbLine
 10
947.78763505142
 20
294.8937247183284
 30
0.0
 11
947.78763505142
 21
293.8937247183283
 31
0.0
  0
LINE
  5
1BE
330
1F
100
AcDbEntity
  8
0
100
AcDbLine
 10
931.78763505142
 20
294.8937247183284
 30
0.0
 11
947.78763505142
 21
294.8937247183284
 31
0.0
  0
LINE
  5
1BF
330
1F
100
AcDbEntity
  8
0
100
AcDbLine
 10
933.78763505142
 20
318.8937247183283
 30
0.0
 11
945.7876350514199
 21
318.8937247183283
 31
0.0
  0
LINE
  5
1C0
330
1F
100
AcDbEntity
  8
0
100
AcDbLine
 10
1005.287635051419
 20
554.4365916360742
 30
0.0
 11
1005.28763505142
 21
550.4365316360743
 31
0.0
  0
LINE
  5
1C1
330
1F
100
AcDbEntity
  8
0
100
AcDbLine
 10
1005.28763505142
 20
568.4366516360743
 30
0.0
 11
1005.287635051419
 21
564.4365916360743
 31
0.0
  0
LINE
  5
1C2
330
1F
100
AcDbEntity
  8
0
100
AcDbLine
 10
1013.85157505142
 20
564.4365916360743
 30
0.0
 11
1013.85157505142
 21
554.4365916360743
 31
0.0
  0
LINE
  5
1C3
330
1F
100
AcDbEntity
  8
0
100
AcDbLine
 10
1013.85157505142
 20
554.4365916360743
 30
0.0
 11
1001.35159505142
 21
554.4365916360743
 31
0.0
  0
LINE
  5
1C4
330
1F
100
AcDbEntity
  8
0
100
AcDbLine
 10
1013.85157505142
 20
564.4365916360743
 30
0.0
 11
1001.35159505142
 21
564.4365916360743
 31
0.0
  0
LINE
  5
1C5
330
1F
100
AcDbEntity
  8
0
100
AcDbLine
 10
1001.35159505142
 20
564.4365916360743
 30
0.0
 11
1001.35159505142
 21
554.4365916360743
 31
0.0
  0
LINE
  5
1C6
330
1F
100
AcDbEntity
  8
0
100
AcDbLine
 10
1001.35159505142
 20
564.1865916360743
 30
0.0
 11
999.3515950514199
 21
564.1865916360743
 31
0.0
  0
LINE
  5
1C7
330
1F
100
AcDbEntity
  8
0
100
AcDbLine
 10
1001.35159505142
 20
554.6865916360743
 30
0.0
 11
999.3515950514199
 21
554.6865916360743
 31
0.0
  0
LINE
  5
1C8
330
1F
100
AcDbEntity
  8
0
100
AcDbLine
 10
998.2876350514199
 20
564.1534516360743
 30
0.0
 11
998.2876350514199
 21
554.7198516360743
 31
0.0
  0
LINE
  5
1C9
330
1F
100
AcDbEntity
  8
0
100
AcDbLine
 10
999.3529950514199
 20
554.6865916360743
 30
0.0
 11
996.2876750514199
 21
554.7824116360742
 31
0.0
  0
LINE
  5
1CA
330
1F
100
AcDbEntity
  8
0
100
AcDbLine
 10
999.3515750514198
 20
564.1866516360742
 30
0.0
 11
996.2876350514198
 21
564.0908916360744
 31
0.0
  0
LINE
  5
1CB
330
1F
100
AcDbEntity
  8
0
100
AcDbLine
 10
989.8331541777212
 20
568.4366516360743
 30
0.0
 11
989.8331541777212
 21
550.4365316360743
 31
0.0
  0
LINE
  5
1CC
330
1F
100
AcDbEntity
  8
0
100
AcDbLine
 10
996.2876350514202
 20
550.4365316360743
 30
0.0
 11
996.2876350514198
 21
568.4366516360743
 31
0.0
  0
LINE
  5
1CD
330
1F
100
AcDbEntity
  8
0
100
AcDbLine
 10
1005.28763505142
 20
550.4365316360743
 30
0.0
 11
989.8331541777212
 21
550.4365316360743
 31
0.0
  0
LINE
  5
1CE
330
1F
100
AcDbEntity
  8
0
100
AcDbLine
 10
1005.28763505142
 20
568.4366516360743
 30
0.0
 11
989.8331541777212
 21
568.4366516360743
 31
0.0
  0
CIRCLE
  5
1CF
330
1F
100
AcDbEntity
  8
0
100
AcDbCircle
 10
939.7876503102096
 20
559.4365916360743
 30
0.0
 40
7.50000000024
  0
CIRCLE
  5
1D0
330
1F
100
AcDbEntity
  8
0
100
AcDbCircle
 10
939.7876503102096
 20
559.4365916360743
 30
0.0
 40
8.0
  0
CIRCLE
  5
1D1
330
1F
100
AcDbEntity
  8
0
100
AcDbCircle
 10
939.7876503102096
 20
559.4365916360743
 30
0.0
 40
25.00001525878963
  0
ARC
  5
1D2
330
1F
100
AcDbEntity
  8
0
100
AcDbCircle
 10
922.1778208125769
 20
618.8831910385995
 30
0.0
 40
4.999999999999999
100
AcDbArc
 50
286.5009900000027
 51
315.0000599999923
  0
ARC
  5
1D3
330
1F
100
AcDbEntity
  8
0
100
AcDbCircle
 10
939.7876734381053
 20
620.936671577384
 30
0.0
 40
5.999999999999999
100
AcDbArc
 50
45.00000999999133
 51
135.0000100000109
  0
ARC
  5
1D4
330
1F
100
AcDbEntity
  8
0
100
AcDbCircle
 10
957.3975028969625
 20
618.8831922420201
 30
0.0
 40
4.999999999999999
100
AcDbArc
 50
225.0000600000021
 51
253.4990900000053
  0
ARC
  5
1D5
330
1F
100
AcDbEntity
  8
0
100
AcDbCircle
 10
922.1778496849809
 20
499.9900210301286
 30
0.0
 40
4.999999999999999
100
AcDbArc
 50
45.00005600000882
 51
73.49921600000357
  0
ARC
  5
1D6
330
1F
100
AcDbEntity
  8
0
100
AcDbCircle
 10
957.3974971283504
 20
499.9900022335492
 30
0.0
 40
4.999999999999999
100
AcDbArc
 50
106.500947999995
 51
135.0000100000109
  0
ARC
  5
1D7
330
1F
100
AcDbEntity
  8
0
100
AcDbCircle
 10
939.7876791438383
 20
497.9365416947647
 30
0.0
 40
5.999999999999999
100
AcDbArc
 50
225.0000099999913
 51
315.0000500000004
  0
LINE
  5
1D8
330
1F
100
AcDbEntity
  8
0
100
AcDbLine
 10
944.030327313883
 20
493.6938995056079
 30
0.0
 11
953.8619536533131
 21
503.5255431646827
 31
0.0
  0
LINE
  5
1D9
330
1F
100
AcDbEntity
  8
0
100
AcDbLine
 10
944.0303183067543
 20
625.1792751064126
 30
0.0
 11
953.8619446453211
 21
615.3476387669827
 31
0.0
  0
LINE
  5
1DA
330
1F
100
AcDbEntity
  8
0
100
AcDbLine
 10
935.5450369546812
 20
493.6938935247199
 30
0.0
 11
925.7133832956064
 21
503.525537184658
 31
0.0
  0
LINE
  5
1DB
330
1F
100
AcDbEntity
  8
0
100
AcDbLine
 10
935.5450352680605
 20
625.1792964460328
 30
0.0
 11
925.7133742876144
 21
615.3476327869579
 31
0.0
  0
ARC
  5
1DC
330
1F
100
AcDbEntity
  8
0
100
AcDbCircle
 10
982.465000812577
 20
604.4104510385993
 30
0.0
 40
4.999999999999999
100
AcDbArc
 50
226.5009900000066
 51
255.0000599999873
  0
ARC
  5
1DD
330
1F
100
AcDbEntity
  8
0
100
AcDbCircle
 10
993.0482934381053
 20
590.1866115773838
 30
0.0
 40
5.999999999999999
100
AcDbArc
 50
345.0000099999998
 51
75.00000999999916
  0
ARC
  5
1DE
330
1F
100
AcDbEntity
  8
0
100
AcDbCircle
 10
1000.074842896962
 20
573.9093122420201
 30
0.0
 40
4.999999999999999
100
AcDbArc
 50
165.0000600000011
 51
193.4990899999982
  0
ARC
  5
1DF
330
1F
100
AcDbEntity
  8
0
100
AcDbCircle
 10
939.7876503102096
 20
559.4365916360743
 30
0.0
 40
56.99999999999999
100
AcDbArc
 50
9.084781364903184
 51
350.9152186350967
  0
ARC
  5
1E0
330
1F
100
AcDbEntity
  8
0
100
AcDbCircle
 10
982.465000812577
 20
514.4627322335493
 30
0.0
 40
4.999999999999999
100
AcDbArc
 50
104.9999900000008
 51
133.4990499999992
  0
ARC
  5
1E1
330
1F
100
AcDbEntity
  8
0
100
AcDbCircle
 10
993.0482934381055
 20
528.6865716947647
 30
0.0
 40
5.999999999999999
100
AcDbArc
 50
284.9999500000039
 51
14.9999900000002
  0
ARC
  5
1E2
330
1F
100
AcDbEntity
  8
0
100
AcDbCircle
 10
1000.074842896962
 20
544.9638710301286
 30
0.0
 40
4.999999999999999
100
AcDbArc
 50
166.5009100000033
 51
194.9999399999988
  0
ARC
  5
1E3
330
1F
100
AcDbEntity
  8
0
100
AcDbCircle
 10
879.5005096849809
 20
544.9638410301283
 30
0.0
 40
4.999999999999999
100
AcDbArc
 50
345.0000560000028
 51
13.49921600000522
  0
ARC
  5
1E4
330
1F
100
AcDbEntity
  8
0
100
AcDbCircle
 10
879.5005096849809
 20
573.9093422420201
 30
0.0
 40
4.999999999999999
100
AcDbArc
 50
346.5009100000033
 51
14.99993999999885
  0
ARC
  5
1E5
330
1F
100
AcDbEntity
  8
0
100
AcDbCircle
 10
897.1103171283505
 20
604.4104610385993
 30
0.0
 40
4.999999999999999
100
AcDbArc
 50
284.9999400000126
 51
313.4990099999934
  0
ARC
  5
1E6
330
1F
100
AcDbEntity
  8
0
100
AcDbCircle
 10
897.1103171283504
 20
514.4627222335491
 30
0.0
 40
4.999999999999999
100
AcDbArc
 50
46.50094799999725
 51
75.00000999999916
  0
ARC
  5
1E7
330
1F
100
AcDbEntity
  8
0
100
AcDbCircle
 10
886.5270591438381
 20
528.6865416947646
 30
0.0
 40
5.999999999999999
100
AcDbArc
 50
165.0000099999997
 51
255.000049999996
  0
ARC
  5
1E8
330
1F
100
AcDbEntity
  8
0
100
AcDbCircle
 10
886.5270591438381
 20
590.1866415773838
 30
0.0
 40
5.999999999999999
100
AcDbArc
 50
104.9999900000008
 51
194.9999900000001
  0
LINE
  5
1E9
330
1F
100
AcDbEntity
  8
0
100
AcDbLine
 10
884.9741473138832
 20
522.8909795056076
 30
0.0
 11
898.4044136533134
 21
519.2923631646825
 31
0.0
  0
LINE
  5
1EA
330
1F
100
AcDbEntity
  8
0
100
AcDbLine
 10
998.8438283067543
 20
530.239490845228
 30
0.0
 11
995.2451846453211
 21
543.669764505166
 31
0.0
  0
LINE
  5
1EB
330
1F
100
AcDbEntity
  8
0
100
AcDbLine
 10
998.8438183067541
 20
588.6336751064126
 30
0.0
 11
995.2451846453211
 21
575.2034187669826
 31
0.0
  0
LINE
  5
1EC
330
1F
100
AcDbEntity
  8
0
100
AcDbLine
 10
880.731496954681
 20
530.2394535247199
 30
0.0
 11
884.3301232956063
 21
543.6697371846577
 31
0.0
  0
LINE
  5
1ED
330
1F
100
AcDbEntity
  8
0
100
AcDbLine
 10
994.6011779475526
 20
522.8910168261161
 30
0.0
 11
981.1709042876143
 21
519.2923731646828
 31
0.0
  0
LINE
  5
1EE
330
1F
100
AcDbEntity
  8
0
100
AcDbLine
 10
994.6011952680605
 20
595.9821564460326
 30
0.0
 11
981.1708942876144
 21
599.5807927869578
 31
0.0
  0
LINE
  5
1EF
330
1F
100
AcDbEntity
  8
0
100
AcDbLine
 10
880.7314623136653
 20
588.6337097474287
 30
0.0
 11
884.3301159750984
 21
575.2034187669826
 31
0.0
  0
LINE
  5
1F0
330
1F
100
AcDbEntity
  8
0
100
AcDbLine
 10
884.9741126728671
 20
595.9821837665407
 30
0.0
 11
898.4044036533131
 21
599.580837427974
 31
0.0
  0
LINE
  5
1F1
330
1F
100
AcDbEntity
  8
0
100
AcDbLine
 10
1006.937714202485
 20
576.4365916360743
 30
0.0
 11
1004.025974062304
 21
568.4366516360744
 31
0.0
  0
LINE
  5
1F2
330
1F
100
AcDbEntity
  8
0
100
AcDbLine
 10
1009.787650310209
 20
576.4365916360743
 30
0.0
 11
1006.937714202485
 21
576.4365916360743
 31
0.0
  0
LINE
  5
1F3
330
1F
100
AcDbEntity
  8
0
100
AcDbLine
 10
1006.93773041135
 20
542.4365916360743
 30
0.0
 11
1004.025990271171
 21
550.4365316360742
 31
0.0
  0
LINE
  5
1F4
330
1F
100
AcDbEntity
  8
0
100
AcDbLine
 10
1009.787650310209
 20
542.4365916360743
 30
0.0
 11
1006.93773041135
 21
542.4365916360743
 31
0.0
  0
LINE
  5
1F5
330
1F
100
AcDbEntity
  8
0
100
AcDbLine
 10
1009.787650310209
 20
554.4365916360743
 30
0.0
 11
1009.787650310209
 21
542.4365916360743
 31
0.0
  0
LINE
  5
1F6
330
1F
100
AcDbEntity
  8
0
100
AcDbLine
 10
1009.787650310209
 20
576.4365916360743
 30
0.0
 11
1009.787650310209
 21
564.4365916360743
 31
0.0
  0
LINE
  5
1F7
330
1F
100
AcDbEntity
  8
0
100
AcDbLine
 10
901.7876426808141
 20
208.143844718328
 30
0.0
 11
977.787627422025
 21
208.1438447183285
 31
0.0
  0
LINE
  5
1F8
330
1F
100
AcDbEntity
  8
0
100
AcDbLine
 10
1009.78763505142
 20
153.8938447183285
 30
0.0
 11
1006.93766098158
 21
153.8938447183285
 31
0.0
  0
LINE
  5
1F9
330
1F
100
AcDbEntity
  8
0
100
AcDbLine
 10
1009.78763505142
 20
119.8938142007504
 30
0.0
 11
1006.937619873877
 21
119.8938142007504
 31
0.0
  0
LINE
  5
1FA
330
1F
100
AcDbEntity
  8
0
100
AcDbLine
 10
1009.78763505142
 20
153.8938447183285
 30
0.0
 11
1009.78763505142
 21
119.8938142007504
 31
0.0
  0
LINE
  5
1FB
330
1F
100
AcDbEntity
  8
0
100
AcDbLine
 10
1003.89846608743
 20
128.2438203042661
 30
0.0
 11
969.0423323382065
 21
128.2438203042655
 31
0.0
  0
LINE
  5
1FC
330
1F
100
AcDbEntity
  8
0
100
AcDbLine
 10
1003.898496087643
 20
145.5438080972348
 30
0.0
 11
971.7876350514201
 21
145.5438080972348
 31
0.0
  0
LINE
  5
1FD
330
1F
100
AcDbEntity
  8
0
100
AcDbLine
 10
971.7876350514201
 20
149.1438447183298
 30
0.0
 11
971.7876350514201
 21
136.8938142007505
 31
0.0
  0
LINE
  5
1FE
330
1F
100
AcDbEntity
  8
0
100
AcDbLine
 10
1003.898496087643
 20
145.5438080972348
 30
0.0
 11
1003.89846608743
 21
128.2438203042661
 31
0.0
  0
LINE
  5
1FF
330
1F
100
AcDbEntity
  8
0
100
AcDbLine
 10
1006.93766098158
 20
153.8938447183285
 30
0.0
 11
1003.898496087643
 21
145.5438080972348
 31
0.0
  0
LINE
  5
200
330
1F
100
AcDbEntity
  8
0
100
AcDbLine
 10
1006.937619873877
 20
119.8938142007504
 30
0.0
 11
1003.89846608743
 21
128.2438203042661
 31
0.0
  0
LINE
  5
201
330
1F
100
AcDbEntity
  8
0
100
AcDbLine
 10
985.5376197926307
 20
164.6438447183294
 30
0.0
 11
985.5376197926307
 21
149.1438447183298
 31
0.0
  0
LINE
  5
202
330
1F
100
AcDbEntity
  8
0
100
AcDbLine
 10
967.7421028248575
 20
126.6468812059114
 30
0.0
 11
967.7421028248575
 21
123.8938142007504
 31
0.0
  0
LINE
  5
203
330
1F
100
AcDbEntity
  8
0
100
AcDbLine
 10
948.4376594654822
 20
119.6503234265696
 30
0.0
 11
955.7876009558937
 21
123.89381420075
 31
0.0
  0
LINE
  5
204
330
1F
100
AcDbEntity
  8
0
100
AcDbLine
 10
911.8331672779826
 20
126.6468812059114
 30
0.0
 11
911.8331672779826
 21
123.8938142007482
 31
0.0
  0
LINE
  5
205
330
1F
100
AcDbEntity
  8
0
100
AcDbLine
 10
907.78763505142
 20
149.1438447183259
 30
0.0
 11
907.78763505142
 21
136.8938142007505
 31
0.0
  0
ARC
  5
206
330
1F
100
AcDbEntity
  8
0
100
AcDbCircle
 10
922.78763505142
 20
136.8938142007505
 30
0.0
 40
15.0
100
AcDbArc
 50
179.9999974955312
 51
223.088630185986
  0
LINE
  5
207
330
1F
100
AcDbEntity
  8
0
100
AcDbLine
 10
931.1376106373575
 20
119.6503379373033
 30
0.0
 11
923.7876942802724
 21
123.8938142007509
 31
0.0
  0
LINE
  5
208
330
1F
100
AcDbEntity
  8
0
100
AcDbLine
 10
911.8331672779826
 20
123.8938142007482
 30
0.0
 11
967.7421028248575
 21
123.8938142007504
 31
0.0
  0
LINE
  5
209
330
1F
100
AcDbEntity
  8
0
100
AcDbLine
 10
901.7876426808136
 20
193.6438447183285
 30
0.0
 11
977.7876274220243
 21
193.6438447183285
 31
0.0
  0
ARC
  5
20A
330
1F
100
AcDbEntity
  8
0
100
AcDbCircle
 10
956.78763505142
 20
136.8938142007505
 30
0.0
 40
15.0
100
AcDbArc
 50
316.911369814014
 51
0.0000025044687019
  0
LINE
  5
20B
330
1F
100
AcDbEntity
  8
0
100
AcDbLine
 10
956.78763505142
 20
99.74379512762151
 30
0.0
 11
948.4376594654822
 21
102.7829378065775
 31
0.0
  0
LINE
  5
20C
330
1F
100
AcDbEntity
  8
0
100
AcDbLine
 10
956.78763505142
 20
96.89381420075052
 30
0.0
 11
956.78763505142
 21
99.74379512762151
 31
0.0
  0
LINE
  5
20D
330
1F
100
AcDbEntity
  8
0
100
AcDbLine
 10
922.78763505142
 20
96.89381420075052
 30
0.0
 11
922.78763505142
 21
99.7438333955206
 31
0.0
  0
LINE
  5
20E
330
1F
100
AcDbEntity
  8
0
100
AcDbLine
 10
922.78763505142
 20
99.7438333955206
 30
0.0
 11
931.1376106373575
 21
102.7829760744771
 31
0.0
  0
LINE
  5
20F
330
1F
100
AcDbEntity
  8
0
100
AcDbLine
 10
931.1376106373575
 20
102.7829760744771
 30
0.0
 11
948.4376594654822
 21
102.7829378065775
 31
0.0
  0
LINE
  5
210
330
1F
100
AcDbEntity
  8
0
100
AcDbLine
 10
956.78763505142
 20
96.89381420075052
 30
0.0
 11
922.78763505142
 21
96.89381420075052
 31
0.0
  0
LINE
  5
211
330
1F
100
AcDbEntity
  8
0
100
AcDbLine
 10
948.4376594654822
 20
119.6503234265696
 30
0.0
 11
948.4376594654822
 21
102.7829378065775
 31
0.0
  0
LINE
  5
212
330
1F
100
AcDbEntity
  8
0
100
AcDbLine
 10
931.1376106373575
 20
102.7829760744771
 30
0.0
 11
931.1376106373575
 21
119.6503379373033
 31
0.0
  0
LINE
  5
213
330
1F
100
AcDbEntity
  8
0
100
AcDbLine
 10
894.037650310209
 20
164.6438447183294
 30
0.0
 11
894.037650310209
 21
149.1438447183259
 31
0.0
  0
LINE
  5
214
330
1F
100
AcDbEntity
  8
0
100
AcDbLine
 10
894.037650310209
 20
149.1438447183259
 30
0.0
 11
985.5376197926307
 21
149.1438447183298
 31
0.0
  0
LINE
  5
215
330
1F
100
AcDbEntity
  8
0
100
AcDbLine
 10
894.037650310209
 20
164.6438447183294
 30
0.0
 11
985.5376197926307
 21
164.6438447183294
 31
0.0
  0
LINE
  5
216
330
1F
100
AcDbEntity
  8
0
100
AcDbLine
 10
977.787627422025
 20
208.1438447183285
 30
0.0
 11
977.7876274220243
 21
193.6438447183285
 31
0.0
  0
LINE
  5
217
330
1F
100
AcDbEntity
  8
0
100
AcDbLine
 10
901.7876426808141
 20
208.143844718328
 30
0.0
 11
901.7876426808136
 21
193.6438447183285
 31
0.0
  0
TEXT
  5
218
330
1F
100
AcDbEntity
  8
0
  6
Continuous
100
AcDbText
 10
600.9172550710482
 20
785.7903897656201
 30
0.0
 40
48.000002
  1
DAC2L10AD000 10A
 41
1.32095
100
AcDbText
  0
LINE
  5
26E
330
1F
100
AcDbEntity
  8
0
  6
CENTER
100
AcDbLine
 10
939.7876503102096
 20
487.576009573961
 30
0.0
 11
939.7876503102096
 21
631.2971736981876
 31
0.0
  0
LINE
  5
26F
330
1F
100
AcDbEntity
  8
0
  6
CENTER
100
AcDbLine
 10
872.217900959577
 20
559.4365916360743
 30
0.0
 11
1029.133921444676
 21
559.4365916360743
 31
0.0
  0
LINE
  5
270
330
1F
100
AcDbEntity
  8
0
  6
CENTER
100
AcDbLine
 10
895.0812414070687
 20
136.8938294595395
 30
0.0
 11
1029.133906185886
 21
136.8938294595395
 31
0.0
  0
LINE
  5
271
330
1F
100
AcDbEntity
  8
0
  6
CENTER
100
AcDbLine
 10
939.7876350514199
 20
77.28326265621461
 30
0.0
 11
939.7876350514199
 21
334.4183339762853
 31
0.0
  0
VIEWPORT
  5
71
330
55
100
AcDbEntity
 67
     1
  8
0
100
AcDbViewport
 10
133.3499908447265
 20
101.5999970436096
 30
0.0
 40
381.3957395593834
 41
218.2856291881582
 68
     1
 69
     1
 12
133.3499908447265
 22
101.5999970436096
 13
0.0
 23
0.0
 14
10.0
 24
10.0
 15
10.0
 25
10.0
 16
0.0
 26
0.0
 36
1.0
 17
0.0
 27
0.0
 37
0.0
 42
50.0
 43
0.0
 44
0.0
 45
218.2856291881582
 50
0.0
 51
0.0
 72
   100
 90
    32800
  1

281
     0
 71
     1
 74
     0
110
0.0
120
0.0
130
0.0
111
1.0
121
0.0
131
0.0
112
0.0
122
1.0
132
0.0
 79
     0
146
0.0
  0
VIEWPORT
  5
73
330
55
100
AcDbEntity
 67
     1
  8
0
100
AcDbViewport
 10
133.349993944168
 20
101.599993944168
 30
0.0
 40
213.3599903106689
 41
162.5599903106689
 68
     2
 69
     2
 12
210.0
 22
148.5
 13
0.0
 23
0.0
 14
10.0
 24
10.0
 15
10.0
 25
10.0
 16
0.0
 26
0.0
 36
1.0
 17
0.0
 27
0.0
 37
0.0
 42
50.0
 43
0.0
 44
0.0
 45
324.0677920111345
 50
0.0
 51
0.0
 72
   100
 90
    32864
  1

281
     0
 71
     1
 74
     0
110
0.0
120
0.0
130
0.0
111
1.0
121
0.0
131
0.0
112
0.0
122
1.0
132
0.0
 79
     0
146
0.0
  0
ENDSEC
  0
SECTION
  2
OBJECTS
  0
DICTIONARY
  5
C
330
0
100
AcDbDictionary
281
     1
  3
ACAD_GROUP
350
D
  3
ACAD_LAYOUT
350
1A
  3
ACAD_MLINESTYLE
350
17
  3
ACAD_PLOTSETTINGS
350
19
  3
ACAD_PLOTSTYLENAME
350
E
  3
AcDbVariableDictionary
350
5E
  0
DICTIONARY
  5
266
330
2
100
AcDbDictionary
280
     1
281
     1
  3
ACAD_LAYERSTATES
360
267
  0
DICTIONARY
  5
21E
330
1F
100
AcDbDictionary
280
     1
281
     1
  3
ACAD_LAYOUTSELFREF
360
255
  0
DICTIONARY
  5
220
330
55
100
AcDbDictionary
280
     1
281
     1
  3
ACAD_LAYOUTSELFREF
360
259
  0
DICTIONARY
  5
222
330
50
100
AcDbDictionary
280
     1
281
     1
  3
ACAD_LAYOUTSELFREF
360
258
  0
DICTIONARY
  5
D
102
{ACAD_REACTORS
330
C
102
}
330
C
100
AcDbDictionary
281
     1
  0
DICTIONARY
  5
1A
102
{ACAD_REACTORS
330
C
102
}
330
C
100
AcDbDictionary
281
     1
  3
Model
350
22
  3
ﾚｲｱｳﾄ1
350
51
  3
ﾚｲｱｳﾄ2
350
56
  0
DICTIONARY
  5
17
102
{ACAD_REACTORS
330
C
102
}
330
C
100
AcDbDictionary
281
     1
  3
Standard
350
18
  0
DICTIONARY
  5
19
102
{ACAD_REACTORS
330
C
102
}
330
C
100
AcDbDictionary
281
     1
  0
ACDBDICTIONARYWDFLT
  5
E
102
{ACAD_REACTORS
330
C
102
}
330
C
100
AcDbDictionary
281
     1
  3
Normal
350
F
100
AcDbDictionaryWithDefault
340
F
  0
DICTIONARY
  5
5E
102
{ACAD_REACTORS
330
C
102
}
330
C
100
AcDbDictionary
281
     1
  3
DIMASSOC
350
5F
  3
HIDETEXT
350
63
  0
DICTIONARY
  5
267
102
{ACAD_REACTORS
330
266
102
}
330
266
100
AcDbDictionary
281
     1
  0
XRECORD
  5
255
102
{ACAD_REACTORS
330
21E
102
}
330
21E
100
AcDbXrecord
280
     1
340
1F
  0
XRECORD
  5
259
102
{ACAD_REACTORS
330
220
102
}
330
220
100
AcDbXrecord
280
     1
340
55
  0
XRECORD
  5
258
102
{ACAD_REACTORS
330
222
102
}
330
222
100
AcDbXrecord
280
     1
340
50
  0
LAYOUT
  5
22
102
{ACAD_REACTORS
330
1A
102
}
330
1A
100
AcDbPlotSettings
  1

  2
none_device
  4
ANSI_A_(8.50_x_11.00_Inches)
  6

 40
6.349999904632568
 41
19.04999923706054
 42
6.350006103515625
 43
19.04998779296875
 44
215.8999938964843
 45
279.3999938964843
 46
0.0
 47
0.0
 48
0.0
 49
0.0
140
0.0
141
0.0
142
1.0
143
78.436453180766
 70
 11952
 72
     0
 73
     1
 74
     0
  7

 75
     0
147
0.0127491741332998
148
0.0
149
0.0
100
AcDbLayout
  1
Model
 70
     1
 71
     0
 10
0.0
 20
0.0
 11
12.0
 21
9.0
 12
0.0
 22
0.0
 32
0.0
 14
0.0
 24
0.0
 34
0.0
 15
0.0
 25
0.0
 35
0.0
146
0.0
 13
0.0
 23
0.0
 33
0.0
 16
1.0
 26
0.0
 36
0.0
 17
0.0
 27
1.0
 37
0.0
 76
     0
330
1F
  0
LAYOUT
  5
51
102
{ACAD_REACTORS
330
1A
102
}
330
1A
100
AcDbPlotSettings
  1

  2
none_device
  4
Letter_(8.50_x_11.00_Inches)
  6

 40
6.349999904632568
 41
6.349999904632568
 42
6.350006103515625
 43
6.350006103515625
 44
215.8999938964843
 45
279.3999938964843
 46
0.0
 47
0.0
 48
0.0
 49
0.0
140
0.0
141
0.0
142
1.0
143
1.0
 70
   688
 72
     1
 73
     1
 74
     5
  7

 75
    16
147
1.0
148
0.0
149
0.0
100
AcDbLayout
  1
ﾚｲｱｳﾄ1
 70
     1
 71
     1
 10
-6.350006103515625
 20
-6.349999904632568
 11
273.0499877929687
 21
209.5499939918517
 12
0.0
 22
0.0
 32
0.0
 14
26.66076962115562
 24
20.31135699206657
 34
-0.0015258207003583
 15
240.039213369355
 25
182.8886381005154
 35
0.0000000349246037
146
0.0
 13
0.0
 23
0.0
 33
0.0
 16
1.0
 26
0.0
 36
0.0
 17
0.0
 27
1.0
 37
0.0
 76
     0
330
50
331
6B
  0
LAYOUT
  5
56
102
{ACAD_REACTORS
330
1A
102
}
330
1A
100
AcDbPlotSettings
  1

  2
none_device
  4
Letter_(8.50_x_11.00_Inches)
  6

 40
6.349999904632568
 41
6.349999904632568
 42
6.350006103515625
 43
6.350006103515625
 44
215.8999938964843
 45
279.3999938964843
 46
0.0
 47
0.0
 48
0.0
 49
0.0
140
0.0
141
0.0
142
1.0
143
1.0
 70
   688
 72
     1
 73
     1
 74
     5
  7

 75
    16
147
1.0
148
0.0
149
0.0
100
AcDbLayout
  1
ﾚｲｱｳﾄ2
 70
     1
 71
     2
 10
-6.350006103515625
 20
-6.349999904632568
 11
273.0499877929687
 21
209.5499939918517
 12
0.0
 22
0.0
 32
0.0
 14
26.66076962115562
 24
20.31135699206657
 34
-0.0015258207003583
 15
240.039213369355
 25
182.8886381005154
 35
0.0000000349246037
146
0.0
 13
0.0
 23
0.0
 33
0.0
 16
1.0
 26
0.0
 36
0.0
 17
0.0
 27
1.0
 37
0.0
 76
     0
330
55
331
71
  0
MLINESTYLE
  5
18
102
{ACAD_REACTORS
330
17
102
}
330
17
100
AcDbMlineStyle
  2
STANDARD
 70
     0
  3

 62
   256
 51
90.0
 52
90.0
 71
     2
 49
0.5
 62
   256
  6
BYLAYER
 49
-0.5
 62
   256
  6
BYLAYER
  0
ACDBPLACEHOLDER
  5
F
102
{ACAD_REACTORS
330
E
102
}
330
E
  0
DICTIONARYVAR
  5
5F
102
{ACAD_REACTORS
330
5E
102
}
330
5E
100
DictionaryVariables
280
     0
  1
2
  0
DICTIONARYVAR
  5
63
102
{ACAD_REACTORS
330
5E
102
}
330
5E
100
DictionaryVariables
280
     0
  1
1
  0
ENDSEC
  0
EOF
