  0
SECTION
  2
HEADER
  9
$ACADVER
  1
AC1015
  9
$ACADMAINTVER
 70
    14
  9
$DWGCODEPAGE
  3
ANSI_932
  9
$INSBASE
 10
0.0
 20
0.0
 30
0.0
  9
$EXTMIN
 10
334.6823408813152
 20
100.8417838991183
 30
-0.0000000000112498
  9
$EXTMAX
 10
1062.10059076975
 20
810.6084798844619
 30
0.0000000000002956
  9
$LIMMIN
 10
-44.912933
 20
-21.841471
  9
$LIMMAX
 10
153.5627299999999
 20
105.04179
  9
$ORTHOMODE
 70
     0
  9
$REGENMODE
 70
     1
  9
$FILLMODE
 70
     1
  9
$QTEXTMODE
 70
     0
  9
$MIRRTEXT
 70
     1
  9
$LTSCALE
 40
1.0
  9
$ATTMODE
 70
     1
  9
$TEXTSIZE
 40
0.2
  9
$TRACEWID
 40
0.05
  9
$TEXTSTYLE
  7
STANDARD
  9
$CLAYER
  8
0
  9
$CELTYPE
  6
CONTINUOUS
  9
$CECOLOR
 62
   256
  9
$CELTSCALE
 40
1.0
  9
$DISPSILH
 70
     0
  9
$DIMSCALE
 40
1.0
  9
$DIMASZ
 40
15.0
  9
$DIMEXO
 40
5.0
  9
$DIMDLI
 40
10.0
  9
$DIMRND
 40
0.0
  9
$DIMDLE
 40
0.0
  9
$DIMEXE
 40
10.0
  9
$DIMTP
 40
0.0
  9
$DIMTM
 40
0.0
  9
$DIMTXT
 40
20.0
  9
$DIMCEN
 40
0.09
  9
$DIMTSZ
 40
0.0
  9
$DIMTOL
 70
     0
  9
$DIMLIM
 70
     0
  9
$DIMTIH
 70
     0
  9
$DIMTOH
 70
     1
  9
$DIMSE1
 70
     0
  9
$DIMSE2
 70
     0
  9
$DIMTAD
 70
     1
  9
$DIMZIN
 70
     8
  9
$DIMBLK
  1

  9
$DIMASO
 70
     1
  9
$DIMSHO
 70
     0
  9
$DIMPOST
  1

  9
$DIMAPOST
  1

  9
$DIMALT
 70
     0
  9
$DIMALTD
 70
     2
  9
$DIMALTF
 40
25.4
  9
$DIMLFAC
 40
1.0
  9
$DIMTOFL
 70
     0
  9
$DIMTVP
 40
0.0
  9
$DIMTIX
 70
     0
  9
$DIMSOXD
 70
     0
  9
$DIMSAH
 70
     0
  9
$DIMBLK1
  1

  9
$DIMBLK2
  1

  9
$DIMSTYLE
  2
STANDARD
  9
$DIMCLRD
 70
     0
  9
$DIMCLRE
 70
     0
  9
$DIMCLRT
 70
     0
  9
$DIMTFAC
 40
1.0
  9
$DIMGAP
 40
5.0
  9
$DIMJUST
 70
     0
  9
$DIMSD1
 70
     0
  9
$DIMSD2
 70
     0
  9
$DIMTOLJ
 70
     1
  9
$DIMTZIN
 70
     0
  9
$DIMALTZ
 70
     0
  9
$DIMALTTZ
 70
     0
  9
$DIMUPT
 70
     0
  9
$DIMDEC
 70
     4
  9
$DIMTDEC
 70
     4
  9
$DIMALTU
 70
     2
  9
$DIMALTTD
 70
     2
  9
$DIMTXSTY
  7
STANDARD
  9
$DIMAUNIT
 70
     0
  9
$DIMADEC
 70
     0
  9
$DIMALTRND
 40
0.0
  9
$DIMAZIN
 70
     0
  9
$DIMDSEP
 70
    46
  9
$DIMATFIT
 70
     3
  9
$DIMFRAC
 70
     0
  9
$DIMLDRBLK
  1

  9
$DIMLUNIT
 70
     2
  9
$DIMLWD
 70
    -2
  9
$DIMLWE
 70
    -2
  9
$DIMTMOVE
 70
     0
  9
$LUNITS
 70
     2
  9
$LUPREC
 70
     4
  9
$SKETCHINC
 40
0.1
  9
$FILLETRAD
 40
0.0
  9
$AUNITS
 70
     0
  9
$AUPREC
 70
     0
  9
$MENU
  1
.
  9
$ELEVATION
 40
0.0
  9
$PELEVATION
 40
0.0
  9
$THICKNESS
 40
0.0
  9
$LIMCHECK
 70
     0
  9
$CHAMFERA
 40
0.0
  9
$CHAMFERB
 40
0.0
  9
$CHAMFERC
 40
0.0
  9
$CHAMFERD
 40
0.0
  9
$SKPOLY
 70
     0
  9
$TDCREATE
 40
2452488.423177615
  9
$TDUCREATE
 40
2452488.048177615
  9
$TDUPDATE
 40
2456899.667891712
  9
$TDUUPDATE
 40
2456899.292891713
  9
$TDINDWG
 40
0.0603367824
  9
$TDUSRTIMER
 40
0.0603367824
  9
$USRTIMER
 70
     1
  9
$ANGBASE
 50
0.0
  9
$ANGDIR
 70
     0
  9
$PDMODE
 70
     3
  9
$PDSIZE
 40
0.0
  9
$PLINEWID
 40
0.0
  9
$SPLFRAME
 70
     0
  9
$SPLINETYPE
 70
     6
  9
$SPLINESEGS
 70
     8
  9
$HANDSEED
  5
1045
  9
$SURFTAB1
 70
     6
  9
$SURFTAB2
 70
     6
  9
$SURFTYPE
 70
     6
  9
$SURFU
 70
     6
  9
$SURFV
 70
     6
  9
$UCSBASE
  2

  9
$UCSNAME
  2

  9
$UCSORG
 10
0.0
 20
0.0
 30
0.0
  9
$UCSXDIR
 10
1.0
 20
0.0
 30
0.0
  9
$UCSYDIR
 10
0.0
 20
1.0
 30
0.0
  9
$UCSORTHOREF
  2

  9
$UCSORTHOVIEW
 70
     0
  9
$UCSORGTOP
 10
0.0
 20
0.0
 30
0.0
  9
$UCSORGBOTTOM
 10
0.0
 20
0.0
 30
0.0
  9
$UCSORGLEFT
 10
0.0
 20
0.0
 30
0.0
  9
$UCSORGRIGHT
 10
0.0
 20
0.0
 30
0.0
  9
$UCSORGFRONT
 10
0.0
 20
0.0
 30
0.0
  9
$UCSORGBACK
 10
0.0
 20
0.0
 30
0.0
  9
$PUCSBASE
  2

  9
$PUCSNAME
  2

  9
$PUCSORG
 10
0.0
 20
0.0
 30
0.0
  9
$PUCSXDIR
 10
1.0
 20
0.0
 30
0.0
  9
$PUCSYDIR
 10
0.0
 20
1.0
 30
0.0
  9
$PUCSORTHOREF
  2

  9
$PUCSORTHOVIEW
 70
     0
  9
$PUCSORGTOP
 10
0.0
 20
0.0
 30
0.0
  9
$PUCSORGBOTTOM
 10
0.0
 20
0.0
 30
0.0
  9
$PUCSORGLEFT
 10
0.0
 20
0.0
 30
0.0
  9
$PUCSORGRIGHT
 10
0.0
 20
0.0
 30
0.0
  9
$PUCSORGFRONT
 10
0.0
 20
0.0
 30
0.0
  9
$PUCSORGBACK
 10
0.0
 20
0.0
 30
0.0
  9
$USERI1
 70
     0
  9
$USERI2
 70
     0
  9
$USERI3
 70
     0
  9
$USERI4
 70
     0
  9
$USERI5
 70
     0
  9
$USERR1
 40
0.0
  9
$USERR2
 40
0.0
  9
$USERR3
 40
0.0
  9
$USERR4
 40
0.0
  9
$USERR5
 40
0.0
  9
$WORLDVIEW
 70
     1
  9
$SHADEDGE
 70
     3
  9
$SHADEDIF
 70
    70
  9
$TILEMODE
 70
     1
  9
$MAXACTVP
 70
    48
  9
$PINSBASE
 10
0.0
 20
0.0
 30
0.0
  9
$PLIMCHECK
 70
     0
  9
$PEXTMIN
 10
-44.912933
 20
-21.841471
 30
0.0
  9
$PEXTMAX
 10
153.5627299999999
 20
105.04179
 30
0.0
  9
$PLIMMIN
 10
-44.912933
 20
-21.841471
  9
$PLIMMAX
 10
153.5627299999999
 20
105.04179
  9
$UNITMODE
 70
     0
  9
$VISRETAIN
 70
     1
  9
$PLINEGEN
 70
     0
  9
$PSLTSCALE
 70
     1
  9
$TREEDEPTH
 70
  3020
  9
$CMLSTYLE
  2
Standard
  9
$CMLJUST
 70
     0
  9
$CMLSCALE
 40
1.0
  9
$PROXYGRAPHICS
 70
     1
  9
$MEASUREMENT
 70
     0
  9
$CELWEIGHT
370
    -1
  9
$ENDCAPS
280
     0
  9
$JOINSTYLE
280
     0
  9
$LWDISPLAY
290
     0
  9
$INSUNITS
 70
     0
  9
$HYPERLINKBASE
  1

  9
$STYLESHEET
  1

  9
$XEDIT
290
     1
  9
$CEPSNTYPE
380
     0
  9
$PSTYLEMODE
290
     1
  9
$FINGERPRINTGUID
  2
{31AEFC61-1227-44FD-B3BC-680C0BE6E0D8}
  9
$VERSIONGUID
  2
{C3D2E824-73DF-4B0C-A7E9-187152AA0AB9}
  9
$EXTNAMES
290
     1
  9
$PSVPSCALE
 40
0.0
  9
$OLESTARTUP
290
     0
  0
ENDSEC
  0
SECTION
  2
CLASSES
  0
CLASS
  1
ACDBDICTIONARYWDFLT
  2
AcDbDictionaryWithDefault
  3
AutoCAD 2000
 90
        0
280
     0
281
     0
  0
CLASS
  1
ACDBPLACEHOLDER
  2
AcDbPlaceHolder
  3
AutoCAD 2000
 90
        0
280
     0
281
     0
  0
CLASS
  1
LAYOUT
  2
AcDbLayout
  3
AutoCAD 2000
 90
        0
280
     0
281
     0
  0
CLASS
  1
DICTIONARYVAR
  2
AcDbDictionaryVar
  3
AutoCAD 2000
 90
        0
280
     0
281
     0
  0
CLASS
  1
LONG_TRANSACTION
  2
AcDbLongTransaction
  3
AutoCAD 2000
 90
    32768
280
     0
281
     0
  0
CLASS
  1
LWPOLYLINE
  2
AcDbPolyline
  3
AutoCAD 2000
 90
    32768
280
     0
281
     1
  0
CLASS
  1
HATCH
  2
AcDbHatch
  3
AutoCAD 2000
 90
    32768
280
     0
281
     1
  0
CLASS
  1
XRECORD
  2
AcDbXrecord
  3
AutoCAD 2000
 90
    32768
280
     0
281
     0
  0
ENDSEC
  0
SECTION
  2
TABLES
  0
TABLE
  2
VPORT
  5
FCC
330
0
100
AcDbSymbolTable
 70
     2
  0
VPORT
  5
1044
330
FCC
100
AcDbSymbolTableRecord
100
AcDbViewportTableRecord
  2
*Active
 70
     0
 10
0.0
 20
0.0
 11
1.0
 21
1.0
 12
698.3914658255326
 22
455.72513189179
 13
0.0
 23
0.0
 14
1.0
 24
1.0
 15
0.0
 25
0.0
 16
0.0
 26
0.0
 36
1.0
 17
0.0
 27
0.0
 37
0.0
 40
714.2731511979489
 41
1.592161016949152
 42
50.0
 43
0.0
 44
0.0
 50
0.0
 51
0.0
 71
     0
 72
   100
 73
     1
 74
     3
 75
     0
 76
     0
 77
     0
 78
     0
281
     0
 65
     1
110
0.0
120
0.0
130
0.0
111
1.0
121
0.0
131
0.0
112
0.0
122
1.0
132
0.0
 79
     0
146
0.0
  0
ENDTAB
  0
TABLE
  2
LTYPE
  5
FC9
330
0
100
AcDbSymbolTable
 70
     2
  0
LTYPE
  5
FD7
330
FC9
100
AcDbSymbolTableRecord
100
AcDbLinetypeTableRecord
  2
ByBlock
 70
     0
  3

 72
    65
 73
     0
 40
0.0
  0
LTYPE
  5
FD8
330
FC9
100
AcDbSymbolTableRecord
100
AcDbLinetypeTableRecord
  2
ByLayer
 70
     0
  3

 72
    65
 73
     0
 40
0.0
  0
LTYPE
  5
FD9
330
FC9
100
AcDbSymbolTableRecord
100
AcDbLinetypeTableRecord
  2
CONTINUOUS
 70
     0
  3
Solid line
 72
    65
 73
     0
 40
0.0
  0
LTYPE
  5
102C
330
FC9
100
AcDbSymbolTableRecord
100
AcDbLinetypeTableRecord
  2
CENTER
 70
     0
  3
__ . __
 72
    65
 73
     4
 40
7.0
 49
4.0
 74
     0
 49
-1.0
 74
     0
 49
1.0
 74
     0
 49
-1.0
 74
     0
  0
ENDTAB
  0
TABLE
  2
LAYER
  5
FC6
102
{ACAD_XDICTIONARY
360
102D
102
}
330
0
100
AcDbSymbolTable
 70
     1
  0
LAYER
  5
FD4
330
FC6
100
AcDbSymbolTableRecord
100
AcDbLayerTableRecord
  2
0
 70
     0
 62
     7
  6
CONTINUOUS
370
    -3
390
FD3
  0
ENDTAB
  0
TABLE
  2
STYLE
  5
FC7
330
0
100
AcDbSymbolTable
 70
     1
  0
STYLE
  5
FD5
330
FC7
100
AcDbSymbolTableRecord
100
AcDbTextStyleTableRecord
  2
STANDARD
 70
     0
 40
0.0
 41
1.0
 50
0.0
 71
     0
 42
0.2
  3
txt
  4

  0
ENDTAB
  0
TABLE
  2
VIEW
  5
FCA
330
0
100
AcDbSymbolTable
 70
     0
  0
ENDTAB
  0
TABLE
  2
UCS
  5
FCB
330
0
100
AcDbSymbolTable
 70
     0
  0
ENDTAB
  0
TABLE
  2
APPID
  5
FCD
330
0
100
AcDbSymbolTable
 70
     4
  0
APPID
  5
FD6
330
FCD
100
AcDbSymbolTableRecord
100
AcDbRegAppTableRecord
  2
ACAD
 70
     0
  0
APPID
  5
FE8
330
FCD
100
AcDbSymbolTableRecord
100
AcDbRegAppTableRecord
  2
MCAD_NO_VIS
 70
     0
  0
APPID
  5
FE9
330
FCD
100
AcDbSymbolTableRecord
100
AcDbRegAppTableRecord
  2
ACAD_TEMP_GRAPHIC
 70
     0
  0
APPID
  5
FEA
330
FCD
100
AcDbSymbolTableRecord
100
AcDbRegAppTableRecord
  2
ACATTRIBSERVICES
 70
     0
  0
ENDTAB
  0
TABLE
  2
DIMSTYLE
  5
FCE
330
0
100
AcDbSymbolTable
 70
     1
100
AcDbDimStyleTable
 71
     0
  0
DIMSTYLE
105
FEB
330
FCE
100
AcDbSymbolTableRecord
100
AcDbDimStyleTableRecord
  2
STANDARD
 70
     0
 41
15.0
 42
5.0
 43
10.0
 44
10.0
 73
     0
 77
     1
 78
     8
140
20.0
147
5.0
279
     2
284
     8
285
     8
286
     8
340
FD5
  0
ENDTAB
  0
TABLE
  2
BLOCK_RECORD
  5
FC5
330
0
100
AcDbSymbolTable
 70
     0
  0
BLOCK_RECORD
  5
FE2
102
{ACAD_XDICTIONARY
360
FF3
102
}
330
FC5
100
AcDbSymbolTableRecord
100
AcDbBlockTableRecord
  2
*Model_Space
340
FE5
  0
BLOCK_RECORD
  5
FDE
102
{ACAD_XDICTIONARY
360
FF5
102
}
330
FC5
100
AcDbSymbolTableRecord
100
AcDbBlockTableRecord
  2
*Paper_Space
340
FE1
  0
ENDTAB
  0
ENDSEC
  0
SECTION
  2
BLOCKS
  0
BLOCK
  5
FE3
330
FE2
100
AcDbEntity
  8
0
100
AcDbBlockBegin
  2
*Model_Space
 70
     0
 10
0.0
 20
0.0
 30
0.0
  3
*Model_Space
  1

  0
ENDBLK
  5
FE4
330
FE2
100
AcDbEntity
  8
0
100
AcDbBlockEnd
  0
BLOCK
  5
FDF
330
FDE
100
AcDbEntity
 67
     1
  8
0
100
AcDbBlockBegin
  2
*Paper_Space
 70
     0
 10
0.0
 20
0.0
 30
0.0
  3
*Paper_Space
  1

  0
ENDBLK
  5
FE0
330
FDE
100
AcDbEntity
 67
     1
  8
0
100
AcDbBlockEnd
  0
ENDSEC
  0
SECTION
  2
ENTITIES
  0
LINE
  5
461
330
FE2
100
AcDbEntity
  8
0
  6
Continuous
 62
     7
100
AcDbLine
 10
703.2759246544601
 20
423.9002183091601
 30
0.0
 11
696.0382246544604
 21
428.0789103091601
 31
0.0
  0
LINE
  5
462
330
FE2
100
AcDbEntity
  8
0
  6
Continuous
 62
     7
100
AcDbLine
 10
696.0381846544601
 20
428.0789093091602
 30
0.0
 11
640.0140096544601
 21
428.0789093091602
 31
0.0
  0
LINE
  5
463
330
FE2
100
AcDbEntity
  8
0
  6
Continuous
 62
     7
100
AcDbLine
 10
632.5918136544601
 20
455.7789213091601
 30
0.0
 11
640.0140096544601
 21
428.0789093091602
 31
0.0
  0
LINE
  5
464
330
FE2
100
AcDbEntity
  8
0
  6
Continuous
 62
     7
100
AcDbLine
 10
696.0381846544601
 20
428.0789323091602
 30
0.0
 11
696.0381846544601
 21
585.0789093091601
 31
0.0
  0
LINE
  5
465
330
FE2
100
AcDbEntity
  8
0
  6
Continuous
 62
     7
100
AcDbLine
 10
640.0140026544606
 20
428.0789093091602
 30
0.0
 11
640.0140026544606
 21
585.0789093091601
 31
0.0
  0
LINE
  5
466
330
FE2
100
AcDbEntity
  8
0
  6
Continuous
 62
     7
100
AcDbLine
 10
632.5918216544599
 20
455.7789213091601
 30
0.0
 11
632.5918216544599
 21
557.3788973091601
 31
0.0
  0
LINE
  5
467
330
FE2
100
AcDbEntity
  8
0
  6
Continuous
 62
     7
100
AcDbLine
 10
728.7759346544596
 20
423.9002103091602
 30
0.0
 11
736.0136446544601
 21
428.07890630916
 31
0.0
  0
LINE
  5
468
330
FE2
100
AcDbEntity
  8
0
  6
Continuous
 62
     7
100
AcDbLine
 10
736.0136346544598
 20
428.0789093091602
 30
0.0
 11
753.0259146544604
 21
428.0789093091602
 31
0.0
  0
LINE
  5
469
330
FE2
100
AcDbEntity
  8
0
  6
Continuous
 62
     7
100
AcDbLine
 10
753.0259146544604
 20
428.0789073091602
 30
0.0
 11
769.0185246544602
 21
455.77892030916
 31
0.0
  0
LINE
  5
46A
330
FE2
100
AcDbEntity
  8
0
  6
Continuous
 62
     7
100
AcDbLine
 10
703.2759346544597
 20
407.8789583091602
 30
0.0
 11
728.7759346544596
 21
407.8789583091602
 31
0.0
  0
LINE
  5
46B
330
FE2
100
AcDbEntity
  8
0
  6
Continuous
 62
     7
100
AcDbLine
 10
703.2759346544597
 20
407.8789583091602
 30
0.0
 11
703.2759346544597
 21
605.2788603091603
 31
0.0
  0
LINE
  5
46C
330
FE2
100
AcDbEntity
  8
0
  6
Continuous
 62
     7
100
AcDbLine
 10
728.7759346544596
 20
407.8789583091602
 30
0.0
 11
728.7759346544596
 21
605.2788603091603
 31
0.0
  0
LINE
  5
46D
330
FE2
100
AcDbEntity
  8
0
  6
Continuous
 62
     7
100
AcDbLine
 10
632.5918136544601
 20
557.3788973091601
 30
0.0
 11
640.0140096544601
 21
585.0789093091601
 31
0.0
  0
LINE
  5
46E
330
FE2
100
AcDbEntity
  8
0
  6
Continuous
 62
     7
100
AcDbLine
 10
696.0381846544601
 20
585.0789093091601
 30
0.0
 11
640.0140096544601
 21
585.0789093091601
 31
0.0
  0
LINE
  5
46F
330
FE2
100
AcDbEntity
  8
0
  6
Continuous
 62
     7
100
AcDbLine
 10
703.2759246544601
 20
589.2576003091603
 30
0.0
 11
696.0382246544604
 21
585.0789083091604
 31
0.0
  0
LINE
  5
470
330
FE2
100
AcDbEntity
  8
0
  6
Continuous
 62
     7
100
AcDbLine
 10
703.2759346544597
 20
605.2788603091603
 30
0.0
 11
728.7759346544596
 21
605.2788603091603
 31
0.0
  0
LINE
  5
471
330
FE2
100
AcDbEntity
  8
0
  6
Continuous
 62
     7
100
AcDbLine
 10
728.7759346544596
 20
589.2576083091603
 30
0.0
 11
736.0136446544601
 21
585.0789123091604
 31
0.0
  0
LINE
  5
472
330
FE2
100
AcDbEntity
  8
0
  6
Continuous
 62
     7
100
AcDbLine
 10
736.0136346544598
 20
585.0789093091601
 30
0.0
 11
753.0259146544604
 21
585.0789093091601
 31
0.0
  0
LINE
  5
473
330
FE2
100
AcDbEntity
  8
0
  6
Continuous
 62
     7
100
AcDbLine
 10
753.0259146544604
 20
585.0789113091601
 30
0.0
 11
769.0185246544602
 21
557.3788983091604
 31
0.0
  0
LINE
  5
474
330
FE2
100
AcDbEntity
  8
0
  6
Continuous
 62
     7
100
AcDbLine
 10
769.0185146544599
 20
455.7789213091601
 30
0.0
 11
769.0185146544599
 21
557.3788973091601
 31
0.0
  0
LINE
  5
475
330
FE2
100
AcDbEntity
  8
0
  6
Continuous
 62
     7
100
AcDbLine
 10
736.0136346544598
 20
428.0789093091602
 30
0.0
 11
736.0136346544598
 21
585.0789093091601
 31
0.0
  0
LINE
  5
476
330
FE2
100
AcDbEntity
  8
0
  6
Continuous
 62
     7
100
AcDbLine
 10
753.0259146544604
 20
428.0789093091602
 30
0.0
 11
753.0259146544604
 21
585.0789093091601
 31
0.0
  0
LINE
  5
477
330
FE2
100
AcDbEntity
  8
0
  6
Continuous
 62
     7
100
AcDbLine
 10
668.0260946544604
 20
496.5789093091601
 30
0.0
 11
668.0260946544604
 21
516.5789093091603
 31
0.0
  0
LINE
  5
478
330
FE2
100
AcDbEntity
  8
0
  6
Continuous
 62
     7
100
AcDbLine
 10
724.5197746544598
 20
486.5789093091602
 30
0.0
 11
724.5197746544598
 21
496.5789093091601
 31
0.0
  0
LINE
  5
479
330
FE2
100
AcDbEntity
  8
0
  6
Continuous
 62
     7
100
AcDbLine
 10
724.5197746544598
 20
526.5789093091601
 30
0.0
 11
744.5197746544598
 21
506.5789093091601
 31
0.0
  0
LINE
  5
47A
330
FE2
100
AcDbEntity
  8
0
  6
Continuous
 62
     7
100
AcDbLine
 10
744.5197746544598
 20
506.5789093091601
 30
0.0
 11
724.5197746544598
 21
486.5789093091602
 31
0.0
  0
LINE
  5
47B
330
FE2
100
AcDbEntity
  8
0
  6
Continuous
 62
     7
100
AcDbLine
 10
724.5197746544598
 20
516.5789093091603
 30
0.0
 11
724.5197746544598
 21
526.5789093091601
 31
0.0
  0
LINE
  5
47C
330
FE2
100
AcDbEntity
  8
0
  6
Continuous
 62
     7
100
AcDbLine
 10
724.5197746544598
 20
516.5789093091603
 30
0.0
 11
668.0260946544604
 21
516.5789093091603
 31
0.0
  0
LINE
  5
47D
330
FE2
100
AcDbEntity
  8
0
  6
Continuous
 62
     7
100
AcDbLine
 10
724.5197746544598
 20
496.5789093091601
 30
0.0
 11
668.0260946544604
 21
496.5789093091601
 31
0.0
  0
TEXT
  5
4D8
330
FE2
100
AcDbEntity
  8
0
  6
Continuous
 62
     7
100
AcDbText
 10
520.0927753216688
 20
762.5957716361281
 30
0.0
 40
48.000002
  1
CVES 4S
 41
1.1021
100
AcDbText
  0
CIRCLE
  5
523
330
FE2
100
AcDbEntity
  8
0
  6
Continuous
 62
     7
100
AcDbCircle
 10
944.9470555946591
 20
192.260824915324
 30
0.0
 40
67.5
  0
ARC
  5
524
330
FE2
100
AcDbEntity
  8
0
  6
Continuous
 62
     7
100
AcDbCircle
 10
944.9470555946591
 20
217.9608299153241
 30
0.0
 40
78.5
100
AcDbArc
 50
325.825070000001
 51
214.174919999996
  0
CIRCLE
  5
525
330
FE2
100
AcDbEntity
  8
0
  6
Continuous
 62
     7
100
AcDbCircle
 10
944.9470555946591
 20
217.9608299153241
 30
0.0
 40
98.69998200000001
  0
CIRCLE
  5
526
330
FE2
100
AcDbEntity
  8
0
  6
Continuous
 62
     7
100
AcDbCircle
 10
944.9470555946591
 20
192.260824915324
 30
0.0
 40
50.799995
  0
CIRCLE
  5
528
330
FE2
100
AcDbEntity
  8
0
  6
Continuous
 62
     7
100
AcDbCircle
 10
451.8183341668482
 20
217.9608299153241
 30
0.0
 40
50.799988
  0
CIRCLE
  5
529
330
FE2
100
AcDbEntity
  8
0
  6
Continuous
 62
     7
100
AcDbCircle
 10
451.8183341668482
 20
217.9608299153241
 30
0.0
 40
67.5
  0
CIRCLE
  5
52A
330
FE2
100
AcDbEntity
  8
0
  6
Continuous
 62
     7
100
AcDbCircle
 10
451.8183341668482
 20
217.9608299153241
 30
0.0
 40
78.5
  0
CIRCLE
  5
52B
330
FE2
100
AcDbEntity
  8
0
  6
Continuous
 62
     7
100
AcDbCircle
 10
451.8183341668482
 20
217.9608299153241
 30
0.0
 40
98.69995100000002
  0
LINE
  5
52E
330
FE2
100
AcDbEntity
  8
0
  6
Continuous
 62
     7
100
AcDbLine
 10
728.7759246544601
 20
300.6395419153241
 30
0.0
 11
736.0136746544601
 21
296.4608269153242
 31
0.0
  0
LINE
  5
52F
330
FE2
100
AcDbEntity
  8
0
  6
Continuous
 62
     7
100
AcDbLine
 10
736.0136846544601
 20
296.4608299153241
 30
0.0
 11
752.7179246544601
 21
296.4608299153241
 31
0.0
  0
LINE
  5
530
330
FE2
100
AcDbEntity
  8
0
  6
Continuous
 62
     7
100
AcDbLine
 10
728.7759346544596
 20
135.282121915324
 30
0.0
 11
736.0136746544601
 21
139.4608329153242
 31
0.0
  0
LINE
  5
531
330
FE2
100
AcDbEntity
  8
0
  6
Continuous
 62
     7
100
AcDbLine
 10
736.0136746544601
 20
139.4608299153242
 30
0.0
 11
765.02641465446
 21
139.4608299153242
 31
0.0
  0
LINE
  5
532
330
FE2
100
AcDbEntity
  8
0
  6
Continuous
 62
     7
100
AcDbLine
 10
752.7179346544599
 20
296.4608299153241
 30
0.0
 11
767.0264246544601
 21
243.0608199153241
 31
0.0
  0
LINE
  5
533
330
FE2
100
AcDbEntity
  8
0
  6
Continuous
 62
     7
100
AcDbLine
 10
765.02641465446
 20
139.460844915324
 30
0.0
 11
767.02641465446
 21
141.4608499153241
 31
0.0
  0
LINE
  5
534
330
FE2
100
AcDbEntity
  8
0
  6
Continuous
 62
     7
100
AcDbLine
 10
703.2759346544597
 20
300.6395509153241
 30
0.0
 11
696.0381746544598
 21
296.4608289153241
 31
0.0
  0
LINE
  5
535
330
FE2
100
AcDbEntity
  8
0
  6
Continuous
 62
     7
100
AcDbLine
 10
696.0381746544598
 20
296.4608299153241
 30
0.0
 11
640.0139996544603
 21
296.4608299153241
 31
0.0
  0
LINE
  5
536
330
FE2
100
AcDbEntity
  8
0
  6
Continuous
 62
     7
100
AcDbLine
 10
703.2759246544601
 20
135.2821199153241
 30
0.0
 11
696.0381846544601
 21
139.4608309153242
 31
0.0
  0
LINE
  5
537
330
FE2
100
AcDbEntity
  8
0
  6
Continuous
 62
     7
100
AcDbLine
 10
696.0381846544601
 20
139.4608299153242
 30
0.0
 11
640.0140116544597
 21
139.4608299153242
 31
0.0
  0
LINE
  5
538
330
FE2
100
AcDbEntity
  8
0
  6
Continuous
 62
     7
100
AcDbLine
 10
632.5918136544601
 20
268.7608469153242
 30
0.0
 11
640.0140016544601
 21
296.4608289153241
 31
0.0
  0
LINE
  5
539
330
FE2
100
AcDbEntity
  8
0
  6
Continuous
 62
     7
100
AcDbLine
 10
632.5918156544603
 20
167.1608409153241
 30
0.0
 11
640.0140106544605
 21
139.4608329153242
 31
0.0
  0
LINE
  5
53A
330
FE2
100
AcDbEntity
  8
0
  6
Continuous
 62
     7
100
AcDbLine
 10
703.2759346544597
 20
316.6608119153242
 30
0.0
 11
728.7759246544601
 21
316.6608119153242
 31
0.0
  0
LINE
  5
53B
330
FE2
100
AcDbEntity
  8
0
  6
Continuous
 62
     7
100
AcDbLine
 10
703.2759346544597
 20
119.2608479153242
 30
0.0
 11
728.7759246544601
 21
119.2608479153242
 31
0.0
  0
LINE
  5
53C
330
FE2
100
AcDbEntity
  8
0
  6
Continuous
 62
     7
100
AcDbLine
 10
703.2759346544597
 20
119.2608479153242
 30
0.0
 11
703.2759346544597
 21
316.6608119153242
 31
0.0
  0
LINE
  5
53D
330
FE2
100
AcDbEntity
  8
0
  6
Continuous
 62
     7
100
AcDbLine
 10
728.7759246544601
 20
119.2608479153242
 30
0.0
 11
728.7759246544601
 21
316.6608119153242
 31
0.0
  0
LINE
  5
53E
330
FE2
100
AcDbEntity
  8
0
  6
Continuous
 62
     7
100
AcDbLine
 10
596.0259246544601
 20
169.1608419153242
 30
0.0
 11
596.0259246544601
 21
266.7608479153241
 31
0.0
  0
LINE
  5
53F
330
FE2
100
AcDbEntity
  8
0
  6
Continuous
 62
     7
100
AcDbLine
 10
801.0259246544601
 20
143.4608299153241
 30
0.0
 11
801.0259246544601
 21
241.0608209153241
 31
0.0
  0
LINE
  5
540
330
FE2
100
AcDbEntity
  8
0
  6
Continuous
 62
     7
100
AcDbLine
 10
632.5918116544599
 20
167.1608419153242
 30
0.0
 11
632.5918116544599
 21
268.7608479153241
 31
0.0
  0
LINE
  5
541
330
FE2
100
AcDbEntity
  8
0
  6
Continuous
 62
     7
100
AcDbLine
 10
696.0381746544598
 20
139.4608299153242
 30
0.0
 11
696.0381746544598
 21
296.4608299153241
 31
0.0
  0
LINE
  5
542
330
FE2
100
AcDbEntity
  8
0
  6
Continuous
 62
     7
100
AcDbLine
 10
640.0139996544603
 20
139.4608299153242
 30
0.0
 11
640.0139996544603
 21
296.4608299153241
 31
0.0
  0
LINE
  5
543
330
FE2
100
AcDbEntity
  8
0
  6
Continuous
 62
     7
100
AcDbLine
 10
736.0136846544601
 20
139.4608299153242
 30
0.0
 11
736.0136846544601
 21
296.4608299153241
 31
0.0
  0
LINE
  5
544
330
FE2
100
AcDbEntity
  8
0
  6
Continuous
 62
     7
100
AcDbLine
 10
752.7179246544601
 20
296.4608269153242
 30
0.0
 11
765.0263946544598
 21
139.4608309153242
 31
0.0
  0
LINE
  5
545
330
FE2
100
AcDbEntity
  8
0
  6
Continuous
 62
     7
100
AcDbLine
 10
767.02641465446
 20
141.4608299153241
 30
0.0
 11
767.02641465446
 21
243.0608209153241
 31
0.0
  0
LINE
  5
7B8
330
FE2
100
AcDbEntity
  8
0
  6
Continuous
 62
     7
100
AcDbLine
 10
596.0259246544601
 20
277.4608299153241
 30
0.0
 11
598.8759236544601
 21
277.4608299153241
 31
0.0
  0
LINE
  5
7B9
330
FE2
100
AcDbEntity
  8
0
  6
Continuous
 62
     7
100
AcDbLine
 10
598.8759233544601
 20
277.4608309153241
 30
0.0
 11
602.0424644544601
 21
268.7608309153241
 31
0.0
  0
LINE
  5
7BA
330
FE2
100
AcDbEntity
  8
0
  6
Continuous
 62
     7
100
AcDbLine
 10
602.0424651544598
 20
268.7608289153241
 30
0.0
 11
632.5918116544599
 21
268.7608289153241
 31
0.0
  0
LINE
  5
7BB
330
FE2
100
AcDbEntity
  8
0
  6
Continuous
 62
     7
100
AcDbLine
 10
596.0259246544601
 20
158.4608299153241
 30
0.0
 11
596.0259246544601
 21
277.4608299153241
 31
0.0
  0
LINE
  5
7BC
330
FE2
100
AcDbEntity
  8
0
  6
Continuous
 62
     7
100
AcDbLine
 10
602.0424651544598
 20
167.1608309153242
 30
0.0
 11
632.5918116544599
 21
167.1608309153242
 31
0.0
  0
LINE
  5
7BD
330
FE2
100
AcDbEntity
  8
0
  6
Continuous
 62
     7
100
AcDbLine
 10
598.8759233544601
 20
158.4608289153241
 30
0.0
 11
602.0424644544601
 21
167.1608289153241
 31
0.0
  0
LINE
  5
7BE
330
FE2
100
AcDbEntity
  8
0
  6
Continuous
 62
     7
100
AcDbLine
 10
596.0259246544601
 20
158.4608299153241
 30
0.0
 11
598.8759236544601
 21
158.4608299153241
 31
0.0
  0
LINE
  5
7C0
330
FE2
100
AcDbEntity
  8
0
  6
Continuous
 62
     7
100
AcDbLine
 10
602.0424651544598
 20
268.7608289153241
 30
0.0
 11
602.0424651544598
 21
167.1608309153242
 31
0.0
  0
LINE
  5
7C4
330
FE2
100
AcDbEntity
  8
0
  6
Continuous
 62
     7
100
AcDbLine
 10
801.0259246544601
 20
132.7608249153244
 30
0.0
 11
798.17592565446
 21
132.7608249153244
 31
0.0
  0
LINE
  5
7C5
330
FE2
100
AcDbEntity
  8
0
  6
Continuous
 62
     7
100
AcDbLine
 10
798.1759259544601
 20
132.7608239153244
 30
0.0
 11
795.0093848544601
 21
141.4608239153244
 31
0.0
  0
LINE
  5
7C6
330
FE2
100
AcDbEntity
  8
0
  6
Continuous
 62
     7
100
AcDbLine
 10
795.0093841544604
 20
141.4608259153243
 30
0.0
 11
767.02641465446
 21
141.4608259153243
 31
0.0
  0
LINE
  5
7C7
330
FE2
100
AcDbEntity
  8
0
  6
Continuous
 62
     7
100
AcDbLine
 10
801.0259246544601
 20
251.7608249153244
 30
0.0
 11
801.0259246544601
 21
132.7608249153244
 31
0.0
  0
LINE
  5
7C8
330
FE2
100
AcDbEntity
  8
0
  6
Continuous
 62
     7
100
AcDbLine
 10
795.0093841544604
 20
243.0608239153243
 30
0.0
 11
767.0264246544601
 21
243.0608239153243
 31
0.0
  0
LINE
  5
7C9
330
FE2
100
AcDbEntity
  8
0
  6
Continuous
 62
     7
100
AcDbLine
 10
798.1759259544601
 20
251.7608259153244
 30
0.0
 11
795.0093848544601
 21
243.0608259153243
 31
0.0
  0
LINE
  5
7CA
330
FE2
100
AcDbEntity
  8
0
  6
Continuous
 62
     7
100
AcDbLine
 10
801.0259246544601
 20
251.7608249153244
 30
0.0
 11
798.17592565446
 21
251.7608249153244
 31
0.0
  0
LINE
  5
7CC
330
FE2
100
AcDbEntity
  8
0
  6
Continuous
 62
     7
100
AcDbLine
 10
795.0093841544604
 20
141.4608259153243
 30
0.0
 11
795.0093841544604
 21
243.0608239153243
 31
0.0
  0
LINE
  5
85F
330
FE2
100
AcDbEntity
  8
0
  6
Continuous
 62
     7
100
AcDbLine
 10
801.0259346544597
 20
447.0789093091605
 30
0.0
 11
798.1759356544596
 21
447.0789093091605
 31
0.0
  0
LINE
  5
860
330
FE2
100
AcDbEntity
  8
0
  6
Continuous
 62
     7
100
AcDbLine
 10
798.1759359544605
 20
447.0789083091601
 30
0.0
 11
795.0093948544599
 21
455.7789083091604
 31
0.0
  0
LINE
  5
861
330
FE2
100
AcDbEntity
  8
0
  6
Continuous
 62
     7
100
AcDbLine
 10
795.0093941544601
 20
455.7789103091604
 30
0.0
 11
769.0185246544602
 21
455.7789103091604
 31
0.0
  0
LINE
  5
862
330
FE2
100
AcDbEntity
  8
0
  6
Continuous
 62
     7
100
AcDbLine
 10
801.0259346544597
 20
566.0789093091604
 30
0.0
 11
801.0259346544597
 21
447.0789093091605
 31
0.0
  0
LINE
  5
863
330
FE2
100
AcDbEntity
  8
0
  6
Continuous
 62
     7
100
AcDbLine
 10
795.0093941544601
 20
557.3789083091606
 30
0.0
 11
769.0185246544602
 21
557.3789083091606
 31
0.0
  0
LINE
  5
864
330
FE2
100
AcDbEntity
  8
0
  6
Continuous
 62
     7
100
AcDbLine
 10
798.1759359544605
 20
566.0789103091606
 30
0.0
 11
795.0093948544599
 21
557.3789103091606
 31
0.0
  0
LINE
  5
865
330
FE2
100
AcDbEntity
  8
0
  6
Continuous
 62
     7
100
AcDbLine
 10
801.0259346544597
 20
566.0789093091604
 30
0.0
 11
798.1759356544596
 21
566.0789093091604
 31
0.0
  0
LINE
  5
867
330
FE2
100
AcDbEntity
  8
0
  6
Continuous
 62
     7
100
AcDbLine
 10
795.0093941544601
 20
455.7789103091604
 30
0.0
 11
795.0093941544601
 21
557.3789083091606
 31
0.0
  0
LINE
  5
881
330
FE2
100
AcDbEntity
  8
0
  6
Continuous
 62
     7
100
AcDbLine
 10
596.0259346544598
 20
566.0789093091603
 30
0.0
 11
598.8759336544598
 21
566.0789093091603
 31
0.0
  0
LINE
  5
882
330
FE2
100
AcDbEntity
  8
0
  6
Continuous
 62
     7
100
AcDbLine
 10
598.8759333544601
 20
566.0789103091601
 30
0.0
 11
602.0424744544598
 21
557.3789103091603
 31
0.0
  0
LINE
  5
883
330
FE2
100
AcDbEntity
  8
0
  6
Continuous
 62
     7
100
AcDbLine
 10
602.0424751544601
 20
557.3789083091603
 30
0.0
 11
632.5918136544601
 21
557.3789083091603
 31
0.0
  0
LINE
  5
884
330
FE2
100
AcDbEntity
  8
0
  6
Continuous
 62
     7
100
AcDbLine
 10
596.0259346544598
 20
447.0789093091601
 30
0.0
 11
596.0259346544598
 21
566.0789093091603
 31
0.0
  0
LINE
  5
885
330
FE2
100
AcDbEntity
  8
0
  6
Continuous
 62
     7
100
AcDbLine
 10
602.0424751544601
 20
455.7789103091601
 30
0.0
 11
632.5918136544601
 21
455.7789103091601
 31
0.0
  0
LINE
  5
886
330
FE2
100
AcDbEntity
  8
0
  6
Continuous
 62
     7
100
AcDbLine
 10
598.8759333544601
 20
447.0789083091601
 30
0.0
 11
602.0424744544598
 21
455.7789083091601
 31
0.0
  0
LINE
  5
887
330
FE2
100
AcDbEntity
  8
0
  6
Continuous
 62
     7
100
AcDbLine
 10
596.0259346544598
 20
447.0789093091601
 30
0.0
 11
598.8759336544598
 21
447.0789093091601
 31
0.0
  0
LINE
  5
889
330
FE2
100
AcDbEntity
  8
0
  6
Continuous
 62
     7
100
AcDbLine
 10
602.0424751544601
 20
557.3789083091603
 30
0.0
 11
602.0424751544601
 21
455.7789103091601
 31
0.0
  0
LINE
  5
8B7
330
FE2
100
AcDbEntity
  8
0
  6
Continuous
 62
     7
100
AcDbLine
 10
724.5197746544598
 20
486.9037713091601
 30
0.0
 11
744.3573146544604
 21
506.7413600891601
 31
0.0
  0
LINE
  5
8B8
330
FE2
100
AcDbEntity
  8
0
  6
Continuous
 62
     7
100
AcDbLine
 10
724.5197746544598
 20
491.3939033091602
 30
0.0
 11
742.1122546544601
 21
508.9864241091602
 31
0.0
  0
LINE
  5
8B9
330
FE2
100
AcDbEntity
  8
0
  6
Continuous
 62
     7
100
AcDbLine
 10
724.5197746544598
 20
495.8840363091603
 30
0.0
 11
739.86719465446
 21
511.2314881091601
 31
0.0
  0
LINE
  5
8BA
330
FE2
100
AcDbEntity
  8
0
  6
Continuous
 62
     7
100
AcDbLine
 10
720.7245146544599
 20
496.5789093091601
 30
0.0
 11
737.6221246544599
 21
513.4765521091602
 31
0.0
  0
LINE
  5
8BB
330
FE2
100
AcDbEntity
  8
0
  6
Continuous
 62
     7
100
AcDbLine
 10
716.2343946544601
 20
496.5789093091601
 30
0.0
 11
735.3770646544598
 21
515.7216161091603
 31
0.0
  0
LINE
  5
8BC
330
FE2
100
AcDbEntity
  8
0
  6
Continuous
 62
     7
100
AcDbLine
 10
711.7442746544601
 20
496.5789093091601
 30
0.0
 11
733.1319946544598
 21
517.9666803091602
 31
0.0
  0
LINE
  5
8BD
330
FE2
100
AcDbEntity
  8
0
  6
Continuous
 62
     7
100
AcDbLine
 10
707.2541446544601
 20
496.5789093091601
 30
0.0
 11
730.8869346544595
 21
520.2117443091601
 31
0.0
  0
LINE
  5
8BE
330
FE2
100
AcDbEntity
  8
0
  6
Continuous
 62
     7
100
AcDbLine
 10
702.7640246544601
 20
496.5789093091601
 30
0.0
 11
722.7639846544597
 21
516.5789093091603
 31
0.0
  0
LINE
  5
8BF
330
FE2
100
AcDbEntity
  8
0
  6
Continuous
 62
     7
100
AcDbLine
 10
724.5197746544598
 20
518.3346983091603
 30
0.0
 11
728.64187465446
 21
522.4568083091603
 31
0.0
  0
LINE
  5
8C0
330
FE2
100
AcDbEntity
  8
0
  6
Continuous
 62
     7
100
AcDbLine
 10
698.2739046544601
 20
496.5789093091601
 30
0.0
 11
718.2738646544605
 21
516.5789093091603
 31
0.0
  0
LINE
  5
8C1
330
FE2
100
AcDbEntity
  8
0
  6
Continuous
 62
     7
100
AcDbLine
 10
724.5197746544598
 20
522.8248313091603
 30
0.0
 11
726.3968046544602
 21
524.7018723091603
 31
0.0
  0
LINE
  5
8C2
330
FE2
100
AcDbEntity
  8
0
  6
Continuous
 62
     7
100
AcDbLine
 10
693.7837776544601
 20
496.5789093091601
 30
0.0
 11
713.7837346544603
 21
516.5789093091603
 31
0.0
  0
LINE
  5
8C3
330
FE2
100
AcDbEntity
  8
0
  6
Continuous
 62
     7
100
AcDbLine
 10
689.2936536544603
 20
496.5789093091601
 30
0.0
 11
709.2936146544598
 21
516.5789093091603
 31
0.0
  0
LINE
  5
8C4
330
FE2
100
AcDbEntity
  8
0
  6
Continuous
 62
     7
100
AcDbLine
 10
684.8035306544598
 20
496.5789093091601
 30
0.0
 11
704.8034946544604
 21
516.5789093091603
 31
0.0
  0
LINE
  5
8C5
330
FE2
100
AcDbEntity
  8
0
  6
Continuous
 62
     7
100
AcDbLine
 10
680.3134066544599
 20
496.5789093091601
 30
0.0
 11
700.3133646544601
 21
516.5789093091603
 31
0.0
  0
LINE
  5
8C6
330
FE2
100
AcDbEntity
  8
0
  6
Continuous
 62
     7
100
AcDbLine
 10
675.8232836544602
 20
496.5789093091601
 30
0.0
 11
695.8232436544602
 21
516.5789093091603
 31
0.0
  0
LINE
  5
8C7
330
FE2
100
AcDbEntity
  8
0
  6
Continuous
 62
     7
100
AcDbLine
 10
671.3331596544604
 20
496.5789093091601
 30
0.0
 11
691.3331196544604
 21
516.5789093091603
 31
0.0
  0
LINE
  5
8C8
330
FE2
100
AcDbEntity
  8
0
  6
Continuous
 62
     7
100
AcDbLine
 10
668.0260946544604
 20
497.7619702091604
 30
0.0
 11
686.8429966544598
 21
516.5789093091603
 31
0.0
  0
LINE
  5
8C9
330
FE2
100
AcDbEntity
  8
0
  6
Continuous
 62
     7
100
AcDbLine
 10
668.0260946544604
 20
502.2521027091602
 30
0.0
 11
682.35287265446
 21
516.5789093091603
 31
0.0
  0
LINE
  5
8CA
330
FE2
100
AcDbEntity
  8
0
  6
Continuous
 62
     7
100
AcDbLine
 10
668.0260946544604
 20
506.7422351891601
 30
0.0
 11
677.8627496544603
 21
516.5789093091603
 31
0.0
  0
LINE
  5
8CB
330
FE2
100
AcDbEntity
  8
0
  6
Continuous
 62
     7
100
AcDbLine
 10
668.0260946544604
 20
511.2323677091604
 30
0.0
 11
673.3726256544599
 21
516.5789093091603
 31
0.0
  0
LINE
  5
8CC
330
FE2
100
AcDbEntity
  8
0
  6
Continuous
 62
     7
100
AcDbLine
 10
668.0260946544604
 20
515.7225001091602
 30
0.0
 11
668.88250265446
 21
516.5789093091603
 31
0.0
  0
LINE
  5
C0D
330
FE2
100
AcDbEntity
  8
0
  6
Continuous
 62
     7
100
AcDbLine
 10
724.5197716544596
 20
227.9608478435274
 30
0.0
 11
724.5197716544596
 21
237.9608478435274
 31
0.0
  0
LINE
  5
C0E
330
FE2
100
AcDbEntity
  8
0
  6
Continuous
 62
     7
100
AcDbLine
 10
724.5197716544596
 20
229.7166368435275
 30
0.0
 11
728.6418716544598
 21
233.8387468435275
 31
0.0
  0
LINE
  5
C0F
330
FE2
100
AcDbEntity
  8
0
  6
Continuous
 62
     7
100
AcDbLine
 10
724.5197716544596
 20
237.9608478435274
 30
0.0
 11
744.5197716544599
 21
217.9608478435274
 31
0.0
  0
LINE
  5
C10
330
FE2
100
AcDbEntity
  8
0
  6
Continuous
 62
     7
100
AcDbLine
 10
707.2541416544599
 20
207.9608478435274
 30
0.0
 11
730.8869316544595
 21
231.5936828435273
 31
0.0
  0
LINE
  5
C11
330
FE2
100
AcDbEntity
  8
0
  6
Continuous
 62
     7
100
AcDbLine
 10
724.5197716544596
 20
227.9608478435274
 30
0.0
 11
668.0260916544601
 21
227.9608478435274
 31
0.0
  0
LINE
  5
C12
330
FE2
100
AcDbEntity
  8
0
  6
Continuous
 62
     7
100
AcDbLine
 10
724.5197716544596
 20
207.9608478435274
 30
0.0
 11
668.0260916544601
 21
207.9608478435274
 31
0.0
  0
LINE
  5
C13
330
FE2
100
AcDbEntity
  8
0
  6
Continuous
 62
     7
100
AcDbLine
 10
698.2739016544601
 20
207.9608478435274
 30
0.0
 11
718.2738616544601
 21
227.9608478435274
 31
0.0
  0
LINE
  5
C14
330
FE2
100
AcDbEntity
  8
0
  6
Continuous
 62
     7
100
AcDbLine
 10
711.7442716544601
 20
207.9608478435274
 30
0.0
 11
733.1319916544599
 21
229.3486188435273
 31
0.0
  0
LINE
  5
C15
330
FE2
100
AcDbEntity
  8
0
  6
Continuous
 62
     7
100
AcDbLine
 10
702.7640216544599
 20
207.9608478435274
 30
0.0
 11
722.7639816544597
 21
227.9608478435274
 31
0.0
  0
LINE
  5
C16
330
FE2
100
AcDbEntity
  8
0
  6
Continuous
 62
     7
100
AcDbLine
 10
675.8232806544602
 20
207.9608478435274
 30
0.0
 11
695.8232406544603
 21
227.9608478435274
 31
0.0
  0
LINE
  5
C17
330
FE2
100
AcDbEntity
  8
0
  6
Continuous
 62
     7
100
AcDbLine
 10
671.3331566544602
 20
207.9608478435274
 30
0.0
 11
691.3331166544605
 21
227.9608478435274
 31
0.0
  0
LINE
  5
C18
330
FE2
100
AcDbEntity
  8
0
  6
Continuous
 62
     7
100
AcDbLine
 10
668.0260916544601
 20
209.1439087435275
 30
0.0
 11
686.8429936544599
 21
227.9608478435274
 31
0.0
  0
LINE
  5
C19
330
FE2
100
AcDbEntity
  8
0
  6
Continuous
 62
     7
100
AcDbLine
 10
668.0260916544601
 20
213.6340412435274
 30
0.0
 11
682.3528696544599
 21
227.9608478435274
 31
0.0
  0
LINE
  5
C1A
330
FE2
100
AcDbEntity
  8
0
  6
Continuous
 62
     7
100
AcDbLine
 10
668.0260916544601
 20
218.1241737235274
 30
0.0
 11
677.8627466544604
 21
227.9608478435274
 31
0.0
  0
LINE
  5
C1B
330
FE2
100
AcDbEntity
  8
0
  6
Continuous
 62
     7
100
AcDbLine
 10
668.0260916544601
 20
227.1044386435276
 30
0.0
 11
668.8824996544598
 21
227.9608478435274
 31
0.0
  0
LINE
  5
C1C
330
FE2
100
AcDbEntity
  8
0
  6
Continuous
 62
     7
100
AcDbLine
 10
668.0260916544601
 20
207.9608478435274
 30
0.0
 11
668.0260916544601
 21
227.9608478435274
 31
0.0
  0
LINE
  5
C1D
330
FE2
100
AcDbEntity
  8
0
  6
Continuous
 62
     7
100
AcDbLine
 10
668.0260916544601
 20
222.6143062435276
 30
0.0
 11
673.3726226544598
 21
227.9608478435274
 31
0.0
  0
LINE
  5
C1E
330
FE2
100
AcDbEntity
  8
0
  6
Continuous
 62
     7
100
AcDbLine
 10
689.2936506544601
 20
207.9608478435274
 30
0.0
 11
709.2936116544596
 21
227.9608478435274
 31
0.0
  0
LINE
  5
C1F
330
FE2
100
AcDbEntity
  8
0
  6
Continuous
 62
     7
100
AcDbLine
 10
684.8035276544595
 20
207.9608478435274
 30
0.0
 11
704.8034916544601
 21
227.9608478435274
 31
0.0
  0
LINE
  5
C20
330
FE2
100
AcDbEntity
  8
0
  6
Continuous
 62
     7
100
AcDbLine
 10
693.7837746544601
 20
207.9608478435274
 30
0.0
 11
713.7837316544601
 21
227.9608478435274
 31
0.0
  0
LINE
  5
C21
330
FE2
100
AcDbEntity
  8
0
  6
Continuous
 62
     7
100
AcDbLine
 10
680.3134036544596
 20
207.9608478435274
 30
0.0
 11
700.3133616544601
 21
227.9608478435274
 31
0.0
  0
LINE
  5
C22
330
FE2
100
AcDbEntity
  8
0
  6
Continuous
 62
     7
100
AcDbLine
 10
720.72451165446
 20
207.9608478435274
 30
0.0
 11
737.62212165446
 21
224.8584906435274
 31
0.0
  0
LINE
  5
C23
330
FE2
100
AcDbEntity
  8
0
  6
Continuous
 62
     7
100
AcDbLine
 10
716.2343916544601
 20
207.9608478435274
 30
0.0
 11
735.3770616544598
 21
227.1035546435275
 31
0.0
  0
LINE
  5
C24
330
FE2
100
AcDbEntity
  8
0
  6
Continuous
 62
     7
100
AcDbLine
 10
744.5197716544599
 20
217.9608478435274
 30
0.0
 11
724.5197716544596
 21
197.9608478435274
 31
0.0
  0
LINE
  5
C25
330
FE2
100
AcDbEntity
  8
0
  6
Continuous
 62
     7
100
AcDbLine
 10
724.5197716544596
 20
198.2857098435274
 30
0.0
 11
744.3573116544604
 21
218.1232986235273
 31
0.0
  0
LINE
  5
C26
330
FE2
100
AcDbEntity
  8
0
  6
Continuous
 62
     7
100
AcDbLine
 10
724.5197716544596
 20
202.7758418435275
 30
0.0
 11
742.1122516544601
 21
220.3683626435274
 31
0.0
  0
LINE
  5
C27
330
FE2
100
AcDbEntity
  8
0
  6
Continuous
 62
     7
100
AcDbLine
 10
724.5197716544596
 20
207.2659748435276
 30
0.0
 11
739.8671916544598
 21
222.6134266435273
 31
0.0
  0
LINE
  5
C28
330
FE2
100
AcDbEntity
  8
0
  6
Continuous
 62
     7
100
AcDbLine
 10
724.5197716544596
 20
197.9608478435274
 30
0.0
 11
724.5197716544596
 21
207.9608478435274
 31
0.0
  0
LINE
  5
C29
330
FE2
100
AcDbEntity
  8
0
  6
Continuous
 62
     7
100
AcDbLine
 10
724.5197716544596
 20
234.2067698435275
 30
0.0
 11
726.3968016544598
 21
236.0838108435274
 31
0.0
  0
LINE
  5
1034
330
FE2
100
AcDbEntity
  8
0
  6
CENTER
100
AcDbLine
 10
872.3916338654468
 20
192.260824915324
 30
0.0
 11
1017.502477323871
 21
192.260824915324
 31
0.0
  0
LINE
  5
1035
330
FE2
100
AcDbEntity
  8
0
  6
CENTER
100
AcDbLine
 10
827.8354489716555
 20
217.9608299153241
 30
0.0
 11
1062.058662217663
 21
217.9608299153241
 31
0.0
  0
LINE
  5
1036
330
FE2
100
AcDbEntity
  8
0
  6
CENTER
100
AcDbLine
 10
944.9470555946591
 20
100.8492232923204
 30
0.0
 11
944.9470555946591
 21
335.0724365383279
 31
0.0
  0
LINE
  5
1037
330
FE2
100
AcDbEntity
  8
0
  6
CENTER
100
AcDbLine
 10
334.7067275438445
 20
217.9608299153241
 30
0.0
 11
568.9299407898519
 21
217.9608299153241
 31
0.0
  0
LINE
  5
1038
330
FE2
100
AcDbEntity
  8
0
  6
CENTER
100
AcDbLine
 10
451.8183341668482
 20
100.8492232923204
 30
0.0
 11
451.8183341668482
 21
335.0724365383279
 31
0.0
  0
LINE
  5
1039
330
FE2
100
AcDbEntity
  8
0
  6
CENTER
100
AcDbLine
 10
582.3860560016874
 20
217.9608449153241
 30
0.0
 11
713.1375312774638
 21
217.9608449153241
 31
0.0
  0
LINE
  5
103A
330
FE2
100
AcDbEntity
  8
0
  6
CENTER
100
AcDbLine
 10
683.9143180314565
 20
192.2608249153243
 30
0.0
 11
825.2077630964759
 21
192.2608249153243
 31
0.0
  0
LINE
  5
103B
330
FE2
100
AcDbEntity
  8
0
  6
CENTER
100
AcDbLine
 10
563.8399274833464
 20
506.5789088091606
 30
0.0
 11
825.2077730964753
 21
506.5789088091606
 31
0.0
  0
ENDSEC
  0
SECTION
  2
OBJECTS
  0
DICTIONARY
  5
FD0
330
0
100
AcDbDictionary
281
     1
  3
ACAD_GROUP
350
FD1
  3
ACAD_LAYOUT
350
FDD
  3
ACAD_MLINESTYLE
350
FDA
  3
ACAD_PLOTSETTINGS
350
FDC
  3
ACAD_PLOTSTYLENAME
350
FD2
  3
AcDbVariableDictionary
350
1027
  0
DICTIONARY
  5
102D
330
FC6
100
AcDbDictionary
280
     1
281
     1
  3
ACAD_LAYERSTATES
360
102E
  0
DICTIONARY
  5
FF3
330
FE2
100
AcDbDictionary
280
     1
281
     1
  3
ACAD_LAYOUTSELFREF
360
1022
  0
DICTIONARY
  5
FF5
330
FDE
100
AcDbDictionary
280
     1
281
     1
  3
ACAD_LAYOUTSELFREF
360
1021
  0
DICTIONARY
  5
FD1
102
{ACAD_REACTORS
330
FD0
102
}
330
FD0
100
AcDbDictionary
281
     1
  0
DICTIONARY
  5
FDD
102
{ACAD_REACTORS
330
FD0
102
}
330
FD0
100
AcDbDictionary
281
     1
  3
Model
350
FE5
  3
ﾚｲｱｳﾄ1
350
FE1
  0
DICTIONARY
  5
FDA
102
{ACAD_REACTORS
330
FD0
102
}
330
FD0
100
AcDbDictionary
281
     1
  3
Standard
350
FDB
  0
DICTIONARY
  5
FDC
102
{ACAD_REACTORS
330
FD0
102
}
330
FD0
100
AcDbDictionary
281
     1
  0
ACDBDICTIONARYWDFLT
  5
FD2
102
{ACAD_REACTORS
330
FD0
102
}
330
FD0
100
AcDbDictionary
281
     1
  3
Normal
350
FD3
100
AcDbDictionaryWithDefault
340
FD3
  0
DICTIONARY
  5
1027
102
{ACAD_REACTORS
330
FD0
102
}
330
FD0
100
AcDbDictionary
281
     1
  3
DIMASSOC
350
1028
  0
DICTIONARY
  5
102E
102
{ACAD_REACTORS
330
102D
102
}
330
102D
100
AcDbDictionary
281
     1
  0
XRECORD
  5
1022
102
{ACAD_REACTORS
330
FF3
102
}
330
FF3
100
AcDbXrecord
280
     1
340
FE2
  0
XRECORD
  5
1021
102
{ACAD_REACTORS
330
FF5
102
}
330
FF5
100
AcDbXrecord
280
     1
340
FDE
  0
LAYOUT
  5
FE5
102
{ACAD_REACTORS
330
FDD
102
}
330
FDD
100
AcDbPlotSettings
  1

  2
SII LP-2150 (D-SCAN C2)
  4

  6

 40
0.0
 41
0.0
 42
0.0
 43
0.0
 44
0.0
 45
0.0
 46
0.0
 47
0.0
 48
0.0
 49
0.0
140
0.0
141
0.0
142
1.0
143
1.0
 70
  1712
 72
     0
 73
     0
 74
     0
  7

 75
     0
147
1.0
148
0.0
149
0.0
100
AcDbLayout
  1
Model
 70
     1
 71
     0
 10
0.0
 20
0.0
 11
12.0
 21
9.0
 12
0.0
 22
0.0
 32
0.0
 14
0.0
 24
0.0
 34
0.0
 15
0.0
 25
0.0
 35
0.0
146
0.0
 13
0.0
 23
0.0
 33
0.0
 16
1.0
 26
0.0
 36
0.0
 17
0.0
 27
1.0
 37
0.0
 76
     0
330
FE2
  0
LAYOUT
  5
FE1
102
{ACAD_REACTORS
330
FDD
102
}
330
FDD
100
AcDbPlotSettings
  1

  2
SII LP-2150 (D-SCAN C2)
  4

  6

 40
0.0
 41
0.0
 42
0.0
 43
0.0
 44
0.0
 45
0.0
 46
0.0
 47
0.0
 48
0.0
 49
0.0
140
0.0
141
0.0
142
1.0
143
1.0
 70
   688
 72
     0
 73
     0
 74
     5
  7

 75
    16
147
1.0
148
0.0
149
0.0
100
AcDbLayout
  1
ﾚｲｱｳﾄ1
 70
     1
 71
     1
 10
-44.912933
 20
-21.841471
 11
153.5627299999999
 21
105.04179
 12
0.0
 22
0.0
 32
0.0
 14
-44.912933
 24
-21.841471
 34
0.0
 15
153.5627299999999
 25
105.04179
 35
0.0
146
0.0
 13
0.0
 23
0.0
 33
0.0
 16
1.0
 26
0.0
 36
0.0
 17
0.0
 27
1.0
 37
0.0
 76
     0
330
FDE
  0
MLINESTYLE
  5
FDB
102
{ACAD_REACTORS
330
FDA
102
}
330
FDA
100
AcDbMlineStyle
  2
STANDARD
 70
     0
  3

 62
   256
 51
90.0
 52
90.0
 71
     2
 49
0.5
 62
   256
  6
BYLAYER
 49
-0.5
 62
   256
  6
BYLAYER
  0
ACDBPLACEHOLDER
  5
FD3
102
{ACAD_REACTORS
330
FD2
102
}
330
FD2
  0
DICTIONARYVAR
  5
1028
102
{ACAD_REACTORS
330
1027
102
}
330
1027
100
DictionaryVariables
280
     0
  1
1
  0
ENDSEC
  0
EOF
