  0
SECTION
  2
HEADER
  9
$ACADVER
  1
AC1015
  9
$ACADMAINTVER
 70
    14
  9
$DWGCODEPAGE
  3
ANSI_932
  9
$INSBASE
 10
0.0
 20
0.0
 30
0.0
  9
$EXTMIN
 10
287.4775829553986
 20
138.4008797506117
 30
-0.0000000000112498
  9
$EXTMAX
 10
984.1974932572993
 20
729.9599228466188
 30
0.0000000000002956
  9
$LIMMIN
 10
-44.912933
 20
-21.841471
  9
$LIMMAX
 10
153.5627299999999
 20
105.04179
  9
$ORTHOMODE
 70
     0
  9
$REGENMODE
 70
     1
  9
$FILLMODE
 70
     1
  9
$QTEXTMODE
 70
     0
  9
$MIRRTEXT
 70
     1
  9
$LTSCALE
 40
1.0
  9
$ATTMODE
 70
     1
  9
$TEXTSIZE
 40
0.2
  9
$TRACEWID
 40
0.05
  9
$TEXTSTYLE
  7
STANDARD
  9
$CLAYER
  8
0
  9
$CELTYPE
  6
CONTINUOUS
  9
$CECOLOR
 62
   256
  9
$CELTSCALE
 40
1.0
  9
$DISPSILH
 70
     0
  9
$DIMSCALE
 40
1.0
  9
$DIMASZ
 40
15.0
  9
$DIMEXO
 40
5.0
  9
$DIMDLI
 40
10.0
  9
$DIMRND
 40
0.0
  9
$DIMDLE
 40
0.0
  9
$DIMEXE
 40
10.0
  9
$DIMTP
 40
0.0
  9
$DIMTM
 40
0.0
  9
$DIMTXT
 40
20.0
  9
$DIMCEN
 40
0.09
  9
$DIMTSZ
 40
0.0
  9
$DIMTOL
 70
     0
  9
$DIMLIM
 70
     0
  9
$DIMTIH
 70
     0
  9
$DIMTOH
 70
     1
  9
$DIMSE1
 70
     0
  9
$DIMSE2
 70
     0
  9
$DIMTAD
 70
     1
  9
$DIMZIN
 70
     8
  9
$DIMBLK
  1

  9
$DIMASO
 70
     1
  9
$DIMSHO
 70
     0
  9
$DIMPOST
  1

  9
$DIMAPOST
  1

  9
$DIMALT
 70
     0
  9
$DIMALTD
 70
     2
  9
$DIMALTF
 40
25.4
  9
$DIMLFAC
 40
1.0
  9
$DIMTOFL
 70
     0
  9
$DIMTVP
 40
0.0
  9
$DIMTIX
 70
     0
  9
$DIMSOXD
 70
     0
  9
$DIMSAH
 70
     0
  9
$DIMBLK1
  1

  9
$DIMBLK2
  1

  9
$DIMSTYLE
  2
STANDARD
  9
$DIMCLRD
 70
     0
  9
$DIMCLRE
 70
     0
  9
$DIMCLRT
 70
     0
  9
$DIMTFAC
 40
1.0
  9
$DIMGAP
 40
5.0
  9
$DIMJUST
 70
     0
  9
$DIMSD1
 70
     0
  9
$DIMSD2
 70
     0
  9
$DIMTOLJ
 70
     1
  9
$DIMTZIN
 70
     8
  9
$DIMALTZ
 70
     8
  9
$DIMALTTZ
 70
     8
  9
$DIMUPT
 70
     0
  9
$DIMDEC
 70
     4
  9
$DIMTDEC
 70
     4
  9
$DIMALTU
 70
     2
  9
$DIMALTTD
 70
     2
  9
$DIMTXSTY
  7
STANDARD
  9
$DIMAUNIT
 70
     0
  9
$DIMADEC
 70
     0
  9
$DIMALTRND
 40
0.0
  9
$DIMAZIN
 70
     0
  9
$DIMDSEP
 70
    46
  9
$DIMATFIT
 70
     3
  9
$DIMFRAC
 70
     0
  9
$DIMLDRBLK
  1

  9
$DIMLUNIT
 70
     2
  9
$DIMLWD
 70
    -2
  9
$DIMLWE
 70
    -2
  9
$DIMTMOVE
 70
     2
  9
$LUNITS
 70
     2
  9
$LUPREC
 70
     4
  9
$SKETCHINC
 40
0.1
  9
$FILLETRAD
 40
0.0
  9
$AUNITS
 70
     0
  9
$AUPREC
 70
     0
  9
$MENU
  1
.
  9
$ELEVATION
 40
0.0
  9
$PELEVATION
 40
0.0
  9
$THICKNESS
 40
0.0
  9
$LIMCHECK
 70
     0
  9
$CHAMFERA
 40
0.0
  9
$CHAMFERB
 40
0.0
  9
$CHAMFERC
 40
0.0
  9
$CHAMFERD
 40
0.0
  9
$SKPOLY
 70
     0
  9
$TDCREATE
 40
2452488.423177615
  9
$TDUCREATE
 40
2452488.048177615
  9
$TDUPDATE
 40
2456899.667912338
  9
$TDUUPDATE
 40
2456899.292912337
  9
$TDINDWG
 40
0.0585931829
  9
$TDUSRTIMER
 40
0.0585931829
  9
$USRTIMER
 70
     1
  9
$ANGBASE
 50
0.0
  9
$ANGDIR
 70
     0
  9
$PDMODE
 70
     3
  9
$PDSIZE
 40
0.0
  9
$PLINEWID
 40
0.0
  9
$SPLFRAME
 70
     0
  9
$SPLINETYPE
 70
     6
  9
$SPLINESEGS
 70
     8
  9
$HANDSEED
  5
104B
  9
$SURFTAB1
 70
     6
  9
$SURFTAB2
 70
     6
  9
$SURFTYPE
 70
     6
  9
$SURFU
 70
     6
  9
$SURFV
 70
     6
  9
$UCSBASE
  2

  9
$UCSNAME
  2

  9
$UCSORG
 10
0.0
 20
0.0
 30
0.0
  9
$UCSXDIR
 10
1.0
 20
0.0
 30
0.0
  9
$UCSYDIR
 10
0.0
 20
1.0
 30
0.0
  9
$UCSORTHOREF
  2

  9
$UCSORTHOVIEW
 70
     0
  9
$UCSORGTOP
 10
0.0
 20
0.0
 30
0.0
  9
$UCSORGBOTTOM
 10
0.0
 20
0.0
 30
0.0
  9
$UCSORGLEFT
 10
0.0
 20
0.0
 30
0.0
  9
$UCSORGRIGHT
 10
0.0
 20
0.0
 30
0.0
  9
$UCSORGFRONT
 10
0.0
 20
0.0
 30
0.0
  9
$UCSORGBACK
 10
0.0
 20
0.0
 30
0.0
  9
$PUCSBASE
  2

  9
$PUCSNAME
  2

  9
$PUCSORG
 10
0.0
 20
0.0
 30
0.0
  9
$PUCSXDIR
 10
1.0
 20
0.0
 30
0.0
  9
$PUCSYDIR
 10
0.0
 20
1.0
 30
0.0
  9
$PUCSORTHOREF
  2

  9
$PUCSORTHOVIEW
 70
     0
  9
$PUCSORGTOP
 10
0.0
 20
0.0
 30
0.0
  9
$PUCSORGBOTTOM
 10
0.0
 20
0.0
 30
0.0
  9
$PUCSORGLEFT
 10
0.0
 20
0.0
 30
0.0
  9
$PUCSORGRIGHT
 10
0.0
 20
0.0
 30
0.0
  9
$PUCSORGFRONT
 10
0.0
 20
0.0
 30
0.0
  9
$PUCSORGBACK
 10
0.0
 20
0.0
 30
0.0
  9
$USERI1
 70
     0
  9
$USERI2
 70
     0
  9
$USERI3
 70
     0
  9
$USERI4
 70
     0
  9
$USERI5
 70
     0
  9
$USERR1
 40
0.0
  9
$USERR2
 40
0.0
  9
$USERR3
 40
0.0
  9
$USERR4
 40
0.0
  9
$USERR5
 40
0.0
  9
$WORLDVIEW
 70
     1
  9
$SHADEDGE
 70
     3
  9
$SHADEDIF
 70
    70
  9
$TILEMODE
 70
     1
  9
$MAXACTVP
 70
    48
  9
$PINSBASE
 10
0.0
 20
0.0
 30
0.0
  9
$PLIMCHECK
 70
     0
  9
$PEXTMIN
 10
-44.912933
 20
-21.841471
 30
0.0
  9
$PEXTMAX
 10
153.5627299999999
 20
105.04179
 30
0.0
  9
$PLIMMIN
 10
-44.912933
 20
-21.841471
  9
$PLIMMAX
 10
153.5627299999999
 20
105.04179
  9
$UNITMODE
 70
     0
  9
$VISRETAIN
 70
     1
  9
$PLINEGEN
 70
     0
  9
$PSLTSCALE
 70
     1
  9
$TREEDEPTH
 70
  3020
  9
$CMLSTYLE
  2
Standard
  9
$CMLJUST
 70
     0
  9
$CMLSCALE
 40
1.0
  9
$PROXYGRAPHICS
 70
     1
  9
$MEASUREMENT
 70
     0
  9
$CELWEIGHT
370
    -1
  9
$ENDCAPS
280
     0
  9
$JOINSTYLE
280
     0
  9
$LWDISPLAY
290
     0
  9
$INSUNITS
 70
     0
  9
$HYPERLINKBASE
  1

  9
$STYLESHEET
  1

  9
$XEDIT
290
     1
  9
$CEPSNTYPE
380
     0
  9
$PSTYLEMODE
290
     1
  9
$FINGERPRINTGUID
  2
{DB85A03E-CC77-48CD-AF55-C9B3651DC2D7}
  9
$VERSIONGUID
  2
{D7A0EF9E-BB95-4DF8-B3DD-C488E85A0313}
  9
$EXTNAMES
290
     1
  9
$PSVPSCALE
 40
0.0
  9
$OLESTARTUP
290
     0
  0
ENDSEC
  0
SECTION
  2
CLASSES
  0
CLASS
  1
ACDBDICTIONARYWDFLT
  2
AcDbDictionaryWithDefault
  3
AutoCAD 2000
 90
        0
280
     0
281
     0
  0
CLASS
  1
ACDBPLACEHOLDER
  2
AcDbPlaceHolder
  3
AutoCAD 2000
 90
        0
280
     0
281
     0
  0
CLASS
  1
LAYOUT
  2
AcDbLayout
  3
AutoCAD 2000
 90
        0
280
     0
281
     0
  0
CLASS
  1
DICTIONARYVAR
  2
AcDbDictionaryVar
  3
AutoCAD 2000
 90
        0
280
     0
281
     0
  0
CLASS
  1
LONG_TRANSACTION
  2
AcDbLongTransaction
  3
AutoCAD 2000
 90
    32768
280
     0
281
     0
  0
CLASS
  1
LWPOLYLINE
  2
AcDbPolyline
  3
AutoCAD 2000
 90
    32768
280
     0
281
     1
  0
CLASS
  1
HATCH
  2
AcDbHatch
  3
AutoCAD 2000
 90
    32768
280
     0
281
     1
  0
CLASS
  1
XRECORD
  2
AcDbXrecord
  3
AutoCAD 2000
 90
    32768
280
     0
281
     0
  0
ENDSEC
  0
SECTION
  2
TABLES
  0
TABLE
  2
VPORT
  5
FCA
330
0
100
AcDbSymbolTable
 70
     2
  0
VPORT
  5
104A
330
FCA
100
AcDbSymbolTableRecord
100
AcDbViewportTableRecord
  2
*Active
 70
     0
 10
0.0
 20
0.0
 11
1.0
 21
1.0
 12
635.837538106349
 22
434.1804012986152
 13
0.0
 23
0.0
 14
1.0
 24
1.0
 15
0.0
 25
0.0
 16
0.0
 26
0.0
 36
1.0
 17
0.0
 27
0.0
 37
0.0
 40
595.3149735283627
 41
1.592161016949152
 42
50.0
 43
0.0
 44
0.0
 50
0.0
 51
0.0
 71
     0
 72
   100
 73
     1
 74
     3
 75
     0
 76
     0
 77
     0
 78
     0
281
     0
 65
     1
110
0.0
120
0.0
130
0.0
111
1.0
121
0.0
131
0.0
112
0.0
122
1.0
132
0.0
 79
     0
146
0.0
  0
ENDTAB
  0
TABLE
  2
LTYPE
  5
FC7
330
0
100
AcDbSymbolTable
 70
     2
  0
LTYPE
  5
FD5
330
FC7
100
AcDbSymbolTableRecord
100
AcDbLinetypeTableRecord
  2
ByBlock
 70
     0
  3

 72
    65
 73
     0
 40
0.0
  0
LTYPE
  5
FD6
330
FC7
100
AcDbSymbolTableRecord
100
AcDbLinetypeTableRecord
  2
ByLayer
 70
     0
  3

 72
    65
 73
     0
 40
0.0
  0
LTYPE
  5
FD7
330
FC7
100
AcDbSymbolTableRecord
100
AcDbLinetypeTableRecord
  2
CONTINUOUS
 70
     0
  3
Solid line
 72
    65
 73
     0
 40
0.0
  0
LTYPE
  5
1032
330
FC7
100
AcDbSymbolTableRecord
100
AcDbLinetypeTableRecord
  2
CENTER
 70
     0
  3
__ . __
 72
    65
 73
     4
 40
7.0
 49
4.0
 74
     0
 49
-1.0
 74
     0
 49
1.0
 74
     0
 49
-1.0
 74
     0
  0
ENDTAB
  0
TABLE
  2
LAYER
  5
FC4
102
{ACAD_XDICTIONARY
360
1033
102
}
330
0
100
AcDbSymbolTable
 70
     1
  0
LAYER
  5
FD2
330
FC4
100
AcDbSymbolTableRecord
100
AcDbLayerTableRecord
  2
0
 70
     0
 62
     7
  6
CONTINUOUS
370
    -3
390
FD1
  0
ENDTAB
  0
TABLE
  2
STYLE
  5
FC5
330
0
100
AcDbSymbolTable
 70
     1
  0
STYLE
  5
FD3
330
FC5
100
AcDbSymbolTableRecord
100
AcDbTextStyleTableRecord
  2
STANDARD
 70
     0
 40
0.0
 41
1.0
 50
0.0
 71
     0
 42
0.2
  3
txt
  4

  0
ENDTAB
  0
TABLE
  2
VIEW
  5
FC8
330
0
100
AcDbSymbolTable
 70
     0
  0
ENDTAB
  0
TABLE
  2
UCS
  5
FC9
330
0
100
AcDbSymbolTable
 70
     0
  0
ENDTAB
  0
TABLE
  2
APPID
  5
FCB
330
0
100
AcDbSymbolTable
 70
     4
  0
APPID
  5
FD4
330
FCB
100
AcDbSymbolTableRecord
100
AcDbRegAppTableRecord
  2
ACAD
 70
     0
  0
APPID
  5
FE6
330
FCB
100
AcDbSymbolTableRecord
100
AcDbRegAppTableRecord
  2
MCAD_NO_VIS
 70
     0
  0
APPID
  5
FE7
330
FCB
100
AcDbSymbolTableRecord
100
AcDbRegAppTableRecord
  2
ACAD_TEMP_GRAPHIC
 70
     0
  0
APPID
  5
FE8
330
FCB
100
AcDbSymbolTableRecord
100
AcDbRegAppTableRecord
  2
ACATTRIBSERVICES
 70
     0
  0
ENDTAB
  0
TABLE
  2
DIMSTYLE
  5
FCC
330
0
100
AcDbSymbolTable
 70
     1
100
AcDbDimStyleTable
 71
     1
340
FE9
  0
DIMSTYLE
105
FE9
330
FCC
100
AcDbSymbolTableRecord
100
AcDbDimStyleTableRecord
  2
STANDARD
 70
     0
 41
15.0
 42
5.0
 43
10.0
 44
10.0
 73
     0
 77
     1
 78
     8
140
20.0
147
5.0
279
     2
284
     8
285
     8
286
     8
340
FD3
  0
ENDTAB
  0
TABLE
  2
BLOCK_RECORD
  5
FC3
330
0
100
AcDbSymbolTable
 70
     0
  0
BLOCK_RECORD
  5
FE0
102
{ACAD_XDICTIONARY
360
FF1
102
}
330
FC3
100
AcDbSymbolTableRecord
100
AcDbBlockTableRecord
  2
*Model_Space
340
FE3
  0
BLOCK_RECORD
  5
FDC
102
{ACAD_XDICTIONARY
360
FF3
102
}
330
FC3
100
AcDbSymbolTableRecord
100
AcDbBlockTableRecord
  2
*Paper_Space
340
FDF
  0
ENDTAB
  0
ENDSEC
  0
SECTION
  2
BLOCKS
  0
BLOCK
  5
FE1
330
FE0
100
AcDbEntity
  8
0
100
AcDbBlockBegin
  2
*Model_Space
 70
     0
 10
0.0
 20
0.0
 30
0.0
  3
*Model_Space
  1

  0
ENDBLK
  5
FE2
330
FE0
100
AcDbEntity
  8
0
100
AcDbBlockEnd
  0
BLOCK
  5
FDD
330
FDC
100
AcDbEntity
 67
     1
  8
0
100
AcDbBlockBegin
  2
*Paper_Space
 70
     0
 10
0.0
 20
0.0
 30
0.0
  3
*Paper_Space
  1

  0
ENDBLK
  5
FDE
330
FDC
100
AcDbEntity
 67
     1
  8
0
100
AcDbBlockEnd
  0
ENDSEC
  0
SECTION
  2
ENTITIES
  0
LINE
  5
5B1
330
FE0
100
AcDbEntity
  8
0
  6
Continuous
 62
     7
100
AcDbLine
 10
633.0772633211783
 20
541.3642623988559
 30
0.0
 11
573.3272633211783
 21
541.3642623988559
 31
0.0
  0
LINE
  5
5B2
330
FE0
100
AcDbEntity
  8
0
  6
Continuous
 62
     7
100
AcDbLine
 10
633.0772633211783
 20
420.3642623988559
 30
0.0
 11
573.3272633211783
 21
420.3642623988559
 31
0.0
  0
LINE
  5
5B3
330
FE0
100
AcDbEntity
  8
0
  6
Continuous
 62
     7
100
AcDbLine
 10
567.3386073211784
 20
519.014261398856
 30
0.0
 11
573.3272713211784
 21
541.364258398856
 31
0.0
  0
LINE
  5
5B4
330
FE0
100
AcDbEntity
  8
0
  6
Continuous
 62
     7
100
AcDbLine
 10
567.3385983211783
 20
442.7142613988559
 30
0.0
 11
573.3272603211785
 21
420.364271398856
 31
0.0
  0
LINE
  5
5B5
330
FE0
100
AcDbEntity
  8
0
  6
Continuous
 62
     7
100
AcDbLine
 10
573.3272633211783
 20
541.3642623988559
 30
0.0
 11
573.3272633211783
 21
420.3642663988559
 31
0.0
  0
LINE
  5
5B6
330
FE0
100
AcDbEntity
  8
0
  6
Continuous
 62
     7
100
AcDbLine
 10
567.3386003211785
 20
519.014264398856
 30
0.0
 11
567.3386003211785
 21
442.7142603988559
 31
0.0
  0
LINE
  5
5B7
330
FE0
100
AcDbEntity
  8
0
  6
Continuous
 62
     7
100
AcDbLine
 10
651.5772633211784
 20
541.3642623988559
 30
0.0
 11
674.3272633211784
 21
541.3642623988559
 31
0.0
  0
LINE
  5
5B8
330
FE0
100
AcDbEntity
  8
0
  6
Continuous
 62
     7
100
AcDbLine
 10
674.3272633211784
 20
541.3642623988559
 30
0.0
 11
674.3272633211784
 21
420.3642623988559
 31
0.0
  0
LINE
  5
5B9
330
FE0
100
AcDbEntity
  8
0
  6
Continuous
 62
     7
100
AcDbLine
 10
674.3272433211783
 20
541.364252398856
 30
0.0
 11
687.2310233211784
 21
519.0142533988559
 31
0.0
  0
LINE
  5
5BA
330
FE0
100
AcDbEntity
  8
0
  6
Continuous
 62
     7
100
AcDbLine
 10
651.5772633211784
 20
420.3642623988559
 30
0.0
 11
674.3272633211784
 21
420.3642623988559
 31
0.0
  0
LINE
  5
5BB
330
FE0
100
AcDbEntity
  8
0
  6
Continuous
 62
     7
100
AcDbLine
 10
674.3272633211784
 20
420.3642623988559
 30
0.0
 11
687.2310333211784
 21
442.7142603988559
 31
0.0
  0
LINE
  5
5BC
330
FE0
100
AcDbEntity
  8
0
  6
Continuous
 62
     7
100
AcDbLine
 10
633.0772633211783
 20
402.1142623988559
 30
0.0
 11
651.5772633211784
 21
402.1142623988559
 31
0.0
  0
LINE
  5
5BD
330
FE0
100
AcDbEntity
  8
0
  6
Continuous
 62
     7
100
AcDbLine
 10
633.0772633211783
 20
559.6142623988559
 30
0.0
 11
633.0772633211783
 21
402.1142623988559
 31
0.0
  0
LINE
  5
5BE
330
FE0
100
AcDbEntity
  8
0
  6
Continuous
 62
     7
100
AcDbLine
 10
651.5772633211784
 20
559.6142623988559
 30
0.0
 11
651.5772633211784
 21
402.1142623988559
 31
0.0
  0
LINE
  5
5BF
330
FE0
100
AcDbEntity
  8
0
  6
Continuous
 62
     7
100
AcDbLine
 10
687.2310433211781
 20
519.014264398856
 30
0.0
 11
687.2310433211781
 21
442.7142603988559
 31
0.0
  0
LINE
  5
5C0
330
FE0
100
AcDbEntity
  8
0
  6
Continuous
 62
     7
100
AcDbLine
 10
633.0772633211783
 20
559.6142623988559
 30
0.0
 11
651.5772633211784
 21
559.6142623988559
 31
0.0
  0
LINE
  5
5C7
330
FE0
100
AcDbEntity
  8
0
  6
Continuous
 62
     7
100
AcDbLine
 10
594.3274233211783
 20
470.8642623988559
 30
0.0
 11
594.3274233211783
 21
490.8642623988559
 31
0.0
  0
LINE
  5
5C8
330
FE0
100
AcDbEntity
  8
0
  6
Continuous
 62
     7
100
AcDbLine
 10
650.8211033211781
 20
460.864262398856
 30
0.0
 11
650.8211033211781
 21
470.8642623988559
 31
0.0
  0
LINE
  5
5C9
330
FE0
100
AcDbEntity
  8
0
  6
Continuous
 62
     7
100
AcDbLine
 10
650.8210933211785
 20
500.864262398856
 30
0.0
 11
670.8210933211785
 21
480.864262398856
 31
0.0
  0
LINE
  5
5CA
330
FE0
100
AcDbEntity
  8
0
  6
Continuous
 62
     7
100
AcDbLine
 10
670.8210933211785
 20
480.864262398856
 30
0.0
 11
650.8210933211785
 21
460.864262398856
 31
0.0
  0
LINE
  5
5CB
330
FE0
100
AcDbEntity
  8
0
  6
Continuous
 62
     7
100
AcDbLine
 10
650.8211033211781
 20
490.8642623988559
 30
0.0
 11
650.8211033211781
 21
500.864262398856
 31
0.0
  0
LINE
  5
5CC
330
FE0
100
AcDbEntity
  8
0
  6
Continuous
 62
     7
100
AcDbLine
 10
650.8211033211781
 20
490.8642623988559
 30
0.0
 11
594.3274233211783
 21
490.8642623988559
 31
0.0
  0
LINE
  5
5CD
330
FE0
100
AcDbEntity
  8
0
  6
Continuous
 62
     7
100
AcDbLine
 10
650.8211033211781
 20
470.8642623988559
 30
0.0
 11
594.3274233211783
 21
470.8642623988559
 31
0.0
  0
TEXT
  5
5CF
330
FE0
100
AcDbEntity
  8
0
  6
Continuous
 62
     7
100
AcDbText
 10
445.4936282890415
 20
681.9484455919226
 30
0.0
 40
48.000002
  1
CVES 3S
 41
1.1021
100
AcDbText
  0
LINE
  5
5F8
330
FE0
100
AcDbEntity
  8
0
  6
Continuous
 62
     7
100
AcDbLine
 10
651.5772633211784
 20
295.4893552479823
 30
0.0
 11
665.0972633211783
 21
295.4893552479823
 31
0.0
  0
LINE
  5
5F9
330
FE0
100
AcDbEntity
  8
0
  6
Continuous
 62
     7
100
AcDbLine
 10
665.0972533211784
 20
295.4893502479823
 30
0.0
 11
690.3274633211784
 21
251.7893522479822
 31
0.0
  0
LINE
  5
5FA
330
FE0
100
AcDbEntity
  8
0
  6
Continuous
 62
     7
100
AcDbLine
 10
651.5772633211784
 20
175.4893552479824
 30
0.0
 11
711.8020839211784
 21
175.4893552479824
 31
0.0
  0
LINE
  5
5FB
330
FE0
100
AcDbEntity
  8
0
  6
Continuous
 62
     7
100
AcDbLine
 10
633.0772633211783
 20
295.4893552479823
 30
0.0
 11
573.3272633211783
 21
295.4893552479823
 31
0.0
  0
LINE
  5
5FC
330
FE0
100
AcDbEntity
  8
0
  6
Continuous
 62
     7
100
AcDbLine
 10
633.0772633211783
 20
174.4893552479824
 30
0.0
 11
573.3272633211783
 21
174.4893552479824
 31
0.0
  0
LINE
  5
5FD
330
FE0
100
AcDbEntity
  8
0
  6
Continuous
 62
     7
100
AcDbLine
 10
567.3386053211783
 20
273.1393542479823
 30
0.0
 11
573.3272693211784
 21
295.4893522479823
 31
0.0
  0
LINE
  5
5FE
330
FE0
100
AcDbEntity
  8
0
  6
Continuous
 62
     7
100
AcDbLine
 10
567.3386003211785
 20
196.8393542479824
 30
0.0
 11
573.3272623211782
 21
174.4893642479824
 31
0.0
  0
LINE
  5
5FF
330
FE0
100
AcDbEntity
  8
0
  6
Continuous
 62
     7
100
AcDbLine
 10
573.3272633211783
 20
295.4893552479823
 30
0.0
 11
573.3272633211783
 21
174.4893592479824
 31
0.0
  0
LINE
  5
600
330
FE0
100
AcDbEntity
  8
0
  6
Continuous
 62
     7
100
AcDbLine
 10
567.3386003211785
 20
273.1393572479822
 30
0.0
 11
567.3386003211785
 21
196.8393532479824
 31
0.0
  0
LINE
  5
601
330
FE0
100
AcDbEntity
  8
0
  6
Continuous
 62
     7
100
AcDbLine
 10
633.0772633211783
 20
156.2393552479824
 30
0.0
 11
651.5772633211784
 21
156.2393552479824
 31
0.0
  0
LINE
  5
602
330
FE0
100
AcDbEntity
  8
0
  6
Continuous
 62
     7
100
AcDbLine
 10
633.0772633211783
 20
313.7393552479823
 30
0.0
 11
633.0772633211783
 21
156.2393552479824
 31
0.0
  0
LINE
  5
603
330
FE0
100
AcDbEntity
  8
0
  6
Continuous
 62
     7
100
AcDbLine
 10
651.5772633211784
 20
313.7393552479823
 30
0.0
 11
651.5772633211784
 21
156.2393552479824
 31
0.0
  0
LINE
  5
604
330
FE0
100
AcDbEntity
  8
0
  6
Continuous
 62
     7
100
AcDbLine
 10
633.0772633211783
 20
313.7393552479823
 30
0.0
 11
651.5772633211784
 21
313.7393552479823
 31
0.0
  0
LINE
  5
605
330
FE0
100
AcDbEntity
  8
0
  6
Continuous
 62
     7
100
AcDbLine
 10
665.0972533211784
 20
295.4893552479823
 30
0.0
 11
690.0066433211785
 21
175.4893542479824
 31
0.0
  0
LINE
  5
606
330
FE0
100
AcDbEntity
  8
0
  6
Continuous
 62
     7
100
AcDbLine
 10
690.3274633211784
 20
251.7893542479822
 30
0.0
 11
690.3274633211784
 21
175.4893552479824
 31
0.0
  0
LINE
  5
60C
330
FE0
100
AcDbEntity
  8
0
  6
Continuous
 62
     7
100
AcDbLine
 10
594.3274233211783
 20
224.9893552479824
 30
0.0
 11
594.3274233211783
 21
244.9893552479824
 31
0.0
  0
LINE
  5
60D
330
FE0
100
AcDbEntity
  8
0
  6
Continuous
 62
     7
100
AcDbLine
 10
650.8211033211781
 20
214.9893552479824
 30
0.0
 11
650.8211033211781
 21
224.9893552479824
 31
0.0
  0
LINE
  5
60E
330
FE0
100
AcDbEntity
  8
0
  6
Continuous
 62
     7
100
AcDbLine
 10
650.8210933211785
 20
254.9893552479824
 30
0.0
 11
670.8210933211785
 21
234.9893552479824
 31
0.0
  0
LINE
  5
60F
330
FE0
100
AcDbEntity
  8
0
  6
Continuous
 62
     7
100
AcDbLine
 10
670.8210933211785
 20
234.9893552479824
 30
0.0
 11
650.8210933211785
 21
214.9893552479824
 31
0.0
  0
LINE
  5
610
330
FE0
100
AcDbEntity
  8
0
  6
Continuous
 62
     7
100
AcDbLine
 10
650.8211033211781
 20
244.9893552479824
 30
0.0
 11
650.8211033211781
 21
254.9893552479824
 31
0.0
  0
LINE
  5
611
330
FE0
100
AcDbEntity
  8
0
  6
Continuous
 62
     7
100
AcDbLine
 10
650.8211033211781
 20
244.9893552479824
 30
0.0
 11
594.3274233211783
 21
244.9893552479824
 31
0.0
  0
LINE
  5
612
330
FE0
100
AcDbEntity
  8
0
  6
Continuous
 62
     7
100
AcDbLine
 10
650.8211033211781
 20
224.9893552479824
 30
0.0
 11
594.3274233211783
 21
224.9893552479824
 31
0.0
  0
CIRCLE
  5
617
330
FE0
100
AcDbEntity
  8
0
  6
Continuous
 62
     7
100
AcDbCircle
 10
384.0640461298961
 20
234.9893552479823
 30
0.0
 40
38.150002
  0
CIRCLE
  5
618
330
FE0
100
AcDbEntity
  8
0
  6
Continuous
 62
     7
100
AcDbCircle
 10
384.0640461298961
 20
234.9893552479823
 30
0.0
 40
60.5
  0
CIRCLE
  5
619
330
FE0
100
AcDbEntity
  8
0
  6
Continuous
 62
     7
100
AcDbCircle
 10
384.0640461298961
 20
234.9893552479823
 30
0.0
 40
78.75
  0
ARC
  5
61C
330
FE0
100
AcDbEntity
  8
0
  6
Continuous
 62
     7
100
AcDbCircle
 10
887.6097589738638
 20
234.9893552479824
 30
0.0
 40
60.5
100
AcDbArc
 50
307.7078127833491
 51
232.2921872166509
  0
CIRCLE
  5
61D
330
FE0
100
AcDbEntity
  8
0
  6
Continuous
 62
     7
100
AcDbCircle
 10
887.6097589738638
 20
234.9893552479824
 30
0.0
 40
78.75
  0
CIRCLE
  5
61E
330
FE0
100
AcDbEntity
  8
0
  6
Continuous
 62
     7
100
AcDbCircle
 10
887.6097589738638
 20
213.6393552479824
 30
0.0
 40
38.150002
  0
LINE
  5
7A1
330
FE0
100
AcDbEntity
  8
0
  6
Continuous
 62
     7
100
AcDbLine
 10
537.3272633211784
 20
280.4893552479824
 30
0.0
 11
540.1772620211783
 21
280.4893552479824
 31
0.0
  0
LINE
  5
7A2
330
FE0
100
AcDbEntity
  8
0
  6
Continuous
 62
     7
100
AcDbLine
 10
540.1772619211783
 20
280.4893562479824
 30
0.0
 11
542.8524426211784
 21
273.1393572479822
 31
0.0
  0
LINE
  5
7A3
330
FE0
100
AcDbEntity
  8
0
  6
Continuous
 62
     7
100
AcDbLine
 10
542.8524427211783
 20
273.1393572479822
 30
0.0
 11
567.3386003211785
 21
273.1393572479822
 31
0.0
  0
LINE
  5
7A4
330
FE0
100
AcDbEntity
  8
0
  6
Continuous
 62
     7
100
AcDbLine
 10
537.3272633211784
 20
189.4893552479824
 30
0.0
 11
537.3272633211784
 21
280.4893552479824
 31
0.0
  0
LINE
  5
7A5
330
FE0
100
AcDbEntity
  8
0
  6
Continuous
 62
     7
100
AcDbLine
 10
542.8524427211783
 20
196.8393532479824
 30
0.0
 11
567.3386003211785
 21
196.8393532479824
 31
0.0
  0
LINE
  5
7A6
330
FE0
100
AcDbEntity
  8
0
  6
Continuous
 62
     7
100
AcDbLine
 10
540.1772619211783
 20
189.4893542479824
 30
0.0
 11
542.8524426211784
 21
196.8393532479824
 31
0.0
  0
LINE
  5
7A7
330
FE0
100
AcDbEntity
  8
0
  6
Continuous
 62
     7
100
AcDbLine
 10
537.3272633211784
 20
189.4893552479824
 30
0.0
 11
540.1772620211783
 21
189.4893552479824
 31
0.0
  0
LINE
  5
7A9
330
FE0
100
AcDbEntity
  8
0
  6
Continuous
 62
     7
100
AcDbLine
 10
542.8524427211783
 20
273.1393572479822
 30
0.0
 11
542.8524427211783
 21
196.8393532479824
 31
0.0
  0
LINE
  5
7AC
330
FE0
100
AcDbEntity
  8
0
  6
Continuous
 62
     7
100
AcDbLine
 10
717.3272633211781
 20
168.1393552479824
 30
0.0
 11
714.4772646211781
 21
168.1393552479824
 31
0.0
  0
LINE
  5
7AD
330
FE0
100
AcDbEntity
  8
0
  6
Continuous
 62
     7
100
AcDbLine
 10
714.4772647211785
 20
168.1393542479824
 30
0.0
 11
711.8020840211784
 21
175.4893532479824
 31
0.0
  0
LINE
  5
7AF
330
FE0
100
AcDbEntity
  8
0
  6
Continuous
 62
     7
100
AcDbLine
 10
717.3272633211781
 20
259.1393552479824
 30
0.0
 11
717.3272633211781
 21
168.1393552479824
 31
0.0
  0
LINE
  5
7B0
330
FE0
100
AcDbEntity
  8
0
  6
Continuous
 62
     7
100
AcDbLine
 10
711.8020839211784
 20
251.7893572479823
 30
0.0
 11
690.3274633211784
 21
251.7893572479823
 31
0.0
  0
LINE
  5
7B1
330
FE0
100
AcDbEntity
  8
0
  6
Continuous
 62
     7
100
AcDbLine
 10
714.4772647211785
 20
259.1393562479824
 30
0.0
 11
711.8020840211784
 21
251.7893572479823
 31
0.0
  0
LINE
  5
7B2
330
FE0
100
AcDbEntity
  8
0
  6
Continuous
 62
     7
100
AcDbLine
 10
717.3272633211781
 20
259.1393552479824
 30
0.0
 11
714.4772646211781
 21
259.1393552479824
 31
0.0
  0
LINE
  5
7B4
330
FE0
100
AcDbEntity
  8
0
  6
Continuous
 62
     7
100
AcDbLine
 10
711.8020839211784
 20
175.4893532479824
 30
0.0
 11
711.8020839211784
 21
251.7893572479823
 31
0.0
  0
LINE
  5
827
330
FE0
100
AcDbEntity
  8
0
  6
Continuous
 62
     7
100
AcDbLine
 10
717.3272633211781
 20
435.364262398856
 30
0.0
 11
714.4772646211781
 21
435.364262398856
 31
0.0
  0
LINE
  5
828
330
FE0
100
AcDbEntity
  8
0
  6
Continuous
 62
     7
100
AcDbLine
 10
714.4772647211785
 20
435.3642613988559
 30
0.0
 11
711.8020840211784
 21
442.7142603988559
 31
0.0
  0
LINE
  5
829
330
FE0
100
AcDbEntity
  8
0
  6
Continuous
 62
     7
100
AcDbLine
 10
711.8020839211784
 20
442.7142603988559
 30
0.0
 11
687.2310433211781
 21
442.7142603988559
 31
0.0
  0
LINE
  5
82A
330
FE0
100
AcDbEntity
  8
0
  6
Continuous
 62
     7
100
AcDbLine
 10
717.3272633211781
 20
526.364262398856
 30
0.0
 11
717.3272633211781
 21
435.364262398856
 31
0.0
  0
LINE
  5
82B
330
FE0
100
AcDbEntity
  8
0
  6
Continuous
 62
     7
100
AcDbLine
 10
711.8020839211784
 20
519.014264398856
 30
0.0
 11
687.2310433211781
 21
519.014264398856
 31
0.0
  0
LINE
  5
82C
330
FE0
100
AcDbEntity
  8
0
  6
Continuous
 62
     7
100
AcDbLine
 10
714.4772647211785
 20
526.364263398856
 30
0.0
 11
711.8020840211784
 21
519.014264398856
 31
0.0
  0
LINE
  5
82D
330
FE0
100
AcDbEntity
  8
0
  6
Continuous
 62
     7
100
AcDbLine
 10
717.3272633211781
 20
526.364262398856
 30
0.0
 11
714.4772646211781
 21
526.364262398856
 31
0.0
  0
LINE
  5
82F
330
FE0
100
AcDbEntity
  8
0
  6
Continuous
 62
     7
100
AcDbLine
 10
711.8020839211784
 20
442.7142603988559
 30
0.0
 11
711.8020839211784
 21
519.014264398856
 31
0.0
  0
LINE
  5
875
330
FE0
100
AcDbEntity
  8
0
  6
Continuous
 62
     7
100
AcDbLine
 10
537.3272633211784
 20
526.364262398856
 30
0.0
 11
540.1772620211783
 21
526.364262398856
 31
0.0
  0
LINE
  5
876
330
FE0
100
AcDbEntity
  8
0
  6
Continuous
 62
     7
100
AcDbLine
 10
540.1772619211783
 20
526.364263398856
 30
0.0
 11
542.8524426211784
 21
519.014264398856
 31
0.0
  0
LINE
  5
877
330
FE0
100
AcDbEntity
  8
0
  6
Continuous
 62
     7
100
AcDbLine
 10
542.8524427211783
 20
519.014264398856
 30
0.0
 11
567.3386003211785
 21
519.014264398856
 31
0.0
  0
LINE
  5
878
330
FE0
100
AcDbEntity
  8
0
  6
Continuous
 62
     7
100
AcDbLine
 10
537.3272633211784
 20
435.364262398856
 30
0.0
 11
537.3272633211784
 21
526.364262398856
 31
0.0
  0
LINE
  5
879
330
FE0
100
AcDbEntity
  8
0
  6
Continuous
 62
     7
100
AcDbLine
 10
542.8524427211783
 20
442.7142603988559
 30
0.0
 11
567.3385983211783
 21
442.7142603988559
 31
0.0
  0
LINE
  5
87A
330
FE0
100
AcDbEntity
  8
0
  6
Continuous
 62
     7
100
AcDbLine
 10
540.1772619211783
 20
435.3642613988559
 30
0.0
 11
542.8524426211784
 21
442.7142603988559
 31
0.0
  0
LINE
  5
87B
330
FE0
100
AcDbEntity
  8
0
  6
Continuous
 62
     7
100
AcDbLine
 10
537.3272633211784
 20
435.364262398856
 30
0.0
 11
540.1772620211783
 21
435.364262398856
 31
0.0
  0
LINE
  5
87D
330
FE0
100
AcDbEntity
  8
0
  6
Continuous
 62
     7
100
AcDbLine
 10
542.8524427211783
 20
519.014264398856
 30
0.0
 11
542.8524427211783
 21
442.7142603988559
 31
0.0
  0
LINE
  5
8CD
330
FE0
100
AcDbEntity
  8
0
  6
Continuous
 62
     7
100
AcDbLine
 10
650.8211033211781
 20
218.2747172479823
 30
0.0
 11
669.1784033211783
 21
236.6320545479824
 31
0.0
  0
LINE
  5
8CE
330
FE0
100
AcDbEntity
  8
0
  6
Continuous
 62
     7
100
AcDbLine
 10
650.8211033211781
 20
222.7648492479823
 30
0.0
 11
666.9333333211786
 21
238.8771185479822
 31
0.0
  0
LINE
  5
8CF
330
FE0
100
AcDbEntity
  8
0
  6
Continuous
 62
     7
100
AcDbLine
 10
648.5554733211784
 20
224.9893552479824
 30
0.0
 11
664.6882733211785
 21
241.1221825479824
 31
0.0
  0
LINE
  5
8D0
330
FE0
100
AcDbEntity
  8
0
  6
Continuous
 62
     7
100
AcDbLine
 10
644.0653533211785
 20
224.9893552479824
 30
0.0
 11
662.4432033211783
 21
243.3672465479824
 31
0.0
  0
LINE
  5
8D1
330
FE0
100
AcDbEntity
  8
0
  6
Continuous
 62
     7
100
AcDbLine
 10
639.5752333211785
 20
224.9893552479824
 30
0.0
 11
660.1981433211783
 21
245.6123102479824
 31
0.0
  0
LINE
  5
8D2
330
FE0
100
AcDbEntity
  8
0
  6
Continuous
 62
     7
100
AcDbLine
 10
635.0851063211783
 20
224.9893552479824
 30
0.0
 11
657.9530833211784
 21
247.8573742479824
 31
0.0
  0
LINE
  5
8D3
330
FE0
100
AcDbEntity
  8
0
  6
Continuous
 62
     7
100
AcDbLine
 10
630.5949823211783
 20
224.9893552479824
 30
0.0
 11
650.5949433211783
 21
244.9893552479824
 31
0.0
  0
LINE
  5
8D4
330
FE0
100
AcDbEntity
  8
0
  6
Continuous
 62
     7
100
AcDbLine
 10
650.8211033211781
 20
245.2155122479823
 30
0.0
 11
655.7080133211783
 21
250.1024382479823
 31
0.0
  0
LINE
  5
8D5
330
FE0
100
AcDbEntity
  8
0
  6
Continuous
 62
     7
100
AcDbLine
 10
626.1048593211785
 20
224.9893552479824
 30
0.0
 11
646.1048233211784
 21
244.9893552479824
 31
0.0
  0
LINE
  5
8D6
330
FE0
100
AcDbEntity
  8
0
  6
Continuous
 62
     7
100
AcDbLine
 10
650.8211033211781
 20
249.7056442479823
 30
0.0
 11
653.4629533211783
 21
252.3475022479824
 31
0.0
  0
LINE
  5
8D7
330
FE0
100
AcDbEntity
  8
0
  6
Continuous
 62
     7
100
AcDbLine
 10
621.6147353211783
 20
224.9893552479824
 30
0.0
 11
641.6146933211783
 21
244.9893552479824
 31
0.0
  0
LINE
  5
8D8
330
FE0
100
AcDbEntity
  8
0
  6
Continuous
 62
     7
100
AcDbLine
 10
650.8211033211781
 20
254.1957772479824
 30
0.0
 11
651.2178833211783
 21
254.5925662479822
 31
0.0
  0
LINE
  5
8D9
330
FE0
100
AcDbEntity
  8
0
  6
Continuous
 62
     7
100
AcDbLine
 10
617.1246123211783
 20
224.9893552479824
 30
0.0
 11
637.1245723211785
 21
244.9893552479824
 31
0.0
  0
LINE
  5
8DA
330
FE0
100
AcDbEntity
  8
0
  6
Continuous
 62
     7
100
AcDbLine
 10
612.6344883211783
 20
224.9893552479824
 30
0.0
 11
632.6344483211783
 21
244.9893552479824
 31
0.0
  0
LINE
  5
8DB
330
FE0
100
AcDbEntity
  8
0
  6
Continuous
 62
     7
100
AcDbLine
 10
608.1443653211784
 20
224.9893552479824
 30
0.0
 11
628.1443253211781
 21
244.9893552479824
 31
0.0
  0
LINE
  5
8DC
330
FE0
100
AcDbEntity
  8
0
  6
Continuous
 62
     7
100
AcDbLine
 10
603.6542413211783
 20
224.9893552479824
 30
0.0
 11
623.6542013211783
 21
244.9893552479824
 31
0.0
  0
LINE
  5
8DD
330
FE0
100
AcDbEntity
  8
0
  6
Continuous
 62
     7
100
AcDbLine
 10
599.1641183211783
 20
224.9893552479824
 30
0.0
 11
619.1640783211783
 21
244.9893552479824
 31
0.0
  0
LINE
  5
8DE
330
FE0
100
AcDbEntity
  8
0
  6
Continuous
 62
     7
100
AcDbLine
 10
594.6739943211781
 20
224.9893552479824
 30
0.0
 11
614.6739543211784
 21
244.9893552479824
 31
0.0
  0
LINE
  5
8DF
330
FE0
100
AcDbEntity
  8
0
  6
Continuous
 62
     7
100
AcDbLine
 10
594.3274233211783
 20
229.1329160479824
 30
0.0
 11
610.1838313211783
 21
244.9893552479824
 31
0.0
  0
LINE
  5
8E0
330
FE0
100
AcDbEntity
  8
0
  6
Continuous
 62
     7
100
AcDbLine
 10
594.3274233211783
 20
233.6230485479823
 30
0.0
 11
605.6937073211784
 21
244.9893552479824
 31
0.0
  0
LINE
  5
8E1
330
FE0
100
AcDbEntity
  8
0
  6
Continuous
 62
     7
100
AcDbLine
 10
594.3274233211783
 20
238.1131810479824
 30
0.0
 11
601.2035843211783
 21
244.9893552479824
 31
0.0
  0
LINE
  5
8E2
330
FE0
100
AcDbEntity
  8
0
  6
Continuous
 62
     7
100
AcDbLine
 10
594.3274233211783
 20
242.6033135479824
 30
0.0
 11
596.7134603211786
 21
244.9893552479824
 31
0.0
  0
LINE
  5
8F4
330
FE0
100
AcDbEntity
  8
0
  6
Continuous
 62
     7
100
AcDbLine
 10
650.8211033211781
 20
464.149624398856
 30
0.0
 11
669.1784033211783
 21
482.5069616988559
 31
0.0
  0
LINE
  5
8F5
330
FE0
100
AcDbEntity
  8
0
  6
Continuous
 62
     7
100
AcDbLine
 10
650.8211033211781
 20
468.639756398856
 30
0.0
 11
666.9333333211786
 21
484.7520256988558
 31
0.0
  0
LINE
  5
8F6
330
FE0
100
AcDbEntity
  8
0
  6
Continuous
 62
     7
100
AcDbLine
 10
648.5554733211784
 20
470.8642623988559
 30
0.0
 11
664.6882733211781
 21
486.997089698856
 31
0.0
  0
LINE
  5
8F7
330
FE0
100
AcDbEntity
  8
0
  6
Continuous
 62
     7
100
AcDbLine
 10
644.0653533211785
 20
470.8642623988559
 30
0.0
 11
662.4432033211783
 21
489.2421536988559
 31
0.0
  0
LINE
  5
8F8
330
FE0
100
AcDbEntity
  8
0
  6
Continuous
 62
     7
100
AcDbLine
 10
639.5752333211785
 20
470.8642623988559
 30
0.0
 11
660.1981433211783
 21
491.487217398856
 31
0.0
  0
LINE
  5
8F9
330
FE0
100
AcDbEntity
  8
0
  6
Continuous
 62
     7
100
AcDbLine
 10
635.0851063211783
 20
470.8642623988559
 30
0.0
 11
657.9530833211784
 21
493.7322813988559
 31
0.0
  0
LINE
  5
8FA
330
FE0
100
AcDbEntity
  8
0
  6
Continuous
 62
     7
100
AcDbLine
 10
630.5949823211783
 20
470.8642623988559
 30
0.0
 11
650.5949433211783
 21
490.8642623988559
 31
0.0
  0
LINE
  5
8FB
330
FE0
100
AcDbEntity
  8
0
  6
Continuous
 62
     7
100
AcDbLine
 10
650.8211033211781
 20
491.0904193988559
 30
0.0
 11
655.7080133211783
 21
495.9773453988558
 31
0.0
  0
LINE
  5
8FC
330
FE0
100
AcDbEntity
  8
0
  6
Continuous
 62
     7
100
AcDbLine
 10
626.1048593211785
 20
470.8642623988559
 30
0.0
 11
646.1048233211784
 21
490.8642623988559
 31
0.0
  0
LINE
  5
8FD
330
FE0
100
AcDbEntity
  8
0
  6
Continuous
 62
     7
100
AcDbLine
 10
650.8211033211781
 20
495.5805513988559
 30
0.0
 11
653.4629533211783
 21
498.2224093988559
 31
0.0
  0
LINE
  5
8FE
330
FE0
100
AcDbEntity
  8
0
  6
Continuous
 62
     7
100
AcDbLine
 10
621.6147353211783
 20
470.8642623988559
 30
0.0
 11
641.6146933211783
 21
490.8642623988559
 31
0.0
  0
LINE
  5
8FF
330
FE0
100
AcDbEntity
  8
0
  6
Continuous
 62
     7
100
AcDbLine
 10
650.8211033211781
 20
500.070684398856
 30
0.0
 11
651.2178833211783
 21
500.4674733988561
 31
0.0
  0
LINE
  5
900
330
FE0
100
AcDbEntity
  8
0
  6
Continuous
 62
     7
100
AcDbLine
 10
617.1246123211783
 20
470.8642623988559
 30
0.0
 11
637.1245723211785
 21
490.8642623988559
 31
0.0
  0
LINE
  5
901
330
FE0
100
AcDbEntity
  8
0
  6
Continuous
 62
     7
100
AcDbLine
 10
612.6344883211783
 20
470.8642623988559
 30
0.0
 11
632.6344483211783
 21
490.8642623988559
 31
0.0
  0
LINE
  5
902
330
FE0
100
AcDbEntity
  8
0
  6
Continuous
 62
     7
100
AcDbLine
 10
608.1443653211784
 20
470.8642623988559
 30
0.0
 11
628.1443253211781
 21
490.8642623988559
 31
0.0
  0
LINE
  5
903
330
FE0
100
AcDbEntity
  8
0
  6
Continuous
 62
     7
100
AcDbLine
 10
603.6542413211783
 20
470.8642623988559
 30
0.0
 11
623.6542013211783
 21
490.8642623988559
 31
0.0
  0
LINE
  5
904
330
FE0
100
AcDbEntity
  8
0
  6
Continuous
 62
     7
100
AcDbLine
 10
599.1641183211783
 20
470.8642623988559
 30
0.0
 11
619.1640783211783
 21
490.8642623988559
 31
0.0
  0
LINE
  5
905
330
FE0
100
AcDbEntity
  8
0
  6
Continuous
 62
     7
100
AcDbLine
 10
594.6739943211781
 20
470.8642623988559
 30
0.0
 11
614.6739543211784
 21
490.8642623988559
 31
0.0
  0
LINE
  5
906
330
FE0
100
AcDbEntity
  8
0
  6
Continuous
 62
     7
100
AcDbLine
 10
594.3274233211783
 20
475.007823198856
 30
0.0
 11
610.1838313211783
 21
490.8642623988559
 31
0.0
  0
LINE
  5
907
330
FE0
100
AcDbEntity
  8
0
  6
Continuous
 62
     7
100
AcDbLine
 10
594.3274233211783
 20
479.4979556988559
 30
0.0
 11
605.6937073211784
 21
490.8642623988559
 31
0.0
  0
LINE
  5
908
330
FE0
100
AcDbEntity
  8
0
  6
Continuous
 62
     7
100
AcDbLine
 10
594.3274233211783
 20
483.9880881988561
 30
0.0
 11
601.2035843211783
 21
490.8642623988559
 31
0.0
  0
LINE
  5
909
330
FE0
100
AcDbEntity
  8
0
  6
Continuous
 62
     7
100
AcDbLine
 10
594.3274233211783
 20
488.478220698856
 30
0.0
 11
596.7134603211786
 21
490.8642623988559
 31
0.0
  0
CIRCLE
  5
B7F
330
FE0
100
AcDbEntity
  8
0
  6
Continuous
 62
     7
100
AcDbCircle
 10
384.0640461298961
 20
234.9893552479823
 30
0.0
 40
45.5223090709105
  0
CIRCLE
  5
B80
330
FE0
100
AcDbEntity
  8
0
  6
Continuous
 62
     7
100
AcDbCircle
 10
887.6097589738638
 20
213.6393552479824
 30
0.0
 40
45.5223090709105
  0
LINE
  5
103A
330
FE0
100
AcDbEntity
  8
0
  6
CENTER
100
AcDbLine
 10
838.9043163377097
 20
213.6393552479824
 30
0.0
 11
936.3152016100178
 21
213.6393552479824
 31
0.0
  0
LINE
  5
103B
330
FE0
100
AcDbEntity
  8
0
  6
CENTER
100
AcDbLine
 10
791.0679367378674
 20
234.9893552479824
 30
0.0
 11
984.1515812098602
 21
234.9893552479824
 31
0.0
  0
LINE
  5
103C
330
FE0
100
AcDbEntity
  8
0
  6
CENTER
100
AcDbLine
 10
887.6097589738638
 20
138.447533011986
 30
0.0
 11
887.6097589738638
 21
331.5311774839788
 31
0.0
  0
LINE
  5
103D
330
FE0
100
AcDbEntity
  8
0
  6
CENTER
100
AcDbLine
 10
287.5222238938997
 20
234.9893552479823
 30
0.0
 11
480.6058683658925
 21
234.9893552479823
 31
0.0
  0
LINE
  5
103E
330
FE0
100
AcDbEntity
  8
0
  6
CENTER
100
AcDbLine
 10
384.0640461298961
 20
138.4475330119859
 30
0.0
 11
384.0640461298961
 21
331.5311774839786
 31
0.0
  0
LINE
  5
103F
330
FE0
100
AcDbEntity
  8
0
  6
CENTER
100
AcDbLine
 10
605.7551598863083
 20
213.6393552479824
 30
0.0
 11
744.2795738691911
 21
213.6393552479824
 31
0.0
  0
LINE
  5
1040
330
FE0
100
AcDbEntity
  8
0
  6
CENTER
100
AcDbLine
 10
514.3326487457852
 20
234.9893552479824
 30
0.0
 11
630.1771448918225
 21
234.9893552479824
 31
0.0
  0
LINE
  5
1041
330
FE0
100
AcDbEntity
  8
0
  6
CENTER
100
AcDbLine
 10
514.3326487457852
 20
480.864262398856
 30
0.0
 11
745.4838261126251
 21
480.864262398856
 31
0.0
  0
ENDSEC
  0
SECTION
  2
OBJECTS
  0
DICTIONARY
  5
FCE
330
0
100
AcDbDictionary
281
     1
  3
ACAD_GROUP
350
FCF
  3
ACAD_LAYOUT
350
FDB
  3
ACAD_MLINESTYLE
350
FD8
  3
ACAD_PLOTSETTINGS
350
FDA
  3
ACAD_PLOTSTYLENAME
350
FD0
  3
AcDbVariableDictionary
350
1025
  0
DICTIONARY
  5
1033
330
FC4
100
AcDbDictionary
280
     1
281
     1
  3
ACAD_LAYERSTATES
360
1034
  0
DICTIONARY
  5
FF1
330
FE0
100
AcDbDictionary
280
     1
281
     1
  3
ACAD_LAYOUTSELFREF
360
1020
  0
DICTIONARY
  5
FF3
330
FDC
100
AcDbDictionary
280
     1
281
     1
  3
ACAD_LAYOUTSELFREF
360
101F
  0
DICTIONARY
  5
FCF
102
{ACAD_REACTORS
330
FCE
102
}
330
FCE
100
AcDbDictionary
281
     1
  0
DICTIONARY
  5
FDB
102
{ACAD_REACTORS
330
FCE
102
}
330
FCE
100
AcDbDictionary
281
     1
  3
Model
350
FE3
  3
ﾚｲｱｳﾄ1
350
FDF
  0
DICTIONARY
  5
FD8
102
{ACAD_REACTORS
330
FCE
102
}
330
FCE
100
AcDbDictionary
281
     1
  3
Standard
350
FD9
  0
DICTIONARY
  5
FDA
102
{ACAD_REACTORS
330
FCE
102
}
330
FCE
100
AcDbDictionary
281
     1
  0
ACDBDICTIONARYWDFLT
  5
FD0
102
{ACAD_REACTORS
330
FCE
102
}
330
FCE
100
AcDbDictionary
281
     1
  3
Normal
350
FD1
100
AcDbDictionaryWithDefault
340
FD1
  0
DICTIONARY
  5
1025
102
{ACAD_REACTORS
330
FCE
102
}
330
FCE
100
AcDbDictionary
281
     1
  3
DIMASSOC
350
1026
  0
DICTIONARY
  5
1034
102
{ACAD_REACTORS
330
1033
102
}
330
1033
100
AcDbDictionary
281
     1
  0
XRECORD
  5
1020
102
{ACAD_REACTORS
330
FF1
102
}
330
FF1
100
AcDbXrecord
280
     1
340
FE0
  0
XRECORD
  5
101F
102
{ACAD_REACTORS
330
FF3
102
}
330
FF3
100
AcDbXrecord
280
     1
340
FDC
  0
LAYOUT
  5
FE3
102
{ACAD_REACTORS
330
FDB
102
}
330
FDB
100
AcDbPlotSettings
  1

  2
SII LP-2150 (D-SCAN C2)
  4

  6

 40
0.0
 41
0.0
 42
0.0
 43
0.0
 44
0.0
 45
0.0
 46
0.0
 47
0.0
 48
0.0
 49
0.0
140
0.0
141
0.0
142
1.0
143
1.0
 70
  1712
 72
     0
 73
     0
 74
     0
  7

 75
     0
147
1.0
148
0.0
149
0.0
100
AcDbLayout
  1
Model
 70
     1
 71
     0
 10
0.0
 20
0.0
 11
12.0
 21
9.0
 12
0.0
 22
0.0
 32
0.0
 14
0.0
 24
0.0
 34
0.0
 15
0.0
 25
0.0
 35
0.0
146
0.0
 13
0.0
 23
0.0
 33
0.0
 16
1.0
 26
0.0
 36
0.0
 17
0.0
 27
1.0
 37
0.0
 76
     0
330
FE0
  0
LAYOUT
  5
FDF
102
{ACAD_REACTORS
330
FDB
102
}
330
FDB
100
AcDbPlotSettings
  1

  2
SII LP-2150 (D-SCAN C2)
  4

  6

 40
0.0
 41
0.0
 42
0.0
 43
0.0
 44
0.0
 45
0.0
 46
0.0
 47
0.0
 48
0.0
 49
0.0
140
0.0
141
0.0
142
1.0
143
1.0
 70
   688
 72
     0
 73
     0
 74
     5
  7

 75
    16
147
1.0
148
0.0
149
0.0
100
AcDbLayout
  1
ﾚｲｱｳﾄ1
 70
     1
 71
     1
 10
-44.912933
 20
-21.841471
 11
153.5627299999999
 21
105.04179
 12
0.0
 22
0.0
 32
0.0
 14
-44.912933
 24
-21.841471
 34
0.0
 15
153.5627299999999
 25
105.04179
 35
0.0
146
0.0
 13
0.0
 23
0.0
 33
0.0
 16
1.0
 26
0.0
 36
0.0
 17
0.0
 27
1.0
 37
0.0
 76
     0
330
FDC
  0
MLINESTYLE
  5
FD9
102
{ACAD_REACTORS
330
FD8
102
}
330
FD8
100
AcDbMlineStyle
  2
STANDARD
 70
     0
  3

 62
   256
 51
90.0
 52
90.0
 71
     2
 49
0.5
 62
   256
  6
BYLAYER
 49
-0.5
 62
   256
  6
BYLAYER
  0
ACDBPLACEHOLDER
  5
FD1
102
{ACAD_REACTORS
330
FD0
102
}
330
FD0
  0
DICTIONARYVAR
  5
1026
102
{ACAD_REACTORS
330
1025
102
}
330
1025
100
DictionaryVariables
280
     0
  1
1
  0
ENDSEC
  0
EOF
