  0
SECTION
  2
HEADER
  9
$ACADVER
  1
AC1015
  9
$ACADMAINTVER
 70
    14
  9
$DWGCODEPAGE
  3
ANSI_932
  9
$INSBASE
 10
0.0
 20
0.0
 30
0.0
  9
$EXTMIN
 10
340.8502881936658
 20
188.7521944146969
 30
-0.0000000000112498
  9
$EXTMAX
 10
863.7651348348352
 20
674.0106232625801
 30
0.0000000000002956
  9
$LIMMIN
 10
-44.912933
 20
-21.841471
  9
$LIMMAX
 10
153.5627299999999
 20
105.04179
  9
$ORTHOMODE
 70
     0
  9
$REGENMODE
 70
     1
  9
$FILLMODE
 70
     1
  9
$QTEXTMODE
 70
     0
  9
$MIRRTEXT
 70
     1
  9
$LTSCALE
 40
1.0
  9
$ATTMODE
 70
     1
  9
$TEXTSIZE
 40
0.2
  9
$TRACEWID
 40
0.05
  9
$TEXTSTYLE
  7
STANDARD
  9
$CLAYER
  8
0
  9
$CELTYPE
  6
CONTINUOUS
  9
$CECOLOR
 62
   256
  9
$CELTSCALE
 40
1.0
  9
$DISPSILH
 70
     0
  9
$DIMSCALE
 40
1.0
  9
$DIMASZ
 40
15.0
  9
$DIMEXO
 40
5.0
  9
$DIMDLI
 40
10.0
  9
$DIMRND
 40
0.0
  9
$DIMDLE
 40
0.0
  9
$DIMEXE
 40
10.0
  9
$DIMTP
 40
0.0
  9
$DIMTM
 40
0.0
  9
$DIMTXT
 40
20.0
  9
$DIMCEN
 40
0.09
  9
$DIMTSZ
 40
0.0
  9
$DIMTOL
 70
     0
  9
$DIMLIM
 70
     0
  9
$DIMTIH
 70
     0
  9
$DIMTOH
 70
     1
  9
$DIMSE1
 70
     0
  9
$DIMSE2
 70
     0
  9
$DIMTAD
 70
     1
  9
$DIMZIN
 70
     8
  9
$DIMBLK
  1

  9
$DIMASO
 70
     1
  9
$DIMSHO
 70
     0
  9
$DIMPOST
  1

  9
$DIMAPOST
  1

  9
$DIMALT
 70
     0
  9
$DIMALTD
 70
     2
  9
$DIMALTF
 40
25.4
  9
$DIMLFAC
 40
1.0
  9
$DIMTOFL
 70
     0
  9
$DIMTVP
 40
0.0
  9
$DIMTIX
 70
     0
  9
$DIMSOXD
 70
     0
  9
$DIMSAH
 70
     0
  9
$DIMBLK1
  1

  9
$DIMBLK2
  1

  9
$DIMSTYLE
  2
STANDARD
  9
$DIMCLRD
 70
     0
  9
$DIMCLRE
 70
     0
  9
$DIMCLRT
 70
     0
  9
$DIMTFAC
 40
1.0
  9
$DIMGAP
 40
5.0
  9
$DIMJUST
 70
     0
  9
$DIMSD1
 70
     0
  9
$DIMSD2
 70
     0
  9
$DIMTOLJ
 70
     1
  9
$DIMTZIN
 70
     0
  9
$DIMALTZ
 70
     0
  9
$DIMALTTZ
 70
     0
  9
$DIMUPT
 70
     0
  9
$DIMDEC
 70
     4
  9
$DIMTDEC
 70
     4
  9
$DIMALTU
 70
     2
  9
$DIMALTTD
 70
     2
  9
$DIMTXSTY
  7
STANDARD
  9
$DIMAUNIT
 70
     0
  9
$DIMADEC
 70
     0
  9
$DIMALTRND
 40
0.0
  9
$DIMAZIN
 70
     0
  9
$DIMDSEP
 70
    46
  9
$DIMATFIT
 70
     3
  9
$DIMFRAC
 70
     0
  9
$DIMLDRBLK
  1

  9
$DIMLUNIT
 70
     2
  9
$DIMLWD
 70
    -2
  9
$DIMLWE
 70
    -2
  9
$DIMTMOVE
 70
     0
  9
$LUNITS
 70
     2
  9
$LUPREC
 70
     4
  9
$SKETCHINC
 40
0.1
  9
$FILLETRAD
 40
0.0
  9
$AUNITS
 70
     0
  9
$AUPREC
 70
     0
  9
$MENU
  1
.
  9
$ELEVATION
 40
0.0
  9
$PELEVATION
 40
0.0
  9
$THICKNESS
 40
0.0
  9
$LIMCHECK
 70
     0
  9
$CHAMFERA
 40
0.0
  9
$CHAMFERB
 40
0.0
  9
$CHAMFERC
 40
0.0
  9
$CHAMFERD
 40
0.0
  9
$SKPOLY
 70
     0
  9
$TDCREATE
 40
2452488.423177615
  9
$TDUCREATE
 40
2452488.048177615
  9
$TDUPDATE
 40
2456899.667939803
  9
$TDUUPDATE
 40
2456899.292939803
  9
$TDINDWG
 40
0.0585928704
  9
$TDUSRTIMER
 40
0.0585928704
  9
$USRTIMER
 70
     1
  9
$ANGBASE
 50
0.0
  9
$ANGDIR
 70
     0
  9
$PDMODE
 70
     3
  9
$PDSIZE
 40
0.0
  9
$PLINEWID
 40
0.0
  9
$SPLFRAME
 70
     0
  9
$SPLINETYPE
 70
     6
  9
$SPLINESEGS
 70
     8
  9
$HANDSEED
  5
1042
  9
$SURFTAB1
 70
     6
  9
$SURFTAB2
 70
     6
  9
$SURFTYPE
 70
     6
  9
$SURFU
 70
     6
  9
$SURFV
 70
     6
  9
$UCSBASE
  2

  9
$UCSNAME
  2

  9
$UCSORG
 10
0.0
 20
0.0
 30
0.0
  9
$UCSXDIR
 10
1.0
 20
0.0
 30
0.0
  9
$UCSYDIR
 10
0.0
 20
1.0
 30
0.0
  9
$UCSORTHOREF
  2

  9
$UCSORTHOVIEW
 70
     0
  9
$UCSORGTOP
 10
0.0
 20
0.0
 30
0.0
  9
$UCSORGBOTTOM
 10
0.0
 20
0.0
 30
0.0
  9
$UCSORGLEFT
 10
0.0
 20
0.0
 30
0.0
  9
$UCSORGRIGHT
 10
0.0
 20
0.0
 30
0.0
  9
$UCSORGFRONT
 10
0.0
 20
0.0
 30
0.0
  9
$UCSORGBACK
 10
0.0
 20
0.0
 30
0.0
  9
$PUCSBASE
  2

  9
$PUCSNAME
  2

  9
$PUCSORG
 10
0.0
 20
0.0
 30
0.0
  9
$PUCSXDIR
 10
1.0
 20
0.0
 30
0.0
  9
$PUCSYDIR
 10
0.0
 20
1.0
 30
0.0
  9
$PUCSORTHOREF
  2

  9
$PUCSORTHOVIEW
 70
     0
  9
$PUCSORGTOP
 10
0.0
 20
0.0
 30
0.0
  9
$PUCSORGBOTTOM
 10
0.0
 20
0.0
 30
0.0
  9
$PUCSORGLEFT
 10
0.0
 20
0.0
 30
0.0
  9
$PUCSORGRIGHT
 10
0.0
 20
0.0
 30
0.0
  9
$PUCSORGFRONT
 10
0.0
 20
0.0
 30
0.0
  9
$PUCSORGBACK
 10
0.0
 20
0.0
 30
0.0
  9
$USERI1
 70
     0
  9
$USERI2
 70
     0
  9
$USERI3
 70
     0
  9
$USERI4
 70
     0
  9
$USERI5
 70
     0
  9
$USERR1
 40
0.0
  9
$USERR2
 40
0.0
  9
$USERR3
 40
0.0
  9
$USERR4
 40
0.0
  9
$USERR5
 40
0.0
  9
$WORLDVIEW
 70
     1
  9
$SHADEDGE
 70
     3
  9
$SHADEDIF
 70
    70
  9
$TILEMODE
 70
     1
  9
$MAXACTVP
 70
    48
  9
$PINSBASE
 10
0.0
 20
0.0
 30
0.0
  9
$PLIMCHECK
 70
     0
  9
$PEXTMIN
 10
-44.912933
 20
-21.841471
 30
0.0
  9
$PEXTMAX
 10
153.5627299999999
 20
105.04179
 30
0.0
  9
$PLIMMIN
 10
-44.912933
 20
-21.841471
  9
$PLIMMAX
 10
153.5627299999999
 20
105.04179
  9
$UNITMODE
 70
     0
  9
$VISRETAIN
 70
     1
  9
$PLINEGEN
 70
     0
  9
$PSLTSCALE
 70
     1
  9
$TREEDEPTH
 70
  3020
  9
$CMLSTYLE
  2
Standard
  9
$CMLJUST
 70
     0
  9
$CMLSCALE
 40
1.0
  9
$PROXYGRAPHICS
 70
     1
  9
$MEASUREMENT
 70
     0
  9
$CELWEIGHT
370
    -1
  9
$ENDCAPS
280
     0
  9
$JOINSTYLE
280
     0
  9
$LWDISPLAY
290
     0
  9
$INSUNITS
 70
     0
  9
$HYPERLINKBASE
  1

  9
$STYLESHEET
  1

  9
$XEDIT
290
     1
  9
$CEPSNTYPE
380
     0
  9
$PSTYLEMODE
290
     1
  9
$FINGERPRINTGUID
  2
{6587A028-9552-462C-9BCB-6D4C4B7FCEB6}
  9
$VERSIONGUID
  2
{15593ED2-F932-43FC-B28E-46BE02D7CA47}
  9
$EXTNAMES
290
     1
  9
$PSVPSCALE
 40
0.0
  9
$OLESTARTUP
290
     0
  0
ENDSEC
  0
SECTION
  2
CLASSES
  0
CLASS
  1
ACDBDICTIONARYWDFLT
  2
AcDbDictionaryWithDefault
  3
AutoCAD 2000
 90
        0
280
     0
281
     0
  0
CLASS
  1
ACDBPLACEHOLDER
  2
AcDbPlaceHolder
  3
AutoCAD 2000
 90
        0
280
     0
281
     0
  0
CLASS
  1
LAYOUT
  2
AcDbLayout
  3
AutoCAD 2000
 90
        0
280
     0
281
     0
  0
CLASS
  1
DICTIONARYVAR
  2
AcDbDictionaryVar
  3
AutoCAD 2000
 90
        0
280
     0
281
     0
  0
CLASS
  1
LONG_TRANSACTION
  2
AcDbLongTransaction
  3
AutoCAD 2000
 90
    32768
280
     0
281
     0
  0
CLASS
  1
LWPOLYLINE
  2
AcDbPolyline
  3
AutoCAD 2000
 90
    32768
280
     0
281
     1
  0
CLASS
  1
HATCH
  2
AcDbHatch
  3
AutoCAD 2000
 90
    32768
280
     0
281
     1
  0
CLASS
  1
XRECORD
  2
AcDbXrecord
  3
AutoCAD 2000
 90
    32768
280
     0
281
     0
  0
ENDSEC
  0
SECTION
  2
TABLES
  0
TABLE
  2
VPORT
  5
FC9
330
0
100
AcDbSymbolTable
 70
     2
  0
VPORT
  5
1041
330
FC9
100
AcDbSymbolTableRecord
100
AcDbViewportTableRecord
  2
*Active
 70
     0
 10
0.0
 20
0.0
 11
1.0
 21
1.0
 12
602.3077115142505
 22
431.3814088386386
 13
0.0
 23
0.0
 14
1.0
 24
1.0
 15
0.0
 25
0.0
 16
0.0
 26
0.0
 36
1.0
 17
0.0
 27
0.0
 37
0.0
 40
488.3394347453299
 41
1.592161016949152
 42
50.0
 43
0.0
 44
0.0
 50
0.0
 51
0.0
 71
     0
 72
   100
 73
     1
 74
     3
 75
     0
 76
     0
 77
     0
 78
     0
281
     0
 65
     1
110
0.0
120
0.0
130
0.0
111
1.0
121
0.0
131
0.0
112
0.0
122
1.0
132
0.0
 79
     0
146
0.0
  0
ENDTAB
  0
TABLE
  2
LTYPE
  5
FC6
330
0
100
AcDbSymbolTable
 70
     2
  0
LTYPE
  5
FD4
330
FC6
100
AcDbSymbolTableRecord
100
AcDbLinetypeTableRecord
  2
ByBlock
 70
     0
  3

 72
    65
 73
     0
 40
0.0
  0
LTYPE
  5
FD5
330
FC6
100
AcDbSymbolTableRecord
100
AcDbLinetypeTableRecord
  2
ByLayer
 70
     0
  3

 72
    65
 73
     0
 40
0.0
  0
LTYPE
  5
FD6
330
FC6
100
AcDbSymbolTableRecord
100
AcDbLinetypeTableRecord
  2
CONTINUOUS
 70
     0
  3
Solid line
 72
    65
 73
     0
 40
0.0
  0
LTYPE
  5
1029
330
FC6
100
AcDbSymbolTableRecord
100
AcDbLinetypeTableRecord
  2
CENTER
 70
     0
  3
__ . __
 72
    65
 73
     4
 40
7.0
 49
4.0
 74
     0
 49
-1.0
 74
     0
 49
1.0
 74
     0
 49
-1.0
 74
     0
  0
ENDTAB
  0
TABLE
  2
LAYER
  5
FC3
102
{ACAD_XDICTIONARY
360
102A
102
}
330
0
100
AcDbSymbolTable
 70
     1
  0
LAYER
  5
FD1
330
FC3
100
AcDbSymbolTableRecord
100
AcDbLayerTableRecord
  2
0
 70
     0
 62
     7
  6
CONTINUOUS
370
    -3
390
FD0
  0
ENDTAB
  0
TABLE
  2
STYLE
  5
FC4
330
0
100
AcDbSymbolTable
 70
     1
  0
STYLE
  5
FD2
330
FC4
100
AcDbSymbolTableRecord
100
AcDbTextStyleTableRecord
  2
STANDARD
 70
     0
 40
0.0
 41
1.0
 50
0.0
 71
     0
 42
0.2
  3
txt
  4

  0
ENDTAB
  0
TABLE
  2
VIEW
  5
FC7
330
0
100
AcDbSymbolTable
 70
     0
  0
ENDTAB
  0
TABLE
  2
UCS
  5
FC8
330
0
100
AcDbSymbolTable
 70
     0
  0
ENDTAB
  0
TABLE
  2
APPID
  5
FCA
330
0
100
AcDbSymbolTable
 70
     4
  0
APPID
  5
FD3
330
FCA
100
AcDbSymbolTableRecord
100
AcDbRegAppTableRecord
  2
ACAD
 70
     0
  0
APPID
  5
FE5
330
FCA
100
AcDbSymbolTableRecord
100
AcDbRegAppTableRecord
  2
MCAD_NO_VIS
 70
     0
  0
APPID
  5
FE6
330
FCA
100
AcDbSymbolTableRecord
100
AcDbRegAppTableRecord
  2
ACAD_TEMP_GRAPHIC
 70
     0
  0
APPID
  5
FE7
330
FCA
100
AcDbSymbolTableRecord
100
AcDbRegAppTableRecord
  2
ACATTRIBSERVICES
 70
     0
  0
ENDTAB
  0
TABLE
  2
DIMSTYLE
  5
FCB
330
0
100
AcDbSymbolTable
 70
     1
100
AcDbDimStyleTable
 71
     0
  0
DIMSTYLE
105
FE8
330
FCB
100
AcDbSymbolTableRecord
100
AcDbDimStyleTableRecord
  2
STANDARD
 70
     0
 41
15.0
 42
5.0
 43
10.0
 44
10.0
 73
     0
 77
     1
 78
     8
140
20.0
147
5.0
279
     2
284
     8
285
     8
286
     8
340
FD2
  0
ENDTAB
  0
TABLE
  2
BLOCK_RECORD
  5
FC2
330
0
100
AcDbSymbolTable
 70
     0
  0
BLOCK_RECORD
  5
FDF
102
{ACAD_XDICTIONARY
360
FF0
102
}
330
FC2
100
AcDbSymbolTableRecord
100
AcDbBlockTableRecord
  2
*Model_Space
340
FE2
  0
BLOCK_RECORD
  5
FDB
102
{ACAD_XDICTIONARY
360
FF2
102
}
330
FC2
100
AcDbSymbolTableRecord
100
AcDbBlockTableRecord
  2
*Paper_Space
340
FDE
  0
ENDTAB
  0
ENDSEC
  0
SECTION
  2
BLOCKS
  0
BLOCK
  5
FE0
330
FDF
100
AcDbEntity
  8
0
100
AcDbBlockBegin
  2
*Model_Space
 70
     0
 10
0.0
 20
0.0
 30
0.0
  3
*Model_Space
  1

  0
ENDBLK
  5
FE1
330
FDF
100
AcDbEntity
  8
0
100
AcDbBlockEnd
  0
BLOCK
  5
FDC
330
FDB
100
AcDbEntity
 67
     1
  8
0
100
AcDbBlockBegin
  2
*Paper_Space
 70
     0
 10
0.0
 20
0.0
 30
0.0
  3
*Paper_Space
  1

  0
ENDBLK
  5
FDD
330
FDB
100
AcDbEntity
 67
     1
  8
0
100
AcDbBlockEnd
  0
ENDSEC
  0
SECTION
  2
ENTITIES
  0
CIRCLE
  5
4D0
330
FDF
100
AcDbEntity
  8
0
  6
Continuous
 62
     7
100
AcDbCircle
 10
789.1244051680906
 20
245.2523672736047
 30
0.0
 40
25.4
  0
ARC
  5
4D1
330
FDF
100
AcDbEntity
  8
0
  6
Continuous
 62
     7
100
AcDbCircle
 10
789.1244051680906
 20
263.352367273605
 30
0.0
 40
44.5
100
AcDbArc
 50
307.1570367352396
 51
232.8429632647603
  0
CIRCLE
  5
4D2
330
FDF
100
AcDbEntity
  8
0
  6
Continuous
 62
     7
100
AcDbCircle
 10
789.1244051680906
 20
263.352367273605
 30
0.0
 40
60.5
  0
CIRCLE
  5
4D5
330
FDF
100
AcDbEntity
  8
0
  6
Continuous
 62
     7
100
AcDbCircle
 10
415.4953632343015
 20
263.352367273605
 30
0.0
 40
25.4
  0
CIRCLE
  5
4D6
330
FDF
100
AcDbEntity
  8
0
  6
Continuous
 62
     7
100
AcDbCircle
 10
415.4953632343015
 20
263.352367273605
 30
0.0
 40
44.5
  0
CIRCLE
  5
4D7
330
FDF
100
AcDbEntity
  8
0
  6
Continuous
 62
     7
100
AcDbCircle
 10
415.4953632343015
 20
263.352367273605
 30
0.0
 40
60.5
  0
LINE
  5
4DB
330
FDF
100
AcDbEntity
  8
0
  6
Continuous
 62
     7
100
AcDbLine
 10
557.6527634558049
 20
307.852367273605
 30
0.0
 11
590.9027594558047
 21
307.852367273605
 31
0.0
  0
LINE
  5
4DC
330
FDF
100
AcDbEntity
  8
0
  6
Continuous
 62
     7
100
AcDbLine
 10
557.6527624558049
 20
307.8523652736051
 30
0.0
 11
552.5349334558049
 21
288.7523652736049
 31
0.0
  0
LINE
  5
4DD
330
FDF
100
AcDbEntity
  8
0
  6
Continuous
 62
     7
100
AcDbLine
 10
557.6527634558049
 20
218.8523672736049
 30
0.0
 11
590.9027594558047
 21
218.8523672736049
 31
0.0
  0
LINE
  5
4DE
330
FDF
100
AcDbEntity
  8
0
  6
Continuous
 62
     7
100
AcDbLine
 10
557.6527624558049
 20
218.8523692736048
 30
0.0
 11
552.5349334558049
 21
237.9523692736051
 31
0.0
  0
LINE
  5
4DF
330
FDF
100
AcDbEntity
  8
0
  6
Continuous
 62
     7
100
AcDbLine
 10
608.4027594558047
 20
307.852367273605
 30
0.0
 11
618.1757624558049
 21
307.852367273605
 31
0.0
  0
LINE
  5
4E0
330
FDF
100
AcDbEntity
  8
0
  6
Continuous
 62
     7
100
AcDbLine
 10
618.1757594558047
 20
307.852367273605
 30
0.0
 11
639.6531894558047
 21
270.6523674736049
 31
0.0
  0
LINE
  5
4E1
330
FDF
100
AcDbEntity
  8
0
  6
Continuous
 62
     7
100
AcDbLine
 10
608.4027594558047
 20
218.8523672736049
 30
0.0
 11
639.6531894558047
 21
218.8523672736049
 31
0.0
  0
LINE
  5
4E2
330
FDF
100
AcDbEntity
  8
0
  6
Continuous
 62
     7
100
AcDbLine
 10
639.6531894558047
 20
270.6523674736049
 30
0.0
 11
639.6531894558047
 21
218.8523672736049
 31
0.0
  0
LINE
  5
4E3
330
FDF
100
AcDbEntity
  8
0
  6
Continuous
 62
     7
100
AcDbLine
 10
590.9027594558047
 20
202.852367273605
 30
0.0
 11
590.9027594558047
 21
323.852367273605
 31
0.0
  0
LINE
  5
4E4
330
FDF
100
AcDbEntity
  8
0
  6
Continuous
 62
     7
100
AcDbLine
 10
608.4027594558047
 20
202.852367273605
 30
0.0
 11
608.4027594558047
 21
323.852367273605
 31
0.0
  0
LINE
  5
4E5
330
FDF
100
AcDbEntity
  8
0
  6
Continuous
 62
     7
100
AcDbLine
 10
590.9027594558047
 20
202.852367273605
 30
0.0
 11
608.4027594558047
 21
202.852367273605
 31
0.0
  0
LINE
  5
4E6
330
FDF
100
AcDbEntity
  8
0
  6
Continuous
 62
     7
100
AcDbLine
 10
590.9027594558047
 20
323.852367273605
 30
0.0
 11
608.4027594558047
 21
323.852367273605
 31
0.0
  0
LINE
  5
4E7
330
FDF
100
AcDbEntity
  8
0
  6
Continuous
 62
     7
100
AcDbLine
 10
557.6527634558049
 20
218.8523672736049
 30
0.0
 11
557.6527634558049
 21
307.852367273605
 31
0.0
  0
LINE
  5
4E8
330
FDF
100
AcDbEntity
  8
0
  6
Continuous
 62
     7
100
AcDbLine
 10
552.5349334558049
 20
237.9523672736048
 30
0.0
 11
552.5349334558049
 21
288.7523672736051
 31
0.0
  0
LINE
  5
4E9
330
FDF
100
AcDbEntity
  8
0
  6
Continuous
 62
     7
100
AcDbLine
 10
618.1757584558049
 20
307.8523662736046
 30
0.0
 11
639.6531894558047
 21
218.8523662736046
 31
0.0
  0
LINE
  5
4EC
330
FDF
100
AcDbEntity
  8
0
  6
Continuous
 62
     7
100
AcDbLine
 10
557.6527634558049
 20
488.7268758684545
 30
0.0
 11
590.9027594558047
 21
488.7268758684545
 31
0.0
  0
LINE
  5
4ED
330
FDF
100
AcDbEntity
  8
0
  6
Continuous
 62
     7
100
AcDbLine
 10
557.6527634558049
 20
488.7268738684546
 30
0.0
 11
552.5349324558049
 21
469.6268678684551
 31
0.0
  0
LINE
  5
4EE
330
FDF
100
AcDbEntity
  8
0
  6
Continuous
 62
     7
100
AcDbLine
 10
557.6527674558048
 20
399.7268678684545
 30
0.0
 11
590.9027594558047
 21
399.7268678684545
 31
0.0
  0
LINE
  5
4EF
330
FDF
100
AcDbEntity
  8
0
  6
Continuous
 62
     7
100
AcDbLine
 10
557.6527694558047
 20
399.7268678684545
 30
0.0
 11
552.5349374558048
 21
418.8268748684545
 31
0.0
  0
LINE
  5
4F0
330
FDF
100
AcDbEntity
  8
0
  6
Continuous
 62
     7
100
AcDbLine
 10
608.4027594558047
 20
488.7268758684545
 30
0.0
 11
625.6527594558047
 21
488.7268758684545
 31
0.0
  0
LINE
  5
4F1
330
FDF
100
AcDbEntity
  8
0
  6
Continuous
 62
     7
100
AcDbLine
 10
625.6527594558047
 20
488.726874868455
 30
0.0
 11
636.6801494558049
 21
469.6268678684551
 31
0.0
  0
LINE
  5
4F2
330
FDF
100
AcDbEntity
  8
0
  6
Continuous
 62
     7
100
AcDbLine
 10
608.4027594558047
 20
399.7268678684545
 30
0.0
 11
625.6527494558049
 21
399.7268678684545
 31
0.0
  0
LINE
  5
4F3
330
FDF
100
AcDbEntity
  8
0
  6
Continuous
 62
     7
100
AcDbLine
 10
625.6527494558049
 20
399.7268718684549
 30
0.0
 11
636.6801394558052
 21
418.8268788684549
 31
0.0
  0
LINE
  5
4F4
330
FDF
100
AcDbEntity
  8
0
  6
Continuous
 62
     7
100
AcDbLine
 10
590.9027594558047
 20
383.7268678684545
 30
0.0
 11
608.4027594558047
 21
383.7268678684545
 31
0.0
  0
LINE
  5
4F5
330
FDF
100
AcDbEntity
  8
0
  6
Continuous
 62
     7
100
AcDbLine
 10
590.9027594558047
 20
504.7268678684543
 30
0.0
 11
590.9027594558047
 21
383.7268678684545
 31
0.0
  0
LINE
  5
4F6
330
FDF
100
AcDbEntity
  8
0
  6
Continuous
 62
     7
100
AcDbLine
 10
608.4027594558047
 20
504.7268678684543
 30
0.0
 11
608.4027594558047
 21
383.7268678684545
 31
0.0
  0
LINE
  5
4F7
330
FDF
100
AcDbEntity
  8
0
  6
Continuous
 62
     7
100
AcDbLine
 10
590.9027594558047
 20
504.7268678684543
 30
0.0
 11
608.4027594558047
 21
504.7268678684543
 31
0.0
  0
LINE
  5
4F8
330
FDF
100
AcDbEntity
  8
0
  6
Continuous
 62
     7
100
AcDbLine
 10
636.6801494558049
 20
469.6268698684548
 30
0.0
 11
636.6801494558049
 21
418.8268818684551
 31
0.0
  0
LINE
  5
4F9
330
FDF
100
AcDbEntity
  8
0
  6
Continuous
 62
     7
100
AcDbLine
 10
552.5349334558049
 20
469.6268698684548
 30
0.0
 11
552.5349334558049
 21
418.8268838684548
 31
0.0
  0
LINE
  5
4FA
330
FDF
100
AcDbEntity
  8
0
  6
Continuous
 62
     7
100
AcDbLine
 10
557.6527634558049
 20
488.7268758684545
 30
0.0
 11
557.6527634558049
 21
399.7268678684545
 31
0.0
  0
LINE
  5
4FB
330
FDF
100
AcDbEntity
  8
0
  6
Continuous
 62
     7
100
AcDbLine
 10
625.6527594558047
 20
488.7268758684545
 30
0.0
 11
625.6527594558047
 21
399.7268758684544
 31
0.0
  0
LINE
  5
4FC
330
FDF
100
AcDbEntity
  8
0
  6
Continuous
 62
     7
100
AcDbLine
 10
601.6527594558047
 20
424.2268678684545
 30
0.0
 11
601.6527594558047
 21
434.2268678684545
 31
0.0
  0
LINE
  5
4FD
330
FDF
100
AcDbEntity
  8
0
  6
Continuous
 62
     7
100
AcDbLine
 10
621.6527404558046
 20
444.2268948424374
 30
0.0
 11
601.652737455805
 21
424.2268918684543
 31
0.0
  0
LINE
  5
4FE
330
FDF
100
AcDbEntity
  8
0
  6
Continuous
 62
     7
100
AcDbLine
 10
601.6527594558047
 20
454.2268678684543
 30
0.0
 11
601.6527594558047
 21
464.2268678684545
 31
0.0
  0
LINE
  5
4FF
330
FDF
100
AcDbEntity
  8
0
  6
Continuous
 62
     7
100
AcDbLine
 10
601.6527594558047
 20
454.2268678684543
 30
0.0
 11
565.1590844558048
 21
454.2268678684543
 31
0.0
  0
LINE
  5
500
330
FDF
100
AcDbEntity
  8
0
  6
Continuous
 62
     7
100
AcDbLine
 10
601.6527594558047
 20
434.2268678684545
 30
0.0
 11
565.1590844558048
 21
434.2268678684545
 31
0.0
  0
LINE
  5
501
330
FDF
100
AcDbEntity
  8
0
  6
Continuous
 62
     7
100
AcDbLine
 10
601.6527484558046
 20
464.2268548684547
 30
0.0
 11
621.6527504558047
 21
444.2268516840644
 31
0.0
  0
LINE
  5
502
330
FDF
100
AcDbEntity
  8
0
  6
Continuous
 62
     7
100
AcDbLine
 10
565.1590844558048
 20
434.2268678684545
 30
0.0
 11
565.1590844558048
 21
454.2268678684543
 31
0.0
  0
LINE
  5
7E5
330
FDF
100
AcDbEntity
  8
0
  6
Continuous
 62
     7
100
AcDbLine
 10
664.6527594558047
 20
213.2523672736055
 30
0.0
 11
661.8027600558047
 21
213.2523672736055
 31
0.0
  0
LINE
  5
7E6
330
FDF
100
AcDbEntity
  8
0
  6
Continuous
 62
     7
100
AcDbLine
 10
661.8027596558045
 20
213.2523682736055
 30
0.0
 11
659.4005561558048
 21
219.852367273605
 31
0.0
  0
LINE
  5
7E7
330
FDF
100
AcDbEntity
  8
0
  6
Continuous
 62
     7
100
AcDbLine
 10
659.4005559558045
 20
219.852367273605
 30
0.0
 11
639.6531894558047
 21
219.852367273605
 31
0.0
  0
LINE
  5
7E8
330
FDF
100
AcDbEntity
  8
0
  6
Continuous
 62
     7
100
AcDbLine
 10
664.6527594558047
 20
277.2523672736055
 30
0.0
 11
664.6527594558047
 21
213.2523672736055
 31
0.0
  0
LINE
  5
7E9
330
FDF
100
AcDbEntity
  8
0
  6
Continuous
 62
     7
100
AcDbLine
 10
659.4005559558045
 20
270.6523672736051
 30
0.0
 11
639.6531894558047
 21
270.6523672736051
 31
0.0
  0
LINE
  5
7EA
330
FDF
100
AcDbEntity
  8
0
  6
Continuous
 62
     7
100
AcDbLine
 10
661.8027596558045
 20
277.2523662736052
 30
0.0
 11
659.4005561558048
 21
270.6523672736051
 31
0.0
  0
LINE
  5
7EB
330
FDF
100
AcDbEntity
  8
0
  6
Continuous
 62
     7
100
AcDbLine
 10
664.6527594558047
 20
277.2523672736055
 30
0.0
 11
661.8027600558047
 21
277.2523672736055
 31
0.0
  0
LINE
  5
7ED
330
FDF
100
AcDbEntity
  8
0
  6
Continuous
 62
     7
100
AcDbLine
 10
659.4005559558045
 20
219.852367273605
 30
0.0
 11
659.4005559558045
 21
270.6523672736051
 31
0.0
  0
LINE
  5
7F0
330
FDF
100
AcDbEntity
  8
0
  6
Continuous
 62
     7
100
AcDbLine
 10
524.6527594558049
 20
295.352367273605
 30
0.0
 11
527.5027588558048
 21
295.352367273605
 31
0.0
  0
LINE
  5
7F1
330
FDF
100
AcDbEntity
  8
0
  6
Continuous
 62
     7
100
AcDbLine
 10
527.5027592558049
 20
295.3523662736046
 30
0.0
 11
529.9049627558049
 21
288.7523672736051
 31
0.0
  0
LINE
  5
7F2
330
FDF
100
AcDbEntity
  8
0
  6
Continuous
 62
     7
100
AcDbLine
 10
529.9049629558048
 20
288.7523672736051
 30
0.0
 11
552.5349334558049
 21
288.7523672736051
 31
0.0
  0
LINE
  5
7F3
330
FDF
100
AcDbEntity
  8
0
  6
Continuous
 62
     7
100
AcDbLine
 10
524.6527594558049
 20
231.3523672736049
 30
0.0
 11
524.6527594558049
 21
295.352367273605
 31
0.0
  0
LINE
  5
7F4
330
FDF
100
AcDbEntity
  8
0
  6
Continuous
 62
     7
100
AcDbLine
 10
529.9049629558048
 20
237.9523672736048
 30
0.0
 11
552.5349334558049
 21
237.9523672736048
 31
0.0
  0
LINE
  5
7F5
330
FDF
100
AcDbEntity
  8
0
  6
Continuous
 62
     7
100
AcDbLine
 10
527.5027592558049
 20
231.3523682736052
 30
0.0
 11
529.9049627558049
 21
237.9523672736048
 31
0.0
  0
LINE
  5
7F6
330
FDF
100
AcDbEntity
  8
0
  6
Continuous
 62
     7
100
AcDbLine
 10
524.6527594558049
 20
231.3523672736049
 30
0.0
 11
527.5027588558048
 21
231.3523672736049
 31
0.0
  0
LINE
  5
7F8
330
FDF
100
AcDbEntity
  8
0
  6
Continuous
 62
     7
100
AcDbLine
 10
529.9049629558048
 20
288.7523672736051
 30
0.0
 11
529.9049629558048
 21
237.9523672736048
 31
0.0
  0
LINE
  5
848
330
FDF
100
AcDbEntity
  8
0
  6
Continuous
 62
     7
100
AcDbLine
 10
664.6527594558047
 20
412.2268678684549
 30
0.0
 11
661.8027600558047
 21
412.2268678684549
 31
0.0
  0
LINE
  5
849
330
FDF
100
AcDbEntity
  8
0
  6
Continuous
 62
     7
100
AcDbLine
 10
661.8027596558045
 20
412.2268688684547
 30
0.0
 11
659.4005561558048
 21
418.8268678684549
 31
0.0
  0
LINE
  5
84A
330
FDF
100
AcDbEntity
  8
0
  6
Continuous
 62
     7
100
AcDbLine
 10
659.4005559558045
 20
418.8268678684549
 30
0.0
 11
636.6801494558049
 21
418.8268678684549
 31
0.0
  0
LINE
  5
84B
330
FDF
100
AcDbEntity
  8
0
  6
Continuous
 62
     7
100
AcDbLine
 10
664.6527594558047
 20
476.226867868455
 30
0.0
 11
664.6527594558047
 21
412.2268678684549
 31
0.0
  0
LINE
  5
84C
330
FDF
100
AcDbEntity
  8
0
  6
Continuous
 62
     7
100
AcDbLine
 10
659.4005559558045
 20
469.6268678684551
 30
0.0
 11
636.6801494558049
 21
469.6268678684551
 31
0.0
  0
LINE
  5
84D
330
FDF
100
AcDbEntity
  8
0
  6
Continuous
 62
     7
100
AcDbLine
 10
661.8027596558045
 20
476.2268668684551
 30
0.0
 11
659.4005561558048
 21
469.6268678684551
 31
0.0
  0
LINE
  5
84E
330
FDF
100
AcDbEntity
  8
0
  6
Continuous
 62
     7
100
AcDbLine
 10
664.6527594558047
 20
476.226867868455
 30
0.0
 11
661.8027600558047
 21
476.226867868455
 31
0.0
  0
LINE
  5
850
330
FDF
100
AcDbEntity
  8
0
  6
Continuous
 62
     7
100
AcDbLine
 10
659.4005559558045
 20
418.8268678684549
 30
0.0
 11
659.4005559558045
 21
469.6268678684551
 31
0.0
  0
LINE
  5
898
330
FDF
100
AcDbEntity
  8
0
  6
Continuous
 62
     7
100
AcDbLine
 10
524.6527594558049
 20
476.2268678684545
 30
0.0
 11
527.5027588558048
 21
476.2268678684545
 31
0.0
  0
LINE
  5
899
330
FDF
100
AcDbEntity
  8
0
  6
Continuous
 62
     7
100
AcDbLine
 10
527.5027592558049
 20
476.2268668684545
 30
0.0
 11
529.9049627558049
 21
469.6268678684551
 31
0.0
  0
LINE
  5
89A
330
FDF
100
AcDbEntity
  8
0
  6
Continuous
 62
     7
100
AcDbLine
 10
529.9049629558048
 20
469.6268678684551
 30
0.0
 11
552.5349324558049
 21
469.6268678684551
 31
0.0
  0
LINE
  5
89B
330
FDF
100
AcDbEntity
  8
0
  6
Continuous
 62
     7
100
AcDbLine
 10
524.6527594558049
 20
412.2268678684545
 30
0.0
 11
524.6527594558049
 21
476.2268678684545
 31
0.0
  0
LINE
  5
89C
330
FDF
100
AcDbEntity
  8
0
  6
Continuous
 62
     7
100
AcDbLine
 10
529.9049629558048
 20
418.8268678684549
 30
0.0
 11
552.5349334558049
 21
418.8268678684549
 31
0.0
  0
LINE
  5
89D
330
FDF
100
AcDbEntity
  8
0
  6
Continuous
 62
     7
100
AcDbLine
 10
527.5027592558049
 20
412.2268688684547
 30
0.0
 11
529.9049627558049
 21
418.8268678684549
 31
0.0
  0
LINE
  5
89E
330
FDF
100
AcDbEntity
  8
0
  6
Continuous
 62
     7
100
AcDbLine
 10
524.6527594558049
 20
412.2268678684545
 30
0.0
 11
527.5027588558048
 21
412.2268678684545
 31
0.0
  0
LINE
  5
8A0
330
FDF
100
AcDbEntity
  8
0
  6
Continuous
 62
     7
100
AcDbLine
 10
529.9049629558048
 20
469.6268678684551
 30
0.0
 11
529.9049629558048
 21
418.8268678684549
 31
0.0
  0
LINE
  5
92C
330
FDF
100
AcDbEntity
  8
0
  6
Continuous
 62
     7
100
AcDbLine
 10
601.6527594558047
 20
426.9393808684549
 30
0.0
 11
620.296481455805
 21
445.5831407684549
 31
0.0
  0
LINE
  5
92D
330
FDF
100
AcDbEntity
  8
0
  6
Continuous
 62
     7
100
AcDbLine
 10
601.6527594558047
 20
431.4295138684546
 30
0.0
 11
618.0514184558051
 21
447.8282050684545
 31
0.0
  0
LINE
  5
92E
330
FDF
100
AcDbEntity
  8
0
  6
Continuous
 62
     7
100
AcDbLine
 10
599.9599844558047
 20
434.2268678684545
 30
0.0
 11
615.8063544558049
 21
450.0732693684543
 31
0.0
  0
LINE
  5
92F
330
FDF
100
AcDbEntity
  8
0
  6
Continuous
 62
     7
100
AcDbLine
 10
595.4698614558045
 20
434.2268678684545
 30
0.0
 11
613.5612904558047
 21
452.3183335684548
 31
0.0
  0
LINE
  5
930
330
FDF
100
AcDbEntity
  8
0
  6
Continuous
 62
     7
100
AcDbLine
 10
590.9797374558047
 20
434.2268678684545
 30
0.0
 11
611.3162274558049
 21
454.5633978684548
 31
0.0
  0
LINE
  5
931
330
FDF
100
AcDbEntity
  8
0
  6
Continuous
 62
     7
100
AcDbLine
 10
586.4896144558049
 20
434.2268678684545
 30
0.0
 11
609.0711634558047
 21
456.8084618684546
 31
0.0
  0
LINE
  5
932
330
FDF
100
AcDbEntity
  8
0
  6
Continuous
 62
     7
100
AcDbLine
 10
581.999490455805
 20
434.2268678684545
 30
0.0
 11
606.8260994558048
 21
459.0535268684548
 31
0.0
  0
LINE
  5
933
330
FDF
100
AcDbEntity
  8
0
  6
Continuous
 62
     7
100
AcDbLine
 10
577.5093674558048
 20
434.2268678684545
 30
0.0
 11
597.5093274558048
 21
454.2268678684543
 31
0.0
  0
LINE
  5
934
330
FDF
100
AcDbEntity
  8
0
  6
Continuous
 62
     7
100
AcDbLine
 10
601.6527594558047
 20
458.3703088684545
 30
0.0
 11
604.5810354558048
 21
461.2985908684545
 31
0.0
  0
LINE
  5
935
330
FDF
100
AcDbEntity
  8
0
  6
Continuous
 62
     7
100
AcDbLine
 10
573.0192434558047
 20
434.2268678684545
 30
0.0
 11
593.0192034558049
 21
454.2268678684543
 31
0.0
  0
LINE
  5
936
330
FDF
100
AcDbEntity
  8
0
  6
Continuous
 62
     7
100
AcDbLine
 10
601.6527594558047
 20
462.8604408684545
 30
0.0
 11
602.3359724558049
 21
463.5436548684547
 31
0.0
  0
LINE
  5
937
330
FDF
100
AcDbEntity
  8
0
  6
Continuous
 62
     7
100
AcDbLine
 10
568.5291204558049
 20
434.2268678684545
 30
0.0
 11
588.5290804558048
 21
454.2268678684543
 31
0.0
  0
LINE
  5
938
330
FDF
100
AcDbEntity
  8
0
  6
Continuous
 62
     7
100
AcDbLine
 10
565.1590844558048
 20
435.346957768455
 30
0.0
 11
584.038956455805
 21
454.2268678684543
 31
0.0
  0
LINE
  5
939
330
FDF
100
AcDbEntity
  8
0
  6
Continuous
 62
     7
100
AcDbLine
 10
565.1590844558048
 20
439.8370901684548
 30
0.0
 11
579.5488334558049
 21
454.2268678684543
 31
0.0
  0
LINE
  5
93A
330
FDF
100
AcDbEntity
  8
0
  6
Continuous
 62
     7
100
AcDbLine
 10
565.1590844558048
 20
444.3272226884546
 30
0.0
 11
575.0587094558048
 21
454.2268678684543
 31
0.0
  0
LINE
  5
93B
330
FDF
100
AcDbEntity
  8
0
  6
Continuous
 62
     7
100
AcDbLine
 10
565.1590844558048
 20
448.8173551684544
 30
0.0
 11
570.5685864558048
 21
454.2268678684543
 31
0.0
  0
LINE
  5
93C
330
FDF
100
AcDbEntity
  8
0
  6
Continuous
 62
     7
100
AcDbLine
 10
565.1590844558048
 20
453.3074876684545
 30
0.0
 11
566.0784624558049
 21
454.2268678684543
 31
0.0
  0
LINE
  5
A4F
330
FDF
100
AcDbEntity
  8
0
  6
Continuous
 62
     7
100
AcDbLine
 10
568.5291204558049
 20
253.3523632736049
 30
0.0
 11
588.5290804558048
 21
273.3523632736051
 31
0.0
  0
LINE
  5
A50
330
FDF
100
AcDbEntity
  8
0
  6
Continuous
 62
     7
100
AcDbLine
 10
565.1590844558048
 20
254.4724531736054
 30
0.0
 11
584.038956455805
 21
273.3523632736051
 31
0.0
  0
LINE
  5
A51
330
FDF
100
AcDbEntity
  8
0
  6
Continuous
 62
     7
100
AcDbLine
 10
565.1590844558048
 20
258.9625855736052
 30
0.0
 11
579.5488334558049
 21
273.3523632736051
 31
0.0
  0
LINE
  5
A52
330
FDF
100
AcDbEntity
  8
0
  6
Continuous
 62
     7
100
AcDbLine
 10
565.1590844558048
 20
263.4527180936052
 30
0.0
 11
575.0587094558048
 21
273.3523632736051
 31
0.0
  0
LINE
  5
A53
330
FDF
100
AcDbEntity
  8
0
  6
Continuous
 62
     7
100
AcDbLine
 10
565.1590844558048
 20
253.3523632736049
 30
0.0
 11
565.1590844558048
 21
273.3523632736051
 31
0.0
  0
LINE
  5
A54
330
FDF
100
AcDbEntity
  8
0
  6
Continuous
 62
     7
100
AcDbLine
 10
565.1590844558048
 20
267.942850573605
 30
0.0
 11
570.5685864558048
 21
273.3523632736051
 31
0.0
  0
LINE
  5
A55
330
FDF
100
AcDbEntity
  8
0
  6
Continuous
 62
     7
100
AcDbLine
 10
573.0192434558047
 20
253.3523632736049
 30
0.0
 11
593.0192034558049
 21
273.3523632736051
 31
0.0
  0
LINE
  5
A56
330
FDF
100
AcDbEntity
  8
0
  6
Continuous
 62
     7
100
AcDbLine
 10
595.4698614558045
 20
253.3523632736049
 30
0.0
 11
613.5612904558047
 21
271.4438289736052
 31
0.0
  0
LINE
  5
A57
330
FDF
100
AcDbEntity
  8
0
  6
Continuous
 62
     7
100
AcDbLine
 10
590.9797374558047
 20
253.3523632736049
 30
0.0
 11
611.3162274558049
 21
273.6888932736055
 31
0.0
  0
LINE
  5
A58
330
FDF
100
AcDbEntity
  8
0
  6
Continuous
 62
     7
100
AcDbLine
 10
586.4896144558049
 20
253.3523632736049
 30
0.0
 11
609.0711634558047
 21
275.9339572736053
 31
0.0
  0
LINE
  5
A59
330
FDF
100
AcDbEntity
  8
0
  6
Continuous
 62
     7
100
AcDbLine
 10
581.999490455805
 20
253.3523632736049
 30
0.0
 11
606.8260994558048
 21
278.1790222736052
 31
0.0
  0
LINE
  5
A5A
330
FDF
100
AcDbEntity
  8
0
  6
Continuous
 62
     7
100
AcDbLine
 10
577.5093674558048
 20
253.3523632736049
 30
0.0
 11
597.5093274558048
 21
273.3523632736051
 31
0.0
  0
LINE
  5
A5B
330
FDF
100
AcDbEntity
  8
0
  6
Continuous
 62
     7
100
AcDbLine
 10
601.6527594558047
 20
253.3523632736049
 30
0.0
 11
565.1590844558048
 21
253.3523632736049
 31
0.0
  0
LINE
  5
A5C
330
FDF
100
AcDbEntity
  8
0
  6
Continuous
 62
     7
100
AcDbLine
 10
599.9599844558047
 20
253.3523632736049
 30
0.0
 11
615.8063544558049
 21
269.1987647736049
 31
0.0
  0
LINE
  5
A5D
330
FDF
100
AcDbEntity
  8
0
  6
Continuous
 62
     7
100
AcDbLine
 10
601.6527594558047
 20
243.3523632736049
 30
0.0
 11
601.6527594558047
 21
253.3523632736049
 31
0.0
  0
LINE
  5
A5E
330
FDF
100
AcDbEntity
  8
0
  6
Continuous
 62
     7
100
AcDbLine
 10
621.6527404558046
 20
263.352390247588
 30
0.0
 11
601.652737455805
 21
243.3523872736049
 31
0.0
  0
LINE
  5
A5F
330
FDF
100
AcDbEntity
  8
0
  6
Continuous
 62
     7
100
AcDbLine
 10
601.6527594558047
 20
246.0648762736053
 30
0.0
 11
620.296481455805
 21
264.7086361736055
 31
0.0
  0
LINE
  5
A60
330
FDF
100
AcDbEntity
  8
0
  6
Continuous
 62
     7
100
AcDbLine
 10
601.6527594558047
 20
250.5550092736052
 30
0.0
 11
618.0514184558051
 21
266.9537004736052
 31
0.0
  0
LINE
  5
A61
330
FDF
100
AcDbEntity
  8
0
  6
Continuous
 62
     7
100
AcDbLine
 10
601.6527594558047
 20
273.3523632736051
 30
0.0
 11
565.1590844558048
 21
273.3523632736051
 31
0.0
  0
LINE
  5
A62
330
FDF
100
AcDbEntity
  8
0
  6
Continuous
 62
     7
100
AcDbLine
 10
565.1590844558048
 20
272.4329830736051
 30
0.0
 11
566.0784624558049
 21
273.3523632736051
 31
0.0
  0
LINE
  5
A63
330
FDF
100
AcDbEntity
  8
0
  6
Continuous
 62
     7
100
AcDbLine
 10
601.6527594558047
 20
277.4958042736051
 30
0.0
 11
604.5810354558048
 21
280.4240862736051
 31
0.0
  0
LINE
  5
A64
330
FDF
100
AcDbEntity
  8
0
  6
Continuous
 62
     7
100
AcDbLine
 10
601.6527484558046
 20
283.3523502736052
 30
0.0
 11
621.6527504558047
 21
263.352347089215
 31
0.0
  0
LINE
  5
A65
330
FDF
100
AcDbEntity
  8
0
  6
Continuous
 62
     7
100
AcDbLine
 10
601.6527594558047
 20
273.3523632736051
 30
0.0
 11
601.6527594558047
 21
283.352363273605
 31
0.0
  0
LINE
  5
A66
330
FDF
100
AcDbEntity
  8
0
  6
Continuous
 62
     7
100
AcDbLine
 10
601.6527594558047
 20
281.9859362736051
 30
0.0
 11
602.3359724558049
 21
282.6691502736052
 31
0.0
  0
CIRCLE
  5
A68
330
FDF
100
AcDbEntity
  8
0
  6
Continuous
 62
     7
100
AcDbCircle
 10
415.4953632343015
 20
263.352367273605
 30
0.0
 40
32.0
  0
CIRCLE
  5
A69
330
FDF
100
AcDbEntity
  8
0
  6
Continuous
 62
     7
100
AcDbCircle
 10
789.1244051680906
 20
245.2523672736047
 30
0.0
 40
32.0
  0
TEXT
  5
CFE
330
FDF
100
AcDbEntity
  8
0
  6
Continuous
 62
     7
100
AcDbText
 10
413.2096800825905
 20
626.0
 30
0.0
 40
48.000002
  1
CVES 2S
 41
1.1021
100
AcDbText
  0
LINE
  5
1031
330
FDF
100
AcDbEntity
  8
0
  6
CENTER
100
AcDbLine
 10
740.4189625319365
 20
245.2523672736047
 30
0.0
 11
837.8298478042447
 21
245.2523672736047
 31
0.0
  0
LINE
  5
1032
330
FDF
100
AcDbEntity
  8
0
  6
CENTER
100
AcDbLine
 10
714.5354619426192
 20
263.352367273605
 30
0.0
 11
863.7133483935619
 21
263.352367273605
 31
0.0
  0
LINE
  5
1033
330
FDF
100
AcDbEntity
  8
0
  6
CENTER
100
AcDbLine
 10
789.1244051680906
 20
188.7634240481337
 30
0.0
 11
789.1244051680906
 21
337.9413104990762
 31
0.0
  0
LINE
  5
1034
330
FDF
100
AcDbEntity
  8
0
  6
CENTER
100
AcDbLine
 10
340.9064200088302
 20
263.352367273605
 30
0.0
 11
490.0843064597729
 21
263.352367273605
 31
0.0
  0
LINE
  5
1035
330
FDF
100
AcDbEntity
  8
0
  6
CENTER
100
AcDbLine
 10
415.4953632343015
 20
188.7634240481337
 30
0.0
 11
415.4953632343015
 21
337.9413104990762
 31
0.0
  0
LINE
  5
1036
330
FDF
100
AcDbEntity
  8
0
  6
CENTER
100
AcDbLine
 10
593.7527290513989
 20
245.2523672736055
 30
0.0
 11
685.1566706881276
 21
245.2523672736055
 31
0.0
  0
LINE
  5
1037
330
FDF
100
AcDbEntity
  8
0
  6
CENTER
100
AcDbLine
 10
506.9287111861822
 20
263.352367273605
 30
0.0
 11
585.5535088150323
 21
263.352367273605
 31
0.0
  0
LINE
  5
1038
330
FDF
100
AcDbEntity
  8
0
  6
CENTER
100
AcDbLine
 10
501.9463368172227
 20
444.2268678684549
 30
0.0
 11
685.1566706881276
 21
444.2268678684549
 31
0.0
  0
ENDSEC
  0
SECTION
  2
OBJECTS
  0
DICTIONARY
  5
FCD
330
0
100
AcDbDictionary
281
     1
  3
ACAD_GROUP
350
FCE
  3
ACAD_LAYOUT
350
FDA
  3
ACAD_MLINESTYLE
350
FD7
  3
ACAD_PLOTSETTINGS
350
FD9
  3
ACAD_PLOTSTYLENAME
350
FCF
  3
AcDbVariableDictionary
350
1024
  0
DICTIONARY
  5
102A
330
FC3
100
AcDbDictionary
280
     1
281
     1
  3
ACAD_LAYERSTATES
360
102B
  0
DICTIONARY
  5
FF0
330
FDF
100
AcDbDictionary
280
     1
281
     1
  3
ACAD_LAYOUTSELFREF
360
101F
  0
DICTIONARY
  5
FF2
330
FDB
100
AcDbDictionary
280
     1
281
     1
  3
ACAD_LAYOUTSELFREF
360
101E
  0
DICTIONARY
  5
FCE
102
{ACAD_REACTORS
330
FCD
102
}
330
FCD
100
AcDbDictionary
281
     1
  0
DICTIONARY
  5
FDA
102
{ACAD_REACTORS
330
FCD
102
}
330
FCD
100
AcDbDictionary
281
     1
  3
Model
350
FE2
  3
ﾚｲｱｳﾄ1
350
FDE
  0
DICTIONARY
  5
FD7
102
{ACAD_REACTORS
330
FCD
102
}
330
FCD
100
AcDbDictionary
281
     1
  3
Standard
350
FD8
  0
DICTIONARY
  5
FD9
102
{ACAD_REACTORS
330
FCD
102
}
330
FCD
100
AcDbDictionary
281
     1
  0
ACDBDICTIONARYWDFLT
  5
FCF
102
{ACAD_REACTORS
330
FCD
102
}
330
FCD
100
AcDbDictionary
281
     1
  3
Normal
350
FD0
100
AcDbDictionaryWithDefault
340
FD0
  0
DICTIONARY
  5
1024
102
{ACAD_REACTORS
330
FCD
102
}
330
FCD
100
AcDbDictionary
281
     1
  3
DIMASSOC
350
1025
  0
DICTIONARY
  5
102B
102
{ACAD_REACTORS
330
102A
102
}
330
102A
100
AcDbDictionary
281
     1
  0
XRECORD
  5
101F
102
{ACAD_REACTORS
330
FF0
102
}
330
FF0
100
AcDbXrecord
280
     1
340
FDF
  0
XRECORD
  5
101E
102
{ACAD_REACTORS
330
FF2
102
}
330
FF2
100
AcDbXrecord
280
     1
340
FDB
  0
LAYOUT
  5
FE2
102
{ACAD_REACTORS
330
FDA
102
}
330
FDA
100
AcDbPlotSettings
  1

  2
SII LP-2150 (D-SCAN C2)
  4

  6

 40
0.0
 41
0.0
 42
0.0
 43
0.0
 44
0.0
 45
0.0
 46
0.0
 47
0.0
 48
0.0
 49
0.0
140
0.0
141
0.0
142
1.0
143
1.0
 70
  1712
 72
     0
 73
     0
 74
     0
  7

 75
     0
147
1.0
148
0.0
149
0.0
100
AcDbLayout
  1
Model
 70
     1
 71
     0
 10
0.0
 20
0.0
 11
12.0
 21
9.0
 12
0.0
 22
0.0
 32
0.0
 14
0.0
 24
0.0
 34
0.0
 15
0.0
 25
0.0
 35
0.0
146
0.0
 13
0.0
 23
0.0
 33
0.0
 16
1.0
 26
0.0
 36
0.0
 17
0.0
 27
1.0
 37
0.0
 76
     0
330
FDF
  0
LAYOUT
  5
FDE
102
{ACAD_REACTORS
330
FDA
102
}
330
FDA
100
AcDbPlotSettings
  1

  2
SII LP-2150 (D-SCAN C2)
  4

  6

 40
0.0
 41
0.0
 42
0.0
 43
0.0
 44
0.0
 45
0.0
 46
0.0
 47
0.0
 48
0.0
 49
0.0
140
0.0
141
0.0
142
1.0
143
1.0
 70
   688
 72
     0
 73
     0
 74
     5
  7

 75
    16
147
1.0
148
0.0
149
0.0
100
AcDbLayout
  1
ﾚｲｱｳﾄ1
 70
     1
 71
     1
 10
-44.912933
 20
-21.841471
 11
153.5627299999999
 21
105.04179
 12
0.0
 22
0.0
 32
0.0
 14
-44.912933
 24
-21.841471
 34
0.0
 15
153.5627299999999
 25
105.04179
 35
0.0
146
0.0
 13
0.0
 23
0.0
 33
0.0
 16
1.0
 26
0.0
 36
0.0
 17
0.0
 27
1.0
 37
0.0
 76
     0
330
FDB
  0
MLINESTYLE
  5
FD8
102
{ACAD_REACTORS
330
FD7
102
}
330
FD7
100
AcDbMlineStyle
  2
STANDARD
 70
     0
  3

 62
   256
 51
90.0
 52
90.0
 71
     2
 49
0.5
 62
   256
  6
BYLAYER
 49
-0.5
 62
   256
  6
BYLAYER
  0
ACDBPLACEHOLDER
  5
FD0
102
{ACAD_REACTORS
330
FCF
102
}
330
FCF
  0
DICTIONARYVAR
  5
1025
102
{ACAD_REACTORS
330
1024
102
}
330
1024
100
DictionaryVariables
280
     0
  1
1
  0
ENDSEC
  0
EOF
