  0
SECTION
  2
HEADER
  9
$ACADVER
  1
AC1015
  9
$ACADMAINTVER
 70
    14
  9
$DWGCODEPAGE
  3
ANSI_932
  9
$INSBASE
 10
0.0
 20
0.0
 30
0.0
  9
$EXTMIN
 10
313.2981170896471
 20
202.1844025879436
 30
-0.0000000000112498
  9
$EXTMAX
 10
807.0685079629486
 20
674.0106232625801
 30
0.0000000000002956
  9
$LIMMIN
 10
-44.912933
 20
-21.841471
  9
$LIMMAX
 10
153.5627299999999
 20
105.04179
  9
$ORTHOMODE
 70
     0
  9
$REGENMODE
 70
     1
  9
$FILLMODE
 70
     1
  9
$QTEXTMODE
 70
     0
  9
$MIRRTEXT
 70
     1
  9
$LTSCALE
 40
1.0
  9
$ATTMODE
 70
     1
  9
$TEXTSIZE
 40
0.2
  9
$TRACEWID
 40
0.05
  9
$TEXTSTYLE
  7
STANDARD
  9
$CLAYER
  8
0
  9
$CELTYPE
  6
CONTINUOUS
  9
$CECOLOR
 62
   256
  9
$CELTSCALE
 40
1.0
  9
$DISPSILH
 70
     0
  9
$DIMSCALE
 40
1.0
  9
$DIMASZ
 40
15.0
  9
$DIMEXO
 40
5.0
  9
$DIMDLI
 40
10.0
  9
$DIMRND
 40
0.0
  9
$DIMDLE
 40
0.0
  9
$DIMEXE
 40
10.0
  9
$DIMTP
 40
0.0
  9
$DIMTM
 40
0.0
  9
$DIMTXT
 40
20.0
  9
$DIMCEN
 40
0.09
  9
$DIMTSZ
 40
0.0
  9
$DIMTOL
 70
     0
  9
$DIMLIM
 70
     0
  9
$DIMTIH
 70
     0
  9
$DIMTOH
 70
     1
  9
$DIMSE1
 70
     0
  9
$DIMSE2
 70
     0
  9
$DIMTAD
 70
     1
  9
$DIMZIN
 70
     8
  9
$DIMBLK
  1

  9
$DIMASO
 70
     1
  9
$DIMSHO
 70
     0
  9
$DIMPOST
  1

  9
$DIMAPOST
  1

  9
$DIMALT
 70
     0
  9
$DIMALTD
 70
     2
  9
$DIMALTF
 40
25.4
  9
$DIMLFAC
 40
1.0
  9
$DIMTOFL
 70
     0
  9
$DIMTVP
 40
0.0
  9
$DIMTIX
 70
     0
  9
$DIMSOXD
 70
     0
  9
$DIMSAH
 70
     0
  9
$DIMBLK1
  1

  9
$DIMBLK2
  1

  9
$DIMSTYLE
  2
STANDARD
  9
$DIMCLRD
 70
     0
  9
$DIMCLRE
 70
     0
  9
$DIMCLRT
 70
     0
  9
$DIMTFAC
 40
1.0
  9
$DIMGAP
 40
5.0
  9
$DIMJUST
 70
     0
  9
$DIMSD1
 70
     0
  9
$DIMSD2
 70
     0
  9
$DIMTOLJ
 70
     1
  9
$DIMTZIN
 70
     0
  9
$DIMALTZ
 70
     0
  9
$DIMALTTZ
 70
     0
  9
$DIMUPT
 70
     0
  9
$DIMDEC
 70
     4
  9
$DIMTDEC
 70
     4
  9
$DIMALTU
 70
     2
  9
$DIMALTTD
 70
     2
  9
$DIMTXSTY
  7
STANDARD
  9
$DIMAUNIT
 70
     0
  9
$DIMADEC
 70
     0
  9
$DIMALTRND
 40
0.0
  9
$DIMAZIN
 70
     0
  9
$DIMDSEP
 70
    46
  9
$DIMATFIT
 70
     3
  9
$DIMFRAC
 70
     0
  9
$DIMLDRBLK
  1

  9
$DIMLUNIT
 70
     2
  9
$DIMLWD
 70
    -2
  9
$DIMLWE
 70
    -2
  9
$DIMTMOVE
 70
     0
  9
$LUNITS
 70
     2
  9
$LUPREC
 70
     4
  9
$SKETCHINC
 40
0.1
  9
$FILLETRAD
 40
0.0
  9
$AUNITS
 70
     0
  9
$AUPREC
 70
     0
  9
$MENU
  1
.
  9
$ELEVATION
 40
0.0
  9
$PELEVATION
 40
0.0
  9
$THICKNESS
 40
0.0
  9
$LIMCHECK
 70
     0
  9
$CHAMFERA
 40
0.0
  9
$CHAMFERB
 40
0.0
  9
$CHAMFERC
 40
0.0
  9
$CHAMFERD
 40
0.0
  9
$SKPOLY
 70
     0
  9
$TDCREATE
 40
2452488.423177615
  9
$TDUCREATE
 40
2452488.048177615
  9
$TDUPDATE
 40
2456899.667951250
  9
$TDUUPDATE
 40
2456899.292951250
  9
$TDINDWG
 40
0.0601960301
  9
$TDUSRTIMER
 40
0.0601960301
  9
$USRTIMER
 70
     1
  9
$ANGBASE
 50
0.0
  9
$ANGDIR
 70
     0
  9
$PDMODE
 70
     3
  9
$PDSIZE
 40
0.0
  9
$PLINEWID
 40
0.0
  9
$SPLFRAME
 70
     0
  9
$SPLINETYPE
 70
     6
  9
$SPLINESEGS
 70
     8
  9
$HANDSEED
  5
1043
  9
$SURFTAB1
 70
     6
  9
$SURFTAB2
 70
     6
  9
$SURFTYPE
 70
     6
  9
$SURFU
 70
     6
  9
$SURFV
 70
     6
  9
$UCSBASE
  2

  9
$UCSNAME
  2

  9
$UCSORG
 10
0.0
 20
0.0
 30
0.0
  9
$UCSXDIR
 10
1.0
 20
0.0
 30
0.0
  9
$UCSYDIR
 10
0.0
 20
1.0
 30
0.0
  9
$UCSORTHOREF
  2

  9
$UCSORTHOVIEW
 70
     0
  9
$UCSORGTOP
 10
0.0
 20
0.0
 30
0.0
  9
$UCSORGBOTTOM
 10
0.0
 20
0.0
 30
0.0
  9
$UCSORGLEFT
 10
0.0
 20
0.0
 30
0.0
  9
$UCSORGRIGHT
 10
0.0
 20
0.0
 30
0.0
  9
$UCSORGFRONT
 10
0.0
 20
0.0
 30
0.0
  9
$UCSORGBACK
 10
0.0
 20
0.0
 30
0.0
  9
$PUCSBASE
  2

  9
$PUCSNAME
  2

  9
$PUCSORG
 10
0.0
 20
0.0
 30
0.0
  9
$PUCSXDIR
 10
1.0
 20
0.0
 30
0.0
  9
$PUCSYDIR
 10
0.0
 20
1.0
 30
0.0
  9
$PUCSORTHOREF
  2

  9
$PUCSORTHOVIEW
 70
     0
  9
$PUCSORGTOP
 10
0.0
 20
0.0
 30
0.0
  9
$PUCSORGBOTTOM
 10
0.0
 20
0.0
 30
0.0
  9
$PUCSORGLEFT
 10
0.0
 20
0.0
 30
0.0
  9
$PUCSORGRIGHT
 10
0.0
 20
0.0
 30
0.0
  9
$PUCSORGFRONT
 10
0.0
 20
0.0
 30
0.0
  9
$PUCSORGBACK
 10
0.0
 20
0.0
 30
0.0
  9
$USERI1
 70
     0
  9
$USERI2
 70
     0
  9
$USERI3
 70
     0
  9
$USERI4
 70
     0
  9
$USERI5
 70
     0
  9
$USERR1
 40
0.0
  9
$USERR2
 40
0.0
  9
$USERR3
 40
0.0
  9
$USERR4
 40
0.0
  9
$USERR5
 40
0.0
  9
$WORLDVIEW
 70
     1
  9
$SHADEDGE
 70
     3
  9
$SHADEDIF
 70
    70
  9
$TILEMODE
 70
     1
  9
$MAXACTVP
 70
    48
  9
$PINSBASE
 10
0.0
 20
0.0
 30
0.0
  9
$PLIMCHECK
 70
     0
  9
$PEXTMIN
 10
-44.912933
 20
-21.841471
 30
0.0
  9
$PEXTMAX
 10
153.5627299999999
 20
105.04179
 30
0.0
  9
$PLIMMIN
 10
-44.912933
 20
-21.841471
  9
$PLIMMAX
 10
153.5627299999999
 20
105.04179
  9
$UNITMODE
 70
     0
  9
$VISRETAIN
 70
     1
  9
$PLINEGEN
 70
     0
  9
$PSLTSCALE
 70
     1
  9
$TREEDEPTH
 70
  3020
  9
$CMLSTYLE
  2
Standard
  9
$CMLJUST
 70
     0
  9
$CMLSCALE
 40
1.0
  9
$PROXYGRAPHICS
 70
     1
  9
$MEASUREMENT
 70
     0
  9
$CELWEIGHT
370
    -1
  9
$ENDCAPS
280
     0
  9
$JOINSTYLE
280
     0
  9
$LWDISPLAY
290
     0
  9
$INSUNITS
 70
     0
  9
$HYPERLINKBASE
  1

  9
$STYLESHEET
  1

  9
$XEDIT
290
     1
  9
$CEPSNTYPE
380
     0
  9
$PSTYLEMODE
290
     1
  9
$FINGERPRINTGUID
  2
{FDAD6B6F-6B01-42DA-BC3D-51A307F69994}
  9
$VERSIONGUID
  2
{74386DCE-35D7-41C6-BB73-D0100AF592F5}
  9
$EXTNAMES
290
     1
  9
$PSVPSCALE
 40
0.0
  9
$OLESTARTUP
290
     0
  0
ENDSEC
  0
SECTION
  2
CLASSES
  0
CLASS
  1
ACDBDICTIONARYWDFLT
  2
AcDbDictionaryWithDefault
  3
AutoCAD 2000
 90
        0
280
     0
281
     0
  0
CLASS
  1
ACDBPLACEHOLDER
  2
AcDbPlaceHolder
  3
AutoCAD 2000
 90
        0
280
     0
281
     0
  0
CLASS
  1
LAYOUT
  2
AcDbLayout
  3
AutoCAD 2000
 90
        0
280
     0
281
     0
  0
CLASS
  1
DICTIONARYVAR
  2
AcDbDictionaryVar
  3
AutoCAD 2000
 90
        0
280
     0
281
     0
  0
CLASS
  1
LONG_TRANSACTION
  2
AcDbLongTransaction
  3
AutoCAD 2000
 90
    32768
280
     0
281
     0
  0
CLASS
  1
LWPOLYLINE
  2
AcDbPolyline
  3
AutoCAD 2000
 90
    32768
280
     0
281
     1
  0
CLASS
  1
HATCH
  2
AcDbHatch
  3
AutoCAD 2000
 90
    32768
280
     0
281
     1
  0
CLASS
  1
XRECORD
  2
AcDbXrecord
  3
AutoCAD 2000
 90
    32768
280
     0
281
     0
  0
ENDSEC
  0
SECTION
  2
TABLES
  0
TABLE
  2
VPORT
  5
FC9
330
0
100
AcDbSymbolTable
 70
     2
  0
VPORT
  5
1042
330
FC9
100
AcDbSymbolTableRecord
100
AcDbViewportTableRecord
  2
*Active
 70
     0
 10
0.0
 20
0.0
 11
1.0
 21
1.0
 12
560.1833125262978
 22
438.0975129252618
 13
0.0
 23
0.0
 14
1.0
 24
1.0
 15
0.0
 25
0.0
 16
0.0
 26
0.0
 36
1.0
 17
0.0
 27
0.0
 37
0.0
 40
474.821942710666
 41
1.592161016949152
 42
50.0
 43
0.0
 44
0.0
 50
0.0
 51
0.0
 71
     0
 72
   100
 73
     1
 74
     3
 75
     0
 76
     0
 77
     0
 78
     0
281
     0
 65
     1
110
0.0
120
0.0
130
0.0
111
1.0
121
0.0
131
0.0
112
0.0
122
1.0
132
0.0
 79
     0
146
0.0
  0
ENDTAB
  0
TABLE
  2
LTYPE
  5
FC6
330
0
100
AcDbSymbolTable
 70
     2
  0
LTYPE
  5
FD4
330
FC6
100
AcDbSymbolTableRecord
100
AcDbLinetypeTableRecord
  2
ByBlock
 70
     0
  3

 72
    65
 73
     0
 40
0.0
  0
LTYPE
  5
FD5
330
FC6
100
AcDbSymbolTableRecord
100
AcDbLinetypeTableRecord
  2
ByLayer
 70
     0
  3

 72
    65
 73
     0
 40
0.0
  0
LTYPE
  5
FD6
330
FC6
100
AcDbSymbolTableRecord
100
AcDbLinetypeTableRecord
  2
CONTINUOUS
 70
     0
  3
Solid line
 72
    65
 73
     0
 40
0.0
  0
LTYPE
  5
1029
330
FC6
100
AcDbSymbolTableRecord
100
AcDbLinetypeTableRecord
  2
CENTER
 70
     0
  3
__ . __
 72
    65
 73
     4
 40
7.0
 49
4.0
 74
     0
 49
-1.0
 74
     0
 49
1.0
 74
     0
 49
-1.0
 74
     0
  0
ENDTAB
  0
TABLE
  2
LAYER
  5
FC3
102
{ACAD_XDICTIONARY
360
102A
102
}
330
0
100
AcDbSymbolTable
 70
     1
  0
LAYER
  5
FD1
330
FC3
100
AcDbSymbolTableRecord
100
AcDbLayerTableRecord
  2
0
 70
     0
 62
     7
  6
CONTINUOUS
370
    -3
390
FD0
  0
ENDTAB
  0
TABLE
  2
STYLE
  5
FC4
330
0
100
AcDbSymbolTable
 70
     1
  0
STYLE
  5
FD2
330
FC4
100
AcDbSymbolTableRecord
100
AcDbTextStyleTableRecord
  2
STANDARD
 70
     0
 40
0.0
 41
1.0
 50
0.0
 71
     0
 42
0.2
  3
txt
  4

  0
ENDTAB
  0
TABLE
  2
VIEW
  5
FC7
330
0
100
AcDbSymbolTable
 70
     0
  0
ENDTAB
  0
TABLE
  2
UCS
  5
FC8
330
0
100
AcDbSymbolTable
 70
     0
  0
ENDTAB
  0
TABLE
  2
APPID
  5
FCA
330
0
100
AcDbSymbolTable
 70
     4
  0
APPID
  5
FD3
330
FCA
100
AcDbSymbolTableRecord
100
AcDbRegAppTableRecord
  2
ACAD
 70
     0
  0
APPID
  5
FE5
330
FCA
100
AcDbSymbolTableRecord
100
AcDbRegAppTableRecord
  2
MCAD_NO_VIS
 70
     0
  0
APPID
  5
FE6
330
FCA
100
AcDbSymbolTableRecord
100
AcDbRegAppTableRecord
  2
ACAD_TEMP_GRAPHIC
 70
     0
  0
APPID
  5
FE7
330
FCA
100
AcDbSymbolTableRecord
100
AcDbRegAppTableRecord
  2
ACATTRIBSERVICES
 70
     0
  0
ENDTAB
  0
TABLE
  2
DIMSTYLE
  5
FCB
330
0
100
AcDbSymbolTable
 70
     1
100
AcDbDimStyleTable
 71
     0
  0
DIMSTYLE
105
FE8
330
FCB
100
AcDbSymbolTableRecord
100
AcDbDimStyleTableRecord
  2
STANDARD
 70
     0
 41
15.0
 42
5.0
 43
10.0
 44
10.0
 73
     0
 77
     1
 78
     8
140
20.0
147
5.0
279
     2
284
     8
285
     8
286
     8
340
FD2
  0
ENDTAB
  0
TABLE
  2
BLOCK_RECORD
  5
FC2
330
0
100
AcDbSymbolTable
 70
     0
  0
BLOCK_RECORD
  5
FDF
102
{ACAD_XDICTIONARY
360
FF0
102
}
330
FC2
100
AcDbSymbolTableRecord
100
AcDbBlockTableRecord
  2
*Model_Space
340
FE2
  0
BLOCK_RECORD
  5
FDB
102
{ACAD_XDICTIONARY
360
FF2
102
}
330
FC2
100
AcDbSymbolTableRecord
100
AcDbBlockTableRecord
  2
*Paper_Space
340
FDE
  0
ENDTAB
  0
ENDSEC
  0
SECTION
  2
BLOCKS
  0
BLOCK
  5
FE0
330
FDF
100
AcDbEntity
  8
0
100
AcDbBlockBegin
  2
*Model_Space
 70
     0
 10
0.0
 20
0.0
 30
0.0
  3
*Model_Space
  1

  0
ENDBLK
  5
FE1
330
FDF
100
AcDbEntity
  8
0
100
AcDbBlockEnd
  0
BLOCK
  5
FDC
330
FDB
100
AcDbEntity
 67
     1
  8
0
100
AcDbBlockBegin
  2
*Paper_Space
 70
     0
 10
0.0
 20
0.0
 30
0.0
  3
*Paper_Space
  1

  0
ENDBLK
  5
FDD
330
FDB
100
AcDbEntity
 67
     1
  8
0
100
AcDbBlockEnd
  0
ENDSEC
  0
SECTION
  2
ENTITIES
  0
ARC
  5
54D
330
FDF
100
AcDbEntity
  8
0
  6
Continuous
 62
     7
100
AcDbCircle
 10
727.6125842273803
 20
258.272310222585
 30
0.0
 40
31.500002
100
AcDbArc
 50
318.0733192987065
 51
221.9266807012934
  0
CIRCLE
  5
54E
330
FDF
100
AcDbEntity
  8
0
  6
Continuous
 62
     7
100
AcDbCircle
 10
727.6125842273803
 20
258.272310222585
 30
0.0
 40
45.75
  0
CIRCLE
  5
54F
330
FDF
100
AcDbEntity
  8
0
  6
Continuous
 62
     7
100
AcDbCircle
 10
727.6125842273803
 20
246.6223072225847
 30
0.0
 40
19.04999899999999
  0
LINE
  5
552
330
FDF
100
AcDbEntity
  8
0
  6
Continuous
 62
     7
100
AcDbLine
 10
546.550716946148
 20
289.772310222585
 30
0.0
 11
516.3007149461476
 21
289.772310222585
 31
0.0
  0
LINE
  5
553
330
FDF
100
AcDbEntity
  8
0
  6
Continuous
 62
     7
100
AcDbLine
 10
516.3007149461476
 20
289.7723112225849
 30
0.0
 11
512.9647469461477
 21
277.3223092225853
 31
0.0
  0
LINE
  5
554
330
FDF
100
AcDbEntity
  8
0
  6
Continuous
 62
     7
100
AcDbLine
 10
516.3007149461476
 20
226.7723092225851
 30
0.0
 11
512.9647469461477
 21
239.2223112225846
 31
0.0
  0
LINE
  5
555
330
FDF
100
AcDbEntity
  8
0
  6
Continuous
 62
     7
100
AcDbLine
 10
546.550716946148
 20
226.7723102225849
 30
0.0
 11
516.3007149461476
 21
226.7723102225849
 31
0.0
  0
LINE
  5
556
330
FDF
100
AcDbEntity
  8
0
  6
Continuous
 62
     7
100
AcDbLine
 10
546.550716946148
 20
304.0223102225851
 30
0.0
 11
562.050716946148
 21
304.0223102225851
 31
0.0
  0
LINE
  5
557
330
FDF
100
AcDbEntity
  8
0
  6
Continuous
 62
     7
100
AcDbLine
 10
546.550716946148
 20
304.0223102225851
 30
0.0
 11
546.550716946148
 21
212.5223102225849
 31
0.0
  0
LINE
  5
558
330
FDF
100
AcDbEntity
  8
0
  6
Continuous
 62
     7
100
AcDbLine
 10
546.550716946148
 20
212.5223102225849
 30
0.0
 11
562.050716946148
 21
212.5223102225849
 31
0.0
  0
LINE
  5
559
330
FDF
100
AcDbEntity
  8
0
  6
Continuous
 62
     7
100
AcDbLine
 10
562.050716946148
 20
304.0223102225851
 30
0.0
 11
562.050716946148
 21
212.5223102225849
 31
0.0
  0
LINE
  5
55A
330
FDF
100
AcDbEntity
  8
0
  6
Continuous
 62
     7
100
AcDbLine
 10
516.3007149461476
 20
289.772310222585
 30
0.0
 11
516.3007149461476
 21
226.7723102225849
 31
0.0
  0
LINE
  5
55B
330
FDF
100
AcDbEntity
  8
0
  6
Continuous
 62
     7
100
AcDbLine
 10
512.9647469461477
 20
277.3223092225853
 30
0.0
 11
512.9647469461477
 21
239.2223112225846
 31
0.0
  0
LINE
  5
55C
330
FDF
100
AcDbEntity
  8
0
  6
Continuous
 62
     7
100
AcDbLine
 10
561.8217129461477
 20
289.7723122225851
 30
0.0
 11
578.842723946148
 21
289.7723122225851
 31
0.0
  0
LINE
  5
55D
330
FDF
100
AcDbEntity
  8
0
  6
Continuous
 62
     7
100
AcDbLine
 10
578.8427149461478
 20
289.7723122225851
 30
0.0
 11
585.3002869461477
 21
265.6723110225847
 31
0.0
  0
LINE
  5
55E
330
FDF
100
AcDbEntity
  8
0
  6
Continuous
 62
     7
100
AcDbLine
 10
561.8217129461477
 20
226.7723082225848
 30
0.0
 11
585.3002869461477
 21
226.7723082225848
 31
0.0
  0
LINE
  5
55F
330
FDF
100
AcDbEntity
  8
0
  6
Continuous
 62
     7
100
AcDbLine
 10
585.3002869461477
 20
265.6723060225849
 30
0.0
 11
585.3002869461477
 21
226.7723082225848
 31
0.0
  0
LINE
  5
560
330
FDF
100
AcDbEntity
  8
0
  6
Continuous
 62
     7
100
AcDbLine
 10
585.3002869461477
 20
226.7723102225849
 30
0.0
 11
578.842715946148
 21
289.7723112225849
 31
0.0
  0
CIRCLE
  5
562
330
FDF
100
AcDbEntity
  8
0
  6
Continuous
 62
     7
100
AcDbCircle
 10
384.4132041153763
 20
258.272310222585
 30
0.0
 40
31.5
  0
CIRCLE
  5
563
330
FDF
100
AcDbEntity
  8
0
  6
Continuous
 62
     7
100
AcDbCircle
 10
384.4132041153763
 20
258.272310222585
 30
0.0
 40
45.75
  0
CIRCLE
  5
564
330
FDF
100
AcDbEntity
  8
0
  6
Continuous
 62
     7
100
AcDbCircle
 10
384.4132041153763
 20
258.272310222585
 30
0.0
 40
19.04999899999999
  0
LINE
  5
568
330
FDF
100
AcDbEntity
  8
0
  6
Continuous
 62
     7
100
AcDbLine
 10
549.3510069461478
 20
429.7882102225848
 30
0.0
 11
519.1010049461477
 21
429.7882102225848
 31
0.0
  0
LINE
  5
569
330
FDF
100
AcDbEntity
  8
0
  6
Continuous
 62
     7
100
AcDbLine
 10
519.1010069461477
 20
429.7882112225852
 30
0.0
 11
515.7650389461478
 21
417.3382092225851
 31
0.0
  0
LINE
  5
56A
330
FDF
100
AcDbEntity
  8
0
  6
Continuous
 62
     7
100
AcDbLine
 10
519.1010069461477
 20
366.7882092225848
 30
0.0
 11
515.7650389461478
 21
379.2382112225849
 31
0.0
  0
LINE
  5
56B
330
FDF
100
AcDbEntity
  8
0
  6
Continuous
 62
     7
100
AcDbLine
 10
549.3510069461478
 20
366.7882102225848
 30
0.0
 11
519.1010049461477
 21
366.7882102225848
 31
0.0
  0
LINE
  5
56C
330
FDF
100
AcDbEntity
  8
0
  6
Continuous
 62
     7
100
AcDbLine
 10
564.8510069461479
 20
429.7882102225848
 30
0.0
 11
578.1010069461479
 21
429.7882102225848
 31
0.0
  0
LINE
  5
56D
330
FDF
100
AcDbEntity
  8
0
  6
Continuous
 62
     7
100
AcDbLine
 10
578.1010069461479
 20
429.7882092225848
 30
0.0
 11
585.2890179461478
 21
417.3382102225851
 31
0.0
  0
LINE
  5
56E
330
FDF
100
AcDbEntity
  8
0
  6
Continuous
 62
     7
100
AcDbLine
 10
578.1010069461479
 20
366.7882112225852
 30
0.0
 11
585.2890179461478
 21
379.2382102225851
 31
0.0
  0
LINE
  5
56F
330
FDF
100
AcDbEntity
  8
0
  6
Continuous
 62
     7
100
AcDbLine
 10
564.8510069461479
 20
366.7882102225848
 30
0.0
 11
578.1010069461479
 21
366.7882102225848
 31
0.0
  0
LINE
  5
570
330
FDF
100
AcDbEntity
  8
0
  6
Continuous
 62
     7
100
AcDbLine
 10
549.3510069461478
 20
444.0382102225848
 30
0.0
 11
564.8510069461479
 21
444.0382102225848
 31
0.0
  0
LINE
  5
571
330
FDF
100
AcDbEntity
  8
0
  6
Continuous
 62
     7
100
AcDbLine
 10
549.3510069461478
 20
444.0382102225848
 30
0.0
 11
549.3510069461478
 21
352.5382102225848
 31
0.0
  0
LINE
  5
572
330
FDF
100
AcDbEntity
  8
0
  6
Continuous
 62
     7
100
AcDbLine
 10
549.3510069461478
 20
352.5382102225848
 30
0.0
 11
564.8510069461479
 21
352.5382102225848
 31
0.0
  0
LINE
  5
573
330
FDF
100
AcDbEntity
  8
0
  6
Continuous
 62
     7
100
AcDbLine
 10
564.8510069461479
 20
444.0382102225848
 30
0.0
 11
564.8510069461479
 21
352.5382102225848
 31
0.0
  0
LINE
  5
574
330
FDF
100
AcDbEntity
  8
0
  6
Continuous
 62
     7
100
AcDbLine
 10
519.1010049461477
 20
429.7882102225848
 30
0.0
 11
519.1010049461477
 21
366.7882102225848
 31
0.0
  0
LINE
  5
575
330
FDF
100
AcDbEntity
  8
0
  6
Continuous
 62
     7
100
AcDbLine
 10
515.765036946148
 20
417.3382092225851
 30
0.0
 11
515.765036946148
 21
379.2382112225849
 31
0.0
  0
LINE
  5
576
330
FDF
100
AcDbEntity
  8
0
  6
Continuous
 62
     7
100
AcDbLine
 10
578.1010069461479
 20
429.7882102225848
 30
0.0
 11
578.1010069461479
 21
366.7882102225848
 31
0.0
  0
LINE
  5
577
330
FDF
100
AcDbEntity
  8
0
  6
Continuous
 62
     7
100
AcDbLine
 10
585.2890179461478
 20
417.3382092225851
 30
0.0
 11
585.2890179461478
 21
379.2382112225849
 31
0.0
  0
LINE
  5
578
330
FDF
100
AcDbEntity
  8
0
  6
Continuous
 62
     7
100
AcDbLine
 10
557.1010069461477
 20
378.2882102225848
 30
0.0
 11
557.1010069461477
 21
388.2882102225848
 31
0.0
  0
LINE
  5
579
330
FDF
100
AcDbEntity
  8
0
  6
Continuous
 62
     7
100
AcDbLine
 10
577.1010069461477
 20
398.2882156173817
 30
0.0
 11
557.1010069461477
 21
378.2882152225852
 31
0.0
  0
LINE
  5
57A
330
FDF
100
AcDbEntity
  8
0
  6
Continuous
 62
     7
100
AcDbLine
 10
557.1010069461477
 20
408.2882102225848
 30
0.0
 11
557.1010069461477
 21
418.2882102225848
 31
0.0
  0
LINE
  5
57B
330
FDF
100
AcDbEntity
  8
0
  6
Continuous
 62
     7
100
AcDbLine
 10
557.1010069461477
 20
408.2882102225848
 30
0.0
 11
520.6073319461479
 21
408.2882102225848
 31
0.0
  0
LINE
  5
57C
330
FDF
100
AcDbEntity
  8
0
  6
Continuous
 62
     7
100
AcDbLine
 10
557.1010069461477
 20
388.2882102225848
 30
0.0
 11
520.6073319461479
 21
388.2882102225848
 31
0.0
  0
LINE
  5
57D
330
FDF
100
AcDbEntity
  8
0
  6
Continuous
 62
     7
100
AcDbLine
 10
557.1010069461477
 20
418.2882052225848
 30
0.0
 11
577.1010069461477
 21
398.2882048277888
 31
0.0
  0
LINE
  5
57E
330
FDF
100
AcDbEntity
  8
0
  6
Continuous
 62
     7
100
AcDbLine
 10
520.6073319461479
 20
388.2882102225848
 30
0.0
 11
520.6073319461479
 21
408.2882102225848
 31
0.0
  0
LINE
  5
7FB
330
FDF
100
AcDbEntity
  8
0
  6
Continuous
 62
     7
100
AcDbLine
 10
484.3007169461479
 20
283.522310222585
 30
0.0
 11
487.1507168461477
 21
283.522310222585
 31
0.0
  0
LINE
  5
7FC
330
FDF
100
AcDbEntity
  8
0
  6
Continuous
 62
     7
100
AcDbLine
 10
487.1507166461478
 20
283.522310222585
 30
0.0
 11
489.4073329461478
 21
277.3223082225848
 31
0.0
  0
LINE
  5
7FD
330
FDF
100
AcDbEntity
  8
0
  6
Continuous
 62
     7
100
AcDbLine
 10
489.4073324461477
 20
277.3223092225853
 30
0.0
 11
512.9647469461477
 21
277.3223092225853
 31
0.0
  0
LINE
  5
7FE
330
FDF
100
AcDbEntity
  8
0
  6
Continuous
 62
     7
100
AcDbLine
 10
484.3007169461479
 20
233.0223102225849
 30
0.0
 11
484.3007169461479
 21
283.522310222585
 31
0.0
  0
LINE
  5
7FF
330
FDF
100
AcDbEntity
  8
0
  6
Continuous
 62
     7
100
AcDbLine
 10
489.4073324461477
 20
239.2223112225846
 30
0.0
 11
512.9647469461477
 21
239.2223112225846
 31
0.0
  0
LINE
  5
800
330
FDF
100
AcDbEntity
  8
0
  6
Continuous
 62
     7
100
AcDbLine
 10
487.1507166461478
 20
233.0223102225849
 30
0.0
 11
489.4073329461478
 21
239.2223122225849
 31
0.0
  0
LINE
  5
801
330
FDF
100
AcDbEntity
  8
0
  6
Continuous
 62
     7
100
AcDbLine
 10
484.3007169461479
 20
233.0223102225849
 30
0.0
 11
487.1507168461477
 21
233.0223102225849
 31
0.0
  0
LINE
  5
803
330
FDF
100
AcDbEntity
  8
0
  6
Continuous
 62
     7
100
AcDbLine
 10
489.4073324461477
 20
277.3223092225853
 30
0.0
 11
489.4073324461477
 21
239.2223112225846
 31
0.0
  0
LINE
  5
806
330
FDF
100
AcDbEntity
  8
0
  6
Continuous
 62
     7
100
AcDbLine
 10
609.3007169461478
 20
221.3723072225847
 30
0.0
 11
606.4507170461478
 21
221.3723072225847
 31
0.0
  0
LINE
  5
807
330
FDF
100
AcDbEntity
  8
0
  6
Continuous
 62
     7
100
AcDbLine
 10
606.4507172461482
 20
221.3723072225847
 30
0.0
 11
604.194100946148
 21
227.5723092225852
 31
0.0
  0
LINE
  5
808
330
FDF
100
AcDbEntity
  8
0
  6
Continuous
 62
     7
100
AcDbLine
 10
604.1941014461477
 20
227.5723082225848
 30
0.0
 11
585.3002869461477
 21
227.5723082225848
 31
0.0
  0
LINE
  5
809
330
FDF
100
AcDbEntity
  8
0
  6
Continuous
 62
     7
100
AcDbLine
 10
609.3007169461478
 20
271.8723072225848
 30
0.0
 11
609.3007169461478
 21
221.3723072225847
 31
0.0
  0
LINE
  5
80A
330
FDF
100
AcDbEntity
  8
0
  6
Continuous
 62
     7
100
AcDbLine
 10
604.1941014461477
 20
265.6723062225851
 30
0.0
 11
585.3002869461477
 21
265.6723062225851
 31
0.0
  0
LINE
  5
80B
330
FDF
100
AcDbEntity
  8
0
  6
Continuous
 62
     7
100
AcDbLine
 10
606.4507172461482
 20
271.8723072225848
 30
0.0
 11
604.194100946148
 21
265.6723052225852
 31
0.0
  0
LINE
  5
80C
330
FDF
100
AcDbEntity
  8
0
  6
Continuous
 62
     7
100
AcDbLine
 10
609.3007169461478
 20
271.8723072225848
 30
0.0
 11
606.4507170461478
 21
271.8723072225848
 31
0.0
  0
LINE
  5
80E
330
FDF
100
AcDbEntity
  8
0
  6
Continuous
 62
     7
100
AcDbLine
 10
604.1941014461477
 20
227.5723082225848
 30
0.0
 11
604.1941014461477
 21
265.6723062225851
 31
0.0
  0
LINE
  5
83D
330
FDF
100
AcDbEntity
  8
0
  6
Continuous
 62
     7
100
AcDbLine
 10
612.1010069461481
 20
373.0382102225848
 30
0.0
 11
609.2510070461479
 21
373.0382102225848
 31
0.0
  0
LINE
  5
83E
330
FDF
100
AcDbEntity
  8
0
  6
Continuous
 62
     7
100
AcDbLine
 10
609.2510072461481
 20
373.0382102225848
 30
0.0
 11
606.9943909461479
 21
379.2382122225848
 31
0.0
  0
LINE
  5
83F
330
FDF
100
AcDbEntity
  8
0
  6
Continuous
 62
     7
100
AcDbLine
 10
606.994391446148
 20
379.2382112225849
 30
0.0
 11
585.2890179461478
 21
379.2382112225849
 31
0.0
  0
LINE
  5
840
330
FDF
100
AcDbEntity
  8
0
  6
Continuous
 62
     7
100
AcDbLine
 10
612.1010069461481
 20
423.5382102225848
 30
0.0
 11
612.1010069461481
 21
373.0382102225848
 31
0.0
  0
LINE
  5
841
330
FDF
100
AcDbEntity
  8
0
  6
Continuous
 62
     7
100
AcDbLine
 10
606.994391446148
 20
417.3382092225847
 30
0.0
 11
585.2890179461478
 21
417.3382092225847
 31
0.0
  0
LINE
  5
842
330
FDF
100
AcDbEntity
  8
0
  6
Continuous
 62
     7
100
AcDbLine
 10
609.2510072461481
 20
423.5382102225848
 30
0.0
 11
606.9943909461479
 21
417.3382082225848
 31
0.0
  0
LINE
  5
843
330
FDF
100
AcDbEntity
  8
0
  6
Continuous
 62
     7
100
AcDbLine
 10
612.1010069461481
 20
423.5382102225848
 30
0.0
 11
609.2510070461479
 21
423.5382102225848
 31
0.0
  0
LINE
  5
845
330
FDF
100
AcDbEntity
  8
0
  6
Continuous
 62
     7
100
AcDbLine
 10
606.994391446148
 20
379.2382112225849
 30
0.0
 11
606.994391446148
 21
417.3382092225847
 31
0.0
  0
LINE
  5
8A3
330
FDF
100
AcDbEntity
  8
0
  6
Continuous
 62
     7
100
AcDbLine
 10
487.1010069461479
 20
423.5382102225848
 30
0.0
 11
489.9510068461476
 21
423.5382102225848
 31
0.0
  0
LINE
  5
8A4
330
FDF
100
AcDbEntity
  8
0
  6
Continuous
 62
     7
100
AcDbLine
 10
489.951006646148
 20
423.5382102225848
 30
0.0
 11
492.2076229461479
 21
417.3382082225852
 31
0.0
  0
LINE
  5
8A5
330
FDF
100
AcDbEntity
  8
0
  6
Continuous
 62
     7
100
AcDbLine
 10
492.207622446148
 20
417.3382092225851
 30
0.0
 11
515.765036946148
 21
417.3382092225851
 31
0.0
  0
LINE
  5
8A6
330
FDF
100
AcDbEntity
  8
0
  6
Continuous
 62
     7
100
AcDbLine
 10
487.1010069461479
 20
373.0382102225848
 30
0.0
 11
487.1010069461479
 21
423.5382102225848
 31
0.0
  0
LINE
  5
8A7
330
FDF
100
AcDbEntity
  8
0
  6
Continuous
 62
     7
100
AcDbLine
 10
492.207622446148
 20
379.2382112225849
 30
0.0
 11
515.765036946148
 21
379.2382112225849
 31
0.0
  0
LINE
  5
8A8
330
FDF
100
AcDbEntity
  8
0
  6
Continuous
 62
     7
100
AcDbLine
 10
489.951006646148
 20
373.0382102225848
 30
0.0
 11
492.2076229461479
 21
379.2382122225852
 31
0.0
  0
LINE
  5
8A9
330
FDF
100
AcDbEntity
  8
0
  6
Continuous
 62
     7
100
AcDbLine
 10
487.1010069461479
 20
373.0382102225848
 30
0.0
 11
489.9510068461476
 21
373.0382102225848
 31
0.0
  0
LINE
  5
8AB
330
FDF
100
AcDbEntity
  8
0
  6
Continuous
 62
     7
100
AcDbLine
 10
492.207622446148
 20
417.3382092225851
 30
0.0
 11
492.207622446148
 21
379.2382112225849
 31
0.0
  0
LINE
  5
91B
330
FDF
100
AcDbEntity
  8
0
  6
Continuous
 62
     7
100
AcDbLine
 10
557.1010069461477
 20
378.4908422225852
 30
0.0
 11
576.9996689461479
 21
398.3895434525848
 31
0.0
  0
LINE
  5
91C
330
FDF
100
AcDbEntity
  8
0
  6
Continuous
 62
     7
100
AcDbLine
 10
557.1010069461477
 20
382.9809742225852
 30
0.0
 11
574.754604946148
 21
400.6346077225852
 31
0.0
  0
LINE
  5
91D
330
FDF
100
AcDbEntity
  8
0
  6
Continuous
 62
     7
100
AcDbLine
 10
557.1010069461477
 20
387.4711072225849
 30
0.0
 11
572.5095409461478
 21
402.879672022585
 31
0.0
  0
LINE
  5
91E
330
FDF
100
AcDbEntity
  8
0
  6
Continuous
 62
     7
100
AcDbLine
 10
553.4279849461479
 20
388.2882102225848
 30
0.0
 11
570.2644779461478
 21
405.1247363225847
 31
0.0
  0
LINE
  5
91F
330
FDF
100
AcDbEntity
  8
0
  6
Continuous
 62
     7
100
AcDbLine
 10
548.9378619461477
 20
388.2882102225848
 30
0.0
 11
568.0194139461478
 21
407.3698006225849
 31
0.0
  0
LINE
  5
920
330
FDF
100
AcDbEntity
  8
0
  6
Continuous
 62
     7
100
AcDbLine
 10
544.4477379461477
 20
388.2882102225848
 30
0.0
 11
565.7743499461478
 21
409.6148652225852
 31
0.0
  0
LINE
  5
921
330
FDF
100
AcDbEntity
  8
0
  6
Continuous
 62
     7
100
AcDbLine
 10
539.9576149461479
 20
388.2882102225848
 30
0.0
 11
563.5292859461477
 21
411.8599292225852
 31
0.0
  0
LINE
  5
922
330
FDF
100
AcDbEntity
  8
0
  6
Continuous
 62
     7
100
AcDbLine
 10
535.4674909461476
 20
388.2882102225848
 30
0.0
 11
555.4674509461477
 21
408.2882102225848
 31
0.0
  0
LINE
  5
923
330
FDF
100
AcDbEntity
  8
0
  6
Continuous
 62
     7
100
AcDbLine
 10
557.1010069461477
 20
409.9217692225852
 30
0.0
 11
561.2842229461477
 21
414.1049932225849
 31
0.0
  0
LINE
  5
924
330
FDF
100
AcDbEntity
  8
0
  6
Continuous
 62
     7
100
AcDbLine
 10
530.9773679461478
 20
388.2882102225848
 30
0.0
 11
550.9773279461479
 21
408.2882102225848
 31
0.0
  0
LINE
  5
925
330
FDF
100
AcDbEntity
  8
0
  6
Continuous
 62
     7
100
AcDbLine
 10
557.1010069461477
 20
414.4119022225849
 30
0.0
 11
559.0391589461478
 21
416.3500572225848
 31
0.0
  0
LINE
  5
926
330
FDF
100
AcDbEntity
  8
0
  6
Continuous
 62
     7
100
AcDbLine
 10
526.4872439461478
 20
388.2882102225848
 30
0.0
 11
546.4872039461479
 21
408.2882102225848
 31
0.0
  0
LINE
  5
927
330
FDF
100
AcDbEntity
  8
0
  6
Continuous
 62
     7
100
AcDbLine
 10
521.9971209461476
 20
388.2882102225848
 30
0.0
 11
541.9970809461479
 21
408.2882102225848
 31
0.0
  0
LINE
  5
928
330
FDF
100
AcDbEntity
  8
0
  6
Continuous
 62
     7
100
AcDbLine
 10
520.6073319461479
 20
391.3885510225849
 30
0.0
 11
537.5069569461479
 21
408.2882102225848
 31
0.0
  0
LINE
  5
929
330
FDF
100
AcDbEntity
  8
0
  6
Continuous
 62
     7
100
AcDbLine
 10
520.6073319461479
 20
395.8786835225851
 30
0.0
 11
533.0168339461478
 21
408.2882102225848
 31
0.0
  0
LINE
  5
92A
330
FDF
100
AcDbEntity
  8
0
  6
Continuous
 62
     7
100
AcDbLine
 10
520.6073319461479
 20
400.3688160225851
 30
0.0
 11
528.526709946148
 21
408.2882102225848
 31
0.0
  0
LINE
  5
92B
330
FDF
100
AcDbEntity
  8
0
  6
Continuous
 62
     7
100
AcDbLine
 10
520.6073319461479
 20
404.8589485225847
 30
0.0
 11
524.0365869461479
 21
408.2882102225848
 31
0.0
  0
CIRCLE
  5
9D3
330
FDF
100
AcDbEntity
  8
0
  6
Continuous
 62
     7
100
AcDbCircle
 10
384.4132041153763
 20
258.272310222585
 30
0.0
 40
25.25
  0
CIRCLE
  5
9D4
330
FDF
100
AcDbEntity
  8
0
  6
Continuous
 62
     7
100
AcDbCircle
 10
727.6125842273803
 20
246.6223072225847
 30
0.0
 40
25.25
  0
TEXT
  5
CFF
330
FDF
100
AcDbEntity
  8
0
  6
Continuous
 62
     7
100
AcDbText
 10
313.3159630197515
 20
626.0
 30
0.0
 40
48.000002
  1
CVES 1.5S
 41
1.285779999999999
100
AcDbText
  0
LINE
  5
D0B
330
FDF
100
AcDbEntity
  8
0
  6
Continuous
 62
     7
100
AcDbLine
 10
537.157324946148
 20
248.2723102225849
 30
0.0
 11
560.7289959461479
 21
271.8440292225855
 31
0.0
  0
LINE
  5
D0C
330
FDF
100
AcDbEntity
  8
0
  6
Continuous
 62
     7
100
AcDbLine
 10
541.6474479461479
 20
248.2723102225849
 30
0.0
 11
562.9740599461477
 21
269.5989652225853
 31
0.0
  0
LINE
  5
D0D
330
FDF
100
AcDbEntity
  8
0
  6
Continuous
 62
     7
100
AcDbLine
 10
532.6672009461479
 20
248.2723102225849
 30
0.0
 11
552.6671609461478
 21
268.272310222585
 31
0.0
  0
LINE
  5
D0E
330
FDF
100
AcDbEntity
  8
0
  6
Continuous
 62
     7
100
AcDbLine
 10
554.3007169461478
 20
248.2723102225849
 30
0.0
 11
517.807041946148
 21
248.2723102225849
 31
0.0
  0
LINE
  5
D0F
330
FDF
100
AcDbEntity
  8
0
  6
Continuous
 62
     7
100
AcDbLine
 10
554.3007169461478
 20
268.272310222585
 30
0.0
 11
517.807041946148
 21
268.272310222585
 31
0.0
  0
LINE
  5
D10
330
FDF
100
AcDbEntity
  8
0
  6
Continuous
 62
     7
100
AcDbLine
 10
528.177077946148
 20
248.2723102225849
 30
0.0
 11
548.1770379461479
 21
268.272310222585
 31
0.0
  0
LINE
  5
D11
330
FDF
100
AcDbEntity
  8
0
  6
Continuous
 62
     7
100
AcDbLine
 10
517.807041946148
 20
255.8627835225852
 30
0.0
 11
530.216543946148
 21
268.272310222585
 31
0.0
  0
LINE
  5
D12
330
FDF
100
AcDbEntity
  8
0
  6
Continuous
 62
     7
100
AcDbLine
 10
517.807041946148
 20
251.3726510225851
 30
0.0
 11
534.7066669461479
 21
268.272310222585
 31
0.0
  0
LINE
  5
D13
330
FDF
100
AcDbEntity
  8
0
  6
Continuous
 62
     7
100
AcDbLine
 10
517.807041946148
 20
260.3529160225853
 30
0.0
 11
525.7264199461481
 21
268.272310222585
 31
0.0
  0
LINE
  5
D14
330
FDF
100
AcDbEntity
  8
0
  6
Continuous
 62
     7
100
AcDbLine
 10
517.807041946148
 20
248.2723102225849
 30
0.0
 11
517.807041946148
 21
268.272310222585
 31
0.0
  0
LINE
  5
D15
330
FDF
100
AcDbEntity
  8
0
  6
Continuous
 62
     7
100
AcDbLine
 10
519.1968309461477
 20
248.2723102225849
 30
0.0
 11
539.1967909461478
 21
268.272310222585
 31
0.0
  0
LINE
  5
D16
330
FDF
100
AcDbEntity
  8
0
  6
Continuous
 62
     7
100
AcDbLine
 10
523.6869539461479
 20
248.2723102225849
 30
0.0
 11
543.686913946148
 21
268.272310222585
 31
0.0
  0
LINE
  5
D17
330
FDF
100
AcDbEntity
  8
0
  6
Continuous
 62
     7
100
AcDbLine
 10
517.807041946148
 20
264.8430485225848
 30
0.0
 11
521.2362969461479
 21
268.272310222585
 31
0.0
  0
LINE
  5
D18
330
FDF
100
AcDbEntity
  8
0
  6
Continuous
 62
     7
100
AcDbLine
 10
546.137571946148
 20
248.2723102225849
 30
0.0
 11
565.2191239461479
 21
267.3539006225851
 31
0.0
  0
LINE
  5
D19
330
FDF
100
AcDbEntity
  8
0
  6
Continuous
 62
     7
100
AcDbLine
 10
550.627694946148
 20
248.2723102225849
 30
0.0
 11
567.4641879461479
 21
265.1088363225848
 31
0.0
  0
LINE
  5
D1A
330
FDF
100
AcDbEntity
  8
0
  6
Continuous
 62
     7
100
AcDbLine
 10
554.3007169461478
 20
242.9650742225852
 30
0.0
 11
571.9543149461482
 21
260.6187077225853
 31
0.0
  0
LINE
  5
D1B
330
FDF
100
AcDbEntity
  8
0
  6
Continuous
 62
     7
100
AcDbLine
 10
554.3007169461478
 20
247.4552072225851
 30
0.0
 11
569.7092509461477
 21
262.8637720225851
 31
0.0
  0
LINE
  5
D1C
330
FDF
100
AcDbEntity
  8
0
  6
Continuous
 62
     7
100
AcDbLine
 10
554.3007169461478
 20
269.9058692225853
 30
0.0
 11
558.4839329461479
 21
274.0890932225851
 31
0.0
  0
LINE
  5
D1D
330
FDF
100
AcDbEntity
  8
0
  6
Continuous
 62
     7
100
AcDbLine
 10
554.3007169461478
 20
278.2723052225851
 30
0.0
 11
574.3007169461479
 21
258.2723048277888
 31
0.0
  0
LINE
  5
D1E
330
FDF
100
AcDbEntity
  8
0
  6
Continuous
 62
     7
100
AcDbLine
 10
554.3007169461478
 20
238.2723102225849
 30
0.0
 11
554.3007169461478
 21
248.2723102225849
 31
0.0
  0
LINE
  5
D1F
330
FDF
100
AcDbEntity
  8
0
  6
Continuous
 62
     7
100
AcDbLine
 10
554.3007169461478
 20
238.4749422225854
 30
0.0
 11
574.199378946148
 21
258.3736434525848
 31
0.0
  0
LINE
  5
D20
330
FDF
100
AcDbEntity
  8
0
  6
Continuous
 62
     7
100
AcDbLine
 10
574.3007169461479
 20
258.2723156173818
 30
0.0
 11
554.3007169461478
 21
238.2723152225853
 31
0.0
  0
LINE
  5
D21
330
FDF
100
AcDbEntity
  8
0
  6
Continuous
 62
     7
100
AcDbLine
 10
554.3007169461478
 20
274.396002222585
 30
0.0
 11
556.2388689461479
 21
276.3341572225848
 31
0.0
  0
LINE
  5
D22
330
FDF
100
AcDbEntity
  8
0
  6
Continuous
 62
     7
100
AcDbLine
 10
554.3007169461478
 20
268.272310222585
 30
0.0
 11
554.3007169461478
 21
278.272310222585
 31
0.0
  0
LINE
  5
1031
330
FDF
100
AcDbEntity
  8
0
  6
CENTER
100
AcDbLine
 10
678.9071415912263
 20
246.6223072225847
 30
0.0
 11
776.3180268635344
 21
246.6223072225847
 31
0.0
  0
LINE
  5
1032
330
FDF
100
AcDbEntity
  8
0
  6
CENTER
100
AcDbLine
 10
671.5292345058673
 20
258.272310222585
 30
0.0
 11
783.6959339488936
 21
258.272310222585
 31
0.0
  0
LINE
  5
1034
330
FDF
100
AcDbEntity
  8
0
  6
CENTER
100
AcDbLine
 10
727.6125842273804
 20
314.3556599440981
 30
0.0
 11
727.6125842273804
 21
202.1889605010718
 31
0.0
  0
LINE
  5
1035
330
FDF
100
AcDbEntity
  8
0
  6
CENTER
100
AcDbLine
 10
328.3298543938631
 20
258.272310222585
 30
0.0
 11
440.4965538368895
 21
258.272310222585
 31
0.0
  0
LINE
  5
1036
330
FDF
100
AcDbEntity
  8
0
  6
CENTER
100
AcDbLine
 10
384.4132041153763
 20
314.3556599440981
 30
0.0
 11
384.4132041153763
 21
202.1889605010718
 31
0.0
  0
LINE
  5
1037
330
FDF
100
AcDbEntity
  8
0
  6
CENTER
100
AcDbLine
 10
560.5952743099938
 20
246.6223072225848
 30
0.0
 11
625.8556976141281
 21
246.6223072225848
 31
0.0
  0
LINE
  5
1038
330
FDF
100
AcDbEntity
  8
0
  6
CENTER
100
AcDbLine
 10
472.0893384168075
 20
258.272310222585
 30
0.0
 11
541.1977819009043
 21
258.272310222585
 31
0.0
  0
LINE
  5
1039
330
FDF
100
AcDbEntity
  8
0
  6
CENTER
100
AcDbLine
 10
474.8896284168075
 20
398.2882102225848
 30
0.0
 11
628.5815734886519
 21
398.2882102225848
 31
0.0
  0
ENDSEC
  0
SECTION
  2
OBJECTS
  0
DICTIONARY
  5
FCD
330
0
100
AcDbDictionary
281
     1
  3
ACAD_GROUP
350
FCE
  3
ACAD_LAYOUT
350
FDA
  3
ACAD_MLINESTYLE
350
FD7
  3
ACAD_PLOTSETTINGS
350
FD9
  3
ACAD_PLOTSTYLENAME
350
FCF
  3
AcDbVariableDictionary
350
1024
  0
DICTIONARY
  5
102A
330
FC3
100
AcDbDictionary
280
     1
281
     1
  3
ACAD_LAYERSTATES
360
102B
  0
DICTIONARY
  5
FF0
330
FDF
100
AcDbDictionary
280
     1
281
     1
  3
ACAD_LAYOUTSELFREF
360
101F
  0
DICTIONARY
  5
FF2
330
FDB
100
AcDbDictionary
280
     1
281
     1
  3
ACAD_LAYOUTSELFREF
360
101E
  0
DICTIONARY
  5
FCE
102
{ACAD_REACTORS
330
FCD
102
}
330
FCD
100
AcDbDictionary
281
     1
  0
DICTIONARY
  5
FDA
102
{ACAD_REACTORS
330
FCD
102
}
330
FCD
100
AcDbDictionary
281
     1
  3
Model
350
FE2
  3
ﾚｲｱｳﾄ1
350
FDE
  0
DICTIONARY
  5
FD7
102
{ACAD_REACTORS
330
FCD
102
}
330
FCD
100
AcDbDictionary
281
     1
  3
Standard
350
FD8
  0
DICTIONARY
  5
FD9
102
{ACAD_REACTORS
330
FCD
102
}
330
FCD
100
AcDbDictionary
281
     1
  0
ACDBDICTIONARYWDFLT
  5
FCF
102
{ACAD_REACTORS
330
FCD
102
}
330
FCD
100
AcDbDictionary
281
     1
  3
Normal
350
FD0
100
AcDbDictionaryWithDefault
340
FD0
  0
DICTIONARY
  5
1024
102
{ACAD_REACTORS
330
FCD
102
}
330
FCD
100
AcDbDictionary
281
     1
  3
DIMASSOC
350
1025
  0
DICTIONARY
  5
102B
102
{ACAD_REACTORS
330
102A
102
}
330
102A
100
AcDbDictionary
281
     1
  0
XRECORD
  5
101F
102
{ACAD_REACTORS
330
FF0
102
}
330
FF0
100
AcDbXrecord
280
     1
340
FDF
  0
XRECORD
  5
101E
102
{ACAD_REACTORS
330
FF2
102
}
330
FF2
100
AcDbXrecord
280
     1
340
FDB
  0
LAYOUT
  5
FE2
102
{ACAD_REACTORS
330
FDA
102
}
330
FDA
100
AcDbPlotSettings
  1

  2
SII LP-2150 (D-SCAN C2)
  4

  6

 40
0.0
 41
0.0
 42
0.0
 43
0.0
 44
0.0
 45
0.0
 46
0.0
 47
0.0
 48
0.0
 49
0.0
140
0.0
141
0.0
142
1.0
143
1.0
 70
  1712
 72
     0
 73
     0
 74
     0
  7

 75
     0
147
1.0
148
0.0
149
0.0
100
AcDbLayout
  1
Model
 70
     1
 71
     0
 10
0.0
 20
0.0
 11
12.0
 21
9.0
 12
0.0
 22
0.0
 32
0.0
 14
0.0
 24
0.0
 34
0.0
 15
0.0
 25
0.0
 35
0.0
146
0.0
 13
0.0
 23
0.0
 33
0.0
 16
1.0
 26
0.0
 36
0.0
 17
0.0
 27
1.0
 37
0.0
 76
     0
330
FDF
  0
LAYOUT
  5
FDE
102
{ACAD_REACTORS
330
FDA
102
}
330
FDA
100
AcDbPlotSettings
  1

  2
SII LP-2150 (D-SCAN C2)
  4

  6

 40
0.0
 41
0.0
 42
0.0
 43
0.0
 44
0.0
 45
0.0
 46
0.0
 47
0.0
 48
0.0
 49
0.0
140
0.0
141
0.0
142
1.0
143
1.0
 70
   688
 72
     0
 73
     0
 74
     5
  7

 75
    16
147
1.0
148
0.0
149
0.0
100
AcDbLayout
  1
ﾚｲｱｳﾄ1
 70
     1
 71
     1
 10
-44.912933
 20
-21.841471
 11
153.5627299999999
 21
105.04179
 12
0.0
 22
0.0
 32
0.0
 14
-44.912933
 24
-21.841471
 34
0.0
 15
153.5627299999999
 25
105.04179
 35
0.0
146
0.0
 13
0.0
 23
0.0
 33
0.0
 16
1.0
 26
0.0
 36
0.0
 17
0.0
 27
1.0
 37
0.0
 76
     0
330
FDB
  0
MLINESTYLE
  5
FD8
102
{ACAD_REACTORS
330
FD7
102
}
330
FD7
100
AcDbMlineStyle
  2
STANDARD
 70
     0
  3

 62
   256
 51
90.0
 52
90.0
 71
     2
 49
0.5
 62
   256
  6
BYLAYER
 49
-0.5
 62
   256
  6
BYLAYER
  0
ACDBPLACEHOLDER
  5
FD0
102
{ACAD_REACTORS
330
FCF
102
}
330
FCF
  0
DICTIONARYVAR
  5
1025
102
{ACAD_REACTORS
330
1024
102
}
330
1024
100
DictionaryVariables
280
     0
  1
1
  0
ENDSEC
  0
EOF
