  0
SECTION
  2
HEADER
  9
$ACADVER
  1
AC1015
  9
$ACADMAINTVER
 70
    14
  9
$DWGCODEPAGE
  3
ANSI_932
  9
$INSBASE
 10
0.0
 20
0.0
 30
0.0
  9
$EXTMIN
 10
321.1808571859135
 20
199.4768366783459
 30
-0.0000000000000058
  9
$EXTMAX
 10
814.9607263889127
 20
675.4021553576287
 30
0.0000000000000104
  9
$LIMMIN
 10
-44.912933
 20
-21.841471
  9
$LIMMAX
 10
153.5627299999999
 20
105.04179
  9
$ORTHOMODE
 70
     0
  9
$REGENMODE
 70
     1
  9
$FILLMODE
 70
     1
  9
$QTEXTMODE
 70
     0
  9
$MIRRTEXT
 70
     1
  9
$LTSCALE
 40
1.0
  9
$ATTMODE
 70
     1
  9
$TEXTSIZE
 40
0.2
  9
$TRACEWID
 40
0.05
  9
$TEXTSTYLE
  7
STANDARD
  9
$CLAYER
  8
0
  9
$CELTYPE
  6
CONTINUOUS
  9
$CECOLOR
 62
   256
  9
$CELTSCALE
 40
1.0
  9
$DISPSILH
 70
     0
  9
$DIMSCALE
 40
1.0
  9
$DIMASZ
 40
15.0
  9
$DIMEXO
 40
5.0
  9
$DIMDLI
 40
10.0
  9
$DIMRND
 40
0.0
  9
$DIMDLE
 40
0.0
  9
$DIMEXE
 40
10.0
  9
$DIMTP
 40
0.0
  9
$DIMTM
 40
0.0
  9
$DIMTXT
 40
20.0
  9
$DIMCEN
 40
0.09
  9
$DIMTSZ
 40
0.0
  9
$DIMTOL
 70
     0
  9
$DIMLIM
 70
     0
  9
$DIMTIH
 70
     0
  9
$DIMTOH
 70
     1
  9
$DIMSE1
 70
     0
  9
$DIMSE2
 70
     0
  9
$DIMTAD
 70
     1
  9
$DIMZIN
 70
     8
  9
$DIMBLK
  1

  9
$DIMASO
 70
     1
  9
$DIMSHO
 70
     0
  9
$DIMPOST
  1

  9
$DIMAPOST
  1

  9
$DIMALT
 70
     0
  9
$DIMALTD
 70
     2
  9
$DIMALTF
 40
25.4
  9
$DIMLFAC
 40
1.0
  9
$DIMTOFL
 70
     0
  9
$DIMTVP
 40
0.0
  9
$DIMTIX
 70
     0
  9
$DIMSOXD
 70
     0
  9
$DIMSAH
 70
     0
  9
$DIMBLK1
  1

  9
$DIMBLK2
  1

  9
$DIMSTYLE
  2
STANDARD
  9
$DIMCLRD
 70
     0
  9
$DIMCLRE
 70
     0
  9
$DIMCLRT
 70
     0
  9
$DIMTFAC
 40
1.0
  9
$DIMGAP
 40
5.0
  9
$DIMJUST
 70
     0
  9
$DIMSD1
 70
     0
  9
$DIMSD2
 70
     0
  9
$DIMTOLJ
 70
     1
  9
$DIMTZIN
 70
     0
  9
$DIMALTZ
 70
     0
  9
$DIMALTTZ
 70
     0
  9
$DIMUPT
 70
     0
  9
$DIMDEC
 70
     4
  9
$DIMTDEC
 70
     4
  9
$DIMALTU
 70
     2
  9
$DIMALTTD
 70
     2
  9
$DIMTXSTY
  7
STANDARD
  9
$DIMAUNIT
 70
     0
  9
$DIMADEC
 70
     0
  9
$DIMALTRND
 40
0.0
  9
$DIMAZIN
 70
     0
  9
$DIMDSEP
 70
    46
  9
$DIMATFIT
 70
     3
  9
$DIMFRAC
 70
     0
  9
$DIMLDRBLK
  1

  9
$DIMLUNIT
 70
     2
  9
$DIMLWD
 70
    -2
  9
$DIMLWE
 70
    -2
  9
$DIMTMOVE
 70
     0
  9
$LUNITS
 70
     2
  9
$LUPREC
 70
     4
  9
$SKETCHINC
 40
0.1
  9
$FILLETRAD
 40
0.0
  9
$AUNITS
 70
     0
  9
$AUPREC
 70
     0
  9
$MENU
  1
.
  9
$ELEVATION
 40
0.0
  9
$PELEVATION
 40
0.0
  9
$THICKNESS
 40
0.0
  9
$LIMCHECK
 70
     0
  9
$CHAMFERA
 40
0.0
  9
$CHAMFERB
 40
0.0
  9
$CHAMFERC
 40
0.0
  9
$CHAMFERD
 40
0.0
  9
$SKPOLY
 70
     0
  9
$TDCREATE
 40
2452488.423177615
  9
$TDUCREATE
 40
2452488.048177615
  9
$TDUPDATE
 40
2456899.667775544
  9
$TDUUPDATE
 40
2456899.292775544
  9
$TDINDWG
 40
0.0619088079
  9
$TDUSRTIMER
 40
0.0619088079
  9
$USRTIMER
 70
     1
  9
$ANGBASE
 50
0.0
  9
$ANGDIR
 70
     0
  9
$PDMODE
 70
     3
  9
$PDSIZE
 40
0.0
  9
$PLINEWID
 40
0.0
  9
$SPLFRAME
 70
     0
  9
$SPLINETYPE
 70
     6
  9
$SPLINESEGS
 70
     8
  9
$HANDSEED
  5
FC1
  9
$SURFTAB1
 70
     6
  9
$SURFTAB2
 70
     6
  9
$SURFTYPE
 70
     6
  9
$SURFU
 70
     6
  9
$SURFV
 70
     6
  9
$UCSBASE
  2

  9
$UCSNAME
  2

  9
$UCSORG
 10
0.0
 20
0.0
 30
0.0
  9
$UCSXDIR
 10
1.0
 20
0.0
 30
0.0
  9
$UCSYDIR
 10
0.0
 20
1.0
 30
0.0
  9
$UCSORTHOREF
  2

  9
$UCSORTHOVIEW
 70
     0
  9
$UCSORGTOP
 10
0.0
 20
0.0
 30
0.0
  9
$UCSORGBOTTOM
 10
0.0
 20
0.0
 30
0.0
  9
$UCSORGLEFT
 10
0.0
 20
0.0
 30
0.0
  9
$UCSORGRIGHT
 10
0.0
 20
0.0
 30
0.0
  9
$UCSORGFRONT
 10
0.0
 20
0.0
 30
0.0
  9
$UCSORGBACK
 10
0.0
 20
0.0
 30
0.0
  9
$PUCSBASE
  2

  9
$PUCSNAME
  2

  9
$PUCSORG
 10
0.0
 20
0.0
 30
0.0
  9
$PUCSXDIR
 10
1.0
 20
0.0
 30
0.0
  9
$PUCSYDIR
 10
0.0
 20
1.0
 30
0.0
  9
$PUCSORTHOREF
  2

  9
$PUCSORTHOVIEW
 70
     0
  9
$PUCSORGTOP
 10
0.0
 20
0.0
 30
0.0
  9
$PUCSORGBOTTOM
 10
0.0
 20
0.0
 30
0.0
  9
$PUCSORGLEFT
 10
0.0
 20
0.0
 30
0.0
  9
$PUCSORGRIGHT
 10
0.0
 20
0.0
 30
0.0
  9
$PUCSORGFRONT
 10
0.0
 20
0.0
 30
0.0
  9
$PUCSORGBACK
 10
0.0
 20
0.0
 30
0.0
  9
$USERI1
 70
     0
  9
$USERI2
 70
     0
  9
$USERI3
 70
     0
  9
$USERI4
 70
     0
  9
$USERI5
 70
     0
  9
$USERR1
 40
0.0
  9
$USERR2
 40
0.0
  9
$USERR3
 40
0.0
  9
$USERR4
 40
0.0
  9
$USERR5
 40
0.0
  9
$WORLDVIEW
 70
     1
  9
$SHADEDGE
 70
     3
  9
$SHADEDIF
 70
    70
  9
$TILEMODE
 70
     1
  9
$MAXACTVP
 70
    48
  9
$PINSBASE
 10
0.0
 20
0.0
 30
0.0
  9
$PLIMCHECK
 70
     0
  9
$PEXTMIN
 10
-44.912933
 20
-21.841471
 30
0.0
  9
$PEXTMAX
 10
153.5627299999999
 20
105.04179
 30
0.0
  9
$PLIMMIN
 10
-44.912933
 20
-21.841471
  9
$PLIMMAX
 10
153.5627299999999
 20
105.04179
  9
$UNITMODE
 70
     0
  9
$VISRETAIN
 70
     1
  9
$PLINEGEN
 70
     0
  9
$PSLTSCALE
 70
     1
  9
$TREEDEPTH
 70
  3020
  9
$CMLSTYLE
  2
Standard
  9
$CMLJUST
 70
     0
  9
$CMLSCALE
 40
1.0
  9
$PROXYGRAPHICS
 70
     1
  9
$MEASUREMENT
 70
     0
  9
$CELWEIGHT
370
    -1
  9
$ENDCAPS
280
     0
  9
$JOINSTYLE
280
     0
  9
$LWDISPLAY
290
     0
  9
$INSUNITS
 70
     0
  9
$HYPERLINKBASE
  1

  9
$STYLESHEET
  1

  9
$XEDIT
290
     1
  9
$CEPSNTYPE
380
     0
  9
$PSTYLEMODE
290
     1
  9
$FINGERPRINTGUID
  2
{B31FDCDB-5948-4C9F-90BF-FD67E958EA83}
  9
$VERSIONGUID
  2
{682D80F4-2C7D-42D7-A245-07DB7189BDF7}
  9
$EXTNAMES
290
     1
  9
$PSVPSCALE
 40
0.0
  9
$OLESTARTUP
290
     0
  0
ENDSEC
  0
SECTION
  2
CLASSES
  0
CLASS
  1
ACDBDICTIONARYWDFLT
  2
AcDbDictionaryWithDefault
  3
AutoCAD 2000
 90
        0
280
     0
281
     0
  0
CLASS
  1
ACDBPLACEHOLDER
  2
AcDbPlaceHolder
  3
AutoCAD 2000
 90
        0
280
     0
281
     0
  0
CLASS
  1
LAYOUT
  2
AcDbLayout
  3
AutoCAD 2000
 90
        0
280
     0
281
     0
  0
CLASS
  1
DICTIONARYVAR
  2
AcDbDictionaryVar
  3
AutoCAD 2000
 90
        0
280
     0
281
     0
  0
CLASS
  1
LONG_TRANSACTION
  2
AcDbLongTransaction
  3
AutoCAD 2000
 90
    32768
280
     0
281
     0
  0
CLASS
  1
LWPOLYLINE
  2
AcDbPolyline
  3
AutoCAD 2000
 90
    32768
280
     0
281
     1
  0
CLASS
  1
HATCH
  2
AcDbHatch
  3
AutoCAD 2000
 90
    32768
280
     0
281
     1
  0
CLASS
  1
XRECORD
  2
AcDbXrecord
  3
AutoCAD 2000
 90
    32768
280
     0
281
     0
  0
ENDSEC
  0
SECTION
  2
TABLES
  0
TABLE
  2
VPORT
  5
F37
330
0
100
AcDbSymbolTable
 70
     2
  0
VPORT
  5
FC0
330
F37
100
AcDbSymbolTableRecord
100
AcDbViewportTableRecord
  2
*Active
 70
     0
 10
0.0
 20
0.0
 11
1.0
 21
1.0
 12
568.0707917874131
 22
437.4394960179873
 13
0.0
 23
0.0
 14
1.0
 24
1.0
 15
0.0
 25
0.0
 16
0.0
 26
0.0
 36
1.0
 17
0.0
 27
0.0
 37
0.0
 40
478.9470667343894
 41
1.592161016949152
 42
50.0
 43
0.0
 44
0.0
 50
0.0
 51
0.0
 71
     0
 72
   100
 73
     1
 74
     3
 75
     0
 76
     0
 77
     0
 78
     0
281
     0
 65
     1
110
0.0
120
0.0
130
0.0
111
1.0
121
0.0
131
0.0
112
0.0
122
1.0
132
0.0
 79
     0
146
0.0
  0
ENDTAB
  0
TABLE
  2
LTYPE
  5
F34
330
0
100
AcDbSymbolTable
 70
     2
  0
LTYPE
  5
F42
330
F34
100
AcDbSymbolTableRecord
100
AcDbLinetypeTableRecord
  2
ByBlock
 70
     0
  3

 72
    65
 73
     0
 40
0.0
  0
LTYPE
  5
F43
330
F34
100
AcDbSymbolTableRecord
100
AcDbLinetypeTableRecord
  2
ByLayer
 70
     0
  3

 72
    65
 73
     0
 40
0.0
  0
LTYPE
  5
F44
330
F34
100
AcDbSymbolTableRecord
100
AcDbLinetypeTableRecord
  2
CONTINUOUS
 70
     0
  3
Solid line
 72
    65
 73
     0
 40
0.0
  0
LTYPE
  5
F97
330
F34
100
AcDbSymbolTableRecord
100
AcDbLinetypeTableRecord
  2
CENTER
 70
     0
  3
__ . __
 72
    65
 73
     4
 40
7.0
 49
4.0
 74
     0
 49
-1.0
 74
     0
 49
1.0
 74
     0
 49
-1.0
 74
     0
  0
ENDTAB
  0
TABLE
  2
LAYER
  5
F31
102
{ACAD_XDICTIONARY
360
F98
102
}
330
0
100
AcDbSymbolTable
 70
     1
  0
LAYER
  5
F3F
330
F31
100
AcDbSymbolTableRecord
100
AcDbLayerTableRecord
  2
0
 70
     0
 62
     7
  6
CONTINUOUS
370
    -3
390
F3E
  0
ENDTAB
  0
TABLE
  2
STYLE
  5
F32
330
0
100
AcDbSymbolTable
 70
     1
  0
STYLE
  5
F40
330
F32
100
AcDbSymbolTableRecord
100
AcDbTextStyleTableRecord
  2
STANDARD
 70
     0
 40
0.0
 41
1.0
 50
0.0
 71
     0
 42
0.2
  3
txt
  4

  0
ENDTAB
  0
TABLE
  2
VIEW
  5
F35
330
0
100
AcDbSymbolTable
 70
     0
  0
ENDTAB
  0
TABLE
  2
UCS
  5
F36
330
0
100
AcDbSymbolTable
 70
     0
  0
ENDTAB
  0
TABLE
  2
APPID
  5
F38
330
0
100
AcDbSymbolTable
 70
     4
  0
APPID
  5
F41
330
F38
100
AcDbSymbolTableRecord
100
AcDbRegAppTableRecord
  2
ACAD
 70
     0
  0
APPID
  5
F53
330
F38
100
AcDbSymbolTableRecord
100
AcDbRegAppTableRecord
  2
MCAD_NO_VIS
 70
     0
  0
APPID
  5
F54
330
F38
100
AcDbSymbolTableRecord
100
AcDbRegAppTableRecord
  2
ACAD_TEMP_GRAPHIC
 70
     0
  0
APPID
  5
F55
330
F38
100
AcDbSymbolTableRecord
100
AcDbRegAppTableRecord
  2
ACATTRIBSERVICES
 70
     0
  0
ENDTAB
  0
TABLE
  2
DIMSTYLE
  5
F39
330
0
100
AcDbSymbolTable
 70
     1
100
AcDbDimStyleTable
 71
     0
  0
DIMSTYLE
105
F56
330
F39
100
AcDbSymbolTableRecord
100
AcDbDimStyleTableRecord
  2
STANDARD
 70
     0
 41
15.0
 42
5.0
 43
10.0
 44
10.0
 73
     0
 77
     1
 78
     8
140
20.0
147
5.0
279
     2
284
     8
285
     8
286
     8
340
F40
  0
ENDTAB
  0
TABLE
  2
BLOCK_RECORD
  5
F30
330
0
100
AcDbSymbolTable
 70
     0
  0
BLOCK_RECORD
  5
F4D
102
{ACAD_XDICTIONARY
360
F5E
102
}
330
F30
100
AcDbSymbolTableRecord
100
AcDbBlockTableRecord
  2
*Model_Space
340
F50
  0
BLOCK_RECORD
  5
F49
102
{ACAD_XDICTIONARY
360
F60
102
}
330
F30
100
AcDbSymbolTableRecord
100
AcDbBlockTableRecord
  2
*Paper_Space
340
F4C
  0
ENDTAB
  0
ENDSEC
  0
SECTION
  2
BLOCKS
  0
BLOCK
  5
F4E
330
F4D
100
AcDbEntity
  8
0
100
AcDbBlockBegin
  2
*Model_Space
 70
     0
 10
0.0
 20
0.0
 30
0.0
  3
*Model_Space
  1

  0
ENDBLK
  5
F4F
330
F4D
100
AcDbEntity
  8
0
100
AcDbBlockEnd
  0
BLOCK
  5
F4A
330
F49
100
AcDbEntity
 67
     1
  8
0
100
AcDbBlockBegin
  2
*Paper_Space
 70
     0
 10
0.0
 20
0.0
 30
0.0
  3
*Paper_Space
  1

  0
ENDBLK
  5
F4B
330
F49
100
AcDbEntity
 67
     1
  8
0
100
AcDbBlockEnd
  0
ENDSEC
  0
SECTION
  2
ENTITIES
  0
TEXT
  5
54A
330
F4D
100
AcDbEntity
  8
0
  6
Continuous
 62
     7
100
AcDbText
 10
321.1818189192471
 20
627.3702320191241
 30
0.0
 40
48.000002
  1
CVCS 1.5S
 41
1.285779999999999
100
AcDbText
  0
LINE
  5
9D5
330
F4D
100
AcDbEntity
  8
0
  6
Continuous
 62
     7
100
AcDbLine
 10
560.0050023822514
 20
439.5952712625652
 30
0.0
 11
560.0050023822514
 21
348.0952712625652
 31
0.0
  0
LINE
  5
9D6
330
F4D
100
AcDbEntity
  8
0
  6
Continuous
 62
     7
100
AcDbLine
 10
575.5050023822514
 20
439.5952712625652
 30
0.0
 11
575.5050023822514
 21
348.0952712625652
 31
0.0
  0
LINE
  5
9D7
330
F4D
100
AcDbEntity
  8
0
  6
Continuous
 62
     7
100
AcDbLine
 10
560.0050023822514
 20
348.0952712625652
 30
0.0
 11
575.5050023822514
 21
348.0952712625652
 31
0.0
  0
LINE
  5
9D8
330
F4D
100
AcDbEntity
  8
0
  6
Continuous
 62
     7
100
AcDbLine
 10
575.5050023822514
 20
425.3452712625652
 30
0.0
 11
588.7550023822512
 21
425.3452712625652
 31
0.0
  0
LINE
  5
9D9
330
F4D
100
AcDbEntity
  8
0
  6
Continuous
 62
     7
100
AcDbLine
 10
567.7550023822512
 20
413.8452662625654
 30
0.0
 11
587.7550023822514
 21
393.8452658677692
 31
0.0
  0
LINE
  5
9DA
330
F4D
100
AcDbEntity
  8
0
  6
Continuous
 62
     7
100
AcDbLine
 10
575.5050023822514
 20
362.3452712625652
 30
0.0
 11
588.7550023822512
 21
362.3452712625652
 31
0.0
  0
LINE
  5
9DB
330
F4D
100
AcDbEntity
  8
0
  6
Continuous
 62
     7
100
AcDbLine
 10
587.7550023822514
 20
393.8452766573622
 30
0.0
 11
567.7550023822512
 21
373.8452762625656
 31
0.0
  0
LINE
  5
9DC
330
F4D
100
AcDbEntity
  8
0
  6
Continuous
 62
     7
100
AcDbLine
 10
567.7550023822512
 20
374.0479032625656
 30
0.0
 11
587.6536643822515
 21
393.9466044925651
 31
0.0
  0
LINE
  5
9DD
330
F4D
100
AcDbEntity
  8
0
  6
Continuous
 62
     7
100
AcDbLine
 10
502.8616178822511
 20
412.8952702625656
 30
0.0
 11
526.4190323822512
 21
412.8952702625656
 31
0.0
  0
LINE
  5
9DE
330
F4D
100
AcDbEntity
  8
0
  6
Continuous
 62
     7
100
AcDbLine
 10
502.8616178822511
 20
374.7952722625655
 30
0.0
 11
526.4190323822512
 21
374.7952722625655
 31
0.0
  0
LINE
  5
9DF
330
F4D
100
AcDbEntity
  8
0
  6
Continuous
 62
     7
100
AcDbLine
 10
502.8616178822511
 20
412.8952702625656
 30
0.0
 11
502.8616178822511
 21
374.7952722625655
 31
0.0
  0
LINE
  5
9E0
330
F4D
100
AcDbEntity
  8
0
  6
Continuous
 62
     7
100
AcDbLine
 10
497.7550023822513
 20
368.5952712625652
 30
0.0
 11
497.7550023822513
 21
419.0952712625652
 31
0.0
  0
LINE
  5
9E1
330
F4D
100
AcDbEntity
  8
0
  6
Continuous
 62
     7
100
AcDbLine
 10
497.7550023822513
 20
368.5952712625652
 30
0.0
 11
500.6050022822511
 21
368.5952712625652
 31
0.0
  0
LINE
  5
9E2
330
F4D
100
AcDbEntity
  8
0
  6
Continuous
 62
     7
100
AcDbLine
 10
500.6050020822511
 20
368.5952712625652
 30
0.0
 11
502.8616183822514
 21
374.7952732625658
 31
0.0
  0
LINE
  5
9E3
330
F4D
100
AcDbEntity
  8
0
  6
Continuous
 62
     7
100
AcDbLine
 10
497.7550023822513
 20
419.0952712625652
 30
0.0
 11
500.6050022822511
 21
419.0952712625652
 31
0.0
  0
LINE
  5
9E4
330
F4D
100
AcDbEntity
  8
0
  6
Continuous
 62
     7
100
AcDbLine
 10
500.6050020822511
 20
419.0952712625652
 30
0.0
 11
502.8616183822514
 21
412.8952692625658
 31
0.0
  0
LINE
  5
9E5
330
F4D
100
AcDbEntity
  8
0
  6
Continuous
 62
     7
100
AcDbLine
 10
567.7550023822512
 20
403.8452712625652
 30
0.0
 11
567.7550023822512
 21
413.8452712625652
 31
0.0
  0
LINE
  5
9E6
330
F4D
100
AcDbEntity
  8
0
  6
Continuous
 62
     7
100
AcDbLine
 10
567.7550023822512
 20
405.4788302625657
 30
0.0
 11
571.9382183822513
 21
409.6620542625656
 31
0.0
  0
LINE
  5
9E7
330
F4D
100
AcDbEntity
  8
0
  6
Continuous
 62
     7
100
AcDbLine
 10
529.7550003822512
 20
425.3452712625652
 30
0.0
 11
529.7550003822512
 21
362.3452712625652
 31
0.0
  0
LINE
  5
9E8
330
F4D
100
AcDbEntity
  8
0
  6
Continuous
 62
     7
100
AcDbLine
 10
526.4190323822512
 20
412.8952702625656
 30
0.0
 11
526.4190323822512
 21
374.7952722625655
 31
0.0
  0
LINE
  5
9E9
330
F4D
100
AcDbEntity
  8
0
  6
Continuous
 62
     7
100
AcDbLine
 10
537.141239382251
 20
383.8452712625652
 30
0.0
 11
557.1411993822512
 21
403.8452712625652
 31
0.0
  0
LINE
  5
9EA
330
F4D
100
AcDbEntity
  8
0
  6
Continuous
 62
     7
100
AcDbLine
 10
541.631363382251
 20
383.8452712625652
 30
0.0
 11
561.6313233822512
 21
403.8452712625652
 31
0.0
  0
LINE
  5
9EB
330
F4D
100
AcDbEntity
  8
0
  6
Continuous
 62
     7
100
AcDbLine
 10
532.6511163822511
 20
383.8452712625652
 30
0.0
 11
552.6510763822511
 21
403.8452712625652
 31
0.0
  0
LINE
  5
9EC
330
F4D
100
AcDbEntity
  8
0
  6
Continuous
 62
     7
100
AcDbLine
 10
567.7550023822512
 20
403.8452712625652
 30
0.0
 11
531.2613273822512
 21
403.8452712625652
 31
0.0
  0
LINE
  5
9ED
330
F4D
100
AcDbEntity
  8
0
  6
Continuous
 62
     7
100
AcDbLine
 10
567.7550023822512
 20
383.8452712625652
 30
0.0
 11
531.2613273822512
 21
383.8452712625652
 31
0.0
  0
LINE
  5
9EE
330
F4D
100
AcDbEntity
  8
0
  6
Continuous
 62
     7
100
AcDbLine
 10
546.1214863822511
 20
383.8452712625652
 30
0.0
 11
566.1214463822513
 21
403.8452712625652
 31
0.0
  0
LINE
  5
9EF
330
F4D
100
AcDbEntity
  8
0
  6
Continuous
 62
     7
100
AcDbLine
 10
560.0050023822514
 20
362.3452712625652
 30
0.0
 11
529.7550003822512
 21
362.3452712625652
 31
0.0
  0
LINE
  5
9F0
330
F4D
100
AcDbEntity
  8
0
  6
Continuous
 62
     7
100
AcDbLine
 10
531.2613273822512
 20
383.8452712625652
 30
0.0
 11
531.2613273822512
 21
403.8452712625652
 31
0.0
  0
LINE
  5
9F1
330
F4D
100
AcDbEntity
  8
0
  6
Continuous
 62
     7
100
AcDbLine
 10
531.2613273822512
 20
395.9258770625656
 30
0.0
 11
539.1807053822511
 21
403.8452712625652
 31
0.0
  0
LINE
  5
9F2
330
F4D
100
AcDbEntity
  8
0
  6
Continuous
 62
     7
100
AcDbLine
 10
531.2613273822512
 20
400.4160095625651
 30
0.0
 11
534.6905823822512
 21
403.8452712625652
 31
0.0
  0
LINE
  5
9F3
330
F4D
100
AcDbEntity
  8
0
  6
Continuous
 62
     7
100
AcDbLine
 10
531.2613273822512
 20
386.9456120625653
 30
0.0
 11
548.1609523822512
 21
403.8452712625652
 31
0.0
  0
LINE
  5
9F4
330
F4D
100
AcDbEntity
  8
0
  6
Continuous
 62
     7
100
AcDbLine
 10
531.2613273822512
 20
391.4357445625655
 30
0.0
 11
543.6708293822512
 21
403.8452712625652
 31
0.0
  0
LINE
  5
9F5
330
F4D
100
AcDbEntity
  8
0
  6
Continuous
 62
     7
100
AcDbLine
 10
529.7550023822513
 20
362.3452702625654
 30
0.0
 11
526.4190343822511
 21
374.7952722625655
 31
0.0
  0
LINE
  5
9F6
330
F4D
100
AcDbEntity
  8
0
  6
Continuous
 62
     7
100
AcDbLine
 10
567.7550023822512
 20
383.0281682625653
 30
0.0
 11
583.1635363822511
 21
398.4367330625655
 31
0.0
  0
LINE
  5
9F7
330
F4D
100
AcDbEntity
  8
0
  6
Continuous
 62
     7
100
AcDbLine
 10
564.0819803822513
 20
383.8452712625652
 30
0.0
 11
580.9184733822512
 21
400.6817973625651
 31
0.0
  0
LINE
  5
9F8
330
F4D
100
AcDbEntity
  8
0
  6
Continuous
 62
     7
100
AcDbLine
 10
559.5918573822513
 20
383.8452712625652
 30
0.0
 11
578.6734093822509
 21
402.9268616625653
 31
0.0
  0
LINE
  5
9F9
330
F4D
100
AcDbEntity
  8
0
  6
Continuous
 62
     7
100
AcDbLine
 10
555.101733382251
 20
383.8452712625652
 30
0.0
 11
576.4283453822513
 21
405.1719262625655
 31
0.0
  0
LINE
  5
9FA
330
F4D
100
AcDbEntity
  8
0
  6
Continuous
 62
     7
100
AcDbLine
 10
550.6116103822514
 20
383.8452712625652
 30
0.0
 11
574.1832813822512
 21
407.4169902625658
 31
0.0
  0
LINE
  5
9FB
330
F4D
100
AcDbEntity
  8
0
  6
Continuous
 62
     7
100
AcDbLine
 10
567.7550023822512
 20
373.8452712625652
 30
0.0
 11
567.7550023822512
 21
383.8452712625652
 31
0.0
  0
LINE
  5
9FC
330
F4D
100
AcDbEntity
  8
0
  6
Continuous
 62
     7
100
AcDbLine
 10
567.7550023822512
 20
378.5380352625657
 30
0.0
 11
585.4086003822512
 21
396.1916687625657
 31
0.0
  0
LINE
  5
9FD
330
F4D
100
AcDbEntity
  8
0
  6
Continuous
 62
     7
100
AcDbLine
 10
560.0050023822514
 20
425.3452712625652
 30
0.0
 11
529.7550003822512
 21
425.3452712625652
 31
0.0
  0
LINE
  5
9FE
330
F4D
100
AcDbEntity
  8
0
  6
Continuous
 62
     7
100
AcDbLine
 10
529.7550023822513
 20
425.3452722625657
 30
0.0
 11
526.4190343822511
 21
412.8952702625656
 31
0.0
  0
LINE
  5
9FF
330
F4D
100
AcDbEntity
  8
0
  6
Continuous
 62
     7
100
AcDbLine
 10
567.7550023822512
 20
409.9689632625654
 30
0.0
 11
569.6931543822511
 21
411.9071182625652
 31
0.0
  0
LINE
  5
A00
330
F4D
100
AcDbEntity
  8
0
  6
Continuous
 62
     7
100
AcDbLine
 10
560.0050023822514
 20
439.5952712625652
 30
0.0
 11
575.5050023822514
 21
439.5952712625652
 31
0.0
  0
LINE
  5
A01
330
F4D
100
AcDbEntity
  8
0
  6
Continuous
 62
     7
100
AcDbLine
 10
622.7550023822514
 20
419.0952712625652
 30
0.0
 11
622.7550023822514
 21
368.5952712625652
 31
0.0
  0
LINE
  5
A02
330
F4D
100
AcDbEntity
  8
0
  6
Continuous
 62
     7
100
AcDbLine
 10
617.6483868822515
 20
374.7952722625655
 30
0.0
 11
617.6483868822515
 21
412.895270262565
 31
0.0
  0
LINE
  5
A03
330
F4D
100
AcDbEntity
  8
0
  6
Continuous
 62
     7
100
AcDbLine
 10
588.7550023822512
 20
425.3452712625652
 30
0.0
 11
588.7550023822512
 21
362.3452712625652
 31
0.0
  0
LINE
  5
A04
330
F4D
100
AcDbEntity
  8
0
  6
Continuous
 62
     7
100
AcDbLine
 10
595.9430133822512
 20
412.8952702625656
 30
0.0
 11
595.9430133822512
 21
374.7952722625655
 31
0.0
  0
LINE
  5
A05
330
F4D
100
AcDbEntity
  8
0
  6
Continuous
 62
     7
100
AcDbLine
 10
622.7550023822514
 20
368.5952712625652
 30
0.0
 11
619.9050024822513
 21
368.5952712625652
 31
0.0
  0
LINE
  5
A06
330
F4D
100
AcDbEntity
  8
0
  6
Continuous
 62
     7
100
AcDbLine
 10
619.9050026822515
 20
368.5952712625652
 30
0.0
 11
617.6483863822514
 21
374.7952732625654
 31
0.0
  0
LINE
  5
A07
330
F4D
100
AcDbEntity
  8
0
  6
Continuous
 62
     7
100
AcDbLine
 10
588.7550023822512
 20
362.3452722625656
 30
0.0
 11
595.9430133822512
 21
374.7952712625656
 31
0.0
  0
LINE
  5
A08
330
F4D
100
AcDbEntity
  8
0
  6
Continuous
 62
     7
100
AcDbLine
 10
617.6483868822515
 20
374.7952722625655
 30
0.0
 11
595.9430133822512
 21
374.7952722625655
 31
0.0
  0
LINE
  5
A09
330
F4D
100
AcDbEntity
  8
0
  6
Continuous
 62
     7
100
AcDbLine
 10
619.9050026822515
 20
419.0952712625652
 30
0.0
 11
617.6483863822514
 21
412.8952692625651
 31
0.0
  0
LINE
  5
A0A
330
F4D
100
AcDbEntity
  8
0
  6
Continuous
 62
     7
100
AcDbLine
 10
622.7550023822514
 20
419.0952712625652
 30
0.0
 11
619.9050024822513
 21
419.0952712625652
 31
0.0
  0
LINE
  5
A0B
330
F4D
100
AcDbEntity
  8
0
  6
Continuous
 62
     7
100
AcDbLine
 10
617.6483868822515
 20
412.895270262565
 30
0.0
 11
595.9430133822512
 21
412.895270262565
 31
0.0
  0
LINE
  5
A0C
330
F4D
100
AcDbEntity
  8
0
  6
Continuous
 62
     7
100
AcDbLine
 10
588.7550023822512
 20
425.3452702625654
 30
0.0
 11
595.9430133822512
 21
412.8952712625655
 31
0.0
  0
CIRCLE
  5
A0D
330
F4D
100
AcDbEntity
  8
0
  6
Continuous
100
AcDbCircle
 10
388.5425923822512
 20
248.2287412625655
 30
0.0
 40
25.25
  0
CIRCLE
  5
A0E
330
F4D
100
AcDbEntity
  8
0
  6
Continuous
 62
     7
100
AcDbCircle
 10
388.5425923822512
 20
248.2287412625655
 30
0.0
 40
19.04999899999999
  0
CIRCLE
  5
A0F
330
F4D
100
AcDbEntity
  8
0
  6
Continuous
 62
     7
100
AcDbCircle
 10
388.5425923822512
 20
248.2287412625655
 30
0.0
 40
31.5
  0
CIRCLE
  5
A10
330
F4D
100
AcDbEntity
  8
0
  6
Continuous
 62
     7
100
AcDbCircle
 10
388.5425923822512
 20
248.2287412625655
 30
0.0
 40
45.75
  0
LINE
  5
A11
330
F4D
100
AcDbEntity
  8
0
  6
Continuous
 62
     7
100
AcDbLine
 10
575.5050023822514
 20
293.9787412625655
 30
0.0
 11
575.5050023822514
 21
202.4787412625655
 31
0.0
  0
LINE
  5
A12
330
F4D
100
AcDbEntity
  8
0
  6
Continuous
 62
     7
100
AcDbLine
 10
560.0050023822514
 20
293.9787412625655
 30
0.0
 11
560.0050023822514
 21
202.4787412625655
 31
0.0
  0
LINE
  5
A13
330
F4D
100
AcDbEntity
  8
0
  6
Continuous
 62
     7
100
AcDbLine
 10
560.0050023822514
 20
202.4787412625655
 30
0.0
 11
575.5050023822514
 21
202.4787412625655
 31
0.0
  0
LINE
  5
A14
330
F4D
100
AcDbEntity
  8
0
  6
Continuous
 62
     7
100
AcDbLine
 10
560.0050023822514
 20
279.7287412625655
 30
0.0
 11
529.7550003822512
 21
279.7287412625655
 31
0.0
  0
LINE
  5
A15
330
F4D
100
AcDbEntity
  8
0
  6
Continuous
 62
     7
100
AcDbLine
 10
550.6116103822514
 20
238.2287412625655
 30
0.0
 11
574.1832813822512
 21
261.800460262566
 31
0.0
  0
LINE
  5
A16
330
F4D
100
AcDbEntity
  8
0
  6
Continuous
 62
     7
100
AcDbLine
 10
555.101733382251
 20
238.2287412625655
 30
0.0
 11
576.4283453822513
 21
259.5553962625658
 31
0.0
  0
LINE
  5
A17
330
F4D
100
AcDbEntity
  8
0
  6
Continuous
 62
     7
100
AcDbLine
 10
560.0050023822514
 20
216.7287412625654
 30
0.0
 11
529.7550003822512
 21
216.7287412625654
 31
0.0
  0
LINE
  5
A18
330
F4D
100
AcDbEntity
  8
0
  6
Continuous
 62
     7
100
AcDbLine
 10
546.1214863822511
 20
238.2287412625655
 30
0.0
 11
566.1214463822513
 21
258.2287412625655
 31
0.0
  0
LINE
  5
A19
330
F4D
100
AcDbEntity
  8
0
  6
Continuous
 62
     7
100
AcDbLine
 10
567.7550023822512
 20
238.2287412625655
 30
0.0
 11
531.2613273822512
 21
238.2287412625655
 31
0.0
  0
LINE
  5
A1A
330
F4D
100
AcDbEntity
  8
0
  6
Continuous
 62
     7
100
AcDbLine
 10
567.7550023822512
 20
258.2287412625655
 30
0.0
 11
531.2613273822512
 21
258.2287412625655
 31
0.0
  0
LINE
  5
A1B
330
F4D
100
AcDbEntity
  8
0
  6
Continuous
 62
     7
100
AcDbLine
 10
541.631363382251
 20
238.2287412625655
 30
0.0
 11
561.6313233822512
 21
258.2287412625655
 31
0.0
  0
LINE
  5
A1C
330
F4D
100
AcDbEntity
  8
0
  6
Continuous
 62
     7
100
AcDbLine
 10
537.141239382251
 20
238.2287412625655
 30
0.0
 11
557.1411993822512
 21
258.2287412625655
 31
0.0
  0
LINE
  5
A1D
330
F4D
100
AcDbEntity
  8
0
  6
Continuous
 62
     7
100
AcDbLine
 10
526.4190323822512
 20
267.2787402625658
 30
0.0
 11
526.4190323822512
 21
229.1787422625657
 31
0.0
  0
LINE
  5
A1E
330
F4D
100
AcDbEntity
  8
0
  6
Continuous
 62
     7
100
AcDbLine
 10
529.7550003822512
 20
279.7287412625655
 30
0.0
 11
529.7550003822512
 21
216.7287412625654
 31
0.0
  0
LINE
  5
A1F
330
F4D
100
AcDbEntity
  8
0
  6
Continuous
 62
     7
100
AcDbLine
 10
497.7550023822513
 20
222.9787412625654
 30
0.0
 11
497.7550023822513
 21
273.4787412625655
 31
0.0
  0
LINE
  5
A20
330
F4D
100
AcDbEntity
  8
0
  6
Continuous
 62
     7
100
AcDbLine
 10
502.8616178822511
 20
267.2787402625658
 30
0.0
 11
502.8616178822511
 21
229.1787422625657
 31
0.0
  0
LINE
  5
A21
330
F4D
100
AcDbEntity
  8
0
  6
Continuous
 62
     7
100
AcDbLine
 10
502.8616178822511
 20
229.1787422625657
 30
0.0
 11
526.4190323822512
 21
229.1787422625657
 31
0.0
  0
LINE
  5
A22
330
F4D
100
AcDbEntity
  8
0
  6
Continuous
 62
     7
100
AcDbLine
 10
500.6050020822511
 20
222.9787412625654
 30
0.0
 11
502.8616183822514
 21
229.178743262566
 31
0.0
  0
LINE
  5
A23
330
F4D
100
AcDbEntity
  8
0
  6
Continuous
 62
     7
100
AcDbLine
 10
497.7550023822513
 20
222.9787412625654
 30
0.0
 11
500.6050022822511
 21
222.9787412625654
 31
0.0
  0
LINE
  5
A24
330
F4D
100
AcDbEntity
  8
0
  6
Continuous
 62
     7
100
AcDbLine
 10
529.7550023822513
 20
216.7287402625656
 30
0.0
 11
526.4190343822511
 21
229.1787422625657
 31
0.0
  0
LINE
  5
A25
330
F4D
100
AcDbEntity
  8
0
  6
Continuous
 62
     7
100
AcDbLine
 10
531.2613273822512
 20
245.8192145625657
 30
0.0
 11
543.6708293822512
 21
258.2287412625655
 31
0.0
  0
LINE
  5
A26
330
F4D
100
AcDbEntity
  8
0
  6
Continuous
 62
     7
100
AcDbLine
 10
531.2613273822512
 20
241.3290820625656
 30
0.0
 11
548.1609523822512
 21
258.2287412625655
 31
0.0
  0
LINE
  5
A27
330
F4D
100
AcDbEntity
  8
0
  6
Continuous
 62
     7
100
AcDbLine
 10
531.2613273822512
 20
254.7994795625654
 30
0.0
 11
534.6905823822512
 21
258.2287412625655
 31
0.0
  0
LINE
  5
A28
330
F4D
100
AcDbEntity
  8
0
  6
Continuous
 62
     7
100
AcDbLine
 10
531.2613273822512
 20
250.3093470625658
 30
0.0
 11
539.1807053822511
 21
258.2287412625655
 31
0.0
  0
LINE
  5
A29
330
F4D
100
AcDbEntity
  8
0
  6
Continuous
 62
     7
100
AcDbLine
 10
531.2613273822512
 20
238.2287412625655
 30
0.0
 11
531.2613273822512
 21
258.2287412625655
 31
0.0
  0
LINE
  5
A2A
330
F4D
100
AcDbEntity
  8
0
  6
Continuous
 62
     7
100
AcDbLine
 10
532.6511163822511
 20
238.2287412625655
 30
0.0
 11
552.6510763822511
 21
258.2287412625655
 31
0.0
  0
LINE
  5
A2B
330
F4D
100
AcDbEntity
  8
0
  6
Continuous
 62
     7
100
AcDbLine
 10
502.8616178822511
 20
267.2787402625658
 30
0.0
 11
526.4190323822512
 21
267.2787402625658
 31
0.0
  0
LINE
  5
A2C
330
F4D
100
AcDbEntity
  8
0
  6
Continuous
 62
     7
100
AcDbLine
 10
500.6050020822511
 20
273.4787412625655
 30
0.0
 11
502.8616183822514
 21
267.278739262566
 31
0.0
  0
LINE
  5
A2D
330
F4D
100
AcDbEntity
  8
0
  6
Continuous
 62
     7
100
AcDbLine
 10
497.7550023822513
 20
273.4787412625655
 30
0.0
 11
500.6050022822511
 21
273.4787412625655
 31
0.0
  0
LINE
  5
A2E
330
F4D
100
AcDbEntity
  8
0
  6
Continuous
 62
     7
100
AcDbLine
 10
529.7550023822513
 20
279.7287422625659
 30
0.0
 11
526.4190343822511
 21
267.2787402625658
 31
0.0
  0
LINE
  5
A2F
330
F4D
100
AcDbEntity
  8
0
  6
Continuous
 62
     7
100
AcDbLine
 10
595.9430133822512
 20
267.2787402625658
 30
0.0
 11
595.9430133822512
 21
229.1787422625657
 31
0.0
  0
LINE
  5
A30
330
F4D
100
AcDbEntity
  8
0
  6
Continuous
 62
     7
100
AcDbLine
 10
588.7550023822512
 20
279.7287412625655
 30
0.0
 11
588.7550023822512
 21
216.7287412625654
 31
0.0
  0
LINE
  5
A31
330
F4D
100
AcDbEntity
  8
0
  6
Continuous
 62
     7
100
AcDbLine
 10
617.6483868822515
 20
229.1787422625657
 30
0.0
 11
617.6483868822515
 21
267.2787402625652
 31
0.0
  0
LINE
  5
A32
330
F4D
100
AcDbEntity
  8
0
  6
Continuous
 62
     7
100
AcDbLine
 10
622.7550023822514
 20
273.4787412625655
 30
0.0
 11
622.7550023822514
 21
222.9787412625654
 31
0.0
  0
LINE
  5
A33
330
F4D
100
AcDbEntity
  8
0
  6
Continuous
 62
     7
100
AcDbLine
 10
567.7550023822512
 20
258.2287412625655
 30
0.0
 11
567.7550023822512
 21
268.2287412625655
 31
0.0
  0
LINE
  5
A34
330
F4D
100
AcDbEntity
  8
0
  6
Continuous
 62
     7
100
AcDbLine
 10
567.7550023822512
 20
268.2287362625657
 30
0.0
 11
587.7550023822514
 21
248.2287358677694
 31
0.0
  0
LINE
  5
A35
330
F4D
100
AcDbEntity
  8
0
  6
Continuous
 62
     7
100
AcDbLine
 10
588.7550023822512
 20
216.7287422625659
 30
0.0
 11
595.9430133822512
 21
229.1787412625658
 31
0.0
  0
LINE
  5
A36
330
F4D
100
AcDbEntity
  8
0
  6
Continuous
 62
     7
100
AcDbLine
 10
567.7550023822512
 20
232.9215052625659
 30
0.0
 11
585.4086003822512
 21
250.5751387625659
 31
0.0
  0
LINE
  5
A37
330
F4D
100
AcDbEntity
  8
0
  6
Continuous
 62
     7
100
AcDbLine
 10
567.7550023822512
 20
228.2287412625655
 30
0.0
 11
567.7550023822512
 21
238.2287412625655
 31
0.0
  0
LINE
  5
A38
330
F4D
100
AcDbEntity
  8
0
  6
Continuous
 62
     7
100
AcDbLine
 10
559.5918573822513
 20
238.2287412625655
 30
0.0
 11
578.6734093822509
 21
257.3103316625656
 31
0.0
  0
LINE
  5
A39
330
F4D
100
AcDbEntity
  8
0
  6
Continuous
 62
     7
100
AcDbLine
 10
564.0819803822513
 20
238.2287412625655
 30
0.0
 11
580.9184733822512
 21
255.0652673625654
 31
0.0
  0
LINE
  5
A3A
330
F4D
100
AcDbEntity
  8
0
  6
Continuous
 62
     7
100
AcDbLine
 10
567.7550023822512
 20
237.4116382625656
 30
0.0
 11
583.1635363822511
 21
252.8202030625657
 31
0.0
  0
LINE
  5
A3B
330
F4D
100
AcDbEntity
  8
0
  6
Continuous
 62
     7
100
AcDbLine
 10
567.7550023822512
 20
228.4313732625659
 30
0.0
 11
587.6536643822515
 21
248.3300744925654
 31
0.0
  0
LINE
  5
A3C
330
F4D
100
AcDbEntity
  8
0
  6
Continuous
 62
     7
100
AcDbLine
 10
587.7550023822514
 20
248.2287466573625
 30
0.0
 11
567.7550023822512
 21
228.2287462625658
 31
0.0
  0
LINE
  5
A3D
330
F4D
100
AcDbEntity
  8
0
  6
Continuous
 62
     7
100
AcDbLine
 10
575.5050023822514
 20
216.7287412625654
 30
0.0
 11
588.7550023822512
 21
216.7287412625654
 31
0.0
  0
LINE
  5
A3E
330
F4D
100
AcDbEntity
  8
0
  6
Continuous
 62
     7
100
AcDbLine
 10
617.6483868822515
 20
229.1787422625657
 30
0.0
 11
595.9430133822512
 21
229.1787422625657
 31
0.0
  0
LINE
  5
A3F
330
F4D
100
AcDbEntity
  8
0
  6
Continuous
 62
     7
100
AcDbLine
 10
619.9050026822515
 20
222.9787412625654
 30
0.0
 11
617.6483863822514
 21
229.1787432625655
 31
0.0
  0
LINE
  5
A40
330
F4D
100
AcDbEntity
  8
0
  6
Continuous
 62
     7
100
AcDbLine
 10
622.7550023822514
 20
222.9787412625654
 30
0.0
 11
619.9050024822513
 21
222.9787412625654
 31
0.0
  0
LINE
  5
A41
330
F4D
100
AcDbEntity
  8
0
  6
Continuous
 62
     7
100
AcDbLine
 10
588.7550023822512
 20
279.7287402625656
 30
0.0
 11
595.9430133822512
 21
267.2787412625657
 31
0.0
  0
LINE
  5
A42
330
F4D
100
AcDbEntity
  8
0
  6
Continuous
 62
     7
100
AcDbLine
 10
560.0050023822514
 20
293.9787412625655
 30
0.0
 11
575.5050023822514
 21
293.9787412625655
 31
0.0
  0
LINE
  5
A43
330
F4D
100
AcDbEntity
  8
0
  6
Continuous
 62
     7
100
AcDbLine
 10
567.7550023822512
 20
264.3524332625657
 30
0.0
 11
569.6931543822511
 21
266.2905882625654
 31
0.0
  0
LINE
  5
A44
330
F4D
100
AcDbEntity
  8
0
  6
Continuous
 62
     7
100
AcDbLine
 10
567.7550023822512
 20
259.8623002625659
 30
0.0
 11
571.9382183822513
 21
264.0455242625658
 31
0.0
  0
LINE
  5
A45
330
F4D
100
AcDbEntity
  8
0
  6
Continuous
 62
     7
100
AcDbLine
 10
575.5050023822514
 20
279.7287412625655
 30
0.0
 11
588.7550023822512
 21
279.7287412625655
 31
0.0
  0
LINE
  5
A46
330
F4D
100
AcDbEntity
  8
0
  6
Continuous
 62
     7
100
AcDbLine
 10
617.6483868822515
 20
267.2787402625652
 30
0.0
 11
595.9430133822512
 21
267.2787402625652
 31
0.0
  0
LINE
  5
A47
330
F4D
100
AcDbEntity
  8
0
  6
Continuous
 62
     7
100
AcDbLine
 10
622.7550023822514
 20
273.4787412625655
 30
0.0
 11
619.9050024822513
 21
273.4787412625655
 31
0.0
  0
LINE
  5
A48
330
F4D
100
AcDbEntity
  8
0
  6
Continuous
 62
     7
100
AcDbLine
 10
619.9050026822515
 20
273.4787412625655
 30
0.0
 11
617.6483863822514
 21
267.2787392625655
 31
0.0
  0
CIRCLE
  5
A4B
330
F4D
100
AcDbEntity
  8
0
  6
Continuous
 62
     7
100
AcDbCircle
 10
734.9828880095955
 20
248.2287412625655
 30
0.0
 40
45.75
  0
CIRCLE
  5
A4C
330
F4D
100
AcDbEntity
  8
0
  6
Continuous
 62
     7
100
AcDbCircle
 10
734.9828880095955
 20
248.2287412625655
 30
0.0
 40
31.5
  0
CIRCLE
  5
A4D
330
F4D
100
AcDbEntity
  8
0
  6
Continuous
100
AcDbCircle
 10
734.9828880095955
 20
248.2287412625655
 30
0.0
 40
25.25
  0
CIRCLE
  5
A4E
330
F4D
100
AcDbEntity
  8
0
  6
Continuous
 62
     7
100
AcDbCircle
 10
734.9828880095955
 20
248.2287412625655
 30
0.0
 40
19.04999899999999
  0
LINE
  5
FA1
330
F4D
100
AcDbEntity
  8
0
  6
CENTER
100
AcDbLine
 10
686.2774453734414
 20
248.2287412625655
 30
0.0
 11
783.6883306457495
 21
248.2287412625655
 31
0.0
  0
LINE
  5
FA2
330
F4D
100
AcDbEntity
  8
0
  6
CENTER
100
AcDbLine
 10
734.9828880095955
 20
199.5232986264115
 30
0.0
 11
734.9828880095955
 21
296.9341838987195
 31
0.0
  0
LINE
  5
FA3
330
F4D
100
AcDbEntity
  8
0
  6
CENTER
100
AcDbLine
 10
482.2204128554021
 20
248.2287412625655
 30
0.0
 11
636.2300352087495
 21
248.2287412625655
 31
0.0
  0
LINE
  5
FB0
330
F4D
100
AcDbEntity
  8
0
  6
CENTER
100
AcDbLine
 10
482.2204128554021
 20
393.8452712625652
 30
0.0
 11
636.2300352087495
 21
393.8452712625652
 31
0.0
  0
LINE
  5
FB1
330
F4D
100
AcDbEntity
  8
0
  6
CENTER
100
AcDbLine
 10
339.8371497460971
 20
248.2287412625655
 30
0.0
 11
437.2480350184052
 21
248.2287412625655
 31
0.0
  0
LINE
  5
FB2
330
F4D
100
AcDbEntity
  8
0
  6
CENTER
100
AcDbLine
 10
388.5425923822512
 20
199.5232986264115
 30
0.0
 11
388.5425923822512
 21
296.9341838987195
 31
0.0
  0
ENDSEC
  0
SECTION
  2
OBJECTS
  0
DICTIONARY
  5
F3B
330
0
100
AcDbDictionary
281
     1
  3
ACAD_GROUP
350
F3C
  3
ACAD_LAYOUT
350
F48
  3
ACAD_MLINESTYLE
350
F45
  3
ACAD_PLOTSETTINGS
350
F47
  3
ACAD_PLOTSTYLENAME
350
F3D
  3
AcDbVariableDictionary
350
F92
  0
DICTIONARY
  5
F98
330
F31
100
AcDbDictionary
280
     1
281
     1
  3
ACAD_LAYERSTATES
360
F99
  0
DICTIONARY
  5
F5E
330
F4D
100
AcDbDictionary
280
     1
281
     1
  3
ACAD_LAYOUTSELFREF
360
F8D
  0
DICTIONARY
  5
F60
330
F49
100
AcDbDictionary
280
     1
281
     1
  3
ACAD_LAYOUTSELFREF
360
F8C
  0
DICTIONARY
  5
F3C
102
{ACAD_REACTORS
330
F3B
102
}
330
F3B
100
AcDbDictionary
281
     1
  0
DICTIONARY
  5
F48
102
{ACAD_REACTORS
330
F3B
102
}
330
F3B
100
AcDbDictionary
281
     1
  3
Model
350
F50
  3
ﾚｲｱｳﾄ1
350
F4C
  0
DICTIONARY
  5
F45
102
{ACAD_REACTORS
330
F3B
102
}
330
F3B
100
AcDbDictionary
281
     1
  3
Standard
350
F46
  0
DICTIONARY
  5
F47
102
{ACAD_REACTORS
330
F3B
102
}
330
F3B
100
AcDbDictionary
281
     1
  0
ACDBDICTIONARYWDFLT
  5
F3D
102
{ACAD_REACTORS
330
F3B
102
}
330
F3B
100
AcDbDictionary
281
     1
  3
Normal
350
F3E
100
AcDbDictionaryWithDefault
340
F3E
  0
DICTIONARY
  5
F92
102
{ACAD_REACTORS
330
F3B
102
}
330
F3B
100
AcDbDictionary
281
     1
  3
DIMASSOC
350
F93
  0
DICTIONARY
  5
F99
102
{ACAD_REACTORS
330
F98
102
}
330
F98
100
AcDbDictionary
281
     1
  0
XRECORD
  5
F8D
102
{ACAD_REACTORS
330
F5E
102
}
330
F5E
100
AcDbXrecord
280
     1
340
F4D
  0
XRECORD
  5
F8C
102
{ACAD_REACTORS
330
F60
102
}
330
F60
100
AcDbXrecord
280
     1
340
F49
  0
LAYOUT
  5
F50
102
{ACAD_REACTORS
330
F48
102
}
330
F48
100
AcDbPlotSettings
  1

  2
SII LP-2150 (D-SCAN C2)
  4

  6

 40
0.0
 41
0.0
 42
0.0
 43
0.0
 44
0.0
 45
0.0
 46
0.0
 47
0.0
 48
0.0
 49
0.0
140
0.0
141
0.0
142
1.0
143
1.0
 70
  1712
 72
     0
 73
     0
 74
     0
  7

 75
     0
147
1.0
148
0.0
149
0.0
100
AcDbLayout
  1
Model
 70
     1
 71
     0
 10
0.0
 20
0.0
 11
12.0
 21
9.0
 12
0.0
 22
0.0
 32
0.0
 14
0.0
 24
0.0
 34
0.0
 15
0.0
 25
0.0
 35
0.0
146
0.0
 13
0.0
 23
0.0
 33
0.0
 16
1.0
 26
0.0
 36
0.0
 17
0.0
 27
1.0
 37
0.0
 76
     0
330
F4D
  0
LAYOUT
  5
F4C
102
{ACAD_REACTORS
330
F48
102
}
330
F48
100
AcDbPlotSettings
  1

  2
SII LP-2150 (D-SCAN C2)
  4

  6

 40
0.0
 41
0.0
 42
0.0
 43
0.0
 44
0.0
 45
0.0
 46
0.0
 47
0.0
 48
0.0
 49
0.0
140
0.0
141
0.0
142
1.0
143
1.0
 70
   688
 72
     0
 73
     0
 74
     5
  7

 75
    16
147
1.0
148
0.0
149
0.0
100
AcDbLayout
  1
ﾚｲｱｳﾄ1
 70
     1
 71
     1
 10
-44.912933
 20
-21.841471
 11
153.5627299999999
 21
105.04179
 12
0.0
 22
0.0
 32
0.0
 14
-44.912933
 24
-21.841471
 34
0.0
 15
153.5627299999999
 25
105.04179
 35
0.0
146
0.0
 13
0.0
 23
0.0
 33
0.0
 16
1.0
 26
0.0
 36
0.0
 17
0.0
 27
1.0
 37
0.0
 76
     0
330
F49
  0
MLINESTYLE
  5
F46
102
{ACAD_REACTORS
330
F45
102
}
330
F45
100
AcDbMlineStyle
  2
STANDARD
 70
     0
  3

 62
   256
 51
90.0
 52
90.0
 71
     2
 49
0.5
 62
   256
  6
BYLAYER
 49
-0.5
 62
   256
  6
BYLAYER
  0
ACDBPLACEHOLDER
  5
F3E
102
{ACAD_REACTORS
330
F3D
102
}
330
F3D
  0
DICTIONARYVAR
  5
F93
102
{ACAD_REACTORS
330
F92
102
}
330
F92
100
DictionaryVariables
280
     0
  1
1
  0
ENDSEC
  0
EOF
