  0
SECTION
  2
HEADER
  9
$ACADVER
  1
AC1024
  9
$ACADMAINTVER
 70
     6
  9
$DWGCODEPAGE
  3
ANSI_932
  9
$LASTSAVEDBY
  1
kanatani
  9
$INSBASE
 10
0.0
 20
0.0
 30
0.0
  9
$EXTMIN
 10
-78.73426018449936
 20
-51.10130938073758
 30
0.0
  9
$EXTMAX
 10
262.5087109696746
 20
153.2156822646957
 30
0.0
  9
$LIMMIN
 10
0.0
 20
0.0
  9
$LIMMAX
 10
420.0
 20
297.0
  9
$ORTHOMODE
 70
     0
  9
$REGENMODE
 70
     1
  9
$FILLMODE
 70
     1
  9
$QTEXTMODE
 70
     0
  9
$MIRRTEXT
 70
     1
  9
$LTSCALE
 40
0.2
  9
$ATTMODE
 70
     1
  9
$TEXTSIZE
 40
2.5
  9
$TRACEWID
 40
1.0
  9
$TEXTSTYLE
  7
Standard
  9
$CLAYER
  8
0
  9
$CELTYPE
  6
ByLayer
  9
$CECOLOR
 62
   256
  9
$CELTSCALE
 40
1.0
  9
$DISPSILH
 70
     0
  9
$DIMSCALE
 40
1.0
  9
$DIMASZ
 40
2.5
  9
$DIMEXO
 40
0.625
  9
$DIMDLI
 40
3.75
  9
$DIMRND
 40
0.0
  9
$DIMDLE
 40
0.0
  9
$DIMEXE
 40
1.25
  9
$DIMTP
 40
0.0
  9
$DIMTM
 40
0.0
  9
$DIMTXT
 40
2.5
  9
$DIMCEN
 40
2.5
  9
$DIMTSZ
 40
0.0
  9
$DIMTOL
 70
     0
  9
$DIMLIM
 70
     0
  9
$DIMTIH
 70
     0
  9
$DIMTOH
 70
     0
  9
$DIMSE1
 70
     0
  9
$DIMSE2
 70
     0
  9
$DIMTAD
 70
     1
  9
$DIMZIN
 70
     8
  9
$DIMBLK
  1

  9
$DIMASO
 70
     1
  9
$DIMSHO
 70
     1
  9
$DIMPOST
  1

  9
$DIMAPOST
  1

  9
$DIMALT
 70
     0
  9
$DIMALTD
 70
     3
  9
$DIMALTF
 40
0.03937007874016
  9
$DIMLFAC
 40
1.0
  9
$DIMTOFL
 70
     1
  9
$DIMTVP
 40
0.0
  9
$DIMTIX
 70
     0
  9
$DIMSOXD
 70
     0
  9
$DIMSAH
 70
     0
  9
$DIMBLK1
  1

  9
$DIMBLK2
  1

  9
$DIMSTYLE
  2
ISO-25
  9
$DIMCLRD
 70
     0
  9
$DIMCLRE
 70
     0
  9
$DIMCLRT
 70
     0
  9
$DIMTFAC
 40
1.0
  9
$DIMGAP
 40
0.625
  9
$DIMJUST
 70
     0
  9
$DIMSD1
 70
     0
  9
$DIMSD2
 70
     0
  9
$DIMTOLJ
 70
     0
  9
$DIMTZIN
 70
     8
  9
$DIMALTZ
 70
     0
  9
$DIMALTTZ
 70
     0
  9
$DIMUPT
 70
     0
  9
$DIMDEC
 70
     2
  9
$DIMTDEC
 70
     2
  9
$DIMALTU
 70
     2
  9
$DIMALTTD
 70
     3
  9
$DIMTXSTY
  7
Standard
  9
$DIMAUNIT
 70
     0
  9
$DIMADEC
 70
     0
  9
$DIMALTRND
 40
0.0
  9
$DIMAZIN
 70
     0
  9
$DIMDSEP
 70
    44
  9
$DIMATFIT
 70
     3
  9
$DIMFRAC
 70
     0
  9
$DIMLDRBLK
  1

  9
$DIMLUNIT
 70
     2
  9
$DIMLWD
 70
    -2
  9
$DIMLWE
 70
    -2
  9
$DIMTMOVE
 70
     0
  9
$DIMFXL
 40
1.0
  9
$DIMFXLON
 70
     0
  9
$DIMJOGANG
 40
0.7853981633974483
  9
$DIMTFILL
 70
     0
  9
$DIMTFILLCLR
 70
     0
  9
$DIMARCSYM
 70
     0
  9
$DIMLTYPE
  6

  9
$DIMLTEX1
  6

  9
$DIMLTEX2
  6

  9
$DIMTXTDIRECTION
 70
     0
  9
$LUNITS
 70
     2
  9
$LUPREC
 70
     4
  9
$SKETCHINC
 40
1.0
  9
$FILLETRAD
 40
10.0
  9
$AUNITS
 70
     0
  9
$AUPREC
 70
     0
  9
$MENU
  1
.
  9
$ELEVATION
 40
0.0
  9
$PELEVATION
 40
0.0
  9
$THICKNESS
 40
0.0
  9
$LIMCHECK
 70
     0
  9
$CHAMFERA
 40
10.0
  9
$CHAMFERB
 40
10.0
  9
$CHAMFERC
 40
20.0
  9
$CHAMFERD
 40
0.0
  9
$SKPOLY
 70
     0
  9
$TDCREATE
 40
2456874.591271146
  9
$TDUCREATE
 40
2456874.216271146
  9
$TDUPDATE
 40
2456910.423117952
  9
$TDUUPDATE
 40
2456910.048117951
  9
$TDINDWG
 40
0.0022617130
  9
$TDUSRTIMER
 40
0.0022615162
  9
$USRTIMER
 70
     1
  9
$ANGBASE
 50
0.0
  9
$ANGDIR
 70
     0
  9
$PDMODE
 70
     0
  9
$PDSIZE
 40
0.0
  9
$PLINEWID
 40
0.0
  9
$SPLFRAME
 70
     0
  9
$SPLINETYPE
 70
     6
  9
$SPLINESEGS
 70
     8
  9
$HANDSEED
  5
A00
  9
$SURFTAB1
 70
     6
  9
$SURFTAB2
 70
     6
  9
$SURFTYPE
 70
     6
  9
$SURFU
 70
     6
  9
$SURFV
 70
     6
  9
$UCSBASE
  2

  9
$UCSNAME
  2

  9
$UCSORG
 10
0.0
 20
0.0
 30
0.0
  9
$UCSXDIR
 10
1.0
 20
0.0
 30
0.0
  9
$UCSYDIR
 10
0.0
 20
1.0
 30
0.0
  9
$UCSORTHOREF
  2

  9
$UCSORTHOVIEW
 70
     0
  9
$UCSORGTOP
 10
0.0
 20
0.0
 30
0.0
  9
$UCSORGBOTTOM
 10
0.0
 20
0.0
 30
0.0
  9
$UCSORGLEFT
 10
0.0
 20
0.0
 30
0.0
  9
$UCSORGRIGHT
 10
0.0
 20
0.0
 30
0.0
  9
$UCSORGFRONT
 10
0.0
 20
0.0
 30
0.0
  9
$UCSORGBACK
 10
0.0
 20
0.0
 30
0.0
  9
$PUCSBASE
  2

  9
$PUCSNAME
  2

  9
$PUCSORG
 10
0.0
 20
0.0
 30
0.0
  9
$PUCSXDIR
 10
1.0
 20
0.0
 30
0.0
  9
$PUCSYDIR
 10
0.0
 20
1.0
 30
0.0
  9
$PUCSORTHOREF
  2

  9
$PUCSORTHOVIEW
 70
     0
  9
$PUCSORGTOP
 10
0.0
 20
0.0
 30
0.0
  9
$PUCSORGBOTTOM
 10
0.0
 20
0.0
 30
0.0
  9
$PUCSORGLEFT
 10
0.0
 20
0.0
 30
0.0
  9
$PUCSORGRIGHT
 10
0.0
 20
0.0
 30
0.0
  9
$PUCSORGFRONT
 10
0.0
 20
0.0
 30
0.0
  9
$PUCSORGBACK
 10
0.0
 20
0.0
 30
0.0
  9
$USERI1
 70
     0
  9
$USERI2
 70
     0
  9
$USERI3
 70
     0
  9
$USERI4
 70
     0
  9
$USERI5
 70
     0
  9
$USERR1
 40
0.0
  9
$USERR2
 40
0.0
  9
$USERR3
 40
0.0
  9
$USERR4
 40
0.0
  9
$USERR5
 40
0.0
  9
$WORLDVIEW
 70
     1
  9
$SHADEDGE
 70
     3
  9
$SHADEDIF
 70
    70
  9
$TILEMODE
 70
     1
  9
$MAXACTVP
 70
    64
  9
$PINSBASE
 10
0.0
 20
0.0
 30
0.0
  9
$PLIMCHECK
 70
     0
  9
$PEXTMIN
 10
26.66076962115563
 20
20.31135699206658
 30
-0.0015258207003583
  9
$PEXTMAX
 10
240.039213369355
 20
182.8886381005154
 30
0.0000000349246037
  9
$PLIMMIN
 10
-6.350006103515625
 20
-6.349999904632568
  9
$PLIMMAX
 10
273.0499877929688
 20
209.5499939918518
  9
$UNITMODE
 70
     0
  9
$VISRETAIN
 70
     1
  9
$PLINEGEN
 70
     0
  9
$PSLTSCALE
 70
     1
  9
$TREEDEPTH
 70
  3020
  9
$CMLSTYLE
  2
Standard
  9
$CMLJUST
 70
     0
  9
$CMLSCALE
 40
20.0
  9
$PROXYGRAPHICS
 70
     1
  9
$MEASUREMENT
 70
     1
  9
$CELWEIGHT
370
    -1
  9
$ENDCAPS
280
     0
  9
$JOINSTYLE
280
     0
  9
$LWDISPLAY
290
     0
  9
$INSUNITS
 70
     4
  9
$HYPERLINKBASE
  1

  9
$STYLESHEET
  1

  9
$XEDIT
290
     1
  9
$CEPSNTYPE
380
     0
  9
$PSTYLEMODE
290
     1
  9
$FINGERPRINTGUID
  2
{FDEAD578-A652-11D2-9A35-0060089B3A3F}
  9
$VERSIONGUID
  2
{778B3ED9-1875-4BEC-90B5-5672FAE0B01F}
  9
$EXTNAMES
290
     1
  9
$PSVPSCALE
 40
0.0
  9
$OLESTARTUP
290
     0
  9
$SORTENTS
280
   127
  9
$INDEXCTL
280
     0
  9
$HIDETEXT
280
     1
  9
$XCLIPFRAME
280
     2
  9
$HALOGAP
280
     0
  9
$OBSCOLOR
 70
   257
  9
$OBSLTYPE
280
     0
  9
$INTERSECTIONDISPLAY
280
     0
  9
$INTERSECTIONCOLOR
 70
   257
  9
$DIMASSOC
280
     2
  9
$PROJECTNAME
  1

  9
$CAMERADISPLAY
290
     0
  9
$LENSLENGTH
 40
50.0
  9
$CAMERAHEIGHT
 40
0.0
  9
$STEPSPERSEC
 40
2.0
  9
$STEPSIZE
 40
6.0
  9
$3DDWFPREC
 40
2.0
  9
$PSOLWIDTH
 40
0.25
  9
$PSOLHEIGHT
 40
4.0
  9
$LOFTANG1
 40
1.570796326794896
  9
$LOFTANG2
 40
1.570796326794896
  9
$LOFTMAG1
 40
0.0
  9
$LOFTMAG2
 40
0.0
  9
$LOFTPARAM
 70
     7
  9
$LOFTNORMALS
280
     1
  9
$LATITUDE
 40
37.795
  9
$LONGITUDE
 40
-122.394
  9
$NORTHDIRECTION
 40
0.0
  9
$TIMEZONE
 70
 -8000
  9
$LIGHTGLYPHDISPLAY
280
     1
  9
$TILEMODELIGHTSYNCH
280
     1
  9
$CMATERIAL
347
9AF
  9
$SOLIDHIST
280
     1
  9
$SHOWHIST
280
     1
  9
$DWFFRAME
280
     2
  9
$DGNFRAME
280
     0
  9
$REALWORLDSCALE
290
     1
  9
$INTERFERECOLOR
 62
     1
  9
$INTERFEREOBJVS
345
9D1
  9
$INTERFEREVPVS
346
9CE
  9
$CSHADOW
280
     0
  9
$SHADOWPLANELOCATION
 40
0.0
  0
ENDSEC
  0
SECTION
  2
CLASSES
  0
CLASS
  1
ACDBDICTIONARYWDFLT
  2
AcDbDictionaryWithDefault
  3
ObjectDBX Classes
 90
        0
 91
        1
280
     0
281
     0
  0
CLASS
  1
DICTIONARYVAR
  2
AcDbDictionaryVar
  3
ObjectDBX Classes
 90
        0
 91
        9
280
     0
281
     0
  0
CLASS
  1
MATERIAL
  2
AcDbMaterial
  3
ObjectDBX Classes
 90
     1153
 91
        3
280
     0
281
     0
  0
CLASS
  1
VISUALSTYLE
  2
AcDbVisualStyle
  3
ObjectDBX Classes
 90
     4095
 91
       19
280
     0
281
     0
  0
CLASS
  1
TABLESTYLE
  2
AcDbTableStyle
  3
ObjectDBX Classes
 90
     4095
 91
        1
280
     0
281
     0
  0
CLASS
  1
SCALE
  2
AcDbScale
  3
ObjectDBX Classes
 90
     1153
 91
       17
280
     0
281
     0
  0
CLASS
  1
MLEADERSTYLE
  2
AcDbMLeaderStyle
  3
ACDB_MLEADERSTYLE_CLASS
 90
     4095
 91
        1
280
     0
281
     0
  0
CLASS
  1
CELLSTYLEMAP
  2
AcDbCellStyleMap
  3
ObjectDBX Classes
 90
     1152
 91
        1
280
     0
281
     0
  0
ENDSEC
  0
SECTION
  2
TABLES
  0
TABLE
  2
VPORT
  5
8
330
0
100
AcDbSymbolTable
 70
     1
  0
VPORT
  5
9AC
330
8
100
AcDbSymbolTableRecord
100
AcDbViewportTableRecord
  2
*Active
 70
     0
 10
0.0
 20
0.0
 11
1.0
 21
1.0
 12
92.83769292009411
 22
56.39410042831846
 13
0.0
 23
0.0
 14
10.0
 24
10.0
 15
10.0
 25
10.0
 16
0.0
 26
0.0
 36
1.0
 17
0.0
 27
0.0
 37
0.0
 40
216.3078714876621
 41
1.857142857142857
 42
50.0
 43
0.0
 44
0.0
 50
0.0
 51
0.0
 71
     0
 72
   100
 73
     1
 74
     3
 75
     0
 76
     0
 77
     0
 78
     0
281
     0
 65
     1
110
0.0
120
0.0
130
0.0
111
1.0
121
0.0
131
0.0
112
0.0
122
1.0
132
0.0
 79
     0
146
0.0
348
9CD
 60
     3
 61
     5
292
     1
282
     1
141
0.0
142
0.0
 63
   250
421
  3355443
  0
ENDTAB
  0
TABLE
  2
LTYPE
  5
5
330
0
100
AcDbSymbolTable
 70
     3
  0
LTYPE
  5
14
330
5
100
AcDbSymbolTableRecord
100
AcDbLinetypeTableRecord
  2
ByBlock
 70
     0
  3

 72
    65
 73
     0
 40
0.0
  0
LTYPE
  5
15
330
5
100
AcDbSymbolTableRecord
100
AcDbLinetypeTableRecord
  2
ByLayer
 70
     0
  3

 72
    65
 73
     0
 40
0.0
  0
LTYPE
  5
16
330
5
100
AcDbSymbolTableRecord
100
AcDbLinetypeTableRecord
  2
Continuous
 70
     0
  3
Solid line
 72
    65
 73
     0
 40
0.0
  0
LTYPE
  5
86
330
5
100
AcDbSymbolTableRecord
100
AcDbLinetypeTableRecord
  2
CENTER
 70
     0
  3
Center ____ _ ____ _ ____ _ ____ _ ____ _ ____
 72
    65
 73
     4
 40
50.8
 49
31.75
 74
     0
 49
-6.349999999999999
 74
     0
 49
6.349999999999999
 74
     0
 49
-6.349999999999999
 74
     0
  0
LTYPE
  5
87
330
5
100
AcDbSymbolTableRecord
100
AcDbLinetypeTableRecord
  2
PHANTOM
 70
     0
  3
Phantom ______  __  __  ______  __  __  ______
 72
    65
 73
     6
 40
63.5
 49
31.75
 74
     0
 49
-6.349999999999999
 74
     0
 49
6.349999999999999
 74
     0
 49
-6.349999999999999
 74
     0
 49
6.349999999999999
 74
     0
 49
-6.349999999999999
 74
     0
  0
ENDTAB
  0
TABLE
  2
LAYER
  5
2
102
{ACAD_XDICTIONARY
360
90
102
}
330
0
100
AcDbSymbolTable
 70
     3
  0
LAYER
  5
10
102
{ACAD_XDICTIONARY
360
9F4
102
}
330
2
100
AcDbSymbolTableRecord
100
AcDbLayerTableRecord
  2
0
 70
     0
 62
     7
  6
Continuous
370
    -3
390
F
347
9BF
  0
LAYER
  5
88
102
{ACAD_XDICTIONARY
360
89
102
}
330
2
100
AcDbSymbolTableRecord
100
AcDbLayerTableRecord
  2
2
 70
     0
 62
     2
  6
PHANTOM
370
    -3
390
F
347
9BF
1001
AcAecLayerStandard
1000

1000

1001
ACCMTRANSPARENCY
1071
        0
  0
LAYER
  5
8B
102
{ACAD_XDICTIONARY
360
8C
102
}
330
2
100
AcDbSymbolTableRecord
100
AcDbLayerTableRecord
  2
1
 70
     0
 62
     5
  6
CENTER
370
    -3
390
F
347
9BF
1001
AcAecLayerStandard
1000

1000

1001
ACCMTRANSPARENCY
1071
        0
  0
ENDTAB
  0
TABLE
  2
STYLE
  5
3
330
0
100
AcDbSymbolTable
 70
     1
  0
STYLE
  5
11
330
3
100
AcDbSymbolTableRecord
100
AcDbTextStyleTableRecord
  2
Standard
 70
     0
 40
0.0
 41
1.0
 50
0.0
 71
     0
 42
2.5
  3
txt
  4

  0
ENDTAB
  0
TABLE
  2
VIEW
  5
6
330
0
100
AcDbSymbolTable
 70
     0
  0
ENDTAB
  0
TABLE
  2
UCS
  5
7
330
0
100
AcDbSymbolTable
 70
     0
  0
ENDTAB
  0
TABLE
  2
APPID
  5
9
330
0
100
AcDbSymbolTable
 70
     3
  0
APPID
  5
12
330
9
100
AcDbSymbolTableRecord
100
AcDbRegAppTableRecord
  2
ACAD
 70
     0
  0
APPID
  5
8E
330
9
100
AcDbSymbolTableRecord
100
AcDbRegAppTableRecord
  2
AcAecLayerStandard
 70
     0
  0
APPID
  5
8F
330
9
100
AcDbSymbolTableRecord
100
AcDbRegAppTableRecord
  2
ACCMTRANSPARENCY
 70
     0
  0
ENDTAB
  0
TABLE
  2
DIMSTYLE
  5
A
330
0
100
AcDbSymbolTable
 70
     1
100
AcDbDimStyleTable
 71
     1
340
27
  0
DIMSTYLE
105
27
330
A
100
AcDbSymbolTableRecord
100
AcDbDimStyleTableRecord
  2
ISO-25
 70
     0
 41
2.5
 42
0.625
 43
3.75
 44
1.25
 73
     0
 74
     0
 77
     1
 78
     8
140
2.5
141
2.5
143
0.03937007874016
147
0.625
171
     3
172
     1
271
     2
272
     2
274
     3
278
    44
283
     0
284
     8
340
11
  0
ENDTAB
  0
TABLE
  2
BLOCK_RECORD
  5
1
330
0
100
AcDbSymbolTable
 70
     1
  0
BLOCK_RECORD
  5
1F
330
1
100
AcDbSymbolTableRecord
100
AcDbBlockTableRecord
  2
*Model_Space
340
22
 70
     0
280
     1
281
     0
  0
BLOCK_RECORD
  5
55
330
1
100
AcDbSymbolTableRecord
100
AcDbBlockTableRecord
  2
*Paper_Space
340
56
 70
     0
280
     1
281
     0
  0
BLOCK_RECORD
  5
50
330
1
100
AcDbSymbolTableRecord
100
AcDbBlockTableRecord
  2
*Paper_Space0
340
51
 70
     0
280
     1
281
     0
  0
ENDTAB
  0
ENDSEC
  0
SECTION
  2
BLOCKS
  0
BLOCK
  5
20
330
1F
100
AcDbEntity
  8
0
100
AcDbBlockBegin
  2
*Model_Space
 70
     0
 10
0.0
 20
0.0
 30
0.0
  3
*Model_Space
  1

  0
ENDBLK
  5
21
330
1F
100
AcDbEntity
  8
0
100
AcDbBlockEnd
  0
BLOCK
  5
57
330
55
100
AcDbEntity
 67
     1
  8
0
100
AcDbBlockBegin
  2
*Paper_Space
 70
     0
 10
0.0
 20
0.0
 30
0.0
  3
*Paper_Space
  1

  0
ENDBLK
  5
58
330
55
100
AcDbEntity
 67
     1
  8
0
100
AcDbBlockEnd
  0
BLOCK
  5
52
330
50
100
AcDbEntity
 67
     1
  8
0
100
AcDbBlockBegin
  2
*Paper_Space0
 70
     0
 10
0.0
 20
0.0
 30
0.0
  3
*Paper_Space0
  1

  0
VIEWPORT
  5
6B
330
50
100
AcDbEntity
 67
     1
  8
0
100
AcDbViewport
 10
133.3499908447266
 20
101.5999970436096
 30
0.0
 40
381.3957395593835
 41
218.2856291881582
 68
     0
 69
     0
 12
133.3499908447266
 22
101.5999970436096
 13
0.0
 23
0.0
 14
10.0
 24
10.0
 15
10.0
 25
10.0
 16
0.0
 26
0.0
 36
1.0
 17
0.0
 27
0.0
 37
0.0
 42
50.0
 43
0.0
 44
0.0
 45
218.2856291881582
 50
0.0
 51
0.0
 72
   100
 90
    32800
  1

281
     0
 71
     1
 74
     0
110
0.0
120
0.0
130
0.0
111
1.0
121
0.0
131
0.0
112
0.0
122
1.0
132
0.0
 79
     0
146
0.0
170
     0
 61
     5
348
9CD
292
     1
282
     1
141
0.0
142
0.0
 63
   250
421
  3355443
  0
VIEWPORT
  5
6D
330
50
100
AcDbEntity
 67
     1
  8
0
100
AcDbViewport
 10
133.3499939441681
 20
101.5999939441681
 30
0.0
 40
213.3599903106689
 41
162.5599903106689
 68
     0
 69
     0
 12
210.0
 22
148.5
 13
0.0
 23
0.0
 14
10.0
 24
10.0
 15
10.0
 25
10.0
 16
0.0
 26
0.0
 36
1.0
 17
0.0
 27
0.0
 37
0.0
 42
50.0
 43
0.0
 44
0.0
 45
324.0677920111345
 50
0.0
 51
0.0
 72
   100
 90
    32864
  1

281
     0
 71
     1
 74
     0
110
0.0
120
0.0
130
0.0
111
1.0
121
0.0
131
0.0
112
0.0
122
1.0
132
0.0
 79
     0
146
0.0
170
     0
 61
     5
348
9CD
292
     1
282
     1
141
0.0
142
0.0
 63
   250
421
  3355443
  0
ENDBLK
  5
53
330
50
100
AcDbEntity
 67
     1
  8
0
100
AcDbBlockEnd
  0
ENDSEC
  0
SECTION
  2
ENTITIES
  0
LINE
  5
51B
330
1F
100
AcDbEntity
  8
1
100
AcDbLine
 10
0.0
 20
-51.10130938073758
 30
0.0
 11
0.0
 21
153.2156822646957
 31
0.0
  0
LINE
  5
51C
330
1F
100
AcDbEntity
  8
0
100
AcDbLine
 10
62.5
 20
111.9416040016395
 30
0.0
 11
62.5
 21
56.29999999999938
 31
0.0
  0
LINE
  5
51D
330
1F
100
AcDbEntity
  8
0
100
AcDbLine
 10
-62.5
 20
111.9416040016395
 30
0.0
 11
-62.5
 21
56.29999999999938
 31
0.0
  0
LINE
  5
51E
330
1F
100
AcDbEntity
  8
0
100
AcDbLine
 10
39.15612767604443
 20
12.30647627031237
 30
0.0
 11
61.61462410798503
 21
14.89784124322852
 31
0.0
  0
ARC
  5
51F
330
1F
100
AcDbEntity
  8
0
100
AcDbCircle
 10
36.49999999999977
 20
19.69999999999925
 30
0.0
 40
5.000000000000007
100
AcDbArc
 50
270.0
 51
0.0
  0
LINE
  5
520
330
1F
100
AcDbEntity
  8
0
100
AcDbLine
 10
40.0
 20
10.40384615384562
 30
0.0
 11
48.61462410798504
 21
11.39784124322853
 31
0.0
  0
ARC
  5
521
330
1F
100
AcDbEntity
  8
0
100
AcDbCircle
 10
36.5
 20
51.29999999999938
 30
0.0
 40
5.000000000000012
100
AcDbArc
 50
0.0
 51
90.0
  0
ARC
  5
522
330
1F
100
AcDbEntity
  8
0
100
AcDbCircle
 10
36.49999999999977
 20
50.99999999999943
 30
0.0
 40
4.999999999999998
100
AcDbArc
 50
0.0
 51
90.0
  0
LINE
  5
523
330
1F
100
AcDbEntity
  8
0
100
AcDbLine
 10
-40.0
 20
12.40384615384562
 30
0.0
 11
-61.61462410798503
 21
14.89784124322852
 31
0.0
  0
LINE
  5
524
330
1F
100
AcDbEntity
  8
0
100
AcDbLine
 10
-62.5
 20
56.29999999999938
 30
0.0
 11
62.49999999999977
 21
56.29999999999938
 31
0.0
  0
LINE
  5
525
330
1F
100
AcDbEntity
  8
0
100
AcDbLine
 10
-70.80000000000018
 20
53.99999999999943
 30
0.0
 11
-70.80000000000018
 21
19.99999999999943
 31
0.0
  0
LINE
  5
526
330
1F
100
AcDbEntity
  8
0
100
AcDbLine
 10
-71.30000000000018
 20
20.49999999999943
 30
0.0
 11
-71.30000000000018
 21
53.49999999999943
 31
0.0
  0
POLYLINE
  5
527
330
1F
100
AcDbEntity
  8
0
100
AcDb2dPolyline
 66
     1
 10
0.0
 20
0.0
 30
0.0
  0
VERTEX
  5
528
330
527
100
AcDbEntity
  8
0
100
AcDbVertex
100
AcDb2dVertex
 10
-65.49342155456542
 20
53.99392040011196
 30
0.0
  0
VERTEX
  5
529
330
527
100
AcDbEntity
  8
0
100
AcDbVertex
100
AcDb2dVertex
 10
-65.49141407012939
 20
53.99077327486782
 30
0.0
  0
VERTEX
  5
52A
330
527
100
AcDbEntity
  8
0
100
AcDbVertex
100
AcDb2dVertex
 10
-65.48805713653564
 20
53.98392112490444
 30
0.0
  0
VERTEX
  5
52B
330
527
100
AcDbEntity
  8
0
100
AcDbVertex
100
AcDb2dVertex
 10
-65.48336029052734
 20
53.97337825533657
 30
0.0
  0
VERTEX
  5
52C
330
527
100
AcDbEntity
  8
0
100
AcDbVertex
100
AcDb2dVertex
 10
-65.4773473739624
 20
53.95916373965054
 30
0.0
  0
VERTEX
  5
52D
330
527
100
AcDbEntity
  8
0
100
AcDbVertex
100
AcDb2dVertex
 10
-65.47004222869873
 20
53.94129665133267
 30
0.0
  0
VERTEX
  5
52E
330
527
100
AcDbEntity
  8
0
100
AcDbVertex
100
AcDb2dVertex
 10
-65.46145915985107
 20
53.91980083224087
 30
0.0
  0
VERTEX
  5
52F
330
527
100
AcDbEntity
  8
0
100
AcDbVertex
100
AcDb2dVertex
 10
-65.45162200927734
 20
53.89468581911831
 30
0.0
  0
VERTEX
  5
530
330
527
100
AcDbEntity
  8
0
100
AcDbVertex
100
AcDb2dVertex
 10
-65.44054508209228
 20
53.8659754538229
 30
0.0
  0
VERTEX
  5
531
330
527
100
AcDbEntity
  8
0
100
AcDbVertex
100
AcDb2dVertex
 10
-65.42825698852539
 20
53.83368880984097
 30
0.0
  0
VERTEX
  5
532
330
527
100
AcDbEntity
  8
0
100
AcDbVertex
100
AcDb2dVertex
 10
-65.4147720336914
 20
53.79784019228726
 30
0.0
  0
VERTEX
  5
533
330
527
100
AcDbEntity
  8
0
100
AcDbVertex
100
AcDb2dVertex
 10
-65.40010929107666
 20
53.7584486746481
 30
0.0
  0
VERTEX
  5
534
330
527
100
AcDbEntity
  8
0
100
AcDbVertex
100
AcDb2dVertex
 10
-65.38429260253906
 20
53.7155380987814
 30
0.0
  0
VERTEX
  5
535
330
527
100
AcDbEntity
  8
0
100
AcDbVertex
100
AcDb2dVertex
 10
-65.36733627319335
 20
53.66912753817349
 30
0.0
  0
VERTEX
  5
536
330
527
100
AcDbEntity
  8
0
100
AcDbVertex
100
AcDb2dVertex
 10
-65.34926891326904
 20
53.61922652956753
 30
0.0
  0
VERTEX
  5
537
330
527
100
AcDbEntity
  8
0
100
AcDbVertex
100
AcDb2dVertex
 10
-65.33010482788085
 20
53.56585891482144
 30
0.0
  0
VERTEX
  5
538
330
527
100
AcDbEntity
  8
0
100
AcDbVertex
100
AcDb2dVertex
 10
-65.30986785888671
 20
53.50904376742153
 30
0.0
  0
VERTEX
  5
539
330
527
100
AcDbEntity
  8
0
100
AcDbVertex
100
AcDb2dVertex
 10
-65.28857231140136
 20
53.44880016085415
 30
0.0
  0
VERTEX
  5
53A
330
527
100
AcDbEntity
  8
0
100
AcDbVertex
100
AcDb2dVertex
 10
-65.26624202728271
 20
53.38514240023403
 30
0.0
  0
VERTEX
  5
53B
330
527
100
AcDbEntity
  8
0
100
AcDbVertex
100
AcDb2dVertex
 10
-65.24289608001708
 20
53.31809432741909
 30
0.0
  0
VERTEX
  5
53C
330
527
100
AcDbEntity
  8
0
100
AcDbVertex
100
AcDb2dVertex
 10
-65.21855354309082
 20
53.24767024752407
 30
0.0
  0
VERTEX
  5
53D
330
527
100
AcDbEntity
  8
0
100
AcDbVertex
100
AcDb2dVertex
 10
-65.19323825836181
 20
53.17389400240688
 30
0.0
  0
VERTEX
  5
53E
330
527
100
AcDbEntity
  8
0
100
AcDbVertex
100
AcDb2dVertex
 10
-65.1669692993164
 20
53.09677512881069
 30
0.0
  0
VERTEX
  5
53F
330
527
100
AcDbEntity
  8
0
100
AcDbVertex
100
AcDb2dVertex
 10
-65.13976097106933
 20
53.01634223696499
 30
0.0
  0
VERTEX
  5
540
330
527
100
AcDbEntity
  8
0
100
AcDbVertex
100
AcDb2dVertex
 10
-65.11164188385009
 20
52.93260963198452
 30
0.0
  0
VERTEX
  5
541
330
527
100
AcDbEntity
  8
0
100
AcDbVertex
100
AcDb2dVertex
 10
-65.08262157440185
 20
52.84559161898403
 30
0.0
  0
VERTEX
  5
542
330
527
100
AcDbEntity
  8
0
100
AcDbVertex
100
AcDb2dVertex
 10
-65.0527286529541
 20
52.75531203982144
 30
0.0
  0
VERTEX
  5
543
330
527
100
AcDbEntity
  8
0
100
AcDbVertex
100
AcDb2dVertex
 10
-65.02198219299316
 20
52.66178519961147
 30
0.0
  0
VERTEX
  5
544
330
527
100
AcDbEntity
  8
0
100
AcDbVertex
100
AcDb2dVertex
 10
-64.99040126800537
 20
52.56503494021206
 30
0.0
  0
VERTEX
  5
545
330
527
100
AcDbEntity
  8
0
100
AcDbVertex
100
AcDb2dVertex
 10
-64.95800495147705
 20
52.46508033510952
 30
0.0
  0
VERTEX
  5
546
330
527
100
AcDbEntity
  8
0
100
AcDbVertex
100
AcDb2dVertex
 10
-64.92481231689453
 20
52.36193092104702
 30
0.0
  0
VERTEX
  5
547
330
527
100
AcDbEntity
  8
0
100
AcDbVertex
100
AcDb2dVertex
 10
-64.89084243774414
 20
52.25561530825405
 30
0.0
  0
VERTEX
  5
548
330
527
100
AcDbEntity
  8
0
100
AcDbVertex
100
AcDb2dVertex
 10
-64.85612392425537
 20
52.14614780184536
 30
0.0
  0
VERTEX
  5
549
330
527
100
AcDbEntity
  8
0
100
AcDbVertex
100
AcDb2dVertex
 10
-64.82066631317138
 20
52.03354270693569
 30
0.0
  0
VERTEX
  5
54A
330
527
100
AcDbEntity
  8
0
100
AcDbVertex
100
AcDb2dVertex
 10
-64.78449344635009
 20
51.91782386538296
 30
0.0
  0
VERTEX
  5
54B
330
527
100
AcDbEntity
  8
0
100
AcDbVertex
100
AcDb2dVertex
 10
-64.74762916564941
 20
51.79901035067349
 30
0.0
  0
VERTEX
  5
54C
330
527
100
AcDbEntity
  8
0
100
AcDbVertex
100
AcDb2dVertex
 10
-64.71008777618408
 20
51.6771212362936
 30
0.0
  0
VERTEX
  5
54D
330
527
100
AcDbEntity
  8
0
100
AcDbVertex
100
AcDb2dVertex
 10
-64.67188835144042
 20
51.55216605898647
 30
0.0
  0
VERTEX
  5
54E
330
527
100
AcDbEntity
  8
0
100
AcDbVertex
100
AcDb2dVertex
 10
-64.63305950164794
 20
51.42417342898159
 30
0.0
  0
VERTEX
  5
54F
330
527
100
AcDbEntity
  8
0
100
AcDbVertex
100
AcDb2dVertex
 10
-64.5936107635498
 20
51.29316241976528
 30
0.0
  0
VERTEX
  5
550
330
527
100
AcDbEntity
  8
0
100
AcDbVertex
100
AcDb2dVertex
 10
-64.55357074737548
 20
51.15914256808071
 30
0.0
  0
VERTEX
  5
551
330
527
100
AcDbEntity
  8
0
100
AcDbVertex
100
AcDb2dVertex
 10
-64.51295852661132
 20
51.02213771578579
 30
0.0
  0
VERTEX
  5
552
330
527
100
AcDbEntity
  8
0
100
AcDbVertex
100
AcDb2dVertex
 10
-64.47178840637207
 20
50.88216693636685
 30
0.0
  0
VERTEX
  5
553
330
527
100
AcDbEntity
  8
0
100
AcDbVertex
100
AcDb2dVertex
 10
-64.43008422851562
 20
50.7392493033102
 30
0.0
  0
VERTEX
  5
554
330
527
100
AcDbEntity
  8
0
100
AcDbVertex
100
AcDb2dVertex
 10
-64.38786506652832
 20
50.59339912173062
 30
0.0
  0
VERTEX
  5
555
330
527
100
AcDbEntity
  8
0
100
AcDbVertex
100
AcDb2dVertex
 10
-64.34515476226806
 20
50.4446354651144
 30
0.0
  0
VERTEX
  5
556
330
527
100
AcDbEntity
  8
0
100
AcDbVertex
100
AcDb2dVertex
 10
-64.30196285247802
 20
50.29298217531948
 30
0.0
  0
VERTEX
  5
557
330
527
100
AcDbEntity
  8
0
100
AcDbVertex
100
AcDb2dVertex
 10
-64.25832271575927
 20
50.13845832583218
 30
0.0
  0
VERTEX
  5
558
330
527
100
AcDbEntity
  8
0
100
AcDbVertex
100
AcDb2dVertex
 10
-64.21424865722656
 20
49.98107345339565
 30
0.0
  0
VERTEX
  5
559
330
527
100
AcDbEntity
  8
0
100
AcDbVertex
100
AcDb2dVertex
 10
-64.16975498199462
 20
49.82085139986782
 30
0.0
  0
VERTEX
  5
55A
330
527
100
AcDbEntity
  8
0
100
AcDbVertex
100
AcDb2dVertex
 10
-64.1250991821289
 20
49.65774448153286
 30
0.0
  0
VERTEX
  5
55B
330
527
100
AcDbEntity
  8
0
100
AcDbVertex
100
AcDb2dVertex
 10
-64.08055305480957
 20
49.49170501467495
 30
0.0
  0
VERTEX
  5
55C
330
527
100
AcDbEntity
  8
0
100
AcDbVertex
100
AcDb2dVertex
 10
-64.03614521026611
 20
49.32278068300991
 30
0.0
  0
VERTEX
  5
55D
330
527
100
AcDbEntity
  8
0
100
AcDbVertex
100
AcDb2dVertex
 10
-63.99189949035644
 20
49.15102870699673
 30
0.0
  0
VERTEX
  5
55E
330
527
100
AcDbEntity
  8
0
100
AcDbVertex
100
AcDb2dVertex
 10
-63.94783020019531
 20
48.9765015387228
 30
0.0
  0
VERTEX
  5
55F
330
527
100
AcDbEntity
  8
0
100
AcDbVertex
100
AcDb2dVertex
 10
-63.90395641326904
 20
48.79924209353237
 30
0.0
  0
VERTEX
  5
560
330
527
100
AcDbEntity
  8
0
100
AcDbVertex
100
AcDb2dVertex
 10
-63.86030673980712
 20
48.61931236025601
 30
0.0
  0
VERTEX
  5
561
330
527
100
AcDbEntity
  8
0
100
AcDbVertex
100
AcDb2dVertex
 10
-63.81690025329589
 20
48.43676002260952
 30
0.0
  0
VERTEX
  5
562
330
527
100
AcDbEntity
  8
0
100
AcDbVertex
100
AcDb2dVertex
 10
-63.77375602722167
 20
48.25163276430874
 30
0.0
  0
VERTEX
  5
563
330
527
100
AcDbEntity
  8
0
100
AcDbVertex
100
AcDb2dVertex
 10
-63.7308931350708
 20
48.06398303744106
 30
0.0
  0
VERTEX
  5
564
330
527
100
AcDbEntity
  8
0
100
AcDbVertex
100
AcDb2dVertex
 10
-63.68833541870117
 20
47.87386806246547
 30
0.0
  0
VERTEX
  5
565
330
527
100
AcDbEntity
  8
0
100
AcDbVertex
100
AcDb2dVertex
 10
-63.64610195159912
 20
47.68133075472621
 30
0.0
  0
VERTEX
  5
566
330
527
100
AcDbEntity
  8
0
100
AcDbVertex
100
AcDb2dVertex
 10
-63.60421657562255
 20
47.48642833468227
 30
0.0
  0
VERTEX
  5
567
330
527
100
AcDbEntity
  8
0
100
AcDbVertex
100
AcDb2dVertex
 10
-63.56269836425781
 20
47.28920848604945
 30
0.0
  0
VERTEX
  5
568
330
527
100
AcDbEntity
  8
0
100
AcDbVertex
100
AcDb2dVertex
 10
-63.52157115936279
 20
47.08972842928676
 30
0.0
  0
VERTEX
  5
569
330
527
100
AcDbEntity
  8
0
100
AcDbVertex
100
AcDb2dVertex
 10
-63.48084926605224
 20
46.88803107973842
 30
0.0
  0
VERTEX
  5
56A
330
527
100
AcDbEntity
  8
0
100
AcDbVertex
100
AcDb2dVertex
 10
-63.44056129455566
 20
46.684178426235
 30
0.0
  0
VERTEX
  5
56B
330
527
100
AcDbEntity
  8
0
100
AcDbVertex
100
AcDb2dVertex
 10
-63.40072154998779
 20
46.47820861574916
 30
0.0
  0
VERTEX
  5
56C
330
527
100
AcDbEntity
  8
0
100
AcDbVertex
100
AcDb2dVertex
 10
-63.36135387420654
 20
46.27018363711147
 30
0.0
  0
VERTEX
  5
56D
330
527
100
AcDbEntity
  8
0
100
AcDbVertex
100
AcDb2dVertex
 10
-63.32247734069824
 20
46.06015117403774
 30
0.0
  0
VERTEX
  5
56E
330
527
100
AcDbEntity
  8
0
100
AcDbVertex
100
AcDb2dVertex
 10
-63.2841157913208
 20
45.84816367861537
 30
0.0
  0
VERTEX
  5
56F
330
527
100
AcDbEntity
  8
0
100
AcDbVertex
100
AcDb2dVertex
 10
-63.24629306793212
 20
45.63427360293178
 30
0.0
  0
VERTEX
  5
570
330
527
100
AcDbEntity
  8
0
100
AcDbVertex
100
AcDb2dVertex
 10
-63.20902347564697
 20
45.41852863070277
 30
0.0
  0
VERTEX
  5
571
330
527
100
AcDbEntity
  8
0
100
AcDbVertex
100
AcDb2dVertex
 10
-63.17233085632324
 20
45.20098121401576
 30
0.0
  0
VERTEX
  5
572
330
527
100
AcDbEntity
  8
0
100
AcDbVertex
100
AcDb2dVertex
 10
-63.13623428344726
 20
44.98168380495815
 30
0.0
  0
VERTEX
  5
573
330
527
100
AcDbEntity
  8
0
100
AcDbVertex
100
AcDb2dVertex
 10
-63.10075759887695
 20
44.76068885561732
 30
0.0
  0
VERTEX
  5
574
330
527
100
AcDbEntity
  8
0
100
AcDbVertex
100
AcDb2dVertex
 10
-63.06591987609863
 20
44.53804404970912
 30
0.0
  0
VERTEX
  5
575
330
527
100
AcDbEntity
  8
0
100
AcDbVertex
100
AcDb2dVertex
 10
-63.03174495697021
 20
44.31380183932094
 30
0.0
  0
VERTEX
  5
576
330
527
100
AcDbEntity
  8
0
100
AcDbVertex
100
AcDb2dVertex
 10
-62.99824714660644
 20
44.08801944491176
 30
0.0
  0
VERTEX
  5
577
330
527
100
AcDbEntity
  8
0
100
AcDbVertex
100
AcDb2dVertex
 10
-62.96545505523681
 20
43.86073978182582
 30
0.0
  0
VERTEX
  5
578
330
527
100
AcDbEntity
  8
0
100
AcDbVertex
100
AcDb2dVertex
 10
-62.93338775634765
 20
43.63202007052211
 30
0.0
  0
VERTEX
  5
579
330
527
100
AcDbEntity
  8
0
100
AcDbVertex
100
AcDb2dVertex
 10
-62.90206432342529
 20
43.40190799471645
 30
0.0
  0
VERTEX
  5
57A
330
527
100
AcDbEntity
  8
0
100
AcDbVertex
100
AcDb2dVertex
 10
-62.87150382995605
 20
43.17045600649623
 30
0.0
  0
VERTEX
  5
57B
330
527
100
AcDbEntity
  8
0
100
AcDbVertex
100
AcDb2dVertex
 10
-62.84173011779785
 20
42.93772132632045
 30
0.0
  0
VERTEX
  5
57C
330
527
100
AcDbEntity
  8
0
100
AcDbVertex
100
AcDb2dVertex
 10
-62.81276226043701
 20
42.70374686953334
 30
0.0
  0
VERTEX
  5
57D
330
527
100
AcDbEntity
  8
0
100
AcDbVertex
100
AcDb2dVertex
 10
-62.78462409973144
 20
42.46858508822231
 30
0.0
  0
VERTEX
  5
57E
330
527
100
AcDbEntity
  8
0
100
AcDbVertex
100
AcDb2dVertex
 10
-62.75733470916748
 20
42.23229320284633
 30
0.0
  0
VERTEX
  5
57F
330
527
100
AcDbEntity
  8
0
100
AcDbVertex
100
AcDb2dVertex
 10
-62.73091793060302
 20
41.99491889712123
 30
0.0
  0
VERTEX
  5
580
330
527
100
AcDbEntity
  8
0
100
AcDbVertex
100
AcDb2dVertex
 10
-62.70538806915283
 20
41.75650985476283
 30
0.0
  0
VERTEX
  5
581
330
527
100
AcDbEntity
  8
0
100
AcDbVertex
100
AcDb2dVertex
 10
-62.68077373504638
 20
41.51712329623012
 30
0.0
  0
VERTEX
  5
582
330
527
100
AcDbEntity
  8
0
100
AcDbVertex
100
AcDb2dVertex
 10
-62.65708923339843
 20
41.27680690523891
 30
0.0
  0
VERTEX
  5
583
330
527
100
AcDbEntity
  8
0
100
AcDbVertex
100
AcDb2dVertex
 10
-62.63435840606689
 20
41.03561790224818
 30
0.0
  0
VERTEX
  5
584
330
527
100
AcDbEntity
  8
0
100
AcDbVertex
100
AcDb2dVertex
 10
-62.61260509490966
 20
40.79359920260219
 30
0.0
  0
VERTEX
  5
585
330
527
100
AcDbEntity
  8
0
100
AcDbVertex
100
AcDb2dVertex
 10
-62.5918436050415
 20
40.5508080267599
 30
0.0
  0
VERTEX
  5
586
330
527
100
AcDbEntity
  8
0
100
AcDbVertex
100
AcDb2dVertex
 10
-62.57210254669189
 20
40.30729682680873
 30
0.0
  0
VERTEX
  5
587
330
527
100
AcDbEntity
  8
0
100
AcDbVertex
100
AcDb2dVertex
 10
-62.55339622497558
 20
40.06310851809291
 30
0.0
  0
VERTEX
  5
588
330
527
100
AcDbEntity
  8
0
100
AcDbVertex
100
AcDb2dVertex
 10
-62.53574848175048
 20
39.81830508944302
 30
0.0
  0
VERTEX
  5
589
330
527
100
AcDbEntity
  8
0
100
AcDbVertex
100
AcDb2dVertex
 10
-62.51918315887451
 20
39.57293184038906
 30
0.0
  0
VERTEX
  5
58A
330
527
100
AcDbEntity
  8
0
100
AcDbVertex
100
AcDb2dVertex
 10
-62.5037145614624
 20
39.32704122301846
 30
0.0
  0
VERTEX
  5
58B
330
527
100
AcDbEntity
  8
0
100
AcDbVertex
100
AcDb2dVertex
 10
-62.48937129974365
 20
39.08068330523281
 30
0.0
  0
VERTEX
  5
58C
330
527
100
AcDbEntity
  8
0
100
AcDbVertex
100
AcDb2dVertex
 10
-62.476167678833
 20
38.83391292330532
 30
0.0
  0
VERTEX
  5
58D
330
527
100
AcDbEntity
  8
0
100
AcDbVertex
100
AcDb2dVertex
 10
-62.46412754058837
 20
38.58677776095181
 30
0.0
  0
VERTEX
  5
58E
330
527
100
AcDbEntity
  8
0
100
AcDbVertex
100
AcDb2dVertex
 10
-62.45326995849609
 20
38.33933265444546
 30
0.0
  0
VERTEX
  5
58F
330
527
100
AcDbEntity
  8
0
100
AcDbVertex
100
AcDb2dVertex
 10
-62.44361877441406
 20
38.0916252875021
 30
0.0
  0
VERTEX
  5
590
330
527
100
AcDbEntity
  8
0
100
AcDbVertex
100
AcDb2dVertex
 10
-62.43519306182861
 20
37.84371049639492
 30
0.0
  0
VERTEX
  5
591
330
527
100
AcDbEntity
  8
0
100
AcDbVertex
100
AcDb2dVertex
 10
-62.42801666259765
 20
37.59563834902554
 30
0.0
  0
VERTEX
  5
592
330
527
100
AcDbEntity
  8
0
100
AcDbVertex
100
AcDb2dVertex
 10
-62.42210388183593
 20
37.34745891329556
 30
0.0
  0
VERTEX
  5
593
330
527
100
AcDbEntity
  8
0
100
AcDbVertex
100
AcDb2dVertex
 10
-62.41748332977294
 20
37.09922464129238
 30
0.0
  0
VERTEX
  5
594
330
527
100
AcDbEntity
  8
0
100
AcDbVertex
100
AcDb2dVertex
 10
-62.41417407989501
 20
36.85098798510342
 30
0.0
  0
VERTEX
  5
595
330
527
100
AcDbEntity
  8
0
100
AcDbVertex
100
AcDb2dVertex
 10
-62.41219043731689
 20
36.60279901263027
 30
0.0
  0
VERTEX
  5
596
330
527
100
AcDbEntity
  8
0
100
AcDbVertex
100
AcDb2dVertex
 10
-62.41156578063964
 20
36.35471017596035
 30
0.0
  0
VERTEX
  5
597
330
527
100
AcDbEntity
  8
0
100
AcDbVertex
100
AcDb2dVertex
 10
-62.41230964660644
 20
36.10677154299526
 30
0.0
  0
VERTEX
  5
598
330
527
100
AcDbEntity
  8
0
100
AcDbVertex
100
AcDb2dVertex
 10
-62.41444587707519
 20
35.85903318163662
 30
0.0
  0
VERTEX
  5
599
330
527
100
AcDbEntity
  8
0
100
AcDbVertex
100
AcDb2dVertex
 10
-62.4179983139038
 20
35.61154992815762
 30
0.0
  0
VERTEX
  5
59A
330
527
100
AcDbEntity
  8
0
100
AcDbVertex
100
AcDb2dVertex
 10
-62.42298603057861
 20
35.36437185045986
 30
0.0
  0
VERTEX
  5
59B
330
527
100
AcDbEntity
  8
0
100
AcDbVertex
100
AcDb2dVertex
 10
-62.42942810058593
 20
35.11754901644497
 30
0.0
  0
VERTEX
  5
59C
330
527
100
AcDbEntity
  8
0
100
AcDbVertex
100
AcDb2dVertex
 10
-62.43734836578369
 20
34.87113626238613
 30
0.0
  0
VERTEX
  5
59D
330
527
100
AcDbEntity
  8
0
100
AcDbVertex
100
AcDb2dVertex
 10
-62.44677066802978
 20
34.62517888781338
 30
0.0
  0
VERTEX
  5
59E
330
527
100
AcDbEntity
  8
0
100
AcDbVertex
100
AcDb2dVertex
 10
-62.45770931243896
 20
34.37973411318569
 30
0.0
  0
VERTEX
  5
59F
330
527
100
AcDbEntity
  8
0
100
AcDbVertex
100
AcDb2dVertex
 10
-62.47018814086914
 20
34.1348496222189
 30
0.0
  0
VERTEX
  5
5A0
330
527
100
AcDbEntity
  8
0
100
AcDbVertex
100
AcDb2dVertex
 10
-62.48422622680664
 20
33.89058025118618
 30
0.0
  0
VERTEX
  5
5A1
330
527
100
AcDbEntity
  8
0
100
AcDbVertex
100
AcDb2dVertex
 10
-62.49984741210937
 20
33.64697368380337
 30
0.0
  0
VERTEX
  5
5A2
330
527
100
AcDbEntity
  8
0
100
AcDbVertex
100
AcDb2dVertex
 10
-62.51707553863525
 20
33.40408475634365
 30
0.0
  0
VERTEX
  5
5A3
330
527
100
AcDbEntity
  8
0
100
AcDbVertex
100
AcDb2dVertex
 10
-62.53592491149902
 20
33.16196115252285
 30
0.0
  0
VERTEX
  5
5A4
330
527
100
AcDbEntity
  8
0
100
AcDbVertex
100
AcDb2dVertex
 10
-62.55641460418701
 20
32.92065770861416
 30
0.0
  0
VERTEX
  5
5A5
330
527
100
AcDbEntity
  8
0
100
AcDbVertex
100
AcDb2dVertex
 10
-62.57857322692871
 20
32.68022687670498
 30
0.0
  0
VERTEX
  5
5A6
330
527
100
AcDbEntity
  8
0
100
AcDbVertex
100
AcDb2dVertex
 10
-62.60211944580078
 20
32.44086177584438
 30
0.0
  0
VERTEX
  5
5A7
330
527
100
AcDbEntity
  8
0
100
AcDbVertex
100
AcDb2dVertex
 10
-62.62685775756835
 20
32.20268638369351
 30
0.0
  0
VERTEX
  5
5A8
330
527
100
AcDbEntity
  8
0
100
AcDbVertex
100
AcDb2dVertex
 10
-62.65275955200195
 20
31.96573646303921
 30
0.0
  0
VERTEX
  5
5A9
330
527
100
AcDbEntity
  8
0
100
AcDbVertex
100
AcDb2dVertex
 10
-62.6797866821289
 20
31.73004777666836
 30
0.0
  0
VERTEX
  5
5AA
330
527
100
AcDbEntity
  8
0
100
AcDbVertex
100
AcDb2dVertex
 10
-62.70791053771972
 20
31.49565608736782
 30
0.0
  0
VERTEX
  5
5AB
330
527
100
AcDbEntity
  8
0
100
AcDbVertex
100
AcDb2dVertex
 10
-62.73709297180175
 20
31.26259238955288
 30
0.0
  0
VERTEX
  5
5AC
330
527
100
AcDbEntity
  8
0
100
AcDbVertex
100
AcDb2dVertex
 10
-62.76729583740234
 20
31.03089959856777
 30
0.0
  0
VERTEX
  5
5AD
330
527
100
AcDbEntity
  8
0
100
AcDbVertex
100
AcDb2dVertex
 10
-62.79849052429199
 20
30.8006039404562
 30
0.0
  0
VERTEX
  5
5AE
330
527
100
AcDbEntity
  8
0
100
AcDbVertex
100
AcDb2dVertex
 10
-62.83064365386962
 20
30.5717483305624
 30
0.0
  0
VERTEX
  5
5AF
330
527
100
AcDbEntity
  8
0
100
AcDbVertex
100
AcDb2dVertex
 10
-62.86371707916259
 20
30.34436376330166
 30
0.0
  0
VERTEX
  5
5B0
330
527
100
AcDbEntity
  8
0
100
AcDbVertex
100
AcDb2dVertex
 10
-62.89767742156982
 20
30.11848838564663
 30
0.0
  0
VERTEX
  5
5B1
330
527
100
AcDbEntity
  8
0
100
AcDbVertex
100
AcDb2dVertex
 10
-62.93249607086181
 20
29.8941531920126
 30
0.0
  0
VERTEX
  5
5B2
330
527
100
AcDbEntity
  8
0
100
AcDbVertex
100
AcDb2dVertex
 10
-62.96813011169433
 20
29.67139871355801
 30
0.0
  0
VERTEX
  5
5B3
330
527
100
AcDbEntity
  8
0
100
AcDbVertex
100
AcDb2dVertex
 10
-63.00455093383789
 20
29.45025594469814
 30
0.0
  0
VERTEX
  5
5B4
330
527
100
AcDbEntity
  8
0
100
AcDbVertex
100
AcDb2dVertex
 10
-63.04172039031982
 20
29.23076064821987
 30
0.0
  0
VERTEX
  5
5B5
330
527
100
AcDbEntity
  8
0
100
AcDbVertex
100
AcDb2dVertex
 10
-63.07960987091064
 20
29.01295097109585
 30
0.0
  0
VERTEX
  5
5B6
330
527
100
AcDbEntity
  8
0
100
AcDbVertex
100
AcDb2dVertex
 10
-63.11818122863769
 20
28.79685790774136
 30
0.0
  0
VERTEX
  5
5B7
330
527
100
AcDbEntity
  8
0
100
AcDbVertex
100
AcDb2dVertex
 10
-63.1574010848999
 20
28.58251960512905
 30
0.0
  0
VERTEX
  5
5B8
330
527
100
AcDbEntity
  8
0
100
AcDbVertex
100
AcDb2dVertex
 10
-63.19723606109619
 20
28.3699718260458
 30
0.0
  0
VERTEX
  5
5B9
330
527
100
AcDbEntity
  8
0
100
AcDbVertex
100
AcDb2dVertex
 10
-63.23765277862548
 20
28.15924794909268
 30
0.0
  0
VERTEX
  5
5BA
330
527
100
AcDbEntity
  8
0
100
AcDbVertex
100
AcDb2dVertex
 10
-63.27861309051513
 20
27.95038612124233
 30
0.0
  0
VERTEX
  5
5BB
330
527
100
AcDbEntity
  8
0
100
AcDbVertex
100
AcDb2dVertex
 10
-63.32008361816406
 20
27.74341733691006
 30
0.0
  0
VERTEX
  5
5BC
330
527
100
AcDbEntity
  8
0
100
AcDbVertex
100
AcDb2dVertex
 10
-63.36203575134277
 20
27.53837974306851
 30
0.0
  0
VERTEX
  5
5BD
330
527
100
AcDbEntity
  8
0
100
AcDbVertex
100
AcDb2dVertex
 10
-63.40443134307861
 20
27.33530671831875
 30
0.0
  0
VERTEX
  5
5BE
330
527
100
AcDbEntity
  8
0
100
AcDbVertex
100
AcDb2dVertex
 10
-63.44723224639892
 20
27.13423402544766
 30
0.0
  0
VERTEX
  5
5BF
330
527
100
AcDbEntity
  8
0
100
AcDbVertex
100
AcDb2dVertex
 10
-63.49040985107421
 20
26.93519981142788
 30
0.0
  0
VERTEX
  5
5C0
330
527
100
AcDbEntity
  8
0
100
AcDbVertex
100
AcDb2dVertex
 10
-63.53393077850341
 20
26.73823507067471
 30
0.0
  0
VERTEX
  5
5C1
330
527
100
AcDbEntity
  8
0
100
AcDbVertex
100
AcDb2dVertex
 10
-63.57775688171386
 20
26.54337795016079
 30
0.0
  0
VERTEX
  5
5C2
330
527
100
AcDbEntity
  8
0
100
AcDbVertex
100
AcDb2dVertex
 10
-63.62185955047607
 20
26.35066182848721
 30
0.0
  0
VERTEX
  5
5C3
330
527
100
AcDbEntity
  8
0
100
AcDbVertex
100
AcDb2dVertex
 10
-63.6661958694458
 20
26.16012246844082
 30
0.0
  0
VERTEX
  5
5C4
330
527
100
AcDbEntity
  8
0
100
AcDbVertex
100
AcDb2dVertex
 10
-63.71073722839355
 20
25.9717956328085
 30
0.0
  0
VERTEX
  5
5C5
330
527
100
AcDbEntity
  8
0
100
AcDbVertex
100
AcDb2dVertex
 10
-63.75545024871826
 20
25.7857170843771
 30
0.0
  0
VERTEX
  5
5C6
330
527
100
AcDbEntity
  8
0
100
AcDbVertex
100
AcDb2dVertex
 10
-63.80029678344726
 20
25.6019225859335
 30
0.0
  0
VERTEX
  5
5C7
330
527
100
AcDbEntity
  8
0
100
AcDbVertex
100
AcDb2dVertex
 10
-63.84524822235107
 20
25.42044313189297
 30
0.0
  0
VERTEX
  5
5C8
330
527
100
AcDbEntity
  8
0
100
AcDbVertex
100
AcDb2dVertex
 10
-63.89026641845703
 20
25.24131925341396
 30
0.0
  0
VERTEX
  5
5C9
330
527
100
AcDbEntity
  8
0
100
AcDbVertex
100
AcDb2dVertex
 10
-63.93531799316406
 20
25.06458432909756
 30
0.0
  0
VERTEX
  5
5CA
330
527
100
AcDbEntity
  8
0
100
AcDbVertex
100
AcDb2dVertex
 10
-63.98036956787109
 20
24.89027173754482
 30
0.0
  0
VERTEX
  5
5CB
330
527
100
AcDbEntity
  8
0
100
AcDbVertex
100
AcDb2dVertex
 10
-64.02538299560546
 20
24.71841724154263
 30
0.0
  0
VERTEX
  5
5CC
330
527
100
AcDbEntity
  8
0
100
AcDbVertex
100
AcDb2dVertex
 10
-64.07032966613769
 20
24.54905898806362
 30
0.0
  0
VERTEX
  5
5CD
330
527
100
AcDbEntity
  8
0
100
AcDbVertex
100
AcDb2dVertex
 10
-64.11517620086669
 20
24.38223035570889
 30
0.0
  0
VERTEX
  5
5CE
330
527
100
AcDbEntity
  8
0
100
AcDbVertex
100
AcDb2dVertex
 10
-64.15987968444824
 20
24.21796472307949
 30
0.0
  0
VERTEX
  5
5CF
330
527
100
AcDbEntity
  8
0
100
AcDbVertex
100
AcDb2dVertex
 10
-64.20441627502441
 20
24.0563002371481
 30
0.0
  0
VERTEX
  5
5D0
330
527
100
AcDbEntity
  8
0
100
AcDbVertex
100
AcDb2dVertex
 10
-64.24874305725097
 20
23.89727027651577
 30
0.0
  0
VERTEX
  5
5D1
330
527
100
AcDbEntity
  8
0
100
AcDbVertex
100
AcDb2dVertex
 10
-64.29283142089843
 20
23.74091298815518
 30
0.0
  0
VERTEX
  5
5D2
330
527
100
AcDbEntity
  8
0
100
AcDbVertex
100
AcDb2dVertex
 10
-64.33664798736572
 20
23.58725936648159
 30
0.0
  0
VERTEX
  5
5D3
330
527
100
AcDbEntity
  8
0
100
AcDbVertex
100
AcDb2dVertex
 10
-64.38015460968017
 20
23.43634755846768
 30
0.0
  0
VERTEX
  5
5D4
330
527
100
AcDbEntity
  8
0
100
AcDbVertex
100
AcDb2dVertex
 10
-64.42331790924072
 20
23.2882109427145
 30
0.0
  0
VERTEX
  5
5D5
330
527
100
AcDbEntity
  8
0
100
AcDbVertex
100
AcDb2dVertex
 10
-64.46610450744628
 20
23.14288528200894
 30
0.0
  0
VERTEX
  5
5D6
330
527
100
AcDbEntity
  8
0
100
AcDbVertex
100
AcDb2dVertex
 10
-64.5084810256958
 20
23.00040872332363
 30
0.0
  0
VERTEX
  5
5D7
330
527
100
AcDbEntity
  8
0
100
AcDbVertex
100
AcDb2dVertex
 10
-64.5504093170166
 20
22.86081226107388
 30
0.0
  0
VERTEX
  5
5D8
330
527
100
AcDbEntity
  8
0
100
AcDbVertex
100
AcDb2dVertex
 10
-64.59186553955078
 20
22.72413404223232
 30
0.0
  0
VERTEX
  5
5D9
330
527
100
AcDbEntity
  8
0
100
AcDbVertex
100
AcDb2dVertex
 10
-64.63280200958251
 20
22.59040744540005
 30
0.0
  0
VERTEX
  5
5DA
330
527
100
AcDbEntity
  8
0
100
AcDbVertex
100
AcDb2dVertex
 10
-64.6731948852539
 20
22.45967061754971
 30
0.0
  0
VERTEX
  5
5DB
330
527
100
AcDbEntity
  8
0
100
AcDbVertex
100
AcDb2dVertex
 10
-64.7130012512207
 20
22.33195455309658
 30
0.0
  0
VERTEX
  5
5DC
330
527
100
AcDbEntity
  8
0
100
AcDbVertex
100
AcDb2dVertex
 10
-64.752197265625
 20
22.20729739901333
 30
0.0
  0
VERTEX
  5
5DD
330
527
100
AcDbEntity
  8
0
100
AcDbVertex
100
AcDb2dVertex
 10
-64.79074001312255
 20
22.08573253390103
 30
0.0
  0
VERTEX
  5
5DE
330
527
100
AcDbEntity
  8
0
100
AcDbVertex
100
AcDb2dVertex
 10
-64.82860088348388
 20
21.96729810473232
 30
0.0
  0
VERTEX
  5
5DF
330
527
100
AcDbEntity
  8
0
100
AcDbVertex
100
AcDb2dVertex
 10
-64.86574172973632
 20
21.85202510592251
 30
0.0
  0
VERTEX
  5
5E0
330
527
100
AcDbEntity
  8
0
100
AcDbVertex
100
AcDb2dVertex
 10
-64.9021291732788
 20
21.73995406863003
 30
0.0
  0
VERTEX
  5
5E1
330
527
100
AcDbEntity
  8
0
100
AcDbVertex
100
AcDb2dVertex
 10
-64.93772983551025
 20
21.63111598727017
 30
0.0
  0
VERTEX
  5
5E2
330
527
100
AcDbEntity
  8
0
100
AcDbVertex
100
AcDb2dVertex
 10
-64.97251033782958
 20
21.52554662462978
 30
0.0
  0
VERTEX
  5
5E3
330
527
100
AcDbEntity
  8
0
100
AcDbVertex
100
AcDb2dVertex
 10
-65.00643730163574
 20
21.42328412768154
 30
0.0
  0
VERTEX
  5
5E4
330
527
100
AcDbEntity
  8
0
100
AcDbVertex
100
AcDb2dVertex
 10
-65.03947257995605
 20
21.32435949084072
 30
0.0
  0
VERTEX
  5
5E5
330
527
100
AcDbEntity
  8
0
100
AcDbVertex
100
AcDb2dVertex
 10
-65.07158756256103
 20
21.22881324526577
 30
0.0
  0
VERTEX
  5
5E6
330
527
100
AcDbEntity
  8
0
100
AcDbVertex
100
AcDb2dVertex
 10
-65.10274410247802
 20
21.13667400118618
 30
0.0
  0
VERTEX
  5
5E7
330
527
100
AcDbEntity
  8
0
100
AcDbVertex
100
AcDb2dVertex
 10
-65.13290405273437
 20
21.04798467394619
 30
0.0
  0
VERTEX
  5
5E8
330
527
100
AcDbEntity
  8
0
100
AcDbVertex
100
AcDb2dVertex
 10
-65.16204357147216
 20
20.96277387377529
 30
0.0
  0
VERTEX
  5
5E9
330
527
100
AcDbEntity
  8
0
100
AcDbVertex
100
AcDb2dVertex
 10
-65.19011974334716
 20
20.88107974764614
 30
0.0
  0
VERTEX
  5
5EA
330
527
100
AcDbEntity
  8
0
100
AcDbVertex
100
AcDb2dVertex
 10
-65.21710395812988
 20
20.80293567415981
 30
0.0
  0
VERTEX
  5
5EB
330
527
100
AcDbEntity
  8
0
100
AcDbVertex
100
AcDb2dVertex
 10
-65.24295806884765
 20
20.72837980028896
 30
0.0
  0
VERTEX
  5
5EC
330
527
100
AcDbEntity
  8
0
100
AcDbVertex
100
AcDb2dVertex
 10
-65.26764869689941
 20
20.65744788882046
 30
0.0
  0
VERTEX
  5
5ED
330
527
100
AcDbEntity
  8
0
100
AcDbVertex
100
AcDb2dVertex
 10
-65.29114246368408
 20
20.59017093416958
 30
0.0
  0
VERTEX
  5
5EE
330
527
100
AcDbEntity
  8
0
100
AcDbVertex
100
AcDb2dVertex
 10
-65.31341075897216
 20
20.52658708330898
 30
0.0
  0
VERTEX
  5
5EF
330
527
100
AcDbEntity
  8
0
100
AcDbVertex
100
AcDb2dVertex
 10
-65.33440589904785
 20
20.46673209902554
 30
0.0
  0
VERTEX
  5
5F0
330
527
100
AcDbEntity
  8
0
100
AcDbVertex
100
AcDb2dVertex
 10
-65.35410404205322
 20
20.41063935992031
 30
0.0
  0
VERTEX
  5
5F1
330
527
100
AcDbEntity
  8
0
100
AcDbVertex
100
AcDb2dVertex
 10
-65.37227630615234
 20
20.35843999621182
 30
0.0
  0
VERTEX
  5
5F2
330
527
100
AcDbEntity
  8
0
100
AcDbVertex
100
AcDb2dVertex
 10
-65.38877964019775
 20
20.31020553347378
 30
0.0
  0
VERTEX
  5
5F3
330
527
100
AcDbEntity
  8
0
100
AcDbVertex
100
AcDb2dVertex
 10
-65.40363788604736
 20
20.26591212984829
 30
0.0
  0
VERTEX
  5
5F4
330
527
100
AcDbEntity
  8
0
100
AcDbVertex
100
AcDb2dVertex
 10
-65.41687965393066
 20
20.22554071184902
 30
0.0
  0
VERTEX
  5
5F5
330
527
100
AcDbEntity
  8
0
100
AcDbVertex
100
AcDb2dVertex
 10
-65.42852401733398
 20
20.18907220598965
 30
0.0
  0
VERTEX
  5
5F6
330
527
100
AcDbEntity
  8
0
100
AcDbVertex
100
AcDb2dVertex
 10
-65.43859004974365
 20
20.15648277041226
 30
0.0
  0
VERTEX
  5
5F7
330
527
100
AcDbEntity
  8
0
100
AcDbVertex
100
AcDb2dVertex
 10
-65.44710636138916
 20
20.1277581000021
 30
0.0
  0
VERTEX
  5
5F8
330
527
100
AcDbEntity
  8
0
100
AcDbVertex
100
AcDb2dVertex
 10
-65.45409679412841
 20
20.10287196871548
 30
0.0
  0
VERTEX
  5
5F9
330
527
100
AcDbEntity
  8
0
100
AcDbVertex
100
AcDb2dVertex
 10
-65.45958518981933
 20
20.08181007143765
 30
0.0
  0
VERTEX
  5
5FA
330
527
100
AcDbEntity
  8
0
100
AcDbVertex
100
AcDb2dVertex
 10
-65.46358585357666
 20
20.0645461821249
 30
0.0
  0
VERTEX
  5
5FB
330
527
100
AcDbEntity
  8
0
100
AcDbVertex
100
AcDb2dVertex
 10
-65.46613216400146
 20
20.05106361147671
 30
0.0
  0
VERTEX
  5
5FC
330
527
100
AcDbEntity
  8
0
100
AcDbVertex
100
AcDb2dVertex
 10
-65.46724319458007
 20
20.04134328600674
 30
0.0
  0
VERTEX
  5
5FD
330
527
100
AcDbEntity
  8
0
100
AcDbVertex
100
AcDb2dVertex
 10
-65.46694755554199
 20
20.03536136385708
 30
0.0
  0
VERTEX
  5
5FE
330
527
100
AcDbEntity
  8
0
100
AcDbVertex
100
AcDb2dVertex
 10
-65.46525478363037
 20
20.03309877154141
 30
0.0
  0
VERTEX
  5
5FF
330
527
100
AcDbEntity
  8
0
100
AcDbVertex
100
AcDb2dVertex
 10
-65.46220302581787
 20
20.03453881975918
 30
0.0
  0
SEQEND
  5
600
330
527
100
AcDbEntity
  8
0
  0
LINE
  5
601
330
1F
100
AcDbEntity
  8
0
100
AcDbLine
 10
-62.5
 20
16.99999999999943
 30
0.0
 11
-62.5
 21
15.89125017909953
 31
0.0
  0
ARC
  5
602
330
1F
100
AcDbEntity
  8
0
100
AcDbCircle
 10
-61.5
 20
15.89125017909953
 30
0.0
 40
0.9999999999999854
100
AcDbArc
 50
180.0
 51
263.4180553448274
  0
LINE
  5
603
330
1F
100
AcDbEntity
  8
0
100
AcDbLine
 10
-65.5
 20
19.99999999999943
 30
0.0
 11
-70.80000000000018
 21
19.99999999999943
 31
0.0
  0
LINE
  5
604
330
1F
100
AcDbEntity
  8
0
100
AcDbLine
 10
-71.30000000000018
 20
20.49999999999943
 30
0.0
 11
-70.80000000000018
 21
19.99999999999943
 31
0.0
  0
POLYLINE
  5
605
330
1F
100
AcDbEntity
  8
0
100
AcDb2dPolyline
 66
     1
 10
0.0
 20
0.0
 30
0.0
  0
VERTEX
  5
606
330
605
100
AcDbEntity
  8
0
100
AcDbVertex
100
AcDb2dVertex
 10
-62.5
 20
16.99999959704189
 30
0.0
  0
VERTEX
  5
607
330
605
100
AcDbEntity
  8
0
100
AcDbVertex
100
AcDb2dVertex
 10
-62.53170490264892
 20
17.19295056101589
 30
0.0
  0
VERTEX
  5
608
330
605
100
AcDbEntity
  8
0
100
AcDbVertex
100
AcDb2dVertex
 10
-62.56340980529785
 20
17.38590033289699
 30
0.0
  0
VERTEX
  5
609
330
605
100
AcDbEntity
  8
0
100
AcDbVertex
100
AcDb2dVertex
 10
-62.59511947631835
 20
17.57885129687099
 30
0.0
  0
VERTEX
  5
60A
330
605
100
AcDbEntity
  8
0
100
AcDbVertex
100
AcDb2dVertex
 10
-62.62682437896728
 20
17.77180106875209
 30
0.0
  0
VERTEX
  5
60B
330
605
100
AcDbEntity
  8
0
100
AcDbVertex
100
AcDb2dVertex
 10
-62.65999317169189
 20
17.96425850626735
 30
0.0
  0
VERTEX
  5
60C
330
605
100
AcDbEntity
  8
0
100
AcDbVertex
100
AcDb2dVertex
 10
-62.75126457214355
 20
18.1371894621542
 30
0.0
  0
VERTEX
  5
60D
330
605
100
AcDbEntity
  8
0
100
AcDbVertex
100
AcDb2dVertex
 10
-62.84253597259521
 20
18.31011922594814
 30
0.0
  0
VERTEX
  5
60E
330
605
100
AcDbEntity
  8
0
100
AcDbVertex
100
AcDb2dVertex
 10
-62.93380260467529
 20
18.48305018183498
 30
0.0
  0
VERTEX
  5
60F
330
605
100
AcDbEntity
  8
0
100
AcDbVertex
100
AcDb2dVertex
 10
-63.02507400512695
 20
18.65597994562893
 30
0.0
  0
VERTEX
  5
610
330
605
100
AcDbEntity
  8
0
100
AcDbVertex
100
AcDb2dVertex
 10
-63.12326431274414
 20
18.82369668719082
 30
0.0
  0
VERTEX
  5
611
330
605
100
AcDbEntity
  8
0
100
AcDbVertex
100
AcDb2dVertex
 10
-63.26428890228271
 20
18.95915181872158
 30
0.0
  0
VERTEX
  5
612
330
605
100
AcDbEntity
  8
0
100
AcDbVertex
100
AcDb2dVertex
 10
-63.54632854461669
 20
19.2300620817831
 30
0.0
  0
VERTEX
  5
613
330
605
100
AcDbEntity
  8
0
100
AcDbVertex
100
AcDb2dVertex
 10
-63.68735313415527
 20
19.36551721331386
 30
0.0
  0
VERTEX
  5
614
330
605
100
AcDbEntity
  8
0
100
AcDbVertex
100
AcDb2dVertex
 10
-63.837251663208
 20
19.48814304110317
 30
0.0
  0
VERTEX
  5
615
330
605
100
AcDbEntity
  8
0
100
AcDbVertex
100
AcDb2dVertex
 10
-64.01371955871582
 20
19.57236082789211
 30
0.0
  0
VERTEX
  5
616
330
605
100
AcDbEntity
  8
0
100
AcDbVertex
100
AcDb2dVertex
 10
-64.19019222259521
 20
19.65657742258816
 30
0.0
  0
VERTEX
  5
617
330
605
100
AcDbEntity
  8
0
100
AcDbVertex
100
AcDb2dVertex
 10
-64.3666648864746
 20
19.7407952093771
 30
0.0
  0
VERTEX
  5
618
330
605
100
AcDbEntity
  8
0
100
AcDbVertex
100
AcDb2dVertex
 10
-64.543137550354
 20
19.82501418825893
 30
0.0
  0
VERTEX
  5
619
330
605
100
AcDbEntity
  8
0
100
AcDbVertex
100
AcDb2dVertex
 10
-64.72579002380371
 20
19.8888173842123
 30
0.0
  0
VERTEX
  5
61A
330
605
100
AcDbEntity
  8
0
100
AcDbVertex
100
AcDb2dVertex
 10
-64.91934299468994
 20
19.91661222216396
 30
0.0
  0
VERTEX
  5
61B
330
605
100
AcDbEntity
  8
0
100
AcDbVertex
100
AcDb2dVertex
 10
-65.11289596557617
 20
19.94440944430141
 30
0.0
  0
VERTEX
  5
61C
330
605
100
AcDbEntity
  8
0
100
AcDbVertex
100
AcDb2dVertex
 10
-65.50000190734863
 20
19.99999912020473
 30
0.0
  0
SEQEND
  5
61D
330
605
100
AcDbEntity
  8
0
  0
POLYLINE
  5
61E
330
1F
100
AcDbEntity
  8
0
100
AcDb2dPolyline
 66
     1
 10
0.0
 20
0.0
 30
0.0
  0
VERTEX
  5
61F
330
61E
100
AcDbEntity
  8
0
100
AcDbVertex
100
AcDb2dVertex
 10
-62.78441905975341
 20
55.7250014090231
 30
0.0
  0
VERTEX
  5
620
330
61E
100
AcDbEntity
  8
0
100
AcDbVertex
100
AcDb2dVertex
 10
-62.75782108306884
 20
55.76372535464077
 30
0.0
  0
VERTEX
  5
621
330
61E
100
AcDbEntity
  8
0
100
AcDbVertex
100
AcDb2dVertex
 10
-62.73122787475585
 20
55.80244930025845
 30
0.0
  0
VERTEX
  5
622
330
61E
100
AcDbEntity
  8
0
100
AcDbVertex
100
AcDb2dVertex
 10
-62.65143394470214
 20
55.91862113711147
 30
0.0
  0
VERTEX
  5
623
330
61E
100
AcDbEntity
  8
0
100
AcDbVertex
100
AcDb2dVertex
 10
-62.62484073638916
 20
55.95734508272915
 30
0.0
  0
VERTEX
  5
624
330
61E
100
AcDbEntity
  8
0
100
AcDbVertex
100
AcDb2dVertex
 10
-62.59718418121337
 20
55.99505813357144
 30
0.0
  0
VERTEX
  5
625
330
61E
100
AcDbEntity
  8
0
100
AcDbVertex
100
AcDb2dVertex
 10
-62.5596809387207
 20
56.02334888216763
 30
0.0
  0
VERTEX
  5
626
330
61E
100
AcDbEntity
  8
0
100
AcDbVertex
100
AcDb2dVertex
 10
-62.52217292785644
 20
56.05163486239224
 30
0.0
  0
VERTEX
  5
627
330
61E
100
AcDbEntity
  8
0
100
AcDbVertex
100
AcDb2dVertex
 10
-62.48466491699218
 20
56.07992561098843
 30
0.0
  0
VERTEX
  5
628
330
61E
100
AcDbEntity
  8
0
100
AcDbVertex
100
AcDb2dVertex
 10
-62.44716167449951
 20
56.10821159121304
 30
0.0
  0
VERTEX
  5
629
330
61E
100
AcDbEntity
  8
0
100
AcDbVertex
100
AcDb2dVertex
 10
-62.40965366363525
 20
56.13650233980923
 30
0.0
  0
VERTEX
  5
62A
330
61E
100
AcDbEntity
  8
0
100
AcDbVertex
100
AcDb2dVertex
 10
-62.37214565277099
 20
56.16478832003384
 30
0.0
  0
VERTEX
  5
62B
330
61E
100
AcDbEntity
  8
0
100
AcDbVertex
100
AcDb2dVertex
 10
-62.33241081237792
 20
56.18886382815151
 30
0.0
  0
VERTEX
  5
62C
330
61E
100
AcDbEntity
  8
0
100
AcDbVertex
100
AcDb2dVertex
 10
-62.19891548156738
 20
56.23403938051968
 30
0.0
  0
VERTEX
  5
62D
330
61E
100
AcDbEntity
  8
0
100
AcDbVertex
100
AcDb2dVertex
 10
-62.15441226959228
 20
56.24909789797573
 30
0.0
  0
VERTEX
  5
62E
330
61E
100
AcDbEntity
  8
0
100
AcDbVertex
100
AcDb2dVertex
 10
-62.06541538238525
 20
56.27921493288784
 30
0.0
  0
VERTEX
  5
62F
330
61E
100
AcDbEntity
  8
0
100
AcDbVertex
100
AcDb2dVertex
 10
-62.01967239379882
 20
56.28829391238003
 30
0.0
  0
VERTEX
  5
630
330
61E
100
AcDbEntity
  8
0
100
AcDbVertex
100
AcDb2dVertex
 10
-61.97285652160644
 20
56.29219444033413
 30
0.0
  0
VERTEX
  5
631
330
61E
100
AcDbEntity
  8
0
100
AcDbVertex
100
AcDb2dVertex
 10
-61.92604064941406
 20
56.29609973665981
 30
0.0
  0
VERTEX
  5
632
330
61E
100
AcDbEntity
  8
0
100
AcDbVertex
100
AcDb2dVertex
 10
-61.87922477722167
 20
56.30000026461392
 30
0.0
  0
SEQEND
  5
633
330
61E
100
AcDbEntity
  8
0
  0
LINE
  5
634
330
1F
100
AcDbEntity
  8
0
100
AcDbLine
 10
-65.5
 20
53.99999999999943
 30
0.0
 11
-70.80000000000018
 21
53.99999999999943
 31
0.0
  0
LINE
  5
635
330
1F
100
AcDbEntity
  8
0
100
AcDbLine
 10
-71.30000000000018
 20
53.49999999999943
 30
0.0
 11
-70.80000000000018
 21
53.99999999999943
 31
0.0
  0
POLYLINE
  5
636
330
1F
100
AcDbEntity
  8
0
100
AcDb2dPolyline
 66
     1
 10
0.0
 20
0.0
 30
0.0
  0
VERTEX
  5
637
330
636
100
AcDbEntity
  8
0
100
AcDbVertex
100
AcDb2dVertex
 10
-65.50000190734863
 20
54.00000007387905
 30
0.0
  0
VERTEX
  5
638
330
636
100
AcDbEntity
  8
0
100
AcDbVertex
100
AcDb2dVertex
 10
-65.36093235015869
 20
54.02285011050015
 30
0.0
  0
VERTEX
  5
639
330
636
100
AcDbEntity
  8
0
100
AcDbVertex
100
AcDb2dVertex
 10
-65.22185802459716
 20
54.04570491549282
 30
0.0
  0
VERTEX
  5
63A
330
636
100
AcDbEntity
  8
0
100
AcDbVertex
100
AcDb2dVertex
 10
-65.08278846740722
 20
54.06855495211392
 30
0.0
  0
VERTEX
  5
63B
330
636
100
AcDbEntity
  8
0
100
AcDbVertex
100
AcDb2dVertex
 10
-64.94371891021728
 20
54.09140975710659
 30
0.0
  0
VERTEX
  5
63C
330
636
100
AcDbEntity
  8
0
100
AcDbVertex
100
AcDb2dVertex
 10
-64.80464935302734
 20
54.11425979372769
 30
0.0
  0
VERTEX
  5
63D
330
636
100
AcDbEntity
  8
0
100
AcDbVertex
100
AcDb2dVertex
 10
-64.6655797958374
 20
54.13711459872036
 30
0.0
  0
VERTEX
  5
63E
330
636
100
AcDbEntity
  8
0
100
AcDbVertex
100
AcDb2dVertex
 10
-64.52790737152099
 20
54.16412742373257
 30
0.0
  0
VERTEX
  5
63F
330
636
100
AcDbEntity
  8
0
100
AcDbVertex
100
AcDb2dVertex
 10
-64.27862644195556
 20
54.29569633242397
 30
0.0
  0
VERTEX
  5
640
330
636
100
AcDbEntity
  8
0
100
AcDbVertex
100
AcDb2dVertex
 10
-64.15398597717285
 20
54.3614760183981
 30
0.0
  0
VERTEX
  5
641
330
636
100
AcDbEntity
  8
0
100
AcDbVertex
100
AcDb2dVertex
 10
-63.7800645828247
 20
54.5588293814352
 30
0.0
  0
VERTEX
  5
642
330
636
100
AcDbEntity
  8
0
100
AcDbVertex
100
AcDb2dVertex
 10
-63.66403579711914
 20
54.63603885409145
 30
0.0
  0
VERTEX
  5
643
330
636
100
AcDbEntity
  8
0
100
AcDbVertex
100
AcDb2dVertex
 10
-63.56640338897705
 20
54.73768146273403
 30
0.0
  0
VERTEX
  5
644
330
636
100
AcDbEntity
  8
0
100
AcDbVertex
100
AcDb2dVertex
 10
-63.46877574920654
 20
54.83932407137661
 30
0.0
  0
VERTEX
  5
645
330
636
100
AcDbEntity
  8
0
100
AcDbVertex
100
AcDb2dVertex
 10
-63.37114334106445
 20
54.94096668001919
 30
0.0
  0
VERTEX
  5
646
330
636
100
AcDbEntity
  8
0
100
AcDbVertex
100
AcDb2dVertex
 10
-63.27351570129394
 20
55.04260452029019
 30
0.0
  0
VERTEX
  5
647
330
636
100
AcDbEntity
  8
0
100
AcDbVertex
100
AcDb2dVertex
 10
-63.17588329315185
 20
55.14424712893276
 30
0.0
  0
VERTEX
  5
648
330
636
100
AcDbEntity
  8
0
100
AcDbVertex
100
AcDb2dVertex
 10
-63.07825565338134
 20
55.24588973757534
 30
0.0
  0
VERTEX
  5
649
330
636
100
AcDbEntity
  8
0
100
AcDbVertex
100
AcDb2dVertex
 10
-62.99527645111083
 20
55.35852821108608
 30
0.0
  0
VERTEX
  5
64A
330
636
100
AcDbEntity
  8
0
100
AcDbVertex
100
AcDb2dVertex
 10
-62.85470485687255
 20
55.60284049746304
 30
0.0
  0
VERTEX
  5
64B
330
636
100
AcDbEntity
  8
0
100
AcDbVertex
100
AcDb2dVertex
 10
-62.78441905975341
 20
55.7250014090231
 30
0.0
  0
SEQEND
  5
64C
330
636
100
AcDbEntity
  8
0
  0
LINE
  5
64D
330
1F
100
AcDbEntity
  8
0
100
AcDbLine
 10
-40.0
 20
-0.0000000000005684
 30
0.0
 11
-40.0
 21
12.43976408555625
 31
0.0
  0
LINE
  5
64E
330
1F
100
AcDbEntity
  8
0
100
AcDbLine
 10
-36.15591237958188
 20
9.32624946269891
 30
0.0
 11
-36.15591237958188
 21
0.9999999999994315
 31
0.0
  0
LINE
  5
64F
330
1F
100
AcDbEntity
  8
0
100
AcDbLine
 10
40.0
 20
0.0000000000005684
 30
0.0
 11
39.99999999999955
 21
12.43976408555738
 31
0.0
  0
LINE
  5
650
330
1F
100
AcDbEntity
  8
0
100
AcDbLine
 10
36.5
 20
9.32624946269891
 30
0.0
 11
36.5
 21
0.9999999999994315
 31
0.0
  0
LINE
  5
651
330
1F
100
AcDbEntity
  8
0
100
AcDbLine
 10
-36.15591237958188
 20
0.9999999999994315
 30
0.0
 11
36.5
 21
0.9999999999994315
 31
0.0
  0
LINE
  5
652
330
1F
100
AcDbEntity
  8
0
100
AcDbLine
 10
-40.0
 20
-0.0000000000005684
 30
0.0
 11
40.0
 21
0.0000000000005684
 31
0.0
  0
POLYLINE
  5
653
330
1F
100
AcDbEntity
  8
0
100
AcDb2dPolyline
 66
     1
 10
0.0
 20
0.0
 30
0.0
  0
VERTEX
  5
654
330
653
100
AcDbEntity
  8
0
100
AcDbVertex
100
AcDb2dVertex
 10
-35.14612436294556
 20
-0.0000000043520458
 30
0.0
  0
VERTEX
  5
655
330
653
100
AcDbEntity
  8
0
100
AcDbVertex
100
AcDb2dVertex
 10
-35.1876425743103
 20
0.0411047184160225
 30
0.0
  0
VERTEX
  5
656
330
653
100
AcDbEntity
  8
0
100
AcDbVertex
100
AcDb2dVertex
 10
-35.22920846939087
 20
0.0822576650670044
 30
0.0
  0
VERTEX
  5
657
330
653
100
AcDbEntity
  8
0
100
AcDbVertex
100
AcDb2dVertex
 10
-35.27082204818726
 20
0.1234589659860603
 30
0.0
  0
VERTEX
  5
658
330
653
100
AcDbEntity
  8
0
100
AcDbVertex
100
AcDb2dVertex
 10
-35.31248331069946
 20
0.1647086584260933
 30
0.0
  0
VERTEX
  5
659
330
653
100
AcDbEntity
  8
0
100
AcDbVertex
100
AcDb2dVertex
 10
-35.35419225692749
 20
0.2060068913987152
 30
0.0
  0
VERTEX
  5
65A
330
653
100
AcDbEntity
  8
0
100
AcDbVertex
100
AcDb2dVertex
 10
-35.39595127105713
 20
0.2473536649039261
 30
0.0
  0
VERTEX
  5
65B
330
653
100
AcDbEntity
  8
0
100
AcDbVertex
100
AcDb2dVertex
 10
-35.4377555847168
 20
0.2887490907004348
 30
0.0
  0
VERTEX
  5
65C
330
653
100
AcDbEntity
  8
0
100
AcDbVertex
100
AcDb2dVertex
 10
-35.47960996627808
 20
0.3301932805469505
 30
0.0
  0
VERTEX
  5
65D
330
653
100
AcDbEntity
  8
0
100
AcDbVertex
100
AcDb2dVertex
 10
-35.52151203155518
 20
0.371686308949279
 30
0.0
  0
VERTEX
  5
65E
330
653
100
AcDbEntity
  8
0
100
AcDbVertex
100
AcDb2dVertex
 10
-35.56346416473389
 20
0.4132282876661293
 30
0.0
  0
VERTEX
  5
65F
330
653
100
AcDbEntity
  8
0
100
AcDbVertex
100
AcDb2dVertex
 10
-35.60546398162842
 20
0.4548192166975014
 30
0.0
  0
VERTEX
  5
660
330
653
100
AcDbEntity
  8
0
100
AcDbVertex
100
AcDb2dVertex
 10
-35.64751148223877
 20
0.4964593195608132
 30
0.0
  0
VERTEX
  5
661
330
653
100
AcDbEntity
  8
0
100
AcDbVertex
100
AcDb2dVertex
 10
-35.68960905075073
 20
0.5381485217502587
 30
0.0
  0
VERTEX
  5
662
330
653
100
AcDbEntity
  8
0
100
AcDbVertex
100
AcDb2dVertex
 10
-35.73175430297852
 20
0.5798869722774498
 30
0.0
  0
VERTEX
  5
663
330
653
100
AcDbEntity
  8
0
100
AcDbVertex
100
AcDb2dVertex
 10
-35.77394962310791
 20
0.6216748201539986
 30
0.0
  0
VERTEX
  5
664
330
653
100
AcDbEntity
  8
0
100
AcDbVertex
100
AcDb2dVertex
 10
-35.81619262695312
 20
0.663512065379905
 30
0.0
  0
VERTEX
  5
665
330
653
100
AcDbEntity
  8
0
100
AcDbVertex
100
AcDb2dVertex
 10
-35.85848331451416
 20
0.7053988569667809
 30
0.0
  0
VERTEX
  5
666
330
653
100
AcDbEntity
  8
0
100
AcDbVertex
100
AcDb2dVertex
 10
-35.9008264541626
 20
0.7473351949146263
 30
0.0
  0
VERTEX
  5
667
330
653
100
AcDbEntity
  8
0
100
AcDbVertex
100
AcDb2dVertex
 10
-35.94321727752685
 20
0.7893213027408592
 30
0.0
  0
VERTEX
  5
668
330
653
100
AcDbEntity
  8
0
100
AcDbVertex
100
AcDb2dVertex
 10
-35.98565816879272
 20
0.8313571059396736
 30
0.0
  0
VERTEX
  5
669
330
653
100
AcDbEntity
  8
0
100
AcDbVertex
100
AcDb2dVertex
 10
-36.02814674377441
 20
0.8734428280284873
 30
0.0
  0
VERTEX
  5
66A
330
653
100
AcDbEntity
  8
0
100
AcDbVertex
100
AcDb2dVertex
 10
-36.07068538665771
 20
0.9155784690073005
 30
0.0
  0
VERTEX
  5
66B
330
653
100
AcDbEntity
  8
0
100
AcDbVertex
100
AcDb2dVertex
 10
-36.11327409744263
 20
0.957764252393531
 30
0.0
  0
VERTEX
  5
66C
330
653
100
AcDbEntity
  8
0
100
AcDbVertex
100
AcDb2dVertex
 10
-36.15591287612915
 20
0.9999999546697608
 30
0.0
  0
SEQEND
  5
66D
330
653
100
AcDbEntity
  8
0
  0
LINE
  5
66E
330
1F
100
AcDbEntity
  8
0
100
AcDbLine
 10
35.5
 20
-0.0000000000005684
 30
0.0
 11
36.5
 21
0.9999999999994315
 31
0.0
  0
LINE
  5
66F
330
1F
100
AcDbEntity
  8
0
100
AcDbLine
 10
-38.83558078080864
 20
12.30647627031237
 30
0.0
 11
39.15612767604443
 21
12.30647627031237
 31
0.0
  0
LINE
  5
670
330
1F
100
AcDbEntity
  8
0
100
AcDbLine
 10
-36.50000000000046
 20
55.99999999999943
 30
0.0
 11
36.49999999999977
 21
55.99999999999943
 31
0.0
  0
LINE
  5
671
330
1F
100
AcDbEntity
  8
0
100
AcDbLine
 10
-15.00000000000045
 20
52.69999999999948
 30
0.0
 11
14.99999999999977
 21
52.69999999999924
 31
0.0
  0
LINE
  5
672
330
1F
100
AcDbEntity
  8
0
100
AcDbLine
 10
14.99999999999954
 20
21.69999999999925
 30
0.0
 11
0.4759451353932036
 21
21.69999999999936
 31
0.0
  0
LINE
  5
673
330
1F
100
AcDbEntity
  8
1
100
AcDbLine
 10
-7.301659045116593
 20
44.69999999999925
 30
0.0
 11
7.301659045116139
 21
44.69999999999925
 31
0.0
  0
LINE
  5
674
330
1F
100
AcDbEntity
  8
1
100
AcDbLine
 10
-7.301659045116593
 20
29.69999999999948
 30
0.0
 11
7.301659045116139
 21
29.69999999999948
 31
0.0
  0
LINE
  5
675
330
1F
100
AcDbEntity
  8
0
100
AcDbLine
 10
-41.50000000000045
 20
19.69999999999948
 30
0.0
 11
-41.5
 21
51.29999999999938
 31
0.0
  0
ARC
  5
676
330
1F
100
AcDbEntity
  8
0
100
AcDbCircle
 10
-36.50000000000046
 20
19.69999999999948
 30
0.0
 40
5.000000000000007
100
AcDbArc
 50
180.0
 51
270.0
  0
POLYLINE
  5
677
330
1F
100
AcDbEntity
  8
0
100
AcDb2dPolyline
 66
     1
 10
0.0
 20
0.0
 30
0.0
  0
VERTEX
  5
678
330
677
100
AcDbEntity
  8
0
100
AcDbVertex
100
AcDb2dVertex
 10
-36.15591287612915
 20
9.326249673335837
 30
0.0
  0
VERTEX
  5
679
330
677
100
AcDbEntity
  8
0
100
AcDbVertex
100
AcDb2dVertex
 10
-36.16209268569946
 20
9.502420737712668
 30
0.0
  0
VERTEX
  5
67A
330
677
100
AcDbEntity
  8
0
100
AcDbVertex
100
AcDb2dVertex
 10
-36.18015050888061
 20
9.684461071460532
 30
0.0
  0
VERTEX
  5
67B
330
677
100
AcDbEntity
  8
0
100
AcDbVertex
100
AcDb2dVertex
 10
-36.20936393737793
 20
9.868798568218039
 30
0.0
  0
VERTEX
  5
67C
330
677
100
AcDbEntity
  8
0
100
AcDbVertex
100
AcDb2dVertex
 10
-36.24901294708252
 20
10.05186350580959
 30
0.0
  0
VERTEX
  5
67D
330
677
100
AcDbEntity
  8
0
100
AcDbVertex
100
AcDb2dVertex
 10
-36.29837274551392
 20
10.2300825857809
 30
0.0
  0
VERTEX
  5
67E
330
677
100
AcDbEntity
  8
0
100
AcDbVertex
100
AcDb2dVertex
 10
-36.35672569274902
 20
10.39988548990993
 30
0.0
  0
VERTEX
  5
67F
330
677
100
AcDbEntity
  8
0
100
AcDbVertex
100
AcDb2dVertex
 10
-36.42445087432861
 20
10.56047232386379
 30
0.0
  0
VERTEX
  5
680
330
677
100
AcDbEntity
  8
0
100
AcDbVertex
100
AcDb2dVertex
 10
-36.50550842285156
 20
10.72157891032009
 30
0.0
  0
VERTEX
  5
681
330
677
100
AcDbEntity
  8
0
100
AcDbVertex
100
AcDb2dVertex
 10
-36.59858703613281
 20
10.88187487360744
 30
0.0
  0
VERTEX
  5
682
330
677
100
AcDbEntity
  8
0
100
AcDbVertex
100
AcDb2dVertex
 10
-36.70166015625
 20
11.03837759730129
 30
0.0
  0
VERTEX
  5
683
330
677
100
AcDbEntity
  8
0
100
AcDbVertex
100
AcDb2dVertex
 10
-36.81269884109497
 20
11.18810208079128
 30
0.0
  0
VERTEX
  5
684
330
677
100
AcDbEntity
  8
0
100
AcDbVertex
100
AcDb2dVertex
 10
-36.92968130111694
 20
11.32806451555996
 30
0.0
  0
VERTEX
  5
685
330
677
100
AcDbEntity
  8
0
100
AcDbVertex
100
AcDb2dVertex
 10
-37.05063819885254
 20
11.45533712145595
 30
0.0
  0
VERTEX
  5
686
330
677
100
AcDbEntity
  8
0
100
AcDbVertex
100
AcDb2dVertex
 10
-37.18112230300903
 20
11.57491834399013
 30
0.0
  0
VERTEX
  5
687
330
677
100
AcDbEntity
  8
0
100
AcDbVertex
100
AcDb2dVertex
 10
-37.32373237609863
 20
11.69015677210598
 30
0.0
  0
VERTEX
  5
688
330
677
100
AcDbEntity
  8
0
100
AcDbVertex
100
AcDb2dVertex
 10
-37.47548818588257
 20
11.79909141299038
 30
0.0
  0
VERTEX
  5
689
330
677
100
AcDbEntity
  8
0
100
AcDbVertex
100
AcDb2dVertex
 10
-37.63341426849365
 20
11.89975888964443
 30
0.0
  0
VERTEX
  5
68A
330
677
100
AcDbEntity
  8
0
100
AcDbVertex
100
AcDb2dVertex
 10
-37.79453277587891
 20
11.99019940134792
 30
0.0
  0
VERTEX
  5
68B
330
677
100
AcDbEntity
  8
0
100
AcDbVertex
100
AcDb2dVertex
 10
-37.95586585998535
 20
12.06845076319484
 30
0.0
  0
VERTEX
  5
68C
330
677
100
AcDbEntity
  8
0
100
AcDbVertex
100
AcDb2dVertex
 10
-38.11741590499878
 20
12.13404686686306
 30
0.0
  0
VERTEX
  5
68D
330
677
100
AcDbEntity
  8
0
100
AcDbVertex
100
AcDb2dVertex
 10
-38.28868627548218
 20
12.1916201853445
 30
0.0
  0
VERTEX
  5
68E
330
677
100
AcDbEntity
  8
0
100
AcDbVertex
100
AcDb2dVertex
 10
-38.46772670745849
 20
12.24047811266689
 30
0.0
  0
VERTEX
  5
68F
330
677
100
AcDbEntity
  8
0
100
AcDbVertex
100
AcDb2dVertex
 10
-38.65115404129028
 20
12.27922828432827
 30
0.0
  0
VERTEX
  5
690
330
677
100
AcDbEntity
  8
0
100
AcDbVertex
100
AcDb2dVertex
 10
-38.8355803489685
 20
12.30647595164089
 30
0.0
  0
SEQEND
  5
691
330
677
100
AcDbEntity
  8
0
  0
ARC
  5
692
330
1F
100
AcDbEntity
  8
0
100
AcDbCircle
 10
-48.5
 20
12.39125017909953
 30
0.0
 40
0.9999999999999875
100
AcDbArc
 50
180.0
 51
263.4180553448274
  0
LINE
  5
693
330
1F
100
AcDbEntity
  8
0
100
AcDbLine
 10
-49.5
 20
13.49999999999943
 30
0.0
 11
-49.5
 21
12.39125017909953
 31
0.0
  0
LINE
  5
694
330
1F
100
AcDbEntity
  8
0
100
AcDbLine
 10
-48.61462410798504
 20
11.39784124322853
 30
0.0
 11
-40.0
 21
10.40384615384562
 31
0.0
  0
POLYLINE
  5
695
330
1F
100
AcDbEntity
  8
0
100
AcDb2dPolyline
 66
     1
 10
0.0
 20
0.0
 30
0.0
  0
VERTEX
  5
696
330
695
100
AcDbEntity
  8
0
100
AcDbVertex
100
AcDb2dVertex
 10
-40.0
 20
12.43976385828762
 30
0.0
  0
VERTEX
  5
697
330
695
100
AcDbEntity
  8
0
100
AcDbVertex
100
AcDb2dVertex
 10
-39.95084047317505
 20
12.43413598772793
 30
0.0
  0
VERTEX
  5
698
330
695
100
AcDbEntity
  8
0
100
AcDbVertex
100
AcDb2dVertex
 10
-39.90173578262329
 20
12.42851407763271
 30
0.0
  0
VERTEX
  5
699
330
695
100
AcDbEntity
  8
0
100
AcDbVertex
100
AcDb2dVertex
 10
-39.85269069671631
 20
12.42289812800197
 30
0.0
  0
VERTEX
  5
69A
330
695
100
AcDbEntity
  8
0
100
AcDbVertex
100
AcDb2dVertex
 10
-39.80369806289673
 20
12.41728933092861
 30
0.0
  0
VERTEX
  5
69B
330
695
100
AcDbEntity
  8
0
100
AcDbVertex
100
AcDb2dVertex
 10
-39.75476503372192
 20
12.41168768641262
 30
0.0
  0
VERTEX
  5
69C
330
695
100
AcDbEntity
  8
0
100
AcDbVertex
100
AcDb2dVertex
 10
-39.70588684082031
 20
12.4060920023611
 30
0.0
  0
VERTEX
  5
69D
330
695
100
AcDbEntity
  8
0
100
AcDbVertex
100
AcDb2dVertex
 10
-39.65706586837768
 20
12.40050227877407
 30
0.0
  0
VERTEX
  5
69E
330
695
100
AcDbEntity
  8
0
100
AcDbVertex
100
AcDb2dVertex
 10
-39.60829973220825
 20
12.3949197077444
 30
0.0
  0
VERTEX
  5
69F
330
695
100
AcDbEntity
  8
0
100
AcDbVertex
100
AcDb2dVertex
 10
-39.55958843231201
 20
12.38934428927211
 30
0.0
  0
VERTEX
  5
6A0
330
695
100
AcDbEntity
  8
0
100
AcDbVertex
100
AcDb2dVertex
 10
-39.51093435287475
 20
12.3837748312643
 30
0.0
  0
VERTEX
  5
6A1
330
695
100
AcDbEntity
  8
0
100
AcDbVertex
100
AcDb2dVertex
 10
-39.46233510971069
 20
12.37821133372097
 30
0.0
  0
VERTEX
  5
6A2
330
695
100
AcDbEntity
  8
0
100
AcDbVertex
100
AcDb2dVertex
 10
-39.41379308700561
 20
12.37265498873501
 30
0.0
  0
VERTEX
  5
6A3
330
695
100
AcDbEntity
  8
0
100
AcDbVertex
100
AcDb2dVertex
 10
-39.36530590057373
 20
12.36710460421352
 30
0.0
  0
VERTEX
  5
6A4
330
695
100
AcDbEntity
  8
0
100
AcDbVertex
100
AcDb2dVertex
 10
-39.31687355041504
 20
12.36156137224941
 30
0.0
  0
VERTEX
  5
6A5
330
695
100
AcDbEntity
  8
0
100
AcDbVertex
100
AcDb2dVertex
 10
-39.26849603652954
 20
12.35602410074978
 30
0.0
  0
VERTEX
  5
6A6
330
695
100
AcDbEntity
  8
0
100
AcDbVertex
100
AcDb2dVertex
 10
-39.22017574310303
 20
12.35049278971462
 30
0.0
  0
VERTEX
  5
6A7
330
695
100
AcDbEntity
  8
0
100
AcDbVertex
100
AcDb2dVertex
 10
-39.17191028594971
 20
12.34496863123684
 30
0.0
  0
VERTEX
  5
6A8
330
695
100
AcDbEntity
  8
0
100
AcDbVertex
100
AcDb2dVertex
 10
-39.12369728088379
 20
12.33945043322353
 30
0.0
  0
VERTEX
  5
6A9
330
695
100
AcDbEntity
  8
0
100
AcDbVertex
100
AcDb2dVertex
 10
-39.07554149627685
 20
12.3339381956747
 30
0.0
  0
VERTEX
  5
6AA
330
695
100
AcDbEntity
  8
0
100
AcDbVertex
100
AcDb2dVertex
 10
-39.02744054794311
 20
12.32843311068325
 30
0.0
  0
VERTEX
  5
6AB
330
695
100
AcDbEntity
  8
0
100
AcDbVertex
100
AcDb2dVertex
 10
-38.97939443588257
 20
12.32293517824917
 30
0.0
  0
VERTEX
  5
6AC
330
695
100
AcDbEntity
  8
0
100
AcDbVertex
100
AcDb2dVertex
 10
-38.93140077590942
 20
12.31744201418667
 30
0.0
  0
VERTEX
  5
6AD
330
695
100
AcDbEntity
  8
0
100
AcDbVertex
100
AcDb2dVertex
 10
-38.88346433639526
 20
12.31195600268154
 30
0.0
  0
VERTEX
  5
6AE
330
695
100
AcDbEntity
  8
0
100
AcDbVertex
100
AcDb2dVertex
 10
-38.8355803489685
 20
12.30647595164089
 30
0.0
  0
SEQEND
  5
6AF
330
695
100
AcDbEntity
  8
0
  0
ARC
  5
6B0
330
1F
100
AcDbEntity
  8
0
100
AcDbCircle
 10
-36.5
 20
51.29999999999938
 30
0.0
 40
4.999999999999994
100
AcDbArc
 50
90.0
 51
180.0
  0
ARC
  5
6B1
330
1F
100
AcDbEntity
  8
0
100
AcDbCircle
 10
-36.50000000000046
 20
50.99999999999943
 30
0.0
 40
5.000000000000003
100
AcDbArc
 50
90.0
 51
180.0
  0
LINE
  5
6B2
330
1F
100
AcDbEntity
  8
1
100
AcDbLine
 10
-0.0000000000004547
 20
22.39834095488311
 30
0.0
 11
-0.0000000000004547
 21
37.00165904511584
 31
0.0
  0
LINE
  5
6B3
330
1F
100
AcDbEntity
  8
1
100
AcDbLine
 10
14.99999999999977
 20
22.39834095488311
 30
0.0
 11
14.99999999999977
 21
37.00165904511584
 31
0.0
  0
LINE
  5
6B4
330
1F
100
AcDbEntity
  8
0
100
AcDbLine
 10
41.5
 20
51.29999999999938
 30
0.0
 11
41.49999999999977
 21
19.69999999999925
 31
0.0
  0
ARC
  5
6B5
330
1F
100
AcDbEntity
  8
0
100
AcDbCircle
 10
27.49999999999977
 20
37.19999999999925
 30
0.0
 40
8.000000000000028
100
AcDbArc
 50
300.9637565320759
 51
59.0362434679241
  0
LINE
  5
6B6
330
1F
100
AcDbEntity
  8
1
100
AcDbLine
 10
27.49999999999977
 20
29.89834095488311
 30
0.0
 11
27.49999999999977
 21
44.50165904511584
 31
0.0
  0
CIRCLE
  5
6B7
330
1F
100
AcDbEntity
  8
0
100
AcDbCircle
 10
27.49999999999977
 20
37.19999999999925
 30
0.0
 40
5.000000000000007
  0
CIRCLE
  5
6B8
330
1F
100
AcDbEntity
  8
0
100
AcDbCircle
 10
27.49999999999977
 20
37.19999999999925
 30
0.0
 40
4.000000000000005
  0
LINE
  5
6B9
330
1F
100
AcDbEntity
  8
1
100
AcDbLine
 10
7.698340954883406
 20
29.69999999999925
 30
0.0
 11
22.30165904511614
 21
29.69999999999925
 31
0.0
  0
ARC
  5
6BA
330
1F
100
AcDbEntity
  8
0
100
AcDbCircle
 10
14.99999999999954
 20
29.69999999999925
 30
0.0
 40
7.999999999999975
100
AcDbArc
 50
270.0
 51
300.9637565320759
  0
CIRCLE
  5
6BB
330
1F
100
AcDbEntity
  8
0
100
AcDbCircle
 10
14.99999999999954
 20
29.69999999999925
 30
0.0
 40
5.000000000000007
  0
CIRCLE
  5
6BC
330
1F
100
AcDbEntity
  8
0
100
AcDbCircle
 10
14.99999999999977
 20
29.69999999999925
 30
0.0
 40
4.000000000000005
  0
CIRCLE
  5
6BD
330
1F
100
AcDbEntity
  8
0
100
AcDbCircle
 10
-0.0000000000004547
 20
29.69999999999948
 30
0.0
 40
5.000000000000007
  0
CIRCLE
  5
6BE
330
1F
100
AcDbEntity
  8
0
100
AcDbCircle
 10
-0.0000000000004547
 20
29.69999999999948
 30
0.0
 40
4.000000000000005
  0
ARC
  5
6BF
330
1F
100
AcDbEntity
  8
0
100
AcDbCircle
 10
39.5
 20
9.32624946269891
 30
0.0
 40
3.000000000000015
100
AcDbArc
 50
96.5819446551726
 51
180.0
  0
LINE
  5
6C0
330
1F
100
AcDbEntity
  8
0
100
AcDbLine
 10
31.61596604342003
 20
30.34005659429897
 30
0.0
 11
19.11596604342003
 21
22.84005659429897
 31
0.0
  0
LINE
  5
6C1
330
1F
100
AcDbEntity
  8
1
100
AcDbLine
 10
7.698340954883406
 20
44.69999999999925
 30
0.0
 11
22.30165904511614
 21
44.69999999999925
 31
0.0
  0
CIRCLE
  5
6C2
330
1F
100
AcDbEntity
  8
0
100
AcDbCircle
 10
14.99999999999954
 20
44.69999999999925
 30
0.0
 40
5.000000000000007
  0
CIRCLE
  5
6C3
330
1F
100
AcDbEntity
  8
0
100
AcDbCircle
 10
14.99999999999977
 20
44.69999999999925
 30
0.0
 40
4.000000000000005
  0
ARC
  5
6C4
330
1F
100
AcDbEntity
  8
0
100
AcDbCircle
 10
14.99999999999977
 20
44.69999999999948
 30
0.0
 40
7.99999999999999
100
AcDbArc
 50
59.0362434679241
 51
90.0
  0
CIRCLE
  5
6C5
330
1F
100
AcDbEntity
  8
0
100
AcDbCircle
 10
-0.0000000000004547
 20
44.69999999999925
 30
0.0
 40
5.000000000000007
  0
CIRCLE
  5
6C6
330
1F
100
AcDbEntity
  8
0
100
AcDbCircle
 10
-0.0000000000004547
 20
44.69999999999925
 30
0.0
 40
4.000000000000005
  0
LINE
  5
6C7
330
1F
100
AcDbEntity
  8
1
100
AcDbLine
 10
-0.0000000000004547
 20
37.39834095488311
 30
0.0
 11
-0.0000000000004547
 21
52.00165904511584
 31
0.0
  0
LINE
  5
6C8
330
1F
100
AcDbEntity
  8
1
100
AcDbLine
 10
14.99999999999977
 20
37.39834095488311
 30
0.0
 11
14.99999999999977
 21
52.00165904511584
 31
0.0
  0
LINE
  5
6C9
330
1F
100
AcDbEntity
  8
0
100
AcDbLine
 10
19.11596604342003
 20
51.55994340569975
 30
0.0
 11
31.61596604342003
 21
44.05994340569975
 31
0.0
  0
LINE
  5
6CA
330
1F
100
AcDbEntity
  8
1
100
AcDbLine
 10
20.19834095488341
 20
37.19999999999925
 30
0.0
 11
34.80165904511614
 21
37.19999999999925
 31
0.0
  0
POLYLINE
  5
6CB
330
1F
100
AcDbEntity
  8
0
100
AcDb2dPolyline
 66
     1
 10
0.0
 20
0.0
 30
0.0
  0
VERTEX
  5
6CC
330
6CB
100
AcDbEntity
  8
0
100
AcDbVertex
100
AcDb2dVertex
 10
65.46220302581787
 20
20.03453881975918
 30
0.0
  0
VERTEX
  5
6CD
330
6CB
100
AcDbEntity
  8
0
100
AcDbVertex
100
AcDb2dVertex
 10
65.46017169952392
 20
20.03663928744106
 30
0.0
  0
VERTEX
  5
6CE
330
6CB
100
AcDbEntity
  8
0
100
AcDbVertex
100
AcDb2dVertex
 10
65.45780658721923
 20
20.03965766665249
 30
0.0
  0
VERTEX
  5
6CF
330
6CB
100
AcDbEntity
  8
0
100
AcDbVertex
100
AcDb2dVertex
 10
65.4551076889038
 20
20.04359395739346
 30
0.0
  0
VERTEX
  5
6D0
330
6CB
100
AcDbEntity
  8
0
100
AcDbVertex
100
AcDb2dVertex
 10
65.45208930969238
 20
20.04844100710659
 30
0.0
  0
VERTEX
  5
6D1
330
6CB
100
AcDbEntity
  8
0
100
AcDbVertex
100
AcDb2dVertex
 10
65.44874191284179
 20
20.05419881579189
 30
0.0
  0
VERTEX
  5
6D2
330
6CB
100
AcDbEntity
  8
0
100
AcDbVertex
100
AcDb2dVertex
 10
65.44507503509521
 20
20.06086738344937
 30
0.0
  0
VERTEX
  5
6D3
330
6CB
100
AcDbEntity
  8
0
100
AcDbVertex
100
AcDb2dVertex
 10
65.44108867645263
 20
20.06843717333584
 30
0.0
  0
VERTEX
  5
6D4
330
6CB
100
AcDbEntity
  8
0
100
AcDbVertex
100
AcDb2dVertex
 10
65.43678760528564
 20
20.0769129538229
 30
0.0
  0
VERTEX
  5
6D5
330
6CB
100
AcDbEntity
  8
0
100
AcDbVertex
100
AcDb2dVertex
 10
65.43217182159423
 20
20.08628757235317
 30
0.0
  0
VERTEX
  5
6D6
330
6CB
100
AcDbEntity
  8
0
100
AcDbVertex
100
AcDb2dVertex
 10
65.42725086212158
 20
20.09656102892666
 30
0.0
  0
VERTEX
  5
6D7
330
6CB
100
AcDbEntity
  8
0
100
AcDbVertex
100
AcDb2dVertex
 10
65.42201995849609
 20
20.10772855517178
 30
0.0
  0
VERTEX
  5
6D8
330
6CB
100
AcDbEntity
  8
0
100
AcDbVertex
100
AcDb2dVertex
 10
65.41648387908935
 20
20.11979015108853
 30
0.0
  0
VERTEX
  5
6D9
330
6CB
100
AcDbEntity
  8
0
100
AcDbVertex
100
AcDb2dVertex
 10
65.41064739227294
 20
20.13274104830532
 30
0.0
  0
VERTEX
  5
6DA
330
6CB
100
AcDbEntity
  8
0
100
AcDbVertex
100
AcDb2dVertex
 10
65.40451526641845
 20
20.14658124682217
 30
0.0
  0
VERTEX
  5
6DB
330
6CB
100
AcDbEntity
  8
0
100
AcDbVertex
100
AcDb2dVertex
 10
65.39808750152587
 20
20.16130597826748
 30
0.0
  0
VERTEX
  5
6DC
330
6CB
100
AcDbEntity
  8
0
100
AcDbVertex
100
AcDb2dVertex
 10
65.39136886596679
 20
20.17691285845547
 30
0.0
  0
VERTEX
  5
6DD
330
6CB
100
AcDbEntity
  8
0
100
AcDbVertex
100
AcDb2dVertex
 10
65.38435935974121
 20
20.19339950320034
 30
0.0
  0
VERTEX
  5
6DE
330
6CB
100
AcDbEntity
  8
0
100
AcDbVertex
100
AcDb2dVertex
 10
65.3770637512207
 20
20.21076352831631
 30
0.0
  0
VERTEX
  5
6DF
330
6CB
100
AcDbEntity
  8
0
100
AcDbVertex
100
AcDb2dVertex
 10
65.36948204040527
 20
20.22900493380337
 30
0.0
  0
VERTEX
  5
6E0
330
6CB
100
AcDbEntity
  8
0
100
AcDbVertex
100
AcDb2dVertex
 10
65.36162376403808
 20
20.24811656710415
 30
0.0
  0
VERTEX
  5
6E1
330
6CB
100
AcDbEntity
  8
0
100
AcDbVertex
100
AcDb2dVertex
 10
65.35348415374755
 20
20.26809842821865
 30
0.0
  0
VERTEX
  5
6E2
330
6CB
100
AcDbEntity
  8
0
100
AcDbVertex
100
AcDb2dVertex
 10
65.34507274627685
 20
20.28894813296108
 30
0.0
  0
VERTEX
  5
6E3
330
6CB
100
AcDbEntity
  8
0
100
AcDbVertex
100
AcDb2dVertex
 10
65.33638954162597
 20
20.31066329714565
 30
0.0
  0
VERTEX
  5
6E4
330
6CB
100
AcDbEntity
  8
0
100
AcDbVertex
100
AcDb2dVertex
 10
65.32743453979492
 20
20.33324153658657
 30
0.0
  0
VERTEX
  5
6E5
330
6CB
100
AcDbEntity
  8
0
100
AcDbVertex
100
AcDb2dVertex
 10
65.31821727752685
 20
20.35667808291226
 30
0.0
  0
VERTEX
  5
6E6
330
6CB
100
AcDbEntity
  8
0
100
AcDbVertex
100
AcDb2dVertex
 10
65.30873298645019
 20
20.3809729361227
 30
0.0
  0
VERTEX
  5
6E7
330
6CB
100
AcDbEntity
  8
0
100
AcDbVertex
100
AcDb2dVertex
 10
65.2989912033081
 20
20.40612371203213
 30
0.0
  0
VERTEX
  5
6E8
330
6CB
100
AcDbEntity
  8
0
100
AcDbVertex
100
AcDb2dVertex
 10
65.28899192810058
 20
20.43212564226895
 30
0.0
  0
VERTEX
  5
6E9
330
6CB
100
AcDbEntity
  8
0
100
AcDbVertex
100
AcDb2dVertex
 10
65.27873516082763
 20
20.45897634264736
 30
0.0
  0
VERTEX
  5
6EA
330
6CB
100
AcDbEntity
  8
0
100
AcDbVertex
100
AcDb2dVertex
 10
65.26823043823242
 20
20.48667581316738
 30
0.0
  0
VERTEX
  5
6EB
330
6CB
100
AcDbEntity
  8
0
100
AcDbVertex
100
AcDb2dVertex
 10
65.25747299194335
 20
20.51521928545742
 30
0.0
  0
VERTEX
  5
6EC
330
6CB
100
AcDbEntity
  8
0
100
AcDbVertex
100
AcDb2dVertex
 10
65.24647712707519
 20
20.54460437533169
 30
0.0
  0
VERTEX
  5
6ED
330
6CB
100
AcDbEntity
  8
0
100
AcDbVertex
100
AcDb2dVertex
 10
65.23523330688476
 20
20.57483108279019
 30
0.0
  0
VERTEX
  5
6EE
330
6CB
100
AcDbEntity
  8
0
100
AcDbVertex
100
AcDb2dVertex
 10
65.22374629974365
 20
20.60589463946133
 30
0.0
  0
VERTEX
  5
6EF
330
6CB
100
AcDbEntity
  8
0
100
AcDbVertex
100
AcDb2dVertex
 10
65.21202564239501
 20
20.63779027697353
 30
0.0
  0
VERTEX
  5
6F0
330
6CB
100
AcDbEntity
  8
0
100
AcDbVertex
100
AcDb2dVertex
 10
65.20007133483886
 20
20.6705203795126
 30
0.0
  0
VERTEX
  5
6F1
330
6CB
100
AcDbEntity
  8
0
100
AcDbVertex
100
AcDb2dVertex
 10
65.18788814544677
 20
20.70408017870693
 30
0.0
  0
VERTEX
  5
6F2
330
6CB
100
AcDbEntity
  8
0
100
AcDbVertex
100
AcDb2dVertex
 10
65.17547607421875
 20
20.73846729037075
 30
0.0
  0
VERTEX
  5
6F3
330
6CB
100
AcDbEntity
  8
0
100
AcDbVertex
100
AcDb2dVertex
 10
65.16283512115478
 20
20.77367694613247
 30
0.0
  0
VERTEX
  5
6F4
330
6CB
100
AcDbEntity
  8
0
100
AcDbVertex
100
AcDb2dVertex
 10
65.14997482299804
 20
20.80970914599209
 30
0.0
  0
VERTEX
  5
6F5
330
6CB
100
AcDbEntity
  8
0
100
AcDbVertex
100
AcDb2dVertex
 10
65.13689041137695
 20
20.84656150576382
 30
0.0
  0
VERTEX
  5
6F6
330
6CB
100
AcDbEntity
  8
0
100
AcDbVertex
100
AcDb2dVertex
 10
65.12359142303466
 20
20.88423164126187
 30
0.0
  0
VERTEX
  5
6F7
330
6CB
100
AcDbEntity
  8
0
100
AcDbVertex
100
AcDb2dVertex
 10
65.11008262634277
 20
20.92271478411465
 30
0.0
  0
VERTEX
  5
6F8
330
6CB
100
AcDbEntity
  8
0
100
AcDbVertex
100
AcDb2dVertex
 10
65.09635925292968
 20
20.96201093432217
 30
0.0
  0
VERTEX
  5
6F9
330
6CB
100
AcDbEntity
  8
0
100
AcDbVertex
100
AcDb2dVertex
 10
65.08242607116699
 20
21.00211532351284
 30
0.0
  0
VERTEX
  5
6FA
330
6CB
100
AcDbEntity
  8
0
100
AcDbVertex
100
AcDb2dVertex
 10
65.06829261779785
 20
21.04302795168667
 30
0.0
  0
VERTEX
  5
6FB
330
6CB
100
AcDbEntity
  8
0
100
AcDbVertex
100
AcDb2dVertex
 10
65.05395412445068
 20
21.08474405047207
 30
0.0
  0
VERTEX
  5
6FC
330
6CB
100
AcDbEntity
  8
0
100
AcDbVertex
100
AcDb2dVertex
 10
65.03941535949707
 20
21.12726123568325
 30
0.0
  0
VERTEX
  5
6FD
330
6CB
100
AcDbEntity
  8
0
100
AcDbVertex
100
AcDb2dVertex
 10
65.02468109130859
 20
21.17057950732021
 30
0.0
  0
VERTEX
  5
6FE
330
6CB
100
AcDbEntity
  8
0
100
AcDbVertex
100
AcDb2dVertex
 10
65.00975608825683
 20
21.21469171282559
 30
0.0
  0
VERTEX
  5
6FF
330
6CB
100
AcDbEntity
  8
0
100
AcDbVertex
100
AcDb2dVertex
 10
64.99463558197021
 20
21.25960023638516
 30
0.0
  0
VERTEX
  5
700
330
6CB
100
AcDbEntity
  8
0
100
AcDbVertex
100
AcDb2dVertex
 10
64.97932910919189
 20
21.30530030962734
 30
0.0
  0
VERTEX
  5
701
330
6CB
100
AcDbEntity
  8
0
100
AcDbVertex
100
AcDb2dVertex
 10
64.96384143829345
 20
21.35178954836636
 30
0.0
  0
VERTEX
  5
702
330
6CB
100
AcDbEntity
  8
0
100
AcDbVertex
100
AcDb2dVertex
 10
64.94816780090332
 20
21.39906318423062
 30
0.0
  0
VERTEX
  5
703
330
6CB
100
AcDbEntity
  8
0
100
AcDbVertex
100
AcDb2dVertex
 10
64.93231773376464
 20
21.44712360140591
 30
0.0
  0
VERTEX
  5
704
330
6CB
100
AcDbEntity
  8
0
100
AcDbVertex
100
AcDb2dVertex
 10
64.91629123687744
 20
21.49596603152065
 30
0.0
  0
VERTEX
  5
705
330
6CB
100
AcDbEntity
  8
0
100
AcDbVertex
100
AcDb2dVertex
 10
64.90008831024169
 20
21.54558570620327
 30
0.0
  0
VERTEX
  5
706
330
6CB
100
AcDbEntity
  8
0
100
AcDbVertex
100
AcDb2dVertex
 10
64.88371849060058
 20
21.59598262545376
 30
0.0
  0
VERTEX
  5
707
330
6CB
100
AcDbEntity
  8
0
100
AcDbVertex
100
AcDb2dVertex
 10
64.8671817779541
 20
21.64715202090054
 30
0.0
  0
VERTEX
  5
708
330
6CB
100
AcDbEntity
  8
0
100
AcDbVertex
100
AcDb2dVertex
 10
64.85047817230224
 20
21.6990938925436
 30
0.0
  0
VERTEX
  5
709
330
6CB
100
AcDbEntity
  8
0
100
AcDbVertex
100
AcDb2dVertex
 10
64.83361721038818
 20
21.75180585619717
 30
0.0
  0
VERTEX
  5
70A
330
6CB
100
AcDbEntity
  8
0
100
AcDbVertex
100
AcDb2dVertex
 10
64.81659412384033
 20
21.80528314348965
 30
0.0
  0
VERTEX
  5
70B
330
6CB
100
AcDbEntity
  8
0
100
AcDbVertex
100
AcDb2dVertex
 10
64.79941368103027
 20
21.85952337023525
 30
0.0
  0
VERTEX
  5
70C
330
6CB
100
AcDbEntity
  8
0
100
AcDbVertex
100
AcDb2dVertex
 10
64.78208541870117
 20
21.91452653643398
 30
0.0
  0
VERTEX
  5
70D
330
6CB
100
AcDbEntity
  8
0
100
AcDbVertex
100
AcDb2dVertex
 10
64.76460456848144
 20
21.97028787371426
 30
0.0
  0
VERTEX
  5
70E
330
6CB
100
AcDbEntity
  8
0
100
AcDbVertex
100
AcDb2dVertex
 10
64.74697589874267
 20
22.02680499789028
 30
0.0
  0
VERTEX
  5
70F
330
6CB
100
AcDbEntity
  8
0
100
AcDbVertex
100
AcDb2dVertex
 10
64.72920417785644
 20
22.08407552477627
 30
0.0
  0
VERTEX
  5
710
330
6CB
100
AcDbEntity
  8
0
100
AcDbVertex
100
AcDb2dVertex
 10
64.71128940582275
 20
22.14209945437222
 30
0.0
  0
VERTEX
  5
711
330
6CB
100
AcDbEntity
  8
0
100
AcDbVertex
100
AcDb2dVertex
 10
64.69323635101318
 20
22.20086963412075
 30
0.0
  0
VERTEX
  5
712
330
6CB
100
AcDbEntity
  8
0
100
AcDbVertex
100
AcDb2dVertex
 10
64.67504978179931
 20
22.26038606402187
 30
0.0
  0
VERTEX
  5
713
330
6CB
100
AcDbEntity
  8
0
100
AcDbVertex
100
AcDb2dVertex
 10
64.65673446655273
 20
22.32064874407559
 30
0.0
  0
VERTEX
  5
714
330
6CB
100
AcDbEntity
  8
0
100
AcDbVertex
100
AcDb2dVertex
 10
64.63828563690185
 20
22.38165052172451
 30
0.0
  0
VERTEX
  5
715
330
6CB
100
AcDbEntity
  8
0
100
AcDbVertex
100
AcDb2dVertex
 10
64.61970806121826
 20
22.44339139696865
 30
0.0
  0
VERTEX
  5
716
330
6CB
100
AcDbEntity
  8
0
100
AcDbVertex
100
AcDb2dVertex
 10
64.60100650787353
 20
22.50586660143643
 30
0.0
  0
VERTEX
  5
717
330
6CB
100
AcDbEntity
  8
0
100
AcDbVertex
100
AcDb2dVertex
 10
64.58218574523925
 20
22.56907851931362
 30
0.0
  0
VERTEX
  5
718
330
6CB
100
AcDbEntity
  8
0
100
AcDbVertex
100
AcDb2dVertex
 10
64.56325054168701
 20
22.63301761385708
 30
0.0
  0
VERTEX
  5
719
330
6CB
100
AcDbEntity
  8
0
100
AcDbVertex
100
AcDb2dVertex
 10
64.54419612884521
 20
22.69768865343838
 30
0.0
  0
VERTEX
  5
71A
330
6CB
100
AcDbEntity
  8
0
100
AcDbVertex
100
AcDb2dVertex
 10
64.52503204345703
 20
22.76308448550015
 30
0.0
  0
VERTEX
  5
71B
330
6CB
100
AcDbEntity
  8
0
100
AcDbVertex
100
AcDb2dVertex
 10
64.50575351715087
 20
22.82920272585659
 30
0.0
  0
VERTEX
  5
71C
330
6CB
100
AcDbEntity
  8
0
100
AcDbVertex
100
AcDb2dVertex
 10
64.4863748550415
 20
22.89604337450771
 30
0.0
  0
VERTEX
  5
71D
330
6CB
100
AcDbEntity
  8
0
100
AcDbVertex
100
AcDb2dVertex
 10
64.46689128875732
 20
22.96360166308193
 30
0.0
  0
VERTEX
  5
71E
330
6CB
100
AcDbEntity
  8
0
100
AcDbVertex
100
AcDb2dVertex
 10
64.44730281829833
 20
23.03187520739346
 30
0.0
  0
VERTEX
  5
71F
330
6CB
100
AcDbEntity
  8
0
100
AcDbVertex
100
AcDb2dVertex
 10
64.42762374877929
 20
23.10086162325649
 30
0.0
  0
VERTEX
  5
720
330
6CB
100
AcDbEntity
  8
0
100
AcDbVertex
100
AcDb2dVertex
 10
64.40784454345703
 20
23.17056091067104
 30
0.0
  0
VERTEX
  5
721
330
6CB
100
AcDbEntity
  8
0
100
AcDbVertex
100
AcDb2dVertex
 10
64.3879747390747
 20
23.24096591707974
 30
0.0
  0
VERTEX
  5
722
330
6CB
100
AcDbEntity
  8
0
100
AcDbVertex
100
AcDb2dVertex
 10
64.36801433563232
 20
23.31207902666836
 30
0.0
  0
VERTEX
  5
723
330
6CB
100
AcDbEntity
  8
0
100
AcDbVertex
100
AcDb2dVertex
 10
64.34797286987304
 20
23.38389308687954
 30
0.0
  0
VERTEX
  5
724
330
6CB
100
AcDbEntity
  8
0
100
AcDbVertex
100
AcDb2dVertex
 10
64.32784557342529
 20
23.45641048189907
 30
0.0
  0
VERTEX
  5
725
330
6CB
100
AcDbEntity
  8
0
100
AcDbVertex
100
AcDb2dVertex
 10
64.30763721466064
 20
23.52962405916958
 30
0.0
  0
VERTEX
  5
726
330
6CB
100
AcDbEntity
  8
0
100
AcDbVertex
100
AcDb2dVertex
 10
64.28735256195068
 20
23.60353381869106
 30
0.0
  0
VERTEX
  5
727
330
6CB
100
AcDbEntity
  8
0
100
AcDbVertex
100
AcDb2dVertex
 10
64.26699161529541
 20
23.67813737627773
 30
0.0
  0
VERTEX
  5
728
330
6CB
100
AcDbEntity
  8
0
100
AcDbVertex
100
AcDb2dVertex
 10
64.2465591430664
 20
23.75342996355801
 30
0.0
  0
VERTEX
  5
729
330
6CB
100
AcDbEntity
  8
0
100
AcDbVertex
100
AcDb2dVertex
 10
64.22605991363525
 20
23.82941158053188
 30
0.0
  0
VERTEX
  5
72A
330
6CB
100
AcDbEntity
  8
0
100
AcDbVertex
100
AcDb2dVertex
 10
64.20549392700195
 20
23.90607745882778
 30
0.0
  0
VERTEX
  5
72B
330
6CB
100
AcDbEntity
  8
0
100
AcDbVertex
100
AcDb2dVertex
 10
64.18486595153808
 20
23.9834275984457
 30
0.0
  0
VERTEX
  5
72C
330
6CB
100
AcDbEntity
  8
0
100
AcDbVertex
100
AcDb2dVertex
 10
64.16418075561523
 20
24.06145723101406
 30
0.0
  0
VERTEX
  5
72D
330
6CB
100
AcDbEntity
  8
0
100
AcDbVertex
100
AcDb2dVertex
 10
64.14343357086181
 20
24.14016397234707
 30
0.0
  0
VERTEX
  5
72E
330
6CB
100
AcDbEntity
  8
0
100
AcDbVertex
100
AcDb2dVertex
 10
64.12263393402099
 20
24.21954782244473
 30
0.0
  0
VERTEX
  5
72F
330
6CB
100
AcDbEntity
  8
0
100
AcDbVertex
100
AcDb2dVertex
 10
64.10178661346435
 20
24.29960401293545
 30
0.0
  0
VERTEX
  5
730
330
6CB
100
AcDbEntity
  8
0
100
AcDbVertex
100
AcDb2dVertex
 10
64.08088684082031
 20
24.38033015963345
 30
0.0
  0
VERTEX
  5
731
330
6CB
100
AcDbEntity
  8
0
100
AcDbVertex
100
AcDb2dVertex
 10
64.05994415283203
 20
24.46172626253872
 30
0.0
  0
VERTEX
  5
732
330
6CB
100
AcDbEntity
  8
0
100
AcDbVertex
100
AcDb2dVertex
 10
64.03895378112792
 20
24.5437851690939
 30
0.0
  0
VERTEX
  5
733
330
6CB
100
AcDbEntity
  8
0
100
AcDbVertex
100
AcDb2dVertex
 10
64.01793003082275
 20
24.62650687929897
 30
0.0
  0
VERTEX
  5
734
330
6CB
100
AcDbEntity
  8
0
100
AcDbVertex
100
AcDb2dVertex
 10
63.99686813354492
 20
24.70988900896816
 30
0.0
  0
VERTEX
  5
735
330
6CB
100
AcDbEntity
  8
0
100
AcDbVertex
100
AcDb2dVertex
 10
63.97576808929443
 20
24.79392917391567
 30
0.0
  0
VERTEX
  5
736
330
6CB
100
AcDbEntity
  8
0
100
AcDbVertex
100
AcDb2dVertex
 10
63.95464420318603
 20
24.87862498995571
 30
0.0
  0
VERTEX
  5
737
330
6CB
100
AcDbEntity
  8
0
100
AcDbVertex
100
AcDb2dVertex
 10
63.93348693847656
 20
24.9639716887167
 30
0.0
  0
VERTEX
  5
738
330
6CB
100
AcDbEntity
  8
0
100
AcDbVertex
100
AcDb2dVertex
 10
63.91230583190917
 20
25.04997165438442
 30
0.0
  0
VERTEX
  5
739
330
6CB
100
AcDbEntity
  8
0
100
AcDbVertex
100
AcDb2dVertex
 10
63.89110565185546
 20
25.13661535021572
 30
0.0
  0
VERTEX
  5
73A
330
6CB
100
AcDbEntity
  8
0
100
AcDbVertex
100
AcDb2dVertex
 10
63.86988162994384
 20
25.22390754458218
 30
0.0
  0
VERTEX
  5
73B
330
6CB
100
AcDbEntity
  8
0
100
AcDbVertex
100
AcDb2dVertex
 10
63.84864330291748
 20
25.31183870074062
 30
0.0
  0
VERTEX
  5
73C
330
6CB
100
AcDbEntity
  8
0
100
AcDbVertex
100
AcDb2dVertex
 10
63.82739067077636
 20
25.40041358706265
 30
0.0
  0
VERTEX
  5
73D
330
6CB
100
AcDbEntity
  8
0
100
AcDbVertex
100
AcDb2dVertex
 10
63.80612850189208
 20
25.48962266680508
 30
0.0
  0
VERTEX
  5
73E
330
6CB
100
AcDbEntity
  8
0
100
AcDbVertex
100
AcDb2dVertex
 10
63.78486156463623
 20
25.57946832415371
 30
0.0
  0
VERTEX
  5
73F
330
6CB
100
AcDbEntity
  8
0
100
AcDbVertex
100
AcDb2dVertex
 10
63.7635850906372
 20
25.66994579073696
 30
0.0
  0
VERTEX
  5
740
330
6CB
100
AcDbEntity
  8
0
100
AcDbVertex
100
AcDb2dVertex
 10
63.74230861663818
 20
25.76105506655483
 30
0.0
  0
VERTEX
  5
741
330
6CB
100
AcDbEntity
  8
0
100
AcDbVertex
100
AcDb2dVertex
 10
63.72103214263916
 20
25.85278899904995
 30
0.0
  0
VERTEX
  5
742
330
6CB
100
AcDbEntity
  8
0
100
AcDbVertex
100
AcDb2dVertex
 10
63.6997652053833
 20
25.94514997240811
 30
0.0
  0
VERTEX
  5
743
330
6CB
100
AcDbEntity
  8
0
100
AcDbVertex
100
AcDb2dVertex
 10
63.67849826812744
 20
26.03813083407192
 30
0.0
  0
VERTEX
  5
744
330
6CB
100
AcDbEntity
  8
0
100
AcDbVertex
100
AcDb2dVertex
 10
63.65724563598632
 20
26.1317339682272
 30
0.0
  0
VERTEX
  5
745
330
6CB
100
AcDbEntity
  8
0
100
AcDbVertex
100
AcDb2dVertex
 10
63.63600254058837
 20
26.22595222231655
 30
0.0
  0
VERTEX
  5
746
330
6CB
100
AcDbEntity
  8
0
100
AcDbVertex
100
AcDb2dVertex
 10
63.61477375030517
 20
26.32078559633999
 30
0.0
  0
VERTEX
  5
747
330
6CB
100
AcDbEntity
  8
0
100
AcDbVertex
100
AcDb2dVertex
 10
63.59356880187988
 20
26.41623170611172
 30
0.0
  0
VERTEX
  5
748
330
6CB
100
AcDbEntity
  8
0
100
AcDbVertex
100
AcDb2dVertex
 10
63.57238292694091
 20
26.51228816744595
 30
0.0
  0
VERTEX
  5
749
330
6CB
100
AcDbEntity
  8
0
100
AcDbVertex
100
AcDb2dVertex
 10
63.55122089385986
 20
26.60895021197109
 30
0.0
  0
VERTEX
  5
74A
330
6CB
100
AcDbEntity
  8
0
100
AcDbVertex
100
AcDb2dVertex
 10
63.53008270263671
 20
26.70621783968716
 30
0.0
  0
VERTEX
  5
74B
330
6CB
100
AcDbEntity
  8
0
100
AcDbVertex
100
AcDb2dVertex
 10
63.50897789001464
 20
26.80408628222256
 30
0.0
  0
VERTEX
  5
74C
330
6CB
100
AcDbEntity
  8
0
100
AcDbVertex
100
AcDb2dVertex
 10
63.48790645599365
 20
26.90255553957729
 30
0.0
  0
VERTEX
  5
74D
330
6CB
100
AcDbEntity
  8
0
100
AcDbVertex
100
AcDb2dVertex
 10
63.46687316894531
 20
27.00162084337978
 30
0.0
  0
VERTEX
  5
74E
330
6CB
100
AcDbEntity
  8
0
100
AcDbVertex
100
AcDb2dVertex
 10
63.44587326049804
 20
27.10128219363003
 30
0.0
  0
VERTEX
  5
74F
330
6CB
100
AcDbEntity
  8
0
100
AcDbVertex
100
AcDb2dVertex
 10
63.4249210357666
 20
27.20153243777065
 30
0.0
  0
VERTEX
  5
750
330
6CB
100
AcDbEntity
  8
0
100
AcDbVertex
100
AcDb2dVertex
 10
63.40400695800781
 20
27.30237395998745
 30
0.0
  0
VERTEX
  5
751
330
6CB
100
AcDbEntity
  8
0
100
AcDbVertex
100
AcDb2dVertex
 10
63.38314533233642
 20
27.40380437609463
 30
0.0
  0
VERTEX
  5
752
330
6CB
100
AcDbEntity
  8
0
100
AcDbVertex
100
AcDb2dVertex
 10
63.36233139038085
 20
27.50581653353481
 30
0.0
  0
VERTEX
  5
753
330
6CB
100
AcDbEntity
  8
0
100
AcDbVertex
100
AcDb2dVertex
 10
63.34157466888427
 20
27.60841043230801
 30
0.0
  0
VERTEX
  5
754
330
6CB
100
AcDbEntity
  8
0
100
AcDbVertex
100
AcDb2dVertex
 10
63.32087039947509
 20
27.71158368822842
 30
0.0
  0
VERTEX
  5
755
330
6CB
100
AcDbEntity
  8
0
100
AcDbVertex
100
AcDb2dVertex
 10
63.30022811889648
 20
27.81533630129604
 30
0.0
  0
VERTEX
  5
756
330
6CB
100
AcDbEntity
  8
0
100
AcDbVertex
100
AcDb2dVertex
 10
63.27964305877685
 20
27.91966111895352
 30
0.0
  0
VERTEX
  5
757
330
6CB
100
AcDbEntity
  8
0
100
AcDbVertex
100
AcDb2dVertex
 10
63.25912475585937
 20
28.02455814120083
 30
0.0
  0
VERTEX
  5
758
330
6CB
100
AcDbEntity
  8
0
100
AcDbVertex
100
AcDb2dVertex
 10
63.23867797851562
 20
28.13002259966641
 30
0.0
  0
VERTEX
  5
759
330
6CB
100
AcDbEntity
  8
0
100
AcDbVertex
100
AcDb2dVertex
 10
63.21829795837402
 20
28.23605687853603
 30
0.0
  0
VERTEX
  5
75A
330
6CB
100
AcDbEntity
  8
0
100
AcDbVertex
100
AcDb2dVertex
 10
63.19799423217773
 20
28.34265144106655
 30
0.0
  0
VERTEX
  5
75B
330
6CB
100
AcDbEntity
  8
0
100
AcDbVertex
100
AcDb2dVertex
 10
63.17782402038574
 20
28.44977052447109
 30
0.0
  0
VERTEX
  5
75C
330
6CB
100
AcDbEntity
  8
0
100
AcDbVertex
100
AcDb2dVertex
 10
63.15783500671386
 20
28.55736644503384
 30
0.0
  0
VERTEX
  5
75D
330
6CB
100
AcDbEntity
  8
0
100
AcDbVertex
100
AcDb2dVertex
 10
63.13803195953369
 20
28.66543681856899
 30
0.0
  0
VERTEX
  5
75E
330
6CB
100
AcDbEntity
  8
0
100
AcDbVertex
100
AcDb2dVertex
 10
63.11841487884521
 20
28.77397449251919
 30
0.0
  0
VERTEX
  5
75F
330
6CB
100
AcDbEntity
  8
0
100
AcDbVertex
100
AcDb2dVertex
 10
63.09898853302001
 20
28.88297231432705
 30
0.0
  0
VERTEX
  5
760
330
6CB
100
AcDbEntity
  8
0
100
AcDbVertex
100
AcDb2dVertex
 10
63.07975769042968
 20
28.9924231314352
 30
0.0
  0
VERTEX
  5
761
330
6CB
100
AcDbEntity
  8
0
100
AcDbVertex
100
AcDb2dVertex
 10
63.06072235107421
 20
29.10231979128628
 30
0.0
  0
VERTEX
  5
762
330
6CB
100
AcDbEntity
  8
0
100
AcDbVertex
100
AcDb2dVertex
 10
63.04188728332519
 20
29.2126551413229
 30
0.0
  0
VERTEX
  5
763
330
6CB
100
AcDbEntity
  8
0
100
AcDbVertex
100
AcDb2dVertex
 10
63.02325248718261
 20
29.32342441317349
 30
0.0
  0
VERTEX
  5
764
330
6CB
100
AcDbEntity
  8
0
100
AcDbVertex
100
AcDb2dVertex
 10
63.00482273101806
 20
29.43461807009487
 30
0.0
  0
VERTEX
  5
765
330
6CB
100
AcDbEntity
  8
0
100
AcDbVertex
100
AcDb2dVertex
 10
62.98659801483154
 20
29.54623134371548
 30
0.0
  0
VERTEX
  5
766
330
6CB
100
AcDbEntity
  8
0
100
AcDbVertex
100
AcDb2dVertex
 10
62.96858310699462
 20
29.65825708147793
 30
0.0
  0
VERTEX
  5
767
330
6CB
100
AcDbEntity
  8
0
100
AcDbVertex
100
AcDb2dVertex
 10
62.9507827758789
 20
29.77068813082485
 30
0.0
  0
VERTEX
  5
768
330
6CB
100
AcDbEntity
  8
0
100
AcDbVertex
100
AcDb2dVertex
 10
62.93319225311279
 20
29.88351733919888
 30
0.0
  0
VERTEX
  5
769
330
6CB
100
AcDbEntity
  8
0
100
AcDbVertex
100
AcDb2dVertex
 10
62.91582584381103
 20
29.99673755404263
 30
0.0
  0
VERTEX
  5
76A
330
6CB
100
AcDbEntity
  8
0
100
AcDbVertex
100
AcDb2dVertex
 10
62.89867401123046
 20
30.11034400698452
 30
0.0
  0
VERTEX
  5
76B
330
6CB
100
AcDbEntity
  8
0
100
AcDbVertex
100
AcDb2dVertex
 10
62.88174629211425
 20
30.2243271612814
 30
0.0
  0
VERTEX
  5
76C
330
6CB
100
AcDbEntity
  8
0
100
AcDbVertex
100
AcDb2dVertex
 10
62.86504745483398
 20
30.33867986437588
 30
0.0
  0
VERTEX
  5
76D
330
6CB
100
AcDbEntity
  8
0
100
AcDbVertex
100
AcDb2dVertex
 10
62.84857273101806
 20
30.45339973208218
 30
0.0
  0
VERTEX
  5
76E
330
6CB
100
AcDbEntity
  8
0
100
AcDbVertex
100
AcDb2dVertex
 10
62.83233165740966
 20
30.56847484347134
 30
0.0
  0
VERTEX
  5
76F
330
6CB
100
AcDbEntity
  8
0
100
AcDbVertex
100
AcDb2dVertex
 10
62.8163194656372
 20
30.68390281435757
 30
0.0
  0
VERTEX
  5
770
330
6CB
100
AcDbEntity
  8
0
100
AcDbVertex
100
AcDb2dVertex
 10
62.80055046081542
 20
30.7996741079977
 30
0.0
  0
VERTEX
  5
771
330
6CB
100
AcDbEntity
  8
0
100
AcDbVertex
100
AcDb2dVertex
 10
62.78501510620117
 20
30.91578157183437
 30
0.0
  0
VERTEX
  5
772
330
6CB
100
AcDbEntity
  8
0
100
AcDbVertex
100
AcDb2dVertex
 10
62.76972293853759
 20
31.0322180533102
 30
0.0
  0
VERTEX
  5
773
330
6CB
100
AcDbEntity
  8
0
100
AcDbVertex
100
AcDb2dVertex
 10
62.7546739578247
 20
31.14897878405361
 30
0.0
  0
VERTEX
  5
774
330
6CB
100
AcDbEntity
  8
0
100
AcDbVertex
100
AcDb2dVertex
 10
62.73987293243408
 20
31.26605661150723
 30
0.0
  0
VERTEX
  5
775
330
6CB
100
AcDbEntity
  8
0
100
AcDbVertex
100
AcDb2dVertex
 10
62.72531986236572
 20
31.38344438311367
 30
0.0
  0
VERTEX
  5
776
330
6CB
100
AcDbEntity
  8
0
100
AcDbVertex
100
AcDb2dVertex
 10
62.71102428436279
 20
31.50113494631558
 30
0.0
  0
VERTEX
  5
777
330
6CB
100
AcDbEntity
  8
0
100
AcDbVertex
100
AcDb2dVertex
 10
62.69697666168212
 20
31.61912114855557
 30
0.0
  0
VERTEX
  5
778
330
6CB
100
AcDbEntity
  8
0
100
AcDbVertex
100
AcDb2dVertex
 10
62.68319129943847
 20
31.73739583727627
 30
0.0
  0
VERTEX
  5
779
330
6CB
100
AcDbEntity
  8
0
100
AcDbVertex
100
AcDb2dVertex
 10
62.66966342926025
 20
31.8559542441061
 30
0.0
  0
VERTEX
  5
77A
330
6CB
100
AcDbEntity
  8
0
100
AcDbVertex
100
AcDb2dVertex
 10
62.65639781951904
 20
31.9747868323019
 30
0.0
  0
VERTEX
  5
77B
330
6CB
100
AcDbEntity
  8
0
100
AcDbVertex
100
AcDb2dVertex
 10
62.64339923858642
 20
32.09389121767788
 30
0.0
  0
VERTEX
  5
77C
330
6CB
100
AcDbEntity
  8
0
100
AcDbVertex
100
AcDb2dVertex
 10
62.63067245483398
 20
32.21325547930508
 30
0.0
  0
VERTEX
  5
77D
330
6CB
100
AcDbEntity
  8
0
100
AcDbVertex
100
AcDb2dVertex
 10
62.61821269989013
 20
32.33287246462612
 30
0.0
  0
VERTEX
  5
77E
330
6CB
100
AcDbEntity
  8
0
100
AcDbVertex
100
AcDb2dVertex
 10
62.60602474212646
 20
32.45274217364102
 30
0.0
  0
VERTEX
  5
77F
330
6CB
100
AcDbEntity
  8
0
100
AcDbVertex
100
AcDb2dVertex
 10
62.59411811828613
 20
32.57285030123501
 30
0.0
  0
VERTEX
  5
780
330
6CB
100
AcDbEntity
  8
0
100
AcDbVertex
100
AcDb2dVertex
 10
62.58248805999755
 20
32.69319446322231
 30
0.0
  0
VERTEX
  5
781
330
6CB
100
AcDbEntity
  8
0
100
AcDbVertex
100
AcDb2dVertex
 10
62.57113933563232
 20
32.81376512285977
 30
0.0
  0
VERTEX
  5
782
330
6CB
100
AcDbEntity
  8
0
100
AcDbVertex
100
AcDb2dVertex
 10
62.56007194519042
 20
32.93455751177578
 30
0.0
  0
VERTEX
  5
783
330
6CB
100
AcDbEntity
  8
0
100
AcDbVertex
100
AcDb2dVertex
 10
62.54929542541503
 20
33.05556447741299
 30
0.0
  0
VERTEX
  5
784
330
6CB
100
AcDbEntity
  8
0
100
AcDbVertex
100
AcDb2dVertex
 10
62.53880500793457
 20
33.17677648302822
 30
0.0
  0
VERTEX
  5
785
330
6CB
100
AcDbEntity
  8
0
100
AcDbVertex
100
AcDb2dVertex
 10
62.52861022949218
 20
33.29819114443569
 30
0.0
  0
VERTEX
  5
786
330
6CB
100
AcDbEntity
  8
0
100
AcDbVertex
100
AcDb2dVertex
 10
62.51871109008789
 20
33.41979892489224
 30
0.0
  0
VERTEX
  5
787
330
6CB
100
AcDbEntity
  8
0
100
AcDbVertex
100
AcDb2dVertex
 10
62.50910758972167
 20
33.54159505602627
 30
0.0
  0
VERTEX
  5
788
330
6CB
100
AcDbEntity
  8
0
100
AcDbVertex
100
AcDb2dVertex
 10
62.49980449676513
 20
33.66357000109463
 30
0.0
  0
VERTEX
  5
789
330
6CB
100
AcDbEntity
  8
0
100
AcDbVertex
100
AcDb2dVertex
 10
62.49080181121826
 20
33.78571660753994
 30
0.0
  0
VERTEX
  5
78A
330
6CB
100
AcDbEntity
  8
0
100
AcDbVertex
100
AcDb2dVertex
 10
62.48210906982421
 20
33.90803249117642
 30
0.0
  0
VERTEX
  5
78B
330
6CB
100
AcDbEntity
  8
0
100
AcDbVertex
100
AcDb2dVertex
 10
62.47372150421142
 20
34.0305057310751
 30
0.0
  0
VERTEX
  5
78C
330
6CB
100
AcDbEntity
  8
0
100
AcDbVertex
100
AcDb2dVertex
 10
62.46564388275146
 20
34.1531315588644
 30
0.0
  0
VERTEX
  5
78D
330
6CB
100
AcDbEntity
  8
0
100
AcDbVertex
100
AcDb2dVertex
 10
62.4578857421875
 20
34.27590520617275
 30
0.0
  0
VERTEX
  5
78E
330
6CB
100
AcDbEntity
  8
0
100
AcDbVertex
100
AcDb2dVertex
 10
62.45043754577636
 20
34.39881713625698
 30
0.0
  0
VERTEX
  5
78F
330
6CB
100
AcDbEntity
  8
0
100
AcDbVertex
100
AcDb2dVertex
 10
62.44331359863281
 20
34.52186019655972
 30
0.0
  0
VERTEX
  5
790
330
6CB
100
AcDbEntity
  8
0
100
AcDbVertex
100
AcDb2dVertex
 10
62.43650436401367
 20
34.64502961870937
 30
0.0
  0
VERTEX
  5
791
330
6CB
100
AcDbEntity
  8
0
100
AcDbVertex
100
AcDb2dVertex
 10
62.43002414703369
 20
34.76831825014858
 30
0.0
  0
VERTEX
  5
792
330
6CB
100
AcDbEntity
  8
0
100
AcDbVertex
100
AcDb2dVertex
 10
62.42387294769287
 20
34.89171893831997
 30
0.0
  0
VERTEX
  5
793
330
6CB
100
AcDbEntity
  8
0
100
AcDbVertex
100
AcDb2dVertex
 10
62.41804599761962
 20
35.01522214648037
 30
0.0
  0
VERTEX
  5
794
330
6CB
100
AcDbEntity
  8
0
100
AcDbVertex
100
AcDb2dVertex
 10
62.41255760192871
 20
35.13882549044399
 30
0.0
  0
VERTEX
  5
795
330
6CB
100
AcDbEntity
  8
0
100
AcDbVertex
100
AcDb2dVertex
 10
62.40739822387695
 20
35.26251943346768
 30
0.0
  0
VERTEX
  5
796
330
6CB
100
AcDbEntity
  8
0
100
AcDbVertex
100
AcDb2dVertex
 10
62.40257740020751
 20
35.38629682299404
 30
0.0
  0
VERTEX
  5
797
330
6CB
100
AcDbEntity
  8
0
100
AcDbVertex
100
AcDb2dVertex
 10
62.39809989929199
 20
35.51015289065151
 30
0.0
  0
VERTEX
  5
798
330
6CB
100
AcDbEntity
  8
0
100
AcDbVertex
100
AcDb2dVertex
 10
62.39396572113037
 20
35.63408048388271
 30
0.0
  0
VERTEX
  5
799
330
6CB
100
AcDbEntity
  8
0
100
AcDbVertex
100
AcDb2dVertex
 10
62.39017486572265
 20
35.75807245013027
 30
0.0
  0
VERTEX
  5
79A
330
6CB
100
AcDbEntity
  8
0
100
AcDbVertex
100
AcDb2dVertex
 10
62.38673210144042
 20
35.88211925265103
 30
0.0
  0
VERTEX
  5
79B
330
6CB
100
AcDbEntity
  8
0
100
AcDbVertex
100
AcDb2dVertex
 10
62.38364219665527
 20
36.00621850725918
 30
0.0
  0
VERTEX
  5
79C
330
6CB
100
AcDbEntity
  8
0
100
AcDbVertex
100
AcDb2dVertex
 10
62.38090515136718
 20
36.13036067721157
 30
0.0
  0
VERTEX
  5
79D
330
6CB
100
AcDbEntity
  8
0
100
AcDbVertex
100
AcDb2dVertex
 10
62.37852096557617
 20
36.25453860995083
 30
0.0
  0
VERTEX
  5
79E
330
6CB
100
AcDbEntity
  8
0
100
AcDbVertex
100
AcDb2dVertex
 10
62.37649917602539
 20
36.37874753710537
 30
0.0
  0
VERTEX
  5
79F
330
6CB
100
AcDbEntity
  8
0
100
AcDbVertex
100
AcDb2dVertex
 10
62.37483978271484
 20
36.50298030611782
 30
0.0
  0
VERTEX
  5
7A0
330
6CB
100
AcDbEntity
  8
0
100
AcDbVertex
100
AcDb2dVertex
 10
62.37354278564453
 20
36.62722738024502
 30
0.0
  0
VERTEX
  5
7A1
330
6CB
100
AcDbEntity
  8
0
100
AcDbVertex
100
AcDb2dVertex
 10
62.37261295318603
 20
36.75148399111538
 30
0.0
  0
VERTEX
  5
7A2
330
6CB
100
AcDbEntity
  8
0
100
AcDbVertex
100
AcDb2dVertex
 10
62.37205505371093
 20
36.87574537035732
 30
0.0
  0
VERTEX
  5
7A3
330
6CB
100
AcDbEntity
  8
0
100
AcDbVertex
100
AcDb2dVertex
 10
62.37186908721923
 20
36.99999959704189
 30
0.0
  0
SEQEND
  5
7A4
330
6CB
100
AcDbEntity
  8
0
  0
LINE
  5
7A5
330
1F
100
AcDbEntity
  8
0
100
AcDbLine
 10
70.80000000000018
 20
19.99999999999943
 30
0.0
 11
70.80000000000018
 21
53.99999999999943
 31
0.0
  0
LINE
  5
7A6
330
1F
100
AcDbEntity
  8
0
100
AcDbLine
 10
71.29999999999995
 20
53.49999999999943
 30
0.0
 11
71.29999999999995
 21
20.49999999999943
 31
0.0
  0
LINE
  5
7A7
330
1F
100
AcDbEntity
  8
0
100
AcDbLine
 10
65.5
 20
19.99999999999943
 30
0.0
 11
70.80000000000018
 21
19.99999999999943
 31
0.0
  0
LINE
  5
7A8
330
1F
100
AcDbEntity
  8
0
100
AcDbLine
 10
49.5
 20
12.39125017909953
 30
0.0
 11
49.5
 21
13.49999999999943
 31
0.0
  0
ARC
  5
7A9
330
1F
100
AcDbEntity
  8
0
100
AcDbCircle
 10
48.5
 20
12.39125017909953
 30
0.0
 40
0.9999999999999987
100
AcDbArc
 50
276.5819446551726
 51
0.0
  0
LINE
  5
7AA
330
1F
100
AcDbEntity
  8
0
100
AcDbLine
 10
62.5
 20
16.99999999999943
 30
0.0
 11
62.5
 21
15.89125017909953
 31
0.0
  0
ARC
  5
7AB
330
1F
100
AcDbEntity
  8
0
100
AcDbCircle
 10
61.5
 20
15.89125017909953
 30
0.0
 40
0.9999999999999964
100
AcDbArc
 50
276.5819446551726
 51
0.0
  0
POLYLINE
  5
7AC
330
1F
100
AcDbEntity
  8
0
100
AcDb2dPolyline
 66
     1
 10
0.0
 20
0.0
 30
0.0
  0
VERTEX
  5
7AD
330
7AC
100
AcDbEntity
  8
0
100
AcDbVertex
100
AcDb2dVertex
 10
65.50000190734863
 20
19.99999912020473
 30
0.0
  0
VERTEX
  5
7AE
330
7AC
100
AcDbEntity
  8
0
100
AcDbVertex
100
AcDb2dVertex
 10
65.11409759521484
 20
19.93658931490688
 30
0.0
  0
VERTEX
  5
7AF
330
7AC
100
AcDbEntity
  8
0
100
AcDbVertex
100
AcDb2dVertex
 10
64.92115020751953
 20
19.90488202807216
 30
0.0
  0
VERTEX
  5
7B0
330
7AC
100
AcDbEntity
  8
0
100
AcDbVertex
100
AcDb2dVertex
 10
64.72819805145263
 20
19.87317712542324
 30
0.0
  0
VERTEX
  5
7B1
330
7AC
100
AcDbEntity
  8
0
100
AcDbVertex
100
AcDb2dVertex
 10
64.53574180603027
 20
19.84000594851284
 30
0.0
  0
VERTEX
  5
7B2
330
7AC
100
AcDbEntity
  8
0
100
AcDbVertex
100
AcDb2dVertex
 10
64.36281204223632
 20
19.74873454806118
 30
0.0
  0
VERTEX
  5
7B3
330
7AC
100
AcDbEntity
  8
0
100
AcDbVertex
100
AcDb2dVertex
 10
64.18988227844238
 20
19.65746553179531
 30
0.0
  0
VERTEX
  5
7B4
330
7AC
100
AcDbEntity
  8
0
100
AcDbVertex
100
AcDb2dVertex
 10
64.01694774627685
 20
19.56619532343654
 30
0.0
  0
VERTEX
  5
7B5
330
7AC
100
AcDbEntity
  8
0
100
AcDbVertex
100
AcDb2dVertex
 10
63.84401798248291
 20
19.47492511507778
 30
0.0
  0
VERTEX
  5
7B6
330
7AC
100
AcDbEntity
  8
0
100
AcDbVertex
100
AcDb2dVertex
 10
63.6763048171997
 20
19.3767336153677
 30
0.0
  0
VERTEX
  5
7B7
330
7AC
100
AcDbEntity
  8
0
100
AcDbVertex
100
AcDb2dVertex
 10
63.26993942260742
 20
18.95367057558803
 30
0.0
  0
VERTEX
  5
7B8
330
7AC
100
AcDbEntity
  8
0
100
AcDbVertex
100
AcDb2dVertex
 10
63.13448429107666
 20
18.81264837023525
 30
0.0
  0
VERTEX
  5
7B9
330
7AC
100
AcDbEntity
  8
0
100
AcDbVertex
100
AcDb2dVertex
 10
63.01185607910156
 20
18.66275103327541
 30
0.0
  0
VERTEX
  5
7BA
330
7AC
100
AcDbEntity
  8
0
100
AcDbVertex
100
AcDb2dVertex
 10
62.9276418685913
 20
18.48627836939602
 30
0.0
  0
VERTEX
  5
7BB
330
7AC
100
AcDbEntity
  8
0
100
AcDbVertex
100
AcDb2dVertex
 10
62.75920391082763
 20
18.13333304163723
 30
0.0
  0
VERTEX
  5
7BC
330
7AC
100
AcDbEntity
  8
0
100
AcDbVertex
100
AcDb2dVertex
 10
62.6749849319458
 20
17.95686156985073
 30
0.0
  0
VERTEX
  5
7BD
330
7AC
100
AcDbEntity
  8
0
100
AcDbVertex
100
AcDb2dVertex
 10
62.61118412017822
 20
17.77420909640102
 30
0.0
  0
VERTEX
  5
7BE
330
7AC
100
AcDbEntity
  8
0
100
AcDbVertex
100
AcDb2dVertex
 10
62.58338451385498
 20
17.58065731760769
 30
0.0
  0
VERTEX
  5
7BF
330
7AC
100
AcDbEntity
  8
0
100
AcDbVertex
100
AcDb2dVertex
 10
62.55558967590332
 20
17.38710434672146
 30
0.0
  0
VERTEX
  5
7C0
330
7AC
100
AcDbEntity
  8
0
100
AcDbVertex
100
AcDb2dVertex
 10
62.52779483795166
 20
17.19355256792812
 30
0.0
  0
VERTEX
  5
7C1
330
7AC
100
AcDbEntity
  8
0
100
AcDbVertex
100
AcDb2dVertex
 10
62.5
 20
16.99999959704189
 30
0.0
  0
SEQEND
  5
7C2
330
7AC
100
AcDbEntity
  8
0
  0
LINE
  5
7C3
330
1F
100
AcDbEntity
  8
0
100
AcDbLine
 10
71.29999999999995
 20
20.49999999999943
 30
0.0
 11
70.80000000000018
 21
19.99999999999943
 31
0.0
  0
LINE
  5
7C4
330
1F
100
AcDbEntity
  8
0
100
AcDbLine
 10
65.5
 20
53.99999999999943
 30
0.0
 11
70.80000000000018
 21
53.99999999999943
 31
0.0
  0
POLYLINE
  5
7C5
330
1F
100
AcDbEntity
  8
0
100
AcDb2dPolyline
 66
     1
 10
0.0
 20
0.0
 30
0.0
  0
VERTEX
  5
7C6
330
7C5
100
AcDbEntity
  8
0
100
AcDbVertex
100
AcDb2dVertex
 10
62.78441905975341
 20
55.7250014090231
 30
0.0
  0
VERTEX
  5
7C7
330
7C5
100
AcDbEntity
  8
0
100
AcDbVertex
100
AcDb2dVertex
 10
62.86420822143554
 20
55.60882480379849
 30
0.0
  0
VERTEX
  5
7C8
330
7C5
100
AcDbEntity
  8
0
100
AcDbVertex
100
AcDb2dVertex
 10
62.94400215148925
 20
55.49265296694546
 30
0.0
  0
VERTEX
  5
7C9
330
7C5
100
AcDbEntity
  8
0
100
AcDbVertex
100
AcDb2dVertex
 10
63.10358047485351
 20
55.2603092932394
 30
0.0
  0
VERTEX
  5
7CA
330
7C5
100
AcDbEntity
  8
0
100
AcDbVertex
100
AcDb2dVertex
 10
63.18336963653564
 20
55.14413268801479
 30
0.0
  0
VERTEX
  5
7CB
330
7C5
100
AcDbEntity
  8
0
100
AcDbVertex
100
AcDb2dVertex
 10
63.26316356658935
 20
55.02796085116177
 30
0.0
  0
VERTEX
  5
7CC
330
7C5
100
AcDbEntity
  8
0
100
AcDbVertex
100
AcDb2dVertex
 10
63.34612846374511
 20
54.91482646700649
 30
0.0
  0
VERTEX
  5
7CD
330
7C5
100
AcDbEntity
  8
0
100
AcDbVertex
100
AcDb2dVertex
 10
63.45864295959472
 20
54.8299589895895
 30
0.0
  0
VERTEX
  5
7CE
330
7C5
100
AcDbEntity
  8
0
100
AcDbVertex
100
AcDb2dVertex
 10
63.57116222381591
 20
54.74509151217251
 30
0.0
  0
VERTEX
  5
7CF
330
7C5
100
AcDbEntity
  8
0
100
AcDbVertex
100
AcDb2dVertex
 10
63.6836814880371
 20
54.6602288031271
 30
0.0
  0
VERTEX
  5
7D0
330
7C5
100
AcDbEntity
  8
0
100
AcDbVertex
100
AcDb2dVertex
 10
63.90872001647949
 20
54.49049384829312
 30
0.0
  0
VERTEX
  5
7D1
330
7C5
100
AcDbEntity
  8
0
100
AcDbVertex
100
AcDb2dVertex
 10
64.02123928070068
 20
54.4056311392477
 30
0.0
  0
VERTEX
  5
7D2
330
7C5
100
AcDbEntity
  8
0
100
AcDbVertex
100
AcDb2dVertex
 10
64.14044380187988
 20
54.33341415163784
 30
0.0
  0
VERTEX
  5
7D3
330
7C5
100
AcDbEntity
  8
0
100
AcDbVertex
100
AcDb2dVertex
 10
64.27394390106201
 20
54.28823859926968
 30
0.0
  0
VERTEX
  5
7D4
330
7C5
100
AcDbEntity
  8
0
100
AcDbVertex
100
AcDb2dVertex
 10
64.40743923187255
 20
54.24305827852993
 30
0.0
  0
VERTEX
  5
7D5
330
7C5
100
AcDbEntity
  8
0
100
AcDbVertex
100
AcDb2dVertex
 10
64.54093933105468
 20
54.19788272616177
 30
0.0
  0
VERTEX
  5
7D6
330
7C5
100
AcDbEntity
  8
0
100
AcDbVertex
100
AcDb2dVertex
 10
64.67443466186523
 20
54.1527071737936
 30
0.0
  0
VERTEX
  5
7D7
330
7C5
100
AcDbEntity
  8
0
100
AcDbVertex
100
AcDb2dVertex
 10
64.94143486022949
 20
54.06235606905728
 30
0.0
  0
VERTEX
  5
7D8
330
7C5
100
AcDbEntity
  8
0
100
AcDbVertex
100
AcDb2dVertex
 10
65.0786542892456
 20
54.03511436220913
 30
0.0
  0
VERTEX
  5
7D9
330
7C5
100
AcDbEntity
  8
0
100
AcDbVertex
100
AcDb2dVertex
 10
65.21910190582275
 20
54.02341277834683
 30
0.0
  0
VERTEX
  5
7DA
330
7C5
100
AcDbEntity
  8
0
100
AcDbVertex
100
AcDb2dVertex
 10
65.35955429077148
 20
54.01170642611294
 30
0.0
  0
VERTEX
  5
7DB
330
7C5
100
AcDbEntity
  8
0
100
AcDbVertex
100
AcDb2dVertex
 10
65.50000190734863
 20
54.00000007387905
 30
0.0
  0
SEQEND
  5
7DC
330
7C5
100
AcDbEntity
  8
0
  0
POLYLINE
  5
7DD
330
1F
100
AcDbEntity
  8
0
100
AcDb2dPolyline
 66
     1
 10
0.0
 20
0.0
 30
0.0
  0
VERTEX
  5
7DE
330
7DD
100
AcDbEntity
  8
0
100
AcDbVertex
100
AcDb2dVertex
 10
61.87922477722167
 20
56.30000026461392
 30
0.0
  0
VERTEX
  5
7DF
330
7DD
100
AcDbEntity
  8
0
100
AcDbVertex
100
AcDb2dVertex
 10
61.92611694335937
 20
56.29632861849575
 30
0.0
  0
VERTEX
  5
7E0
330
7DD
100
AcDbEntity
  8
0
100
AcDbVertex
100
AcDb2dVertex
 10
62.01990127563476
 20
56.28899486300259
 30
0.0
  0
VERTEX
  5
7E1
330
7DD
100
AcDbEntity
  8
0
100
AcDbVertex
100
AcDb2dVertex
 10
62.06603050231933
 20
56.28043086764126
 30
0.0
  0
VERTEX
  5
7E2
330
7DD
100
AcDbEntity
  8
0
100
AcDbVertex
100
AcDb2dVertex
 10
62.11179733276367
 20
56.26959712740688
 30
0.0
  0
VERTEX
  5
7E3
330
7DD
100
AcDbEntity
  8
0
100
AcDbVertex
100
AcDb2dVertex
 10
62.15756893157958
 20
56.25876338717251
 30
0.0
  0
VERTEX
  5
7E4
330
7DD
100
AcDbEntity
  8
0
100
AcDbVertex
100
AcDb2dVertex
 10
62.20195770263671
 20
56.24393375155239
 30
0.0
  0
VERTEX
  5
7E5
330
7DD
100
AcDbEntity
  8
0
100
AcDbVertex
100
AcDb2dVertex
 10
62.24461078643798
 20
56.22411639925747
 30
0.0
  0
VERTEX
  5
7E6
330
7DD
100
AcDbEntity
  8
0
100
AcDbVertex
100
AcDb2dVertex
 10
62.28726863861083
 20
56.20429427859097
 30
0.0
  0
VERTEX
  5
7E7
330
7DD
100
AcDbEntity
  8
0
100
AcDbVertex
100
AcDb2dVertex
 10
62.3299217224121
 20
56.18447215792446
 30
0.0
  0
VERTEX
  5
7E8
330
7DD
100
AcDbEntity
  8
0
100
AcDbVertex
100
AcDb2dVertex
 10
62.37257480621337
 20
56.16465480562954
 30
0.0
  0
VERTEX
  5
7E9
330
7DD
100
AcDbEntity
  8
0
100
AcDbVertex
100
AcDb2dVertex
 10
62.41468429565429
 20
56.14396484133511
 30
0.0
  0
VERTEX
  5
7EA
330
7DD
100
AcDbEntity
  8
0
100
AcDbVertex
100
AcDb2dVertex
 10
62.45103359222412
 20
56.11411006686001
 30
0.0
  0
VERTEX
  5
7EB
330
7DD
100
AcDbEntity
  8
0
100
AcDbVertex
100
AcDb2dVertex
 10
62.48737812042236
 20
56.08425052401333
 30
0.0
  0
VERTEX
  5
7EC
330
7DD
100
AcDbEntity
  8
0
100
AcDbVertex
100
AcDb2dVertex
 10
62.59641170501708
 20
55.99468620058804
 30
0.0
  0
VERTEX
  5
7ED
330
7DD
100
AcDbEntity
  8
0
100
AcDbVertex
100
AcDb2dVertex
 10
62.62556552886962
 20
55.95825584170132
 30
0.0
  0
VERTEX
  5
7EE
330
7DD
100
AcDbEntity
  8
0
100
AcDbVertex
100
AcDb2dVertex
 10
62.65204429626464
 20
55.9193840765646
 30
0.0
  0
VERTEX
  5
7EF
330
7DD
100
AcDbEntity
  8
0
100
AcDbVertex
100
AcDb2dVertex
 10
62.70499229431152
 20
55.841631009548
 30
0.0
  0
VERTEX
  5
7F0
330
7DD
100
AcDbEntity
  8
0
100
AcDbVertex
100
AcDb2dVertex
 10
62.73147106170654
 20
55.8027544760397
 30
0.0
  0
VERTEX
  5
7F1
330
7DD
100
AcDbEntity
  8
0
100
AcDbVertex
100
AcDb2dVertex
 10
62.78441905975341
 20
55.7250014090231
 30
0.0
  0
SEQEND
  5
7F2
330
7DD
100
AcDbEntity
  8
0
  0
POLYLINE
  5
7F3
330
1F
100
AcDbEntity
  8
0
100
AcDb2dPolyline
 66
     1
 10
0.0
 20
0.0
 30
0.0
  0
VERTEX
  5
7F4
330
7F3
100
AcDbEntity
  8
0
100
AcDbVertex
100
AcDb2dVertex
 10
62.37186908721923
 20
36.99999959704189
 30
0.0
  0
VERTEX
  5
7F5
330
7F3
100
AcDbEntity
  8
0
100
AcDbVertex
100
AcDb2dVertex
 10
62.37204551696777
 20
37.12423475024014
 30
0.0
  0
VERTEX
  5
7F6
330
7F3
100
AcDbEntity
  8
0
100
AcDbVertex
100
AcDb2dVertex
 10
62.37257957458496
 20
37.24854619738369
 30
0.0
  0
VERTEX
  5
7F7
330
7F3
100
AcDbEntity
  8
0
100
AcDbVertex
100
AcDb2dVertex
 10
62.3734712600708
 20
37.37292678591519
 30
0.0
  0
VERTEX
  5
7F8
330
7F3
100
AcDbEntity
  8
0
100
AcDbVertex
100
AcDb2dVertex
 10
62.37471103668212
 20
37.49736459490566
 30
0.0
  0
VERTEX
  5
7F9
330
7F3
100
AcDbEntity
  8
0
100
AcDbVertex
100
AcDb2dVertex
 10
62.37629890441894
 20
37.62185008761196
 30
0.0
  0
VERTEX
  5
7FA
330
7F3
100
AcDbEntity
  8
0
100
AcDbVertex
100
AcDb2dVertex
 10
62.37823963165283
 20
37.74637134310513
 30
0.0
  0
VERTEX
  5
7FB
330
7F3
100
AcDbEntity
  8
0
100
AcDbVertex
100
AcDb2dVertex
 10
62.3805284500122
 20
37.87091882464199
 30
0.0
  0
VERTEX
  5
7FC
330
7F3
100
AcDbEntity
  8
0
100
AcDbVertex
100
AcDb2dVertex
 10
62.38316535949707
 20
37.9954806112936
 30
0.0
  0
VERTEX
  5
7FD
330
7F3
100
AcDbEntity
  8
0
100
AcDbVertex
100
AcDb2dVertex
 10
62.38614082336425
 20
38.12004478213101
 30
0.0
  0
VERTEX
  5
7FE
330
7F3
100
AcDbEntity
  8
0
100
AcDbVertex
100
AcDb2dVertex
 10
62.38946437835693
 20
38.24460180041103
 30
0.0
  0
VERTEX
  5
7FF
330
7F3
100
AcDbEntity
  8
0
100
AcDbVertex
100
AcDb2dVertex
 10
62.39312648773193
 20
38.36914212939053
 30
0.0
  0
VERTEX
  5
800
330
7F3
100
AcDbEntity
  8
0
100
AcDbVertex
100
AcDb2dVertex
 10
62.39712715148925
 20
38.49365623232632
 30
0.0
  0
VERTEX
  5
801
330
7F3
100
AcDbEntity
  8
0
100
AcDbVertex
100
AcDb2dVertex
 10
62.4014663696289
 20
38.61812741991787
 30
0.0
  0
VERTEX
  5
802
330
7F3
100
AcDbEntity
  8
0
100
AcDbVertex
100
AcDb2dVertex
 10
62.40613937377929
 20
38.7425509237936
 30
0.0
  0
VERTEX
  5
803
330
7F3
100
AcDbEntity
  8
0
100
AcDbVertex
100
AcDb2dVertex
 10
62.41115093231201
 20
38.86691482302456
 30
0.0
  0
VERTEX
  5
804
330
7F3
100
AcDbEntity
  8
0
100
AcDbVertex
100
AcDb2dVertex
 10
62.41649627685546
 20
38.991204812496
 30
0.0
  0
VERTEX
  5
805
330
7F3
100
AcDbEntity
  8
0
100
AcDbVertex
100
AcDb2dVertex
 10
62.42217063903808
 20
39.11541373965054
 30
0.0
  0
VERTEX
  5
806
330
7F3
100
AcDbEntity
  8
0
100
AcDbVertex
100
AcDb2dVertex
 10
62.42817401885986
 20
39.23953206774502
 30
0.0
  0
VERTEX
  5
807
330
7F3
100
AcDbEntity
  8
0
100
AcDbVertex
100
AcDb2dVertex
 10
62.4345064163208
 20
39.36354310747891
 30
0.0
  0
VERTEX
  5
808
330
7F3
100
AcDbEntity
  8
0
100
AcDbVertex
100
AcDb2dVertex
 10
62.44116783142089
 20
39.48744209048062
 30
0.0
  0
VERTEX
  5
809
330
7F3
100
AcDbEntity
  8
0
100
AcDbVertex
100
AcDb2dVertex
 10
62.44814872741699
 20
39.61121709582119
 30
0.0
  0
VERTEX
  5
80A
330
7F3
100
AcDbEntity
  8
0
100
AcDbVertex
100
AcDb2dVertex
 10
62.45545864105224
 20
39.73485381838589
 30
0.0
  0
VERTEX
  5
80B
330
7F3
100
AcDbEntity
  8
0
100
AcDbVertex
100
AcDb2dVertex
 10
62.46308803558349
 20
39.85834510561733
 30
0.0
  0
VERTEX
  5
80C
330
7F3
100
AcDbEntity
  8
0
100
AcDbVertex
100
AcDb2dVertex
 10
62.47103691101074
 20
39.98167903658657
 30
0.0
  0
VERTEX
  5
80D
330
7F3
100
AcDbEntity
  8
0
100
AcDbVertex
100
AcDb2dVertex
 10
62.4793004989624
 20
40.10484607455043
 30
0.0
  0
VERTEX
  5
80E
330
7F3
100
AcDbEntity
  8
0
100
AcDbVertex
100
AcDb2dVertex
 10
62.48788833618164
 20
40.22783191439418
 30
0.0
  0
VERTEX
  5
80F
330
7F3
100
AcDbEntity
  8
0
100
AcDbVertex
100
AcDb2dVertex
 10
62.49678611755371
 20
40.35063178774623
 30
0.0
  0
VERTEX
  5
810
330
7F3
100
AcDbEntity
  8
0
100
AcDbVertex
100
AcDb2dVertex
 10
62.50599861145019
 20
40.47323138949184
 30
0.0
  0
VERTEX
  5
811
330
7F3
100
AcDbEntity
  8
0
100
AcDbVertex
100
AcDb2dVertex
 10
62.51552581787109
 20
40.59561641451625
 30
0.0
  0
VERTEX
  5
812
330
7F3
100
AcDbEntity
  8
0
100
AcDbVertex
100
AcDb2dVertex
 10
62.52535820007324
 20
40.71778209444789
 30
0.0
  0
VERTEX
  5
813
330
7F3
100
AcDbEntity
  8
0
100
AcDbVertex
100
AcDb2dVertex
 10
62.5355052947998
 20
40.83971412417201
 30
0.0
  0
VERTEX
  5
814
330
7F3
100
AcDbEntity
  8
0
100
AcDbVertex
100
AcDb2dVertex
 10
62.54595279693603
 20
40.96140296694545
 30
0.0
  0
VERTEX
  5
815
330
7F3
100
AcDbEntity
  8
0
100
AcDbVertex
100
AcDb2dVertex
 10
62.55671024322509
 20
41.08283908602504
 30
0.0
  0
VERTEX
  5
816
330
7F3
100
AcDbEntity
  8
0
100
AcDbVertex
100
AcDb2dVertex
 10
62.56777286529541
 20
41.20401294466762
 30
0.0
  0
VERTEX
  5
817
330
7F3
100
AcDbEntity
  8
0
100
AcDbVertex
100
AcDb2dVertex
 10
62.57913589477539
 20
41.32491023775844
 30
0.0
  0
VERTEX
  5
818
330
7F3
100
AcDbEntity
  8
0
100
AcDbVertex
100
AcDb2dVertex
 10
62.59079933166503
 20
41.44552142855434
 30
0.0
  0
VERTEX
  5
819
330
7F3
100
AcDbEntity
  8
0
100
AcDbVertex
100
AcDb2dVertex
 10
62.60275840759277
 20
41.56583221194057
 30
0.0
  0
VERTEX
  5
81A
330
7F3
100
AcDbEntity
  8
0
100
AcDbVertex
100
AcDb2dVertex
 10
62.61501789093017
 20
41.68583781954555
 30
0.0
  0
VERTEX
  5
81B
330
7F3
100
AcDbEntity
  8
0
100
AcDbVertex
100
AcDb2dVertex
 10
62.62757301330566
 20
41.8055334829977
 30
0.0
  0
VERTEX
  5
81C
330
7F3
100
AcDbEntity
  8
0
100
AcDbVertex
100
AcDb2dVertex
 10
62.64042377471923
 20
41.92493350741176
 30
0.0
  0
VERTEX
  5
81D
330
7F3
100
AcDbEntity
  8
0
100
AcDbVertex
100
AcDb2dVertex
 10
62.65356063842773
 20
42.04403312441615
 30
0.0
  0
VERTEX
  5
81E
330
7F3
100
AcDbEntity
  8
0
100
AcDbVertex
100
AcDb2dVertex
 10
62.66698360443115
 20
42.16283710238246
 30
0.0
  0
VERTEX
  5
81F
330
7F3
100
AcDbEntity
  8
0
100
AcDbVertex
100
AcDb2dVertex
 10
62.68068790435791
 20
42.28132636782436
 30
0.0
  0
VERTEX
  5
820
330
7F3
100
AcDbEntity
  8
0
100
AcDbVertex
100
AcDb2dVertex
 10
62.69466876983642
 20
42.39950568911342
 30
0.0
  0
VERTEX
  5
821
330
7F3
100
AcDbEntity
  8
0
100
AcDbVertex
100
AcDb2dVertex
 10
62.70892143249511
 20
42.51736552950649
 30
0.0
  0
VERTEX
  5
822
330
7F3
100
AcDbEntity
  8
0
100
AcDbVertex
100
AcDb2dVertex
 10
62.72344589233398
 20
42.63490112063197
 30
0.0
  0
VERTEX
  5
823
330
7F3
100
AcDbEntity
  8
0
100
AcDbVertex
100
AcDb2dVertex
 10
62.73822784423828
 20
42.7521076941183
 30
0.0
  0
VERTEX
  5
824
330
7F3
100
AcDbEntity
  8
0
100
AcDbVertex
100
AcDb2dVertex
 10
62.75327205657958
 20
42.86898048159389
 30
0.0
  0
VERTEX
  5
825
330
7F3
100
AcDbEntity
  8
0
100
AcDbVertex
100
AcDb2dVertex
 10
62.76856899261474
 20
42.98550994631557
 30
0.0
  0
VERTEX
  5
826
330
7F3
100
AcDbEntity
  8
0
100
AcDbVertex
100
AcDb2dVertex
 10
62.78411388397216
 20
43.10169131991176
 30
0.0
  0
VERTEX
  5
827
330
7F3
100
AcDbEntity
  8
0
100
AcDbVertex
100
AcDb2dVertex
 10
62.79990673065185
 20
43.21751983401088
 30
0.0
  0
VERTEX
  5
828
330
7F3
100
AcDbEntity
  8
0
100
AcDbVertex
100
AcDb2dVertex
 10
62.81594276428222
 20
43.33299548861293
 30
0.0
  0
VERTEX
  5
829
330
7F3
100
AcDbEntity
  8
0
100
AcDbVertex
100
AcDb2dVertex
 10
62.83221721649169
 20
43.44810397860316
 30
0.0
  0
VERTEX
  5
82A
330
7F3
100
AcDbEntity
  8
0
100
AcDbVertex
100
AcDb2dVertex
 10
62.8487205505371
 20
43.56284530398158
 30
0.0
  0
VERTEX
  5
82B
330
7F3
100
AcDbEntity
  8
0
100
AcDbVertex
100
AcDb2dVertex
 10
62.86545276641845
 20
43.67720992800502
 30
0.0
  0
VERTEX
  5
82C
330
7F3
100
AcDbEntity
  8
0
100
AcDbVertex
100
AcDb2dVertex
 10
62.88241386413574
 20
43.79119785067348
 30
0.0
  0
VERTEX
  5
82D
330
7F3
100
AcDbEntity
  8
0
100
AcDbVertex
100
AcDb2dVertex
 10
62.89958953857421
 20
43.90479953524379
 30
0.0
  0
VERTEX
  5
82E
330
7F3
100
AcDbEntity
  8
0
100
AcDbVertex
100
AcDb2dVertex
 10
62.91697978973388
 20
44.01801021334438
 30
0.0
  0
VERTEX
  5
82F
330
7F3
100
AcDbEntity
  8
0
100
AcDbVertex
100
AcDb2dVertex
 10
62.93458461761474
 20
44.13082511660365
 30
0.0
  0
VERTEX
  5
830
330
7F3
100
AcDbEntity
  8
0
100
AcDbVertex
100
AcDb2dVertex
 10
62.95239448547363
 20
44.24323470827846
 30
0.0
  0
VERTEX
  5
831
330
7F3
100
AcDbEntity
  8
0
100
AcDbVertex
100
AcDb2dVertex
 10
62.97040939331054
 20
44.35523898836879
 30
0.0
  0
VERTEX
  5
832
330
7F3
100
AcDbEntity
  8
0
100
AcDbVertex
100
AcDb2dVertex
 10
62.98861980438232
 20
44.46683318850307
 30
0.0
  0
VERTEX
  5
833
330
7F3
100
AcDbEntity
  8
0
100
AcDbVertex
100
AcDb2dVertex
 10
63.00702571868896
 20
44.57800300356654
 30
0.0
  0
VERTEX
  5
834
330
7F3
100
AcDbEntity
  8
0
100
AcDbVertex
100
AcDb2dVertex
 10
63.0256175994873
 20
44.6887532019308
 30
0.0
  0
VERTEX
  5
835
330
7F3
100
AcDbEntity
  8
0
100
AcDbVertex
100
AcDb2dVertex
 10
63.04439544677734
 20
44.79906947848109
 30
0.0
  0
VERTEX
  5
836
330
7F3
100
AcDbEntity
  8
0
100
AcDbVertex
100
AcDb2dVertex
 10
63.0633544921875
 20
44.90895183321742
 30
0.0
  0
VERTEX
  5
837
330
7F3
100
AcDbEntity
  8
0
100
AcDbVertex
100
AcDb2dVertex
 10
63.08248996734619
 20
45.0183954977682
 30
0.0
  0
VERTEX
  5
838
330
7F3
100
AcDbEntity
  8
0
100
AcDbVertex
100
AcDb2dVertex
 10
63.10179710388183
 20
45.12739093539027
 30
0.0
  0
VERTEX
  5
839
330
7F3
100
AcDbEntity
  8
0
100
AcDbVertex
100
AcDb2dVertex
 10
63.12127113342285
 20
45.23593814608363
 30
0.0
  0
VERTEX
  5
83A
330
7F3
100
AcDbEntity
  8
0
100
AcDbVertex
100
AcDb2dVertex
 10
63.14091205596923
 20
45.34402282473354
 30
0.0
  0
VERTEX
  5
83B
330
7F3
100
AcDbEntity
  8
0
100
AcDbVertex
100
AcDb2dVertex
 10
63.16070556640625
 20
45.45164497133998
 30
0.0
  0
VERTEX
  5
83C
330
7F3
100
AcDbEntity
  8
0
100
AcDbVertex
100
AcDb2dVertex
 10
63.18065643310546
 20
45.55879981753139
 30
0.0
  0
VERTEX
  5
83D
330
7F3
100
AcDbEntity
  8
0
100
AcDbVertex
100
AcDb2dVertex
 10
63.20075988769531
 20
45.66548259493617
 30
0.0
  0
VERTEX
  5
83E
330
7F3
100
AcDbEntity
  8
0
100
AcDbVertex
100
AcDb2dVertex
 10
63.22100639343261
 20
45.77168376681117
 30
0.0
  0
VERTEX
  5
83F
330
7F3
100
AcDbEntity
  8
0
100
AcDbVertex
100
AcDb2dVertex
 10
63.24139595031738
 20
45.87739856478481
 30
0.0
  0
VERTEX
  5
840
330
7F3
100
AcDbEntity
  8
0
100
AcDbVertex
100
AcDb2dVertex
 10
63.26191902160644
 20
45.98262222048549
 30
0.0
  0
VERTEX
  5
841
330
7F3
100
AcDbEntity
  8
0
100
AcDbVertex
100
AcDb2dVertex
 10
63.2825756072998
 20
46.08735473391322
 30
0.0
  0
VERTEX
  5
842
330
7F3
100
AcDbEntity
  8
0
100
AcDbVertex
100
AcDb2dVertex
 10
63.30336093902587
 20
46.19158179995326
 30
0.0
  0
VERTEX
  5
843
330
7F3
100
AcDbEntity
  8
0
100
AcDbVertex
100
AcDb2dVertex
 10
63.32427501678466
 20
46.29529865023402
 30
0.0
  0
VERTEX
  5
844
330
7F3
100
AcDbEntity
  8
0
100
AcDbVertex
100
AcDb2dVertex
 10
63.34530353546142
 20
46.39850528475551
 30
0.0
  0
VERTEX
  5
845
330
7F3
100
AcDbEntity
  8
0
100
AcDbVertex
100
AcDb2dVertex
 10
63.36644649505615
 20
46.50119693514613
 30
0.0
  0
VERTEX
  5
846
330
7F3
100
AcDbEntity
  8
0
100
AcDbVertex
100
AcDb2dVertex
 10
63.38770389556884
 20
46.60335929629115
 30
0.0
  0
VERTEX
  5
847
330
7F3
100
AcDbEntity
  8
0
100
AcDbVertex
100
AcDb2dVertex
 10
63.40906620025634
 20
46.70499713656215
 30
0.0
  0
VERTEX
  5
848
330
7F3
100
AcDbEntity
  8
0
100
AcDbVertex
100
AcDb2dVertex
 10
63.43052864074707
 20
46.80609615084438
 30
0.0
  0
VERTEX
  5
849
330
7F3
100
AcDbEntity
  8
0
100
AcDbVertex
100
AcDb2dVertex
 10
63.45209121704101
 20
46.90665633913783
 30
0.0
  0
VERTEX
  5
84A
330
7F3
100
AcDbEntity
  8
0
100
AcDbVertex
100
AcDb2dVertex
 10
63.4737491607666
 20
47.00666816469936
 30
0.0
  0
VERTEX
  5
84B
330
7F3
100
AcDbEntity
  8
0
100
AcDbVertex
100
AcDb2dVertex
 10
63.49549293518066
 20
47.10612685915736
 30
0.0
  0
VERTEX
  5
84C
330
7F3
100
AcDbEntity
  8
0
100
AcDbVertex
100
AcDb2dVertex
 10
63.5173225402832
 20
47.20503242251186
 30
0.0
  0
VERTEX
  5
84D
330
7F3
100
AcDbEntity
  8
0
100
AcDbVertex
100
AcDb2dVertex
 10
63.53923320770263
 20
47.30337531801967
 30
0.0
  0
VERTEX
  5
84E
330
7F3
100
AcDbEntity
  8
0
100
AcDbVertex
100
AcDb2dVertex
 10
63.56122016906738
 20
47.40114600893764
 30
0.0
  0
VERTEX
  5
84F
330
7F3
100
AcDbEntity
  8
0
100
AcDbVertex
100
AcDb2dVertex
 10
63.58327865600585
 20
47.49834449526576
 30
0.0
  0
VERTEX
  5
850
330
7F3
100
AcDbEntity
  8
0
100
AcDbVertex
100
AcDb2dVertex
 10
63.60540390014648
 20
47.59496600863246
 30
0.0
  0
VERTEX
  5
851
330
7F3
100
AcDbEntity
  8
0
100
AcDbVertex
100
AcDb2dVertex
 10
63.62759113311767
 20
47.69100101229457
 30
0.0
  0
VERTEX
  5
852
330
7F3
100
AcDbEntity
  8
0
100
AcDbVertex
100
AcDb2dVertex
 10
63.64984035491943
 20
47.78644473788051
 30
0.0
  0
VERTEX
  5
853
330
7F3
100
AcDbEntity
  8
0
100
AcDbVertex
100
AcDb2dVertex
 10
63.67214202880859
 20
47.88129241701869
 30
0.0
  0
VERTEX
  5
854
330
7F3
100
AcDbEntity
  8
0
100
AcDbVertex
100
AcDb2dVertex
 10
63.69449138641357
 20
47.97553928133754
 30
0.0
  0
VERTEX
  5
855
330
7F3
100
AcDbEntity
  8
0
100
AcDbVertex
100
AcDb2dVertex
 10
63.71688842773437
 20
48.06918056246548
 30
0.0
  0
VERTEX
  5
856
330
7F3
100
AcDbEntity
  8
0
100
AcDbVertex
100
AcDb2dVertex
 10
63.73932361602783
 20
48.16220672365933
 30
0.0
  0
VERTEX
  5
857
330
7F3
100
AcDbEntity
  8
0
100
AcDbVertex
100
AcDb2dVertex
 10
63.76180171966552
 20
48.25461299654751
 30
0.0
  0
VERTEX
  5
858
330
7F3
100
AcDbEntity
  8
0
100
AcDbVertex
100
AcDb2dVertex
 10
63.78430843353271
 20
48.34639938113003
 30
0.0
  0
VERTEX
  5
859
330
7F3
100
AcDbEntity
  8
0
100
AcDbVertex
100
AcDb2dVertex
 10
63.80683422088623
 20
48.43757064577847
 30
0.0
  0
VERTEX
  5
85A
330
7F3
100
AcDbEntity
  8
0
100
AcDbVertex
100
AcDb2dVertex
 10
63.82936477661132
 20
48.52814109560757
 30
0.0
  0
VERTEX
  5
85B
330
7F3
100
AcDbEntity
  8
0
100
AcDbVertex
100
AcDb2dVertex
 10
63.85189533233642
 20
48.61810119387417
 30
0.0
  0
VERTEX
  5
85C
330
7F3
100
AcDbEntity
  8
0
100
AcDbVertex
100
AcDb2dVertex
 10
63.8744306564331
 20
48.70745094057827
 30
0.0
  0
VERTEX
  5
85D
330
7F3
100
AcDbEntity
  8
0
100
AcDbVertex
100
AcDb2dVertex
 10
63.89695644378662
 20
48.79618556734829
 30
0.0
  0
VERTEX
  5
85E
330
7F3
100
AcDbEntity
  8
0
100
AcDbVertex
100
AcDb2dVertex
 10
63.91947746276855
 20
48.88430507418423
 30
0.0
  0
VERTEX
  5
85F
330
7F3
100
AcDbEntity
  8
0
100
AcDbVertex
100
AcDb2dVertex
 10
63.94198417663574
 20
48.97179992434292
 30
0.0
  0
VERTEX
  5
860
330
7F3
100
AcDbEntity
  8
0
100
AcDbVertex
100
AcDb2dVertex
 10
63.96447658538818
 20
49.05867011782437
 30
0.0
  0
VERTEX
  5
861
330
7F3
100
AcDbEntity
  8
0
100
AcDbVertex
100
AcDb2dVertex
 10
63.98694515228271
 20
49.14491088625698
 30
0.0
  0
VERTEX
  5
862
330
7F3
100
AcDbEntity
  8
0
100
AcDbVertex
100
AcDb2dVertex
 10
64.00939464569091
 20
49.23051746126919
 30
0.0
  0
VERTEX
  5
863
330
7F3
100
AcDbEntity
  8
0
100
AcDbVertex
100
AcDb2dVertex
 10
64.03181552886962
 20
49.31548984286099
 30
0.0
  0
VERTEX
  5
864
330
7F3
100
AcDbEntity
  8
0
100
AcDbVertex
100
AcDb2dVertex
 10
64.05420303344726
 20
49.39982326266079
 30
0.0
  0
VERTEX
  5
865
330
7F3
100
AcDbEntity
  8
0
100
AcDbVertex
100
AcDb2dVertex
 10
64.07655715942382
 20
49.48350818392544
 30
0.0
  0
VERTEX
  5
866
330
7F3
100
AcDbEntity
  8
0
100
AcDbVertex
100
AcDb2dVertex
 10
64.09887313842773
 20
49.5665541433981
 30
0.0
  0
VERTEX
  5
867
330
7F3
100
AcDbEntity
  8
0
100
AcDbVertex
100
AcDb2dVertex
 10
64.1211462020874
 20
49.64894206759243
 30
0.0
  0
VERTEX
  5
868
330
7F3
100
AcDbEntity
  8
0
100
AcDbVertex
100
AcDb2dVertex
 10
64.14337635040283
 20
49.73068149325161
 30
0.0
  0
VERTEX
  5
869
330
7F3
100
AcDbEntity
  8
0
100
AcDbVertex
100
AcDb2dVertex
 10
64.16555404663085
 20
49.81176288363247
 30
0.0
  0
VERTEX
  5
86A
330
7F3
100
AcDbEntity
  8
0
100
AcDbVertex
100
AcDb2dVertex
 10
64.18767929077148
 20
49.89218147036343
 30
0.0
  0
VERTEX
  5
86B
330
7F3
100
AcDbEntity
  8
0
100
AcDbVertex
100
AcDb2dVertex
 10
64.20974254608154
 20
49.97193725344448
 30
0.0
  0
VERTEX
  5
86C
330
7F3
100
AcDbEntity
  8
0
100
AcDbVertex
100
AcDb2dVertex
 10
64.23174858093261
 20
50.05102069613247
 30
0.0
  0
VERTEX
  5
86D
330
7F3
100
AcDbEntity
  8
0
100
AcDbVertex
100
AcDb2dVertex
 10
64.25369262695312
 20
50.12943656679897
 30
0.0
  0
VERTEX
  5
86E
330
7F3
100
AcDbEntity
  8
0
100
AcDbVertex
100
AcDb2dVertex
 10
64.2755651473999
 20
50.20717532870083
 30
0.0
  0
VERTEX
  5
86F
330
7F3
100
AcDbEntity
  8
0
100
AcDbVertex
100
AcDb2dVertex
 10
64.29736614227294
 20
50.28423698183804
 30
0.0
  0
VERTEX
  5
870
330
7F3
100
AcDbEntity
  8
0
100
AcDbVertex
100
AcDb2dVertex
 10
64.31909084320068
 20
50.36061675783901
 30
0.0
  0
VERTEX
  5
871
330
7F3
100
AcDbEntity
  8
0
100
AcDbVertex
100
AcDb2dVertex
 10
64.3407392501831
 20
50.4363051199606
 30
0.0
  0
VERTEX
  5
872
330
7F3
100
AcDbEntity
  8
0
100
AcDbVertex
100
AcDb2dVertex
 10
64.36229705810546
 20
50.51130683657437
 30
0.0
  0
VERTEX
  5
873
330
7F3
100
AcDbEntity
  8
0
100
AcDbVertex
100
AcDb2dVertex
 10
64.38377380371093
 20
50.58561713930874
 30
0.0
  0
VERTEX
  5
874
330
7F3
100
AcDbEntity
  8
0
100
AcDbVertex
100
AcDb2dVertex
 10
64.40515518188476
 20
50.65923125979214
 30
0.0
  0
VERTEX
  5
875
330
7F3
100
AcDbEntity
  8
0
100
AcDbVertex
100
AcDb2dVertex
 10
64.42644596099853
 20
50.73214442965298
 30
0.0
  0
VERTEX
  5
876
330
7F3
100
AcDbEntity
  8
0
100
AcDbVertex
100
AcDb2dVertex
 10
64.44763660430908
 20
50.80435188051968
 30
0.0
  0
VERTEX
  5
877
330
7F3
100
AcDbEntity
  8
0
100
AcDbVertex
100
AcDb2dVertex
 10
64.4687271118164
 20
50.87585361239224
 30
0.0
  0
VERTEX
  5
878
330
7F3
100
AcDbEntity
  8
0
100
AcDbVertex
100
AcDb2dVertex
 10
64.48970794677734
 20
50.94664485689907
 30
0.0
  0
VERTEX
  5
879
330
7F3
100
AcDbEntity
  8
0
100
AcDbVertex
100
AcDb2dVertex
 10
64.51058387756347
 20
51.0167208456686
 30
0.0
  0
VERTEX
  5
87A
330
7F3
100
AcDbEntity
  8
0
100
AcDbVertex
100
AcDb2dVertex
 10
64.53134059906005
 20
51.08607681032925
 30
0.0
  0
VERTEX
  5
87B
330
7F3
100
AcDbEntity
  8
0
100
AcDbVertex
100
AcDb2dVertex
 10
64.55198287963867
 20
51.15471275088101
 30
0.0
  0
VERTEX
  5
87C
330
7F3
100
AcDbEntity
  8
0
100
AcDbVertex
100
AcDb2dVertex
 10
64.57250595092773
 20
51.22262389895229
 30
0.0
  0
VERTEX
  5
87D
330
7F3
100
AcDbEntity
  8
0
100
AcDbVertex
100
AcDb2dVertex
 10
64.59290504455566
 20
51.28980548617153
 30
0.0
  0
VERTEX
  5
87E
330
7F3
100
AcDbEntity
  8
0
100
AcDbVertex
100
AcDb2dVertex
 10
64.61317062377929
 20
51.35625274416714
 30
0.0
  0
VERTEX
  5
87F
330
7F3
100
AcDbEntity
  8
0
100
AcDbVertex
100
AcDb2dVertex
 10
64.63330745697021
 20
51.42197044131069
 30
0.0
  0
VERTEX
  5
880
330
7F3
100
AcDbEntity
  8
0
100
AcDbVertex
100
AcDb2dVertex
 10
64.65331077575683
 20
51.48694427248745
 30
0.0
  0
VERTEX
  5
881
330
7F3
100
AcDbEntity
  8
0
100
AcDbVertex
100
AcDb2dVertex
 10
64.67317104339599
 20
51.55117423769741
 30
0.0
  0
VERTEX
  5
882
330
7F3
100
AcDbEntity
  8
0
100
AcDbVertex
100
AcDb2dVertex
 10
64.69288825988769
 20
51.61466033694058
 30
0.0
  0
VERTEX
  5
883
330
7F3
100
AcDbEntity
  8
0
100
AcDbVertex
100
AcDb2dVertex
 10
64.71246242523193
 20
51.67739303347378
 30
0.0
  0
VERTEX
  5
884
330
7F3
100
AcDbEntity
  8
0
100
AcDbVertex
100
AcDb2dVertex
 10
64.73187923431396
 20
51.7393770956686
 30
0.0
  0
VERTEX
  5
885
330
7F3
100
AcDbEntity
  8
0
100
AcDbVertex
100
AcDb2dVertex
 10
64.75114822387695
 20
51.8005982184103
 30
0.0
  0
VERTEX
  5
886
330
7F3
100
AcDbEntity
  8
0
100
AcDbVertex
100
AcDb2dVertex
 10
64.77025508880615
 20
51.86106117007046
 30
0.0
  0
VERTEX
  5
887
330
7F3
100
AcDbEntity
  8
0
100
AcDbVertex
100
AcDb2dVertex
 10
64.78919982910156
 20
51.92076118227749
 30
0.0
  0
VERTEX
  5
888
330
7F3
100
AcDbEntity
  8
0
100
AcDbVertex
100
AcDb2dVertex
 10
64.8079776763916
 20
51.97968871828823
 30
0.0
  0
VERTEX
  5
889
330
7F3
100
AcDbEntity
  8
0
100
AcDbVertex
100
AcDb2dVertex
 10
64.82658863067626
 20
52.03784854647427
 30
0.0
  0
VERTEX
  5
88A
330
7F3
100
AcDbEntity
  8
0
100
AcDbVertex
100
AcDb2dVertex
 10
64.8450231552124
 20
52.09523589846401
 30
0.0
  0
VERTEX
  5
88B
330
7F3
100
AcDbEntity
  8
0
100
AcDbVertex
100
AcDb2dVertex
 10
64.86328601837158
 20
52.15184123751431
 30
0.0
  0
VERTEX
  5
88C
330
7F3
100
AcDbEntity
  8
0
100
AcDbVertex
100
AcDb2dVertex
 10
64.88136291503906
 20
52.20766456362515
 30
0.0
  0
VERTEX
  5
88D
330
7F3
100
AcDbEntity
  8
0
100
AcDbVertex
100
AcDb2dVertex
 10
64.89925861358642
 20
52.26270110842495
 30
0.0
  0
VERTEX
  5
88E
330
7F3
100
AcDbEntity
  8
0
100
AcDbVertex
100
AcDb2dVertex
 10
64.9169635772705
 20
52.31695087191372
 30
0.0
  0
VERTEX
  5
88F
330
7F3
100
AcDbEntity
  8
0
100
AcDbVertex
100
AcDb2dVertex
 10
64.9344778060913
 20
52.37040431734829
 30
0.0
  0
VERTEX
  5
890
330
7F3
100
AcDbEntity
  8
0
100
AcDbVertex
100
AcDb2dVertex
 10
64.95179653167724
 20
52.42306144472866
 30
0.0
  0
VERTEX
  5
891
330
7F3
100
AcDbEntity
  8
0
100
AcDbVertex
100
AcDb2dVertex
 10
64.96891975402832
 20
52.47492225405483
 30
0.0
  0
VERTEX
  5
892
330
7F3
100
AcDbEntity
  8
0
100
AcDbVertex
100
AcDb2dVertex
 10
64.98583316802978
 20
52.52597720858364
 30
0.0
  0
VERTEX
  5
893
330
7F3
100
AcDbEntity
  8
0
100
AcDbVertex
100
AcDb2dVertex
 10
65.00254154205322
 20
52.57622630831509
 30
0.0
  0
VERTEX
  5
894
330
7F3
100
AcDbEntity
  8
0
100
AcDbVertex
100
AcDb2dVertex
 10
65.01904010772705
 20
52.62566478487759
 30
0.0
  0
VERTEX
  5
895
330
7F3
100
AcDbEntity
  8
0
100
AcDbVertex
100
AcDb2dVertex
 10
65.03532409667968
 20
52.67428786989956
 30
0.0
  0
VERTEX
  5
896
330
7F3
100
AcDbEntity
  8
0
100
AcDbVertex
100
AcDb2dVertex
 10
65.05139350891113
 20
52.72209079500942
 30
0.0
  0
VERTEX
  5
897
330
7F3
100
AcDbEntity
  8
0
100
AcDbVertex
100
AcDb2dVertex
 10
65.06723403930664
 20
52.76907832857876
 30
0.0
  0
VERTEX
  5
898
330
7F3
100
AcDbEntity
  8
0
100
AcDbVertex
100
AcDb2dVertex
 10
65.08285522460937
 20
52.81523616549282
 30
0.0
  0
VERTEX
  5
899
330
7F3
100
AcDbEntity
  8
0
100
AcDbVertex
100
AcDb2dVertex
 10
65.09824275970458
 20
52.86056907412319
 30
0.0
  0
VERTEX
  5
89A
330
7F3
100
AcDbEntity
  8
0
100
AcDbVertex
100
AcDb2dVertex
 10
65.11339664459228
 20
52.90506751772671
 30
0.0
  0
VERTEX
  5
89B
330
7F3
100
AcDbEntity
  8
0
100
AcDbVertex
100
AcDb2dVertex
 10
65.12831687927246
 20
52.94872672793179
 30
0.0
  0
VERTEX
  5
89C
330
7F3
100
AcDbEntity
  8
0
100
AcDbVertex
100
AcDb2dVertex
 10
65.14299392700195
 20
52.99155147311001
 30
0.0
  0
VERTEX
  5
89D
330
7F3
100
AcDbEntity
  8
0
100
AcDbVertex
100
AcDb2dVertex
 10
65.15742778778076
 20
53.03353221651821
 30
0.0
  0
VERTEX
  5
89E
330
7F3
100
AcDbEntity
  8
0
100
AcDbVertex
100
AcDb2dVertex
 10
65.1716136932373
 20
53.0746689581564
 30
0.0
  0
VERTEX
  5
89F
330
7F3
100
AcDbEntity
  8
0
100
AcDbVertex
100
AcDb2dVertex
 10
65.185546875
 20
53.1149521612814
 30
0.0
  0
VERTEX
  5
8A0
330
7F3
100
AcDbEntity
  8
0
100
AcDbVertex
100
AcDb2dVertex
 10
65.19922733306884
 20
53.15438659426479
 30
0.0
  0
VERTEX
  5
8A1
330
7F3
100
AcDbEntity
  8
0
100
AcDbVertex
100
AcDb2dVertex
 10
65.21264553070068
 20
53.19295795199185
 30
0.0
  0
VERTEX
  5
8A2
330
7F3
100
AcDbEntity
  8
0
100
AcDbVertex
100
AcDb2dVertex
 10
65.2258014678955
 20
53.23067577120571
 30
0.0
  0
VERTEX
  5
8A3
330
7F3
100
AcDbEntity
  8
0
100
AcDbVertex
100
AcDb2dVertex
 10
65.23869037628173
 20
53.26752574679165
 30
0.0
  0
VERTEX
  5
8A4
330
7F3
100
AcDbEntity
  8
0
100
AcDbVertex
100
AcDb2dVertex
 10
65.25130748748779
 20
53.30350787874966
 30
0.0
  0
VERTEX
  5
8A5
330
7F3
100
AcDbEntity
  8
0
100
AcDbVertex
100
AcDb2dVertex
 10
65.26365280151367
 20
53.33861739870815
 30
0.0
  0
VERTEX
  5
8A6
330
7F3
100
AcDbEntity
  8
0
100
AcDbVertex
100
AcDb2dVertex
 10
65.27572154998779
 20
53.37285430666714
 30
0.0
  0
VERTEX
  5
8A7
330
7F3
100
AcDbEntity
  8
0
100
AcDbVertex
100
AcDb2dVertex
 10
65.28750419616699
 20
53.40621383425503
 30
0.0
  0
VERTEX
  5
8A8
330
7F3
100
AcDbEntity
  8
0
100
AcDbVertex
100
AcDb2dVertex
 10
65.29900074005126
 20
53.43868644472866
 30
0.0
  0
VERTEX
  5
8A9
330
7F3
100
AcDbEntity
  8
0
100
AcDbVertex
100
AcDb2dVertex
 10
65.31021118164062
 20
53.47027690645962
 30
0.0
  0
VERTEX
  5
8AA
330
7F3
100
AcDbEntity
  8
0
100
AcDbVertex
100
AcDb2dVertex
 10
65.32112598419189
 20
53.50098045107632
 30
0.0
  0
VERTEX
  5
8AB
330
7F3
100
AcDbEntity
  8
0
100
AcDbVertex
100
AcDb2dVertex
 10
65.33174991607666
 20
53.5307875418356
 30
0.0
  0
VERTEX
  5
8AC
330
7F3
100
AcDbEntity
  8
0
100
AcDbVertex
100
AcDb2dVertex
 10
65.34206867218017
 20
53.55970294710903
 30
0.0
  0
VERTEX
  5
8AD
330
7F3
100
AcDbEntity
  8
0
100
AcDbVertex
100
AcDb2dVertex
 10
65.35208225250244
 20
53.58771236178188
 30
0.0
  0
VERTEX
  5
8AE
330
7F3
100
AcDbEntity
  8
0
100
AcDbVertex
100
AcDb2dVertex
 10
65.36179065704345
 20
53.61482532259731
 30
0.0
  0
VERTEX
  5
8AF
330
7F3
100
AcDbEntity
  8
0
100
AcDbVertex
100
AcDb2dVertex
 10
65.37118434906005
 20
53.64102752444058
 30
0.0
  0
VERTEX
  5
8B0
330
7F3
100
AcDbEntity
  8
0
100
AcDbVertex
100
AcDb2dVertex
 10
65.38026332855224
 20
53.66631896731167
 30
0.0
  0
VERTEX
  5
8B1
330
7F3
100
AcDbEntity
  8
0
100
AcDbVertex
100
AcDb2dVertex
 10
65.38902282714843
 20
53.69069488283901
 30
0.0
  0
VERTEX
  5
8B2
330
7F3
100
AcDbEntity
  8
0
100
AcDbVertex
100
AcDb2dVertex
 10
65.39746284484863
 20
53.71416003939419
 30
0.0
  0
VERTEX
  5
8B3
330
7F3
100
AcDbEntity
  8
0
100
AcDbVertex
100
AcDb2dVertex
 10
65.40557384490966
 20
53.73669536349087
 30
0.0
  0
VERTEX
  5
8B4
330
7F3
100
AcDbEntity
  8
0
100
AcDbVertex
100
AcDb2dVertex
 10
65.41335105895996
 20
53.75831039187222
 30
0.0
  0
VERTEX
  5
8B5
330
7F3
100
AcDbEntity
  8
0
100
AcDbVertex
100
AcDb2dVertex
 10
65.42079925537109
 20
53.77900035616665
 30
0.0
  0
VERTEX
  5
8B6
330
7F3
100
AcDbEntity
  8
0
100
AcDbVertex
100
AcDb2dVertex
 10
65.4279088973999
 20
53.79875571963101
 30
0.0
  0
VERTEX
  5
8B7
330
7F3
100
AcDbEntity
  8
0
100
AcDbVertex
100
AcDb2dVertex
 10
65.4346752166748
 20
53.8175717138937
 30
0.0
  0
VERTEX
  5
8B8
330
7F3
100
AcDbEntity
  8
0
100
AcDbVertex
100
AcDb2dVertex
 10
65.44109344482421
 20
53.83545310732632
 30
0.0
  0
VERTEX
  5
8B9
330
7F3
100
AcDbEntity
  8
0
100
AcDbVertex
100
AcDb2dVertex
 10
65.44716835021972
 20
53.85239513155728
 30
0.0
  0
VERTEX
  5
8BA
330
7F3
100
AcDbEntity
  8
0
100
AcDbVertex
100
AcDb2dVertex
 10
65.45288562774658
 20
53.86838348147183
 30
0.0
  0
VERTEX
  5
8BB
330
7F3
100
AcDbEntity
  8
0
100
AcDbVertex
100
AcDb2dVertex
 10
65.4582405090332
 20
53.88342292544155
 30
0.0
  0
VERTEX
  5
8BC
330
7F3
100
AcDbEntity
  8
0
100
AcDbVertex
100
AcDb2dVertex
 10
65.46321392059326
 20
53.89749438998013
 30
0.0
  0
VERTEX
  5
8BD
330
7F3
100
AcDbEntity
  8
0
100
AcDbVertex
100
AcDb2dVertex
 10
65.46780109405517
 20
53.91059787508755
 30
0.0
  0
VERTEX
  5
8BE
330
7F3
100
AcDbEntity
  8
0
100
AcDbVertex
100
AcDb2dVertex
 10
65.47201633453369
 20
53.9227381491354
 30
0.0
  0
VERTEX
  5
8BF
330
7F3
100
AcDbEntity
  8
0
100
AcDbVertex
100
AcDb2dVertex
 10
65.47585010528564
 20
53.93391521212368
 30
0.0
  0
VERTEX
  5
8C0
330
7F3
100
AcDbEntity
  8
0
100
AcDbVertex
100
AcDb2dVertex
 10
65.47931194305419
 20
53.94413860079556
 30
0.0
  0
VERTEX
  5
8C1
330
7F3
100
AcDbEntity
  8
0
100
AcDbVertex
100
AcDb2dVertex
 10
65.48240184783935
 20
53.95339877840786
 30
0.0
  0
VERTEX
  5
8C2
330
7F3
100
AcDbEntity
  8
0
100
AcDbVertex
100
AcDb2dVertex
 10
65.48511981964111
 20
53.96171005007534
 30
0.0
  0
VERTEX
  5
8C3
330
7F3
100
AcDbEntity
  8
0
100
AcDbVertex
100
AcDb2dVertex
 10
65.48747539520263
 20
53.96906287905483
 30
0.0
  0
VERTEX
  5
8C4
330
7F3
100
AcDbEntity
  8
0
100
AcDbVertex
100
AcDb2dVertex
 10
65.48946857452392
 20
53.97547157046108
 30
0.0
  0
VERTEX
  5
8C5
330
7F3
100
AcDbEntity
  8
0
100
AcDbVertex
100
AcDb2dVertex
 10
65.49109458923339
 20
53.98093135592251
 30
0.0
  0
VERTEX
  5
8C6
330
7F3
100
AcDbEntity
  8
0
100
AcDbVertex
100
AcDb2dVertex
 10
65.4923677444458
 20
53.98544700381069
 30
0.0
  0
VERTEX
  5
8C7
330
7F3
100
AcDbEntity
  8
0
100
AcDbVertex
100
AcDb2dVertex
 10
65.49327850341796
 20
53.98901851412563
 30
0.0
  0
VERTEX
  5
8C8
330
7F3
100
AcDbEntity
  8
0
100
AcDbVertex
100
AcDb2dVertex
 10
65.49384117126464
 20
53.99164588686733
 30
0.0
  0
VERTEX
  5
8C9
330
7F3
100
AcDbEntity
  8
0
100
AcDbVertex
100
AcDb2dVertex
 10
65.49404621124267
 20
53.99333865877895
 30
0.0
  0
VERTEX
  5
8CA
330
7F3
100
AcDbEntity
  8
0
100
AcDbVertex
100
AcDb2dVertex
 10
65.49390792846679
 20
53.9940968298605
 30
0.0
  0
VERTEX
  5
8CB
330
7F3
100
AcDbEntity
  8
0
100
AcDbVertex
100
AcDb2dVertex
 10
65.49342155456542
 20
53.99392040011196
 30
0.0
  0
SEQEND
  5
8CC
330
7F3
100
AcDbEntity
  8
0
  0
LINE
  5
8CD
330
1F
100
AcDbEntity
  8
0
100
AcDbLine
 10
71.29999999999995
 20
53.49999999999943
 30
0.0
 11
70.80000000000018
 21
53.99999999999943
 31
0.0
  0
ARC
  5
8CE
330
1F
100
AcDbEntity
  8
0
100
AcDbCircle
 10
0.0
 20
18.29999999999961
 30
0.0
 40
119.9999999999997
100
AcDbArc
 50
63.10345369667489
 51
116.8965463033251
  0
ARC
  5
8CF
330
1F
100
AcDbEntity
  8
0
100
AcDbCircle
 10
-47.5
 20
111.9416040016398
 30
0.0
 40
14.99999999999993
100
AcDbArc
 50
116.8965463033251
 51
180.0
  0
ARC
  5
8D0
330
1F
100
AcDbEntity
  8
0
100
AcDbCircle
 10
47.5
 20
111.9416040016395
 30
0.0
 40
14.99999999999997
100
AcDbArc
 50
0.0
 51
63.10345369667489
  0
LINE
  5
8D1
330
1F
100
AcDbEntity
  8
0
100
AcDbLine
 10
36.49999999999977
 20
14.69999999999913
 30
0.0
 11
-36.50000000000046
 21
14.69999999999948
 31
0.0
  0
LINE
  5
8D2
330
1F
100
AcDbEntity
  8
0
100
AcDbLine
 10
150.5087109696745
 20
13.5
 30
0.0
 11
249.5087109696746
 21
13.5
 31
0.0
  0
LINE
  5
8D3
330
1F
100
AcDbEntity
  8
0
100
AcDbLine
 10
150.5087109696745
 20
11.5
 30
0.0
 11
249.5087109696746
 21
11.5
 31
0.0
  0
LINE
  5
8D4
330
1F
100
AcDbEntity
  8
0
100
AcDbLine
 10
262.5087109696746
 20
55.29999999999995
 30
0.0
 11
207.719592777193
 21
55.29999999998153
 31
0.0
  0
LINE
  5
8D5
330
1F
100
AcDbEntity
  8
0
100
AcDbLine
 10
207.5960797075794
 20
56.29999999998176
 30
0.0
 11
262.5079688914833
 21
56.30000000000018
 31
0.0
  0
LINE
  5
8D6
330
1F
100
AcDbEntity
  8
0
100
AcDbLine
 10
205.015488247638
 20
0.999999999989086
 30
0.0
 11
236.5087109696745
 21
1.0
 31
0.0
  0
LINE
  5
8D7
330
1F
100
AcDbEntity
  8
0
100
AcDbLine
 10
205.0155702003257
 20
10.30647627030112
 30
0.0
 11
239.164838645719
 21
10.30647627031271
 31
0.0
  0
LINE
  5
8D8
330
1F
100
AcDbEntity
  8
0
100
AcDbLine
 10
137.5079688914833
 20
111.9416042662362
 30
0.0
 11
137.5079688914833
 21
56.30000026459606
 31
0.0
  0
LINE
  5
8D9
330
1F
100
AcDbEntity
  8
1
100
AcDbLine
 10
130.1643921214694
 20
44.69999999998663
 30
0.0
 11
144.9756685003343
 21
44.69999999998663
 31
0.0
  0
LINE
  5
8DA
330
1F
100
AcDbEntity
  8
1
100
AcDbLine
 10
130.1643921214694
 20
29.69999999998663
 30
0.0
 11
144.9756685003343
 21
29.69999999998663
 31
0.0
  0
CIRCLE
  5
8DB
330
1F
100
AcDbEntity
  8
0
100
AcDbCircle
 10
200.0087109696746
 20
3.999999999987949
 30
0.0
 40
2.0
  0
CIRCLE
  5
8DC
330
1F
100
AcDbEntity
  8
0
100
AcDbCircle
 10
200.0087109696746
 20
3.999999999987949
 30
0.0
 40
1.5
  0
LINE
  5
8DD
330
1F
100
AcDbEntity
  8
0
100
AcDbLine
 10
163.5087109696745
 20
7.326249462699252
 30
0.0
 11
163.5087109696745
 21
1.0
 31
0.0
  0
LINE
  5
8DE
330
1F
100
AcDbEntity
  8
0
100
AcDbLine
 10
205.0087109696745
 20
-0.0000000000120508
 30
0.0
 11
205.0087109696745
 21
10.43976408554499
 31
0.0
  0
LINE
  5
8DF
330
1F
100
AcDbEntity
  8
0
100
AcDbLine
 10
195.0087109696745
 20
-0.0000000000120508
 30
0.0
 11
195.0087109696745
 21
10.43976408554499
 31
0.0
  0
LINE
  5
8E0
330
1F
100
AcDbEntity
  8
0
100
AcDbLine
 10
235.5087109696746
 20
0.0
 30
0.0
 11
164.5087109696745
 21
0.0
 31
0.0
  0
LINE
  5
8E1
330
1F
100
AcDbEntity
  8
0
100
AcDbLine
 10
163.5087109696745
 20
1.0
 30
0.0
 11
195.0019336917111
 21
0.999999999989086
 31
0.0
  0
LINE
  5
8E2
330
1F
100
AcDbEntity
  8
0
100
AcDbLine
 10
163.5087109696745
 20
1.0
 30
0.0
 11
164.5087109696745
 21
-0.0000000000002274
 31
0.0
  0
LINE
  5
8E3
330
1F
100
AcDbEntity
  8
0
100
AcDbLine
 10
192.3092102302188
 20
55.29999999998086
 30
0.0
 11
151.5731868164252
 21
55.29999999998813
 31
0.0
  0
LINE
  5
8E4
330
1F
100
AcDbEntity
  8
0
100
AcDbLine
 10
160.8525832936296
 20
10.30647627031271
 30
0.0
 11
195.001851739023
 21
10.30647627030112
 31
0.0
  0
LINE
  5
8E5
330
1F
100
AcDbEntity
  8
1
100
AcDbLine
 10
179.414871768908
 20
36.99999999997885
 30
0.0
 11
220.6025501704411
 21
36.99999999997885
 31
0.0
  0
LINE
  5
8E6
330
1F
100
AcDbEntity
  8
0
100
AcDbLine
 10
153.2754251874829
 20
51.29999999998767
 30
0.0
 11
153.2754251874829
 21
19.99999999998749
 31
0.0
  0
LINE
  5
8E7
330
1F
100
AcDbEntity
  8
0
100
AcDbLine
 10
136.5079688914833
 20
14.99999999998886
 30
0.0
 11
136.5079688914833
 21
56.29999999998926
 31
0.0
  0
LINE
  5
8E8
330
1F
100
AcDbEntity
  8
0
100
AcDbLine
 10
135.0079688914833
 20
53.00000026460248
 30
0.0
 11
135.0079688914833
 21
22.00000026460225
 31
0.0
  0
LINE
  5
8E9
330
1F
100
AcDbEntity
  8
0
100
AcDbLine
 10
150.5087109696745
 20
11.5
 30
0.0
 11
160.8525832936296
 21
10.30647627031271
 31
0.0
  0
LINE
  5
8EA
330
1F
100
AcDbEntity
  8
0
100
AcDbLine
 10
150.5087109696745
 20
13.5
 30
0.0
 11
150.5087109696745
 21
11.5
 31
0.0
  0
LINE
  5
8EB
330
1F
100
AcDbEntity
  8
0
100
AcDbLine
 10
137.5087109696745
 20
15.0
 30
0.0
 11
150.5087109696745
 21
13.5
 31
0.0
  0
POLYLINE
  5
8EC
330
1F
100
AcDbEntity
  8
0
100
AcDb2dPolyline
 66
     1
 10
0.0
 20
0.0
 30
0.0
  0
VERTEX
  5
8ED
330
8EC
100
AcDbEntity
  8
0
100
AcDbVertex
100
AcDb2dVertex
 10
153.2754269730925
 20
19.9999991201928
 30
0.0
  0
VERTEX
  5
8EE
330
8EC
100
AcDbEntity
  8
0
100
AcDbVertex
100
AcDb2dVertex
 10
153.26336299299
 20
19.63960440392998
 30
0.0
  0
VERTEX
  5
8EF
330
8EC
100
AcDbEntity
  8
0
100
AcDbVertex
100
AcDb2dVertex
 10
153.2277194154143
 20
19.27796871896294
 30
0.0
  0
VERTEX
  5
8F0
330
8EC
100
AcDbEntity
  8
0
100
AcDbVertex
100
AcDb2dVertex
 10
153.1693307053923
 20
18.91884954209831
 30
0.0
  0
VERTEX
  5
8F1
330
8EC
100
AcDbEntity
  8
0
100
AcDbVertex
100
AcDb2dVertex
 10
153.0890122544646
 20
18.56600315805008
 30
0.0
  0
VERTEX
  5
8F2
330
8EC
100
AcDbEntity
  8
0
100
AcDbVertex
100
AcDb2dVertex
 10
152.9875937592863
 20
18.22318465943863
 30
0.0
  0
VERTEX
  5
8F3
330
8EC
100
AcDbEntity
  8
0
100
AcDbVertex
100
AcDb2dVertex
 10
152.8662100922941
 20
17.89393694634964
 30
0.0
  0
VERTEX
  5
8F4
330
8EC
100
AcDbEntity
  8
0
100
AcDbVertex
100
AcDb2dVertex
 10
152.7276078355193
 20
17.58055956597855
 30
0.0
  0
VERTEX
  5
8F5
330
8EC
100
AcDbEntity
  8
0
100
AcDbVertex
100
AcDb2dVertex
 10
152.574919809091
 20
17.28496105905106
 30
0.0
  0
VERTEX
  5
8F6
330
8EC
100
AcDbEntity
  8
0
100
AcDbVertex
100
AcDb2dVertex
 10
152.4112692963957
 20
17.00905354257179
 30
0.0
  0
VERTEX
  5
8F7
330
8EC
100
AcDbEntity
  8
0
100
AcDbVertex
100
AcDb2dVertex
 10
152.239774812448
 20
16.75474913354469
 30
0.0
  0
VERTEX
  5
8F8
330
8EC
100
AcDbEntity
  8
0
100
AcDbVertex
100
AcDb2dVertex
 10
152.0624486100554
 20
16.52241738076759
 30
0.0
  0
VERTEX
  5
8F9
330
8EC
100
AcDbEntity
  8
0
100
AcDbVertex
100
AcDb2dVertex
 10
151.875309098947
 20
16.30466134782387
 30
0.0
  0
VERTEX
  5
8FA
330
8EC
100
AcDbEntity
  8
0
100
AcDbVertex
100
AcDb2dVertex
 10
151.6787234437346
 20
16.10100538964843
 30
0.0
  0
VERTEX
  5
8FB
330
8EC
100
AcDbEntity
  8
0
100
AcDbVertex
100
AcDb2dVertex
 10
151.4740220200896
 20
15.91237099404907
 30
0.0
  0
VERTEX
  5
8FC
330
8EC
100
AcDbEntity
  8
0
100
AcDbVertex
100
AcDb2dVertex
 10
151.2625304353117
 20
15.73967845674133
 30
0.0
  0
VERTEX
  5
8FD
330
8EC
100
AcDbEntity
  8
0
100
AcDbVertex
100
AcDb2dVertex
 10
151.0455838334441
 20
15.58384807344078
 30
0.0
  0
VERTEX
  5
8FE
330
8EC
100
AcDbEntity
  8
0
100
AcDbVertex
100
AcDb2dVertex
 10
150.8245030534148
 20
15.44580252404808
 30
0.0
  0
VERTEX
  5
8FF
330
8EC
100
AcDbEntity
  8
0
100
AcDbVertex
100
AcDb2dVertex
 10
150.6006375443815
 20
15.32640726800559
 30
0.0
  0
VERTEX
  5
900
330
8EC
100
AcDbEntity
  8
0
100
AcDbVertex
100
AcDb2dVertex
 10
150.3753462922453
 20
15.2258911871495
 30
0.0
  0
VERTEX
  5
901
330
8EC
100
AcDbEntity
  8
0
100
AcDbVertex
100
AcDb2dVertex
 10
150.1499549043059
 20
15.14407069917342
 30
0.0
  0
VERTEX
  5
902
330
8EC
100
AcDbEntity
  8
0
100
AcDbVertex
100
AcDb2dVertex
 10
149.9258032929778
 20
15.08075864549323
 30
0.0
  0
VERTEX
  5
903
330
8EC
100
AcDbEntity
  8
0
100
AcDbVertex
100
AcDb2dVertex
 10
149.7042266023039
 20
15.03576786752387
 30
0.0
  0
VERTEX
  5
904
330
8EC
100
AcDbEntity
  8
0
100
AcDbVertex
100
AcDb2dVertex
 10
149.4865456712126
 20
15.00891120668098
 30
0.0
  0
VERTEX
  5
905
330
8EC
100
AcDbEntity
  8
0
100
AcDbVertex
100
AcDb2dVertex
 10
149.27410518049
 20
15.00000031228728
 30
0.0
  0
SEQEND
  5
906
330
8EC
100
AcDbEntity
  8
0
  0
LINE
  5
907
330
1F
100
AcDbEntity
  8
0
100
AcDbLine
 10
136.5079688914833
 20
14.99999999998886
 30
0.0
 11
262.5087109696746
 21
15.0
 31
0.0
  0
LINE
  5
908
330
1F
100
AcDbEntity
  8
0
100
AcDbLine
 10
137.5087109696745
 20
14.99999999998908
 30
0.0
 11
137.5087109696745
 21
56.29999999998904
 31
0.0
  0
LINE
  5
909
330
1F
100
AcDbEntity
  8
0
100
AcDbLine
 10
136.5079688914833
 20
22.00000026460248
 30
0.0
 11
135.0079688914833
 21
22.00000026460225
 31
0.0
  0
ARC
  5
90A
330
1F
100
AcDbEntity
  8
0
100
AcDbCircle
 10
160.5087109696745
 20
7.326249462699479
 30
0.0
 40
2.999999999999909
100
AcDbArc
 50
64.66867976230775
 51
83.41038377983798
  0
ARC
  5
90B
330
1F
100
AcDbEntity
  8
0
100
AcDbCircle
 10
160.5087109696745
 20
7.326249462699252
 30
0.0
 40
2.999999999999988
100
AcDbArc
 50
0.0097027648829007
 51
62.58658252653138
  0
POLYLINE
  5
90C
330
1F
100
AcDbEntity
  8
0
100
AcDb2dPolyline
 66
     1
 10
0.0
 20
0.0
 30
0.0
  0
VERTEX
  5
90D
330
90C
100
AcDbEntity
  8
0
100
AcDbVertex
100
AcDb2dVertex
 10
153.2754269730925
 20
51.30000026460198
 30
0.0
  0
VERTEX
  5
90E
330
90C
100
AcDbEntity
  8
0
100
AcDbVertex
100
AcDb2dVertex
 10
153.2715788972258
 20
51.50266559358147
 30
0.0
  0
VERTEX
  5
90F
330
90C
100
AcDbEntity
  8
0
100
AcDbVertex
100
AcDb2dVertex
 10
153.2601300370573
 20
51.70624168153313
 30
0.0
  0
VERTEX
  5
910
330
90C
100
AcDbEntity
  8
0
100
AcDbVertex
100
AcDb2dVertex
 10
153.2412377488493
 20
51.91006095643547
 30
0.0
  0
VERTEX
  5
911
330
90C
100
AcDbEntity
  8
0
100
AcDbVertex
100
AcDb2dVertex
 10
153.2150403153776
 20
52.11345107789544
 30
0.0
  0
VERTEX
  5
912
330
90C
100
AcDbEntity
  8
0
100
AcDbVertex
100
AcDb2dVertex
 10
153.1816855561613
 20
52.31573970551995
 30
0.0
  0
VERTEX
  5
913
330
90C
100
AcDbEntity
  8
0
100
AcDbVertex
100
AcDb2dVertex
 10
153.141326059091
 20
52.51625926728753
 30
0.0
  0
VERTEX
  5
914
330
90C
100
AcDbEntity
  8
0
100
AcDbVertex
100
AcDb2dVertex
 10
153.0941096436858
 20
52.71433265443374
 30
0.0
  0
VERTEX
  5
915
330
90C
100
AcDbEntity
  8
0
100
AcDbVertex
100
AcDb2dVertex
 10
153.040179361093
 20
52.90928752656509
 30
0.0
  0
VERTEX
  5
916
330
90C
100
AcDbEntity
  8
0
100
AcDbVertex
100
AcDb2dVertex
 10
152.9796877992033
 20
53.10046108003189
 30
0.0
  0
VERTEX
  5
917
330
90C
100
AcDbEntity
  8
0
100
AcDbVertex
100
AcDb2dVertex
 10
152.9128352296233
 20
53.28720958467056
 30
0.0
  0
VERTEX
  5
918
330
90C
100
AcDbEntity
  8
0
100
AcDbVertex
100
AcDb2dVertex
 10
152.8401557099699
 20
53.46914680238296
 30
0.0
  0
VERTEX
  5
919
330
90C
100
AcDbEntity
  8
0
100
AcDbVertex
100
AcDb2dVertex
 10
152.7622071397185
 20
53.64592464204361
 30
0.0
  0
VERTEX
  5
91A
330
90C
100
AcDbEntity
  8
0
100
AcDbVertex
100
AcDb2dVertex
 10
152.6795521867155
 20
53.81720931764175
 30
0.0
  0
VERTEX
  5
91B
330
90C
100
AcDbEntity
  8
0
100
AcDbVertex
100
AcDb2dVertex
 10
152.5927487504362
 20
53.98264796968033
 30
0.0
  0
VERTEX
  5
91C
330
90C
100
AcDbEntity
  8
0
100
AcDbVertex
100
AcDb2dVertex
 10
152.5023499619841
 20
54.1419115805204
 30
0.0
  0
VERTEX
  5
91D
330
90C
100
AcDbEntity
  8
0
100
AcDbVertex
100
AcDb2dVertex
 10
152.4089184892058
 20
54.29465205903603
 30
0.0
  0
VERTEX
  5
91E
330
90C
100
AcDbEntity
  8
0
100
AcDbVertex
100
AcDb2dVertex
 10
152.3130122315764
 20
54.44052608247353
 30
0.0
  0
VERTEX
  5
91F
330
90C
100
AcDbEntity
  8
0
100
AcDbVertex
100
AcDb2dVertex
 10
152.215189088571
 20
54.57919032807899
 30
0.0
  0
VERTEX
  5
920
330
90C
100
AcDbEntity
  8
0
100
AcDbVertex
100
AcDb2dVertex
 10
152.1158209931731
 20
54.71058757539345
 30
0.0
  0
VERTEX
  5
921
330
90C
100
AcDbEntity
  8
0
100
AcDbVertex
100
AcDb2dVertex
 10
152.0134249818205
 20
54.83726890321327
 30
0.0
  0
VERTEX
  5
922
330
90C
100
AcDbEntity
  8
0
100
AcDbVertex
100
AcDb2dVertex
 10
151.9077387940764
 20
54.95976836915565
 30
0.0
  0
VERTEX
  5
923
330
90C
100
AcDbEntity
  8
0
100
AcDbVertex
100
AcDb2dVertex
 10
151.7989817750334
 20
55.07786662812804
 30
0.0
  0
VERTEX
  5
924
330
90C
100
AcDbEntity
  8
0
100
AcDbVertex
100
AcDb2dVertex
 10
151.6873923432707
 20
55.19134910340881
 30
0.0
  0
VERTEX
  5
925
330
90C
100
AcDbEntity
  8
0
100
AcDbVertex
100
AcDb2dVertex
 10
151.5731850755095
 20
55.30000121827697
 30
0.0
  0
SEQEND
  5
926
330
90C
100
AcDbEntity
  8
0
  0
LINE
  5
927
330
1F
100
AcDbEntity
  8
0
100
AcDbLine
 10
207.5850198161482
 20
56.30000026459629
 30
0.0
 11
136.5079688914833
 21
56.29999999998926
 31
0.0
  0
POLYLINE
  5
928
330
1F
100
AcDbEntity
  8
0
100
AcDb2dPolyline
 66
     1
 10
0.0
 20
0.0
 30
0.0
  0
VERTEX
  5
929
330
928
100
AcDbEntity
  8
0
100
AcDbVertex
100
AcDb2dVertex
 10
150.51123534559
 20
56.30000026460357
 30
0.0
  0
VERTEX
  5
92A
330
928
100
AcDbEntity
  8
0
100
AcDbVertex
100
AcDb2dVertex
 10
150.5383912217497
 20
56.29780681367583
 30
0.0
  0
VERTEX
  5
92B
330
928
100
AcDbEntity
  8
0
100
AcDbVertex
100
AcDb2dVertex
 10
150.5659190308928
 20
56.29128368135138
 30
0.0
  0
VERTEX
  5
92C
330
928
100
AcDbEntity
  8
0
100
AcDbVertex
100
AcDb2dVertex
 10
150.5939999711394
 20
56.28052623506232
 30
0.0
  0
VERTEX
  5
92D
330
928
100
AcDbEntity
  8
0
100
AcDbVertex
100
AcDb2dVertex
 10
150.6228009354948
 20
56.26562030549689
 30
0.0
  0
VERTEX
  5
92E
330
928
100
AcDbEntity
  8
0
100
AcDbVertex
100
AcDb2dVertex
 10
150.6525078904509
 20
56.24666126008674
 30
0.0
  0
VERTEX
  5
92F
330
928
100
AcDbEntity
  8
0
100
AcDbVertex
100
AcDb2dVertex
 10
150.6832924973845
 20
56.22373492952033
 30
0.0
  0
VERTEX
  5
930
330
928
100
AcDbEntity
  8
0
100
AcDbVertex
100
AcDb2dVertex
 10
150.7153264176726
 20
56.19693668122931
 30
0.0
  0
VERTEX
  5
931
330
928
100
AcDbEntity
  8
0
100
AcDbVertex
100
AcDb2dVertex
 10
150.7487860810637
 20
56.16635711427353
 30
0.0
  0
VERTEX
  5
932
330
928
100
AcDbEntity
  8
0
100
AcDbVertex
100
AcDb2dVertex
 10
150.7838479173064
 20
56.13208682771347
 30
0.0
  0
VERTEX
  5
933
330
928
100
AcDbEntity
  8
0
100
AcDbVertex
100
AcDb2dVertex
 10
150.8206931245207
 20
56.09421642060897
 30
0.0
  0
VERTEX
  5
934
330
928
100
AcDbEntity
  8
0
100
AcDbVertex
100
AcDb2dVertex
 10
150.8594885957121
 20
56.05283649202011
 30
0.0
  0
VERTEX
  5
935
330
928
100
AcDbEntity
  8
0
100
AcDbVertex
100
AcDb2dVertex
 10
150.9004155290007
 20
56.00803764100692
 30
0.0
  0
VERTEX
  5
936
330
928
100
AcDbEntity
  8
0
100
AcDbVertex
100
AcDb2dVertex
 10
150.9436408173918
 20
55.95991523500083
 30
0.0
  0
VERTEX
  5
937
330
928
100
AcDbEntity
  8
0
100
AcDbVertex
100
AcDb2dVertex
 10
150.9890261781096
 20
55.90896041627525
 30
0.0
  0
VERTEX
  5
938
330
928
100
AcDbEntity
  8
0
100
AcDbVertex
100
AcDb2dVertex
 10
151.0364857804655
 20
55.85559756990074
 30
0.0
  0
VERTEX
  5
939
330
928
100
AcDbEntity
  8
0
100
AcDbVertex
100
AcDb2dVertex
 10
151.0861102235197
 20
55.80003650422691
 30
0.0
  0
VERTEX
  5
93A
330
928
100
AcDbEntity
  8
0
100
AcDbVertex
100
AcDb2dVertex
 10
151.138004411447
 20
55.74247272248863
 30
0.0
  0
VERTEX
  5
93B
330
928
100
AcDbEntity
  8
0
100
AcDbVertex
100
AcDb2dVertex
 10
151.1922684800505
 20
55.68309695954917
 30
0.0
  0
VERTEX
  5
93C
330
928
100
AcDbEntity
  8
0
100
AcDbVertex
100
AcDb2dVertex
 10
151.2489977967619
 20
55.62211425538658
 30
0.0
  0
VERTEX
  5
93D
330
928
100
AcDbEntity
  8
0
100
AcDbVertex
100
AcDb2dVertex
 10
151.3082972657561
 20
55.55972488160705
 30
0.0
  0
VERTEX
  5
93E
330
928
100
AcDbEntity
  8
0
100
AcDbVertex
100
AcDb2dVertex
 10
151.3702670228362
 20
55.49611957307433
 30
0.0
  0
VERTEX
  5
93F
330
928
100
AcDbEntity
  8
0
100
AcDbVertex
100
AcDb2dVertex
 10
151.4350024354338
 20
55.43149860139465
 30
0.0
  0
VERTEX
  5
940
330
928
100
AcDbEntity
  8
0
100
AcDbVertex
100
AcDb2dVertex
 10
151.5026131760954
 20
55.36605746980285
 30
0.0
  0
VERTEX
  5
941
330
928
100
AcDbEntity
  8
0
100
AcDbVertex
100
AcDb2dVertex
 10
151.5731850755095
 20
55.30000121827697
 30
0.0
  0
SEQEND
  5
942
330
928
100
AcDbEntity
  8
0
  0
LINE
  5
943
330
1F
100
AcDbEntity
  8
0
100
AcDbLine
 10
136.5079688914833
 20
53.00000026460248
 30
0.0
 11
135.0079688914833
 21
53.00000026460248
 31
0.0
  0
LINE
  5
944
330
1F
100
AcDbEntity
  8
0
100
AcDbLine
 10
194.2352082777751
 20
26.99999999997885
 30
0.0
 11
188.4617055858788
 21
36.99999999997885
 31
0.0
  0
LINE
  5
945
330
1F
100
AcDbEntity
  8
0
100
AcDbLine
 10
211.5557163534639
 20
36.99999999997885
 30
0.0
 11
205.7822136615676
 21
26.99999999997885
 31
0.0
  0
CIRCLE
  5
946
330
1F
100
AcDbEntity
  8
0
100
AcDbCircle
 10
200.0087109696746
 20
36.99999999997885
 30
0.0
 40
14.5
  0
CIRCLE
  5
947
330
1F
100
AcDbEntity
  8
0
100
AcDbCircle
 10
200.0087109696746
 20
36.99999999997885
 30
0.0
 40
16.5
  0
CIRCLE
  5
948
330
1F
100
AcDbEntity
  8
0
100
AcDbCircle
 10
200.0087109696746
 20
36.99999999997885
 30
0.0
 40
4.75
  0
CIRCLE
  5
949
330
1F
100
AcDbEntity
  8
0
100
AcDbCircle
 10
200.0087109696714
 20
36.99999999997885
 30
0.0
 40
8.0
  0
CIRCLE
  5
94A
330
1F
100
AcDbEntity
  8
0
100
AcDbCircle
 10
200.0087109696741
 20
36.99999999997885
 30
0.0
 40
6.0
  0
CIRCLE
  5
94B
330
1F
100
AcDbEntity
  8
0
100
AcDbCircle
 10
200.0087109696746
 20
36.99999999997885
 30
0.0
 40
5.5
  0
CIRCLE
  5
94C
330
1F
100
AcDbEntity
  8
0
100
AcDbCircle
 10
200.0087109696714
 20
36.99999999997885
 30
0.0
 40
6.794500000000001
  0
POLYLINE
  5
94D
330
1F
100
AcDbEntity
  8
0
100
AcDb2dPolyline
 66
     1
 10
0.0
 20
0.0
 30
0.0
  0
VERTEX
  5
94E
330
94D
100
AcDbEntity
  8
0
100
AcDbVertex
100
AcDb2dVertex
 10
195.0087109696745
 20
10.43976457353187
 30
0.0
  0
VERTEX
  5
94F
330
94D
100
AcDbEntity
  8
0
100
AcDbVertex
100
AcDb2dVertex
 10
195.4282242548346
 20
10.43400795693947
 30
0.0
  0
VERTEX
  5
950
330
94D
100
AcDbEntity
  8
0
100
AcDbVertex
100
AcDb2dVertex
 10
195.846992481935
 20
10.42875917192054
 30
0.0
  0
VERTEX
  5
951
330
94D
100
AcDbEntity
  8
0
100
AcDbVertex
100
AcDb2dVertex
 10
196.2650838982939
 20
10.42401583428932
 30
0.0
  0
VERTEX
  5
952
330
94D
100
AcDbEntity
  8
0
100
AcDbVertex
100
AcDb2dVertex
 10
196.6825679433226
 20
10.41977555986
 30
0.0
  0
VERTEX
  5
953
330
94D
100
AcDbEntity
  8
0
100
AcDbVertex
100
AcDb2dVertex
 10
197.0995122682928
 20
10.41603715653969
 30
0.0
  0
VERTEX
  5
954
330
94D
100
AcDbEntity
  8
0
100
AcDbVertex
100
AcDb2dVertex
 10
197.5159855675578
 20
10.41279943223549
 30
0.0
  0
VERTEX
  5
955
330
94D
100
AcDbEntity
  8
0
100
AcDbVertex
100
AcDb2dVertex
 10
197.9320551943659
 20
10.4100623869474
 30
0.0
  0
VERTEX
  5
956
330
94D
100
AcDbEntity
  8
0
100
AcDbVertex
100
AcDb2dVertex
 10
198.3477890980124
 20
10.40782363648964
 30
0.0
  0
VERTEX
  5
957
330
94D
100
AcDbEntity
  8
0
100
AcDbVertex
100
AcDb2dVertex
 10
198.7632542592167
 20
10.4060831808622
 30
0.0
  0
VERTEX
  5
958
330
94D
100
AcDbEntity
  8
0
100
AcDbVertex
100
AcDb2dVertex
 10
199.178518254745
 20
10.40483982797218
 30
0.0
  0
VERTEX
  5
959
330
94D
100
AcDbEntity
  8
0
100
AcDbVertex
100
AcDb2dVertex
 10
199.5936481398224
 20
10.40409476991249
 30
0.0
  0
VERTEX
  5
95A
330
94D
100
AcDbEntity
  8
0
100
AcDbVertex
100
AcDb2dVertex
 10
200.0087109696746
 20
10.40384562249733
 30
0.0
  0
VERTEX
  5
95B
330
94D
100
AcDbEntity
  8
0
100
AcDbVertex
100
AcDb2dVertex
 10
200.4237737995266
 20
10.40409476991249
 30
0.0
  0
VERTEX
  5
95C
330
94D
100
AcDbEntity
  8
0
100
AcDbVertex
100
AcDb2dVertex
 10
200.8389036846041
 20
10.40483982797218
 30
0.0
  0
VERTEX
  5
95D
330
94D
100
AcDbEntity
  8
0
100
AcDbVertex
100
AcDb2dVertex
 10
201.2541676801324
 20
10.4060831808622
 30
0.0
  0
VERTEX
  5
95E
330
94D
100
AcDbEntity
  8
0
100
AcDbVertex
100
AcDb2dVertex
 10
201.6696328413367
 20
10.40782363648964
 30
0.0
  0
VERTEX
  5
95F
330
94D
100
AcDbEntity
  8
0
100
AcDbVertex
100
AcDb2dVertex
 10
202.0853667449832
 20
10.4100623869474
 30
0.0
  0
VERTEX
  5
960
330
94D
100
AcDbEntity
  8
0
100
AcDbVertex
100
AcDb2dVertex
 10
202.5014363717913
 20
10.41279943223549
 30
0.0
  0
VERTEX
  5
961
330
94D
100
AcDbEntity
  8
0
100
AcDbVertex
100
AcDb2dVertex
 10
202.9179096710562
 20
10.41603715653969
 30
0.0
  0
VERTEX
  5
962
330
94D
100
AcDbEntity
  8
0
100
AcDbVertex
100
AcDb2dVertex
 10
203.3348539960265
 20
10.41977555986
 30
0.0
  0
VERTEX
  5
963
330
94D
100
AcDbEntity
  8
0
100
AcDbVertex
100
AcDb2dVertex
 10
203.7523380410552
 20
10.42401583428932
 30
0.0
  0
VERTEX
  5
964
330
94D
100
AcDbEntity
  8
0
100
AcDbVertex
100
AcDb2dVertex
 10
204.1704294574141
 20
10.42875917192054
 30
0.0
  0
VERTEX
  5
965
330
94D
100
AcDbEntity
  8
0
100
AcDbVertex
100
AcDb2dVertex
 10
204.5891976845145
 20
10.43400795693947
 30
0.0
  0
VERTEX
  5
966
330
94D
100
AcDbEntity
  8
0
100
AcDbVertex
100
AcDb2dVertex
 10
205.0087109696745
 20
10.43976457353187
 30
0.0
  0
SEQEND
  5
967
330
94D
100
AcDbEntity
  8
0
  0
LINE
  5
968
330
1F
100
AcDbEntity
  8
0
100
AcDbLine
 10
205.7822136615676
 20
26.99999999997885
 30
0.0
 11
194.2352082777751
 21
26.99999999997885
 31
0.0
  0
LINE
  5
969
330
1F
100
AcDbEntity
  8
0
100
AcDbLine
 10
205.7822136615676
 20
46.99999999997885
 30
0.0
 11
211.5557163534639
 21
36.99999999997885
 31
0.0
  0
LINE
  5
96A
330
1F
100
AcDbEntity
  8
0
100
AcDbLine
 10
194.2352082777751
 20
46.99999999997885
 30
0.0
 11
205.7822136615676
 21
46.99999999997885
 31
0.0
  0
LINE
  5
96B
330
1F
100
AcDbEntity
  8
0
100
AcDbLine
 10
188.4617055858788
 20
36.99999999997885
 30
0.0
 11
194.2352082777751
 21
46.99999999997885
 31
0.0
  0
ARC
  5
96C
330
1F
100
AcDbEntity
  8
0
100
AcDbCircle
 10
152.5079688914833
 20
111.9416042662365
 30
0.0
 40
14.99999999999993
100
AcDbArc
 50
116.8965463033178
 51
180.0
  0
LINE
  5
96D
330
1F
100
AcDbEntity
  8
0
100
AcDbLine
 10
262.5079688914833
 20
111.9416042662362
 30
0.0
 11
262.5079688914833
 21
56.30000000000018
 31
0.0
  0
LINE
  5
96E
330
1F
100
AcDbEntity
  8
0
100
AcDbLine
 10
236.5087109696745
 20
1.0
 30
0.0
 11
236.5087109696745
 21
7.326249462699252
 31
0.0
  0
LINE
  5
96F
330
1F
100
AcDbEntity
  8
0
100
AcDbLine
 10
235.5087109696746
 20
-0.0000000000002274
 30
0.0
 11
236.5087109696745
 21
1.0
 31
0.0
  0
LINE
  5
970
330
1F
100
AcDbEntity
  8
0
100
AcDbLine
 10
262.5087109696746
 20
15.0
 30
0.0
 11
262.5087109696746
 21
55.29999999999995
 31
0.0
  0
LINE
  5
971
330
1F
100
AcDbEntity
  8
0
100
AcDbLine
 10
249.5087109696746
 20
13.5
 30
0.0
 11
262.5087109696746
 21
15.0
 31
0.0
  0
LINE
  5
972
330
1F
100
AcDbEntity
  8
0
100
AcDbLine
 10
249.5087109696746
 20
11.5
 30
0.0
 11
249.5087109696746
 21
13.5
 31
0.0
  0
LINE
  5
973
330
1F
100
AcDbEntity
  8
0
100
AcDbLine
 10
239.164838645719
 20
10.30647627031271
 30
0.0
 11
249.5087109696746
 21
11.5
 31
0.0
  0
ARC
  5
974
330
1F
100
AcDbEntity
  8
0
100
AcDbCircle
 10
239.5087109696746
 20
7.326249462699252
 30
0.0
 40
3.000000000000002
100
AcDbArc
 50
96.5819446551726
 51
180.0
  0
ARC
  5
975
330
1F
100
AcDbEntity
  8
0
100
AcDbCircle
 10
261.5087109696745
 20
55.29999999999995
 30
0.0
 40
0.9999999999999964
100
AcDbArc
 50
0.0
 51
90.0
  0
ARC
  5
976
330
1F
100
AcDbEntity
  8
0
100
AcDbCircle
 10
247.5079688914833
 20
111.9416042662365
 30
0.0
 40
14.99999999999993
100
AcDbArc
 50
0.0
 51
63.10345369668216
  0
ARC
  5
977
330
1F
100
AcDbEntity
  8
0
100
AcDbCircle
 10
200.0079688914833
 20
18.30000026459629
 30
0.0
 40
119.9999999999998
100
AcDbArc
 50
63.10345369668216
 51
116.8965463033178
  0
LINE
  5
978
330
1F
100
AcDbEntity
  8
0
100
AcDbLine
 10
-14.99999999999954
 20
21.69999999999925
 30
0.0
 11
-0.4759451353932036
 21
21.69999999999936
 31
0.0
  0
LINE
  5
979
330
1F
100
AcDbEntity
  8
1
100
AcDbLine
 10
-14.99999999999977
 20
22.39834095488311
 30
0.0
 11
-14.99999999999977
 21
37.00165904511584
 31
0.0
  0
ARC
  5
97A
330
1F
100
AcDbEntity
  8
0
100
AcDbCircle
 10
-27.49999999999977
 20
37.19999999999925
 30
0.0
 40
8.000000000000028
100
AcDbArc
 50
120.9637565320758
 51
239.0362434679242
  0
LINE
  5
97B
330
1F
100
AcDbEntity
  8
1
100
AcDbLine
 10
-27.49999999999977
 20
29.89834095488311
 30
0.0
 11
-27.49999999999977
 21
44.50165904511584
 31
0.0
  0
CIRCLE
  5
97C
330
1F
100
AcDbEntity
  8
0
100
AcDbCircle
 10
-27.49999999999977
 20
37.19999999999925
 30
0.0
 40
5.000000000000007
  0
CIRCLE
  5
97D
330
1F
100
AcDbEntity
  8
0
100
AcDbCircle
 10
-27.49999999999977
 20
37.19999999999925
 30
0.0
 40
4.000000000000005
  0
LINE
  5
97E
330
1F
100
AcDbEntity
  8
1
100
AcDbLine
 10
-7.698340954883406
 20
29.69999999999925
 30
0.0
 11
-22.30165904511614
 21
29.69999999999925
 31
0.0
  0
ARC
  5
97F
330
1F
100
AcDbEntity
  8
0
100
AcDbCircle
 10
-14.99999999999954
 20
29.69999999999925
 30
0.0
 40
7.999999999999975
100
AcDbArc
 50
239.0362434679242
 51
270.0
  0
CIRCLE
  5
980
330
1F
100
AcDbEntity
  8
0
100
AcDbCircle
 10
-14.99999999999954
 20
29.69999999999925
 30
0.0
 40
5.000000000000007
  0
CIRCLE
  5
981
330
1F
100
AcDbEntity
  8
0
100
AcDbCircle
 10
-14.99999999999977
 20
29.69999999999925
 30
0.0
 40
4.000000000000005
  0
LINE
  5
982
330
1F
100
AcDbEntity
  8
0
100
AcDbLine
 10
-31.61596604342003
 20
30.34005659429897
 30
0.0
 11
-19.11596604342003
 21
22.84005659429897
 31
0.0
  0
LINE
  5
983
330
1F
100
AcDbEntity
  8
1
100
AcDbLine
 10
-7.698340954883406
 20
44.69999999999925
 30
0.0
 11
-22.30165904511614
 21
44.69999999999925
 31
0.0
  0
CIRCLE
  5
984
330
1F
100
AcDbEntity
  8
0
100
AcDbCircle
 10
-14.99999999999954
 20
44.69999999999925
 30
0.0
 40
5.000000000000007
  0
CIRCLE
  5
985
330
1F
100
AcDbEntity
  8
0
100
AcDbCircle
 10
-14.99999999999977
 20
44.69999999999925
 30
0.0
 40
4.000000000000005
  0
ARC
  5
986
330
1F
100
AcDbEntity
  8
0
100
AcDbCircle
 10
-14.99999999999977
 20
44.69999999999948
 30
0.0
 40
7.99999999999999
100
AcDbArc
 50
90.0
 51
120.9637565320758
  0
LINE
  5
987
330
1F
100
AcDbEntity
  8
1
100
AcDbLine
 10
-14.99999999999977
 20
37.39834095488311
 30
0.0
 11
-14.99999999999977
 21
52.00165904511584
 31
0.0
  0
LINE
  5
988
330
1F
100
AcDbEntity
  8
0
100
AcDbLine
 10
-19.11596604342003
 20
51.55994340569975
 30
0.0
 11
-31.61596604342003
 21
44.05994340569975
 31
0.0
  0
LINE
  5
989
330
1F
100
AcDbEntity
  8
1
100
AcDbLine
 10
-20.19834095488341
 20
37.19999999999925
 30
0.0
 11
-34.80165904511614
 21
37.19999999999925
 31
0.0
  0
LINE
  5
98A
330
1F
100
AcDbEntity
  8
1
100
AcDbLine
 10
199.9999999999999
 20
-51.10130938073758
 30
0.0
 11
199.9999999999999
 21
153.2156822646957
 31
0.0
  0
LINE
  5
98B
330
1F
100
AcDbEntity
  8
1
100
AcDbLine
 10
56.51774244810849
 20
36.99999999997888
 30
0.0
 11
78.73426018449936
 21
36.99999999997888
 31
0.0
  0
LINE
  5
98C
330
1F
100
AcDbEntity
  8
1
100
AcDbLine
 10
-56.51774244810849
 20
36.99999999997888
 30
0.0
 11
-78.73426018449936
 21
36.99999999997888
 31
0.0
  0
CIRCLE
  5
98D
330
1F
100
AcDbEntity
  8
2
100
AcDbCircle
 10
0.0
 20
-21.49999999998005
 30
0.0
 40
8.000061035156246
  0
LINE
  5
98E
330
1F
100
AcDbEntity
  8
1
100
AcDbLine
 10
12.12266191247363
 20
-21.49999999998005
 30
0.0
 11
-12.12266191247363
 21
-21.49999999998005
 31
0.0
  0
LINE
  5
98F
330
1F
100
AcDbEntity
  8
1
100
AcDbLine
 10
112.7927671174867
 20
-21.4999999999593
 30
0.0
 11
156.4825780606621
 21
-21.4999999999593
 31
0.0
  0
LINE
  5
990
330
1F
100
AcDbEntity
  8
2
100
AcDbLine
 10
144.4826390958184
 20
-13.49993896480305
 30
0.0
 11
144.4826390958184
 21
-29.50006103511555
 31
0.0
  0
LINE
  5
991
330
1F
100
AcDbEntity
  8
2
100
AcDbLine
 10
144.4826390958184
 20
-29.50006103511555
 30
0.0
 11
118.4826390958184
 21
-29.50006103511555
 31
0.0
  0
LINE
  5
992
330
1F
100
AcDbEntity
  8
2
100
AcDbLine
 10
144.4826390958184
 20
-13.49993896480305
 30
0.0
 11
118.4826390958184
 21
-13.49993896480305
 31
0.0
  0
LINE
  5
993
330
1F
100
AcDbEntity
  8
2
100
AcDbLine
 10
118.4826390958184
 20
-13.49993896480305
 30
0.0
 11
118.4826390958184
 21
-29.50006103511555
 31
0.0
  0
LINE
  5
994
330
1F
100
AcDbEntity
  8
2
100
AcDbLine
 10
146.4825780606621
 20
-28.00006103511555
 30
0.0
 11
144.4826390958184
 21
-28.00006103511555
 31
0.0
  0
LINE
  5
995
330
1F
100
AcDbEntity
  8
2
100
AcDbLine
 10
146.4825780606621
 20
-14.99993896480305
 30
0.0
 11
144.4826390958184
 21
-14.99993896480305
 31
0.0
  0
LINE
  5
996
330
1F
100
AcDbEntity
  8
2
100
AcDbLine
 10
44.50001525878406
 20
-0.000000000031946
 30
0.0
 11
-44.50001525878406
 21
-0.000000000031946
 31
0.0
  0
LINE
  5
997
330
1F
100
AcDbEntity
  8
2
100
AcDbLine
 10
-53.50001525878315
 20
-41.79139326887718
 30
0.0
 11
-53.50001525878224
 21
-9.000000000030809
 31
0.0
  0
ARC
  5
998
330
1F
100
AcDbEntity
  8
2
100
AcDbCircle
 10
-44.50001525878406
 20
-9.000000000030809
 30
0.0
 40
8.999999999998973
100
AcDbArc
 50
90.0
 51
180.0000025044817
  0
ARC
  5
999
330
1F
100
AcDbEntity
  8
2
100
AcDbCircle
 10
44.50001525878406
 20
-9.000000000030809
 30
0.0
 40
8.999999999998973
100
AcDbArc
 50
359.9999974955182
 51
90.0
  0
LINE
  5
99A
330
1F
100
AcDbEntity
  8
2
100
AcDbLine
 10
53.50001525878315
 20
-41.79139326887718
 30
0.0
 11
53.50001525878315
 21
-9.000000000030809
 31
0.0
  0
LINE
  5
99B
330
1F
100
AcDbEntity
  8
2
100
AcDbLine
 10
244.5000152587839
 20
-0.000000000031946
 30
0.0
 11
155.4999847412158
 21
-0.000000000031946
 31
0.0
  0
LINE
  5
99C
330
1F
100
AcDbEntity
  8
2
100
AcDbLine
 10
146.4999847412167
 20
-41.79139326887718
 30
0.0
 11
146.4999847412176
 21
-9.000000000030809
 31
0.0
  0
ARC
  5
99D
330
1F
100
AcDbEntity
  8
2
100
AcDbCircle
 10
155.4999847412158
 20
-9.000000000030809
 30
0.0
 40
8.999999999998973
100
AcDbArc
 50
90.0
 51
180.0000025044817
  0
ARC
  5
99E
330
1F
100
AcDbEntity
  8
2
100
AcDbCircle
 10
244.5000152587839
 20
-9.000000000030809
 30
0.0
 40
8.999999999998973
100
AcDbArc
 50
359.9999974955182
 51
90.0
  0
LINE
  5
99F
330
1F
100
AcDbEntity
  8
2
100
AcDbLine
 10
253.500015258783
 20
-41.79139326887718
 30
0.0
 11
253.500015258783
 21
-9.000000000030809
 31
0.0
  0
VIEWPORT
  5
71
330
55
100
AcDbEntity
 67
     1
  8
0
100
AcDbViewport
 10
133.3499908447266
 20
101.5999970436096
 30
0.0
 40
381.3957395593835
 41
218.2856291881582
 68
     1
 69
     1
 12
133.3499908447266
 22
101.5999970436096
 13
0.0
 23
0.0
 14
10.0
 24
10.0
 15
10.0
 25
10.0
 16
0.0
 26
0.0
 36
1.0
 17
0.0
 27
0.0
 37
0.0
 42
50.0
 43
0.0
 44
0.0
 45
218.2856291881582
 50
0.0
 51
0.0
 72
   100
 90
    32800
  1

281
     0
 71
     1
 74
     0
110
0.0
120
0.0
130
0.0
111
1.0
121
0.0
131
0.0
112
0.0
122
1.0
132
0.0
 79
     0
146
0.0
170
     0
 61
     5
348
9CD
292
     1
282
     1
141
0.0
142
0.0
 63
   250
421
  3355443
  0
VIEWPORT
  5
73
330
55
100
AcDbEntity
 67
     1
  8
0
100
AcDbViewport
 10
133.3499939441681
 20
101.5999939441681
 30
0.0
 40
213.3599903106689
 41
162.5599903106689
 68
     2
 69
     2
 12
210.0
 22
148.5
 13
0.0
 23
0.0
 14
10.0
 24
10.0
 15
10.0
 25
10.0
 16
0.0
 26
0.0
 36
1.0
 17
0.0
 27
0.0
 37
0.0
 42
50.0
 43
0.0
 44
0.0
 45
324.0677920111345
 50
0.0
 51
0.0
 72
   100
 90
    32864
  1

281
     0
 71
     1
 74
     0
110
0.0
120
0.0
130
0.0
111
1.0
121
0.0
131
0.0
112
0.0
122
1.0
132
0.0
 79
     0
146
0.0
170
     0
 61
     5
348
9CD
292
     1
282
     1
141
0.0
142
0.0
 63
   250
421
  3355443
  0
ENDSEC
  0
SECTION
  2
OBJECTS
  0
DICTIONARY
  5
C
330
0
100
AcDbDictionary
281
     1
  3
ACAD_COLOR
350
9DB
  3
ACAD_GROUP
350
D
  3
ACAD_LAYOUT
350
1A
  3
ACAD_MATERIAL
350
9AE
  3
ACAD_MLEADERSTYLE
350
9F0
  3
ACAD_MLINESTYLE
350
17
  3
ACAD_PLOTSETTINGS
350
19
  3
ACAD_PLOTSTYLENAME
350
E
  3
ACAD_SCALELIST
350
9DE
  3
ACAD_TABLESTYLE
350
9DC
  3
ACAD_VISUALSTYLE
350
9C7
  3
ACDB_RECOMPOSE_DATA
350
9FF
  3
AcDbVariableDictionary
350
5E
  0
DICTIONARY
  5
90
330
2
100
AcDbDictionary
280
     1
281
     1
  3
ACAD_LAYERSTATES
360
91
  0
DICTIONARY
  5
9F4
330
10
100
AcDbDictionary
280
     1
281
     1
  3
ADSK_XREC_LAYER_RECONCILED
360
9F5
  0
DICTIONARY
  5
89
330
88
100
AcDbDictionary
280
     1
281
     1
  3
ADSK_XREC_LAYER_RECONCILED
360
8A
  0
DICTIONARY
  5
8C
330
8B
100
AcDbDictionary
280
     1
281
     1
  3
ADSK_XREC_LAYER_RECONCILED
360
8D
  0
DICTIONARY
  5
9DB
102
{ACAD_REACTORS
330
C
102
}
330
C
100
AcDbDictionary
281
     1
  0
DICTIONARY
  5
D
102
{ACAD_REACTORS
330
C
102
}
330
C
100
AcDbDictionary
281
     1
  0
DICTIONARY
  5
1A
102
{ACAD_REACTORS
330
C
102
}
330
C
100
AcDbDictionary
281
     1
  3
Model
350
22
  3
ﾚｲｱｳﾄ1
350
51
  3
ﾚｲｱｳﾄ2
350
56
  0
DICTIONARY
  5
9AE
102
{ACAD_REACTORS
330
C
102
}
330
C
100
AcDbDictionary
281
     1
  3
ByBlock
350
9B7
  3
ByLayer
350
9AF
  3
Global
350
9BF
  0
DICTIONARY
  5
9F0
102
{ACAD_REACTORS
330
C
102
}
330
C
100
AcDbDictionary
281
     1
  3
Standard
350
9F1
  0
DICTIONARY
  5
17
102
{ACAD_REACTORS
330
C
102
}
330
C
100
AcDbDictionary
281
     1
  3
Standard
350
18
  0
DICTIONARY
  5
19
102
{ACAD_REACTORS
330
C
102
}
330
C
100
AcDbDictionary
281
     1
  0
ACDBDICTIONARYWDFLT
  5
E
102
{ACAD_REACTORS
330
C
102
}
330
C
100
AcDbDictionary
281
     1
  3
Normal
350
F
100
AcDbDictionaryWithDefault
340
F
  0
DICTIONARY
  5
9DE
102
{ACAD_REACTORS
330
C
102
}
330
C
100
AcDbDictionary
281
     1
  3
A0
350
9DF
  3
A1
350
9E0
  3
A2
350
9E1
  3
A3
350
9E2
  3
A4
350
9E3
  3
A5
350
9E4
  3
A6
350
9E5
  3
A7
350
9E6
  3
A8
350
9E7
  3
A9
350
9E8
  3
B0
350
9E9
  3
B1
350
9EA
  3
B2
350
9EB
  3
B3
350
9EC
  3
B4
350
9ED
  3
B5
350
9EE
  3
B6
350
9EF
  0
DICTIONARY
  5
9DC
102
{ACAD_REACTORS
330
C
102
}
330
C
100
AcDbDictionary
281
     1
  3
Standard
350
9DD
  0
DICTIONARY
  5
9C7
102
{ACAD_REACTORS
330
C
102
}
330
C
100
AcDbDictionary
281
     1
  3
2dWireframe
350
9CD
  3
3D Hidden
350
9CF
  3
3dWireframe
350
9CE
  3
Basic
350
9CC
  3
Brighten
350
9D3
  3
ColorChange
350
9D7
  3
Conceptual
350
9D0
  3
Dim
350
9D2
  3
EdgeColorOff
350
9DA
  3
Facepattern
350
9D6
  3
Flat
350
9C8
  3
FlatWithEdges
350
9C9
  3
Gouraud
350
9CA
  3
GouraudWithEdges
350
9CB
  3
JitterOff
350
9D8
  3
Linepattern
350
9D5
  3
OverhangOff
350
9D9
  3
Realistic
350
9D1
  3
Thicken
350
9D4
  0
XRECORD
  5
9FF
102
{ACAD_REACTORS
330
C
102
}
330
C
100
AcDbXrecord
280
     1
 90
        1
330
9DD
  0
DICTIONARY
  5
5E
102
{ACAD_REACTORS
330
C
102
}
330
C
100
AcDbDictionary
281
     1
  3
CANNOSCALE
350
9F9
  3
CMLEADERSTYLE
350
9F7
  3
CTABLESTYLE
350
9F6
  3
DIMASSOC
350
5F
  3
HIDETEXT
350
63
  3
LAYEREVAL
350
9FB
  3
LAYERNOTIFY
350
9FC
  3
LIGHTINGUNITS
350
9FA
  3
MSLTSCALE
350
9F8
  0
DICTIONARY
  5
91
102
{ACAD_REACTORS
330
90
102
}
330
90
100
AcDbDictionary
281
     1
  0
XRECORD
  5
9F5
102
{ACAD_REACTORS
330
9F4
102
}
330
9F4
100
AcDbXrecord
280
     1
290
     1
  0
XRECORD
  5
8A
102
{ACAD_REACTORS
330
89
102
}
330
89
100
AcDbXrecord
280
     1
290
     1
  0
XRECORD
  5
8D
102
{ACAD_REACTORS
330
8C
102
}
330
8C
100
AcDbXrecord
280
     1
290
     1
  0
LAYOUT
  5
22
102
{ACAD_REACTORS
330
1A
102
}
330
1A
100
AcDbPlotSettings
  1

  2
none_device
  4
ANSI_A_(8.50_x_11.00_Inches)
  6

 40
6.349999904632568
 41
19.04999923706055
 42
6.350006103515625
 43
19.04998779296875
 44
215.8999938964844
 45
279.3999938964844
 46
0.0
 47
0.0
 48
0.0
 49
0.0
140
0.0
141
0.0
142
1.0
143
78.436453180766
 70
 11952
 72
     0
 73
     1
 74
     0
  7

 75
     0
147
0.0127491741332998
 76
     0
 77
     2
 78
   300
148
0.0
149
0.0
100
AcDbLayout
  1
Model
 70
     1
 71
     0
 10
0.0
 20
0.0
 11
12.0
 21
9.0
 12
0.0
 22
0.0
 32
0.0
 14
0.0
 24
0.0
 34
0.0
 15
0.0
 25
0.0
 35
0.0
146
0.0
 13
0.0
 23
0.0
 33
0.0
 16
1.0
 26
0.0
 36
0.0
 17
0.0
 27
1.0
 37
0.0
 76
     0
330
1F
331
9AC
  0
LAYOUT
  5
51
102
{ACAD_REACTORS
330
1A
102
}
330
1A
100
AcDbPlotSettings
  1

  2
none_device
  4
Letter_(8.50_x_11.00_Inches)
  6

 40
6.349999904632568
 41
6.349999904632568
 42
6.350006103515625
 43
6.350006103515625
 44
215.8999938964844
 45
279.3999938964844
 46
0.0
 47
0.0
 48
0.0
 49
0.0
140
0.0
141
0.0
142
1.0
143
1.0
 70
   688
 72
     1
 73
     1
 74
     5
  7

 75
    16
147
1.0
 76
     0
 77
     2
 78
   300
148
0.0
149
0.0
100
AcDbLayout
  1
ﾚｲｱｳﾄ1
 70
     1
 71
     1
 10
-6.350006103515625
 20
-6.349999904632568
 11
273.0499877929688
 21
209.5499939918518
 12
0.0
 22
0.0
 32
0.0
 14
26.66076962115563
 24
20.31135699206658
 34
-0.0015258207003583
 15
240.039213369355
 25
182.8886381005154
 35
0.0000000349246037
146
0.0
 13
0.0
 23
0.0
 33
0.0
 16
1.0
 26
0.0
 36
0.0
 17
0.0
 27
1.0
 37
0.0
 76
     0
330
50
331
6B
  0
LAYOUT
  5
56
102
{ACAD_REACTORS
330
1A
102
}
330
1A
100
AcDbPlotSettings
  1

  2
none_device
  4
Letter_(8.50_x_11.00_Inches)
  6

 40
6.349999904632568
 41
6.349999904632568
 42
6.350006103515625
 43
6.350006103515625
 44
215.8999938964844
 45
279.3999938964844
 46
0.0
 47
0.0
 48
0.0
 49
0.0
140
0.0
141
0.0
142
1.0
143
1.0
 70
   688
 72
     1
 73
     1
 74
     5
  7

 75
    16
147
1.0
 76
     0
 77
     2
 78
   300
148
0.0
149
0.0
100
AcDbLayout
  1
ﾚｲｱｳﾄ2
 70
     1
 71
     2
 10
-6.350006103515625
 20
-6.349999904632568
 11
273.0499877929688
 21
209.5499939918518
 12
0.0
 22
0.0
 32
0.0
 14
26.66076962115563
 24
20.31135699206658
 34
-0.0015258207003583
 15
240.039213369355
 25
182.8886381005154
 35
0.0000000349246037
146
0.0
 13
0.0
 23
0.0
 33
0.0
 16
1.0
 26
0.0
 36
0.0
 17
0.0
 27
1.0
 37
0.0
 76
     0
330
55
331
71
  0
MATERIAL
  5
9B7
102
{ACAD_XDICTIONARY
360
9B8
102
}
102
{ACAD_REACTORS
330
9AE
102
}
330
9AE
100
AcDbMaterial
  1
ByBlock
 72
     0
 43
0.0008202099737533
 43
0.0
 43
0.0
 43
0.0
 43
0.0
 43
0.0008202099737533
 43
0.0
 43
0.0
 43
0.0
 43
0.0
 43
1.0
 43
0.0
 43
0.0
 43
0.0
 43
0.0
 43
1.0
 77
     0
 47
0.0008202099737533
 47
0.0
 47
0.0
 47
0.0
 47
0.0
 47
0.0008202099737533
 47
0.0
 47
0.0
 47
0.0
 47
0.0
 47
1.0
 47
0.0
 47
0.0
 47
0.0
 47
0.0
 47
1.0
171
     0
 49
0.0008202099737533
 49
0.0
 49
0.0
 49
0.0
 49
0.0
 49
0.0008202099737533
 49
0.0
 49
0.0
 49
0.0
 49
0.0
 49
1.0
 49
0.0
 49
0.0
 49
0.0
 49
0.0
 49
1.0
175
     0
142
0.0008202099737533
142
0.0
142
0.0
142
0.0
142
0.0
142
0.0008202099737533
142
0.0
142
0.0
142
0.0
142
0.0
142
1.0
142
0.0
142
0.0
142
0.0
142
0.0
142
1.0
179
     0
144
0.0008202099737533
144
0.0
144
0.0
144
0.0
144
0.0
144
0.0008202099737533
144
0.0
144
0.0
144
0.0
144
0.0
144
1.0
144
0.0
144
0.0
144
0.0
144
0.0
144
1.0
147
0.0008202099737533
147
0.0
147
0.0
147
0.0
147
0.0
147
0.0008202099737533
147
0.0
147
0.0
147
0.0
147
0.0
147
1.0
147
0.0
147
0.0
147
0.0
147
0.0
147
1.0
  0
MATERIAL
  5
9AF
102
{ACAD_XDICTIONARY
360
9B0
102
}
102
{ACAD_REACTORS
330
9AE
102
}
330
9AE
100
AcDbMaterial
  1
ByLayer
 72
     0
 43
0.0008202099737533
 43
0.0
 43
0.0
 43
0.0
 43
0.0
 43
0.0008202099737533
 43
0.0
 43
0.0
 43
0.0
 43
0.0
 43
1.0
 43
0.0
 43
0.0
 43
0.0
 43
0.0
 43
1.0
 77
     0
 47
0.0008202099737533
 47
0.0
 47
0.0
 47
0.0
 47
0.0
 47
0.0008202099737533
 47
0.0
 47
0.0
 47
0.0
 47
0.0
 47
1.0
 47
0.0
 47
0.0
 47
0.0
 47
0.0
 47
1.0
171
     0
 49
0.0008202099737533
 49
0.0
 49
0.0
 49
0.0
 49
0.0
 49
0.0008202099737533
 49
0.0
 49
0.0
 49
0.0
 49
0.0
 49
1.0
 49
0.0
 49
0.0
 49
0.0
 49
0.0
 49
1.0
175
     0
142
0.0008202099737533
142
0.0
142
0.0
142
0.0
142
0.0
142
0.0008202099737533
142
0.0
142
0.0
142
0.0
142
0.0
142
1.0
142
0.0
142
0.0
142
0.0
142
0.0
142
1.0
179
     0
144
0.0008202099737533
144
0.0
144
0.0
144
0.0
144
0.0
144
0.0008202099737533
144
0.0
144
0.0
144
0.0
144
0.0
144
1.0
144
0.0
144
0.0
144
0.0
144
0.0
144
1.0
147
0.0008202099737533
147
0.0
147
0.0
147
0.0
147
0.0
147
0.0008202099737533
147
0.0
147
0.0
147
0.0
147
0.0
147
1.0
147
0.0
147
0.0
147
0.0
147
0.0
147
1.0
  0
MATERIAL
  5
9BF
102
{ACAD_XDICTIONARY
360
9C0
102
}
102
{ACAD_REACTORS
330
9AE
102
}
330
9AE
100
AcDbMaterial
  1
Global
 72
     0
 43
0.0008202099737533
 43
0.0
 43
0.0
 43
0.0
 43
0.0
 43
0.0008202099737533
 43
0.0
 43
0.0
 43
0.0
 43
0.0
 43
1.0
 43
0.0
 43
0.0
 43
0.0
 43
0.0
 43
1.0
 77
     0
 47
0.0008202099737533
 47
0.0
 47
0.0
 47
0.0
 47
0.0
 47
0.0008202099737533
 47
0.0
 47
0.0
 47
0.0
 47
0.0
 47
1.0
 47
0.0
 47
0.0
 47
0.0
 47
0.0
 47
1.0
171
     0
 49
0.0008202099737533
 49
0.0
 49
0.0
 49
0.0
 49
0.0
 49
0.0008202099737533
 49
0.0
 49
0.0
 49
0.0
 49
0.0
 49
1.0
 49
0.0
 49
0.0
 49
0.0
 49
0.0
 49
1.0
175
     0
142
0.0008202099737533
142
0.0
142
0.0
142
0.0
142
0.0
142
0.0008202099737533
142
0.0
142
0.0
142
0.0
142
0.0
142
1.0
142
0.0
142
0.0
142
0.0
142
0.0
142
1.0
179
     0
144
0.0008202099737533
144
0.0
144
0.0
144
0.0
144
0.0
144
0.0008202099737533
144
0.0
144
0.0
144
0.0
144
0.0
144
1.0
144
0.0
144
0.0
144
0.0
144
0.0
144
1.0
147
0.0008202099737533
147
0.0
147
0.0
147
0.0
147
0.0
147
0.0008202099737533
147
0.0
147
0.0
147
0.0
147
0.0
147
1.0
147
0.0
147
0.0
147
0.0
147
0.0
147
1.0
  0
MLEADERSTYLE
  5
9F1
102
{ACAD_REACTORS
330
9F0
102
}
330
9F0
100
AcDbMLeaderStyle
179
     2
170
     2
171
     1
172
     0
 90
        2
 40
0.0
 41
0.0
173
     1
 91
-1056964608
340
14
 92
       -2
290
     1
 42
2.0
291
     1
 43
0.36
  3
Standard
 44
4.0
300

342
11
174
     1
178
     6
175
     1
176
     0
 93
-1056964608
 45
4.0
292
     0
297
     0
 46
4.0
 94
-1056964608
 47
1.0
 49
1.0
140
1.0
293
     1
141
0.0
294
     1
177
     0
142
1.0
295
     1
296
     0
143
0.125
271
     0
272
     9
273
     9
  0
MLINESTYLE
  5
18
102
{ACAD_REACTORS
330
17
102
}
330
17
100
AcDbMlineStyle
  2
STANDARD
 70
     0
  3

 62
   256
 51
90.0
 52
90.0
 71
     2
 49
0.5
 62
   256
  6
BYLAYER
 49
-0.5
 62
   256
  6
BYLAYER
  0
ACDBPLACEHOLDER
  5
F
102
{ACAD_REACTORS
330
E
102
}
330
E
  0
SCALE
  5
9DF
102
{ACAD_REACTORS
330
9DE
102
}
330
9DE
100
AcDbScale
 70
     0
300
1:1
140
1.0
141
1.0
290
     1
  0
SCALE
  5
9E0
102
{ACAD_REACTORS
330
9DE
102
}
330
9DE
100
AcDbScale
 70
     0
300
1:2
140
1.0
141
2.0
290
     0
  0
SCALE
  5
9E1
102
{ACAD_REACTORS
330
9DE
102
}
330
9DE
100
AcDbScale
 70
     0
300
1:4
140
1.0
141
4.0
290
     0
  0
SCALE
  5
9E2
102
{ACAD_REACTORS
330
9DE
102
}
330
9DE
100
AcDbScale
 70
     0
300
1:5
140
1.0
141
5.0
290
     0
  0
SCALE
  5
9E3
102
{ACAD_REACTORS
330
9DE
102
}
330
9DE
100
AcDbScale
 70
     0
300
1:8
140
1.0
141
8.0
290
     0
  0
SCALE
  5
9E4
102
{ACAD_REACTORS
330
9DE
102
}
330
9DE
100
AcDbScale
 70
     0
300
1:10
140
1.0
141
10.0
290
     0
  0
SCALE
  5
9E5
102
{ACAD_REACTORS
330
9DE
102
}
330
9DE
100
AcDbScale
 70
     0
300
1:16
140
1.0
141
16.0
290
     0
  0
SCALE
  5
9E6
102
{ACAD_REACTORS
330
9DE
102
}
330
9DE
100
AcDbScale
 70
     0
300
1:20
140
1.0
141
20.0
290
     0
  0
SCALE
  5
9E7
102
{ACAD_REACTORS
330
9DE
102
}
330
9DE
100
AcDbScale
 70
     0
300
1:30
140
1.0
141
30.0
290
     0
  0
SCALE
  5
9E8
102
{ACAD_REACTORS
330
9DE
102
}
330
9DE
100
AcDbScale
 70
     0
300
1:40
140
1.0
141
40.0
290
     0
  0
SCALE
  5
9E9
102
{ACAD_REACTORS
330
9DE
102
}
330
9DE
100
AcDbScale
 70
     0
300
1:50
140
1.0
141
50.0
290
     0
  0
SCALE
  5
9EA
102
{ACAD_REACTORS
330
9DE
102
}
330
9DE
100
AcDbScale
 70
     0
300
1:100
140
1.0
141
100.0
290
     0
  0
SCALE
  5
9EB
102
{ACAD_REACTORS
330
9DE
102
}
330
9DE
100
AcDbScale
 70
     0
300
2:1
140
2.0
141
1.0
290
     0
  0
SCALE
  5
9EC
102
{ACAD_REACTORS
330
9DE
102
}
330
9DE
100
AcDbScale
 70
     0
300
4:1
140
4.0
141
1.0
290
     0
  0
SCALE
  5
9ED
102
{ACAD_REACTORS
330
9DE
102
}
330
9DE
100
AcDbScale
 70
     0
300
8:1
140
8.0
141
1.0
290
     0
  0
SCALE
  5
9EE
102
{ACAD_REACTORS
330
9DE
102
}
330
9DE
100
AcDbScale
 70
     0
300
10:1
140
10.0
141
1.0
290
     0
  0
SCALE
  5
9EF
102
{ACAD_REACTORS
330
9DE
102
}
330
9DE
100
AcDbScale
 70
     0
300
100:1
140
100.0
141
1.0
290
     0
  0
TABLESTYLE
  5
9DD
102
{ACAD_XDICTIONARY
360
9FD
102
}
102
{ACAD_REACTORS
330
9DC
102
}
330
9DC
100
AcDbTableStyle
280
     0
  3
Standard
 70
     0
 71
     0
 40
1.5
 41
1.5
280
     0
281
     0
  7
Standard
140
4.5
170
     2
 62
     0
 63
     7
283
     0
 90
      512
 91
        0
  1

274
    -2
284
     1
 64
     0
275
    -2
285
     1
 65
     0
276
    -2
286
     1
 66
     0
277
    -2
287
     1
 67
     0
278
    -2
288
     1
 68
     0
279
    -2
289
     1
 69
     0
  7
Standard
140
6.0
170
     5
 62
     0
 63
     7
283
     0
 90
      512
 91
        0
  1

274
    -2
284
     1
 64
     0
275
    -2
285
     1
 65
     0
276
    -2
286
     1
 66
     0
277
    -2
287
     1
 67
     0
278
    -2
288
     1
 68
     0
279
    -2
289
     1
 69
     0
  7
Standard
140
4.5
170
     5
 62
     0
 63
     7
283
     0
 90
      512
 91
        0
  1

274
    -2
284
     1
 64
     0
275
    -2
285
     1
 65
     0
276
    -2
286
     1
 66
     0
277
    -2
287
     1
 67
     0
278
    -2
288
     1
 68
     0
279
    -2
289
     1
 69
     0
  0
VISUALSTYLE
  5
9CD
102
{ACAD_REACTORS
330
9C7
102
}
330
9C7
100
AcDbVisualStyle
  2
2dWireframe
 70
     4
177
     2
291
     0
 71
     0
176
     1
 72
     2
176
     1
 73
     0
176
     1
 90
        0
176
     1
 40
0.6
176
     1
 41
30.0
176
     1
 63
     7
421
 16777215
176
     1
 74
     1
176
     1
 91
        4
176
     1
 64
     7
176
     1
 65
   257
176
     1
 75
     1
176
     1
175
     1
176
     1
 42
1.0
176
     1
 92
        0
176
     1
 66
   257
176
     1
 43
1.0
176
     1
 76
     1
176
     1
 77
     6
176
     1
 78
     2
176
     1
 67
     7
176
     1
 79
     5
176
     1
170
     0
176
     1
171
     0
176
     1
290
     0
176
     1
 93
        1
176
     1
 44
0.0
176
     1
173
     0
176
     1
  0
VISUALSTYLE
  5
9CF
102
{ACAD_REACTORS
330
9C7
102
}
330
9C7
100
AcDbVisualStyle
  2
3D Hidden
 70
     6
177
     2
291
     0
 71
     1
176
     1
 72
     2
176
     1
 73
     2
176
     1
 90
        0
176
     1
 40
0.6
176
     1
 41
30.0
176
     1
 63
     7
421
 16777215
176
     1
 74
     2
176
     1
 91
        2
176
     1
 64
     7
176
     1
 65
   257
176
     1
 75
     2
176
     1
175
     1
176
     1
 42
179.0
176
     1
 92
        0
176
     1
 66
   257
176
     1
 43
1.0
176
     1
 76
     1
176
     1
 77
     6
176
     1
 78
     2
176
     1
 67
     7
176
     1
 79
     3
176
     1
170
     0
176
     1
171
     0
176
     1
290
     0
176
     1
 93
        1
176
     1
 44
0.0
176
     1
173
     0
176
     1
  0
VISUALSTYLE
  5
9CE
102
{ACAD_REACTORS
330
9C7
102
}
330
9C7
100
AcDbVisualStyle
  2
3dWireframe
 70
     5
177
     2
291
     0
 71
     0
176
     1
 72
     2
176
     1
 73
     0
176
     1
 90
        0
176
     1
 40
0.6
176
     1
 41
30.0
176
     1
 63
     7
421
 16777215
176
     1
 74
     1
176
     1
 91
        4
176
     1
 64
     7
176
     1
 65
   257
176
     1
 75
     1
176
     1
175
     1
176
     1
 42
1.0
176
     1
 92
        0
176
     1
 66
   257
176
     1
 43
1.0
176
     1
 76
     1
176
     1
 77
     6
176
     1
 78
     2
176
     1
 67
     7
176
     1
 79
     5
176
     1
170
     0
176
     1
171
     0
176
     1
290
     0
176
     1
 93
        1
176
     1
 44
0.0
176
     1
173
     0
176
     1
  0
VISUALSTYLE
  5
9CC
102
{ACAD_REACTORS
330
9C7
102
}
330
9C7
100
AcDbVisualStyle
  2
Basic
 70
     7
177
     2
291
     1
 71
     1
176
     1
 72
     0
176
     1
 73
     1
176
     1
 90
        0
176
     1
 40
0.6
176
     1
 41
30.0
176
     1
 63
     7
421
 16777215
176
     1
 74
     0
176
     1
 91
        4
176
     1
 64
     7
176
     1
 65
   257
176
     1
 75
     1
176
     1
175
     1
176
     1
 42
1.0
176
     1
 92
        8
176
     1
 66
     7
176
     1
 43
1.0
176
     1
 76
     1
176
     1
 77
     6
176
     1
 78
     2
176
     1
 67
     7
176
     1
 79
     5
176
     1
170
     0
176
     1
171
     0
176
     1
290
     0
176
     1
 93
        1
176
     1
 44
0.0
176
     1
173
     0
176
     1
  0
VISUALSTYLE
  5
9D3
102
{ACAD_REACTORS
330
9C7
102
}
330
9C7
100
AcDbVisualStyle
  2
Brighten
 70
    12
177
     2
291
     1
 71
     2
176
     1
 72
     2
176
     1
 73
     0
176
     1
 90
        0
176
     1
 40
0.6
176
     1
 41
30.0
176
     1
 63
     7
421
 16777215
176
     1
 74
     1
176
     1
 91
        4
176
     1
 64
     7
176
     1
 65
   257
176
     1
 75
     1
176
     1
175
     1
176
     1
 42
1.0
176
     1
 92
        8
176
     1
 66
     7
176
     1
 43
1.0
176
     1
 76
     1
176
     1
 77
     6
176
     1
 78
     2
176
     1
 67
     7
176
     1
 79
     5
176
     1
170
     0
176
     1
171
     0
176
     1
290
     0
176
     1
 93
        1
176
     1
 44
50.0
176
     1
173
     0
176
     1
  0
VISUALSTYLE
  5
9D7
102
{ACAD_REACTORS
330
9C7
102
}
330
9C7
100
AcDbVisualStyle
  2
ColorChange
 70
    16
177
     2
291
     1
 71
     2
176
     1
 72
     2
176
     1
 73
     3
176
     1
 90
        0
176
     1
 40
0.6
176
     1
 41
30.0
176
     1
 63
     8
421
  8421504
176
     1
 74
     1
176
     1
 91
        4
176
     1
 64
     7
176
     1
 65
   257
176
     1
 75
     1
176
     1
175
     1
176
     1
 42
1.0
176
     1
 92
        8
176
     1
 66
     8
424
  8421504
176
     1
 43
1.0
176
     1
 76
     1
176
     1
 77
     6
176
     1
 78
     2
176
     1
 67
     7
176
     1
 79
     5
176
     1
170
     0
176
     1
171
     0
176
     1
290
     0
176
     1
 93
        1
176
     1
 44
0.0
176
     1
173
     0
176
     1
  0
VISUALSTYLE
  5
9D0
102
{ACAD_REACTORS
330
9C7
102
}
330
9C7
100
AcDbVisualStyle
  2
Conceptual
 70
     9
177
     2
291
     0
 71
     3
176
     1
 72
     2
176
     1
 73
     0
176
     1
 90
        0
176
     1
 40
0.6
176
     1
 41
30.0
176
     1
 63
     7
421
 16777215
176
     1
 74
     2
176
     1
 91
        2
176
     1
 64
     7
176
     1
 65
   257
176
     1
 75
     1
176
     1
175
     1
176
     1
 42
179.0
176
     1
 92
        8
176
     1
 66
     7
176
     1
 43
1.0
176
     1
 76
     1
176
     1
 77
     6
176
     1
 78
     2
176
     1
 67
     7
176
     1
 79
     3
176
     1
170
     0
176
     1
171
     0
176
     1
290
     0
176
     1
 93
        1
176
     1
 44
0.0
176
     1
173
     0
176
     1
  0
VISUALSTYLE
  5
9D2
102
{ACAD_REACTORS
330
9C7
102
}
330
9C7
100
AcDbVisualStyle
  2
Dim
 70
    11
177
     2
291
     1
 71
     2
176
     1
 72
     2
176
     1
 73
     0
176
     1
 90
        0
176
     1
 40
0.6
176
     1
 41
30.0
176
     1
 63
     7
421
 16777215
176
     1
 74
     1
176
     1
 91
        4
176
     1
 64
     7
176
     1
 65
   257
176
     1
 75
     1
176
     1
175
     1
176
     1
 42
1.0
176
     1
 92
        8
176
     1
 66
     7
176
     1
 43
1.0
176
     1
 76
     1
176
     1
 77
     6
176
     1
 78
     2
176
     1
 67
     7
176
     1
 79
     5
176
     1
170
     0
176
     1
171
     0
176
     1
290
     0
176
     1
 93
        1
176
     1
 44
-50.0
176
     1
173
     0
176
     1
  0
VISUALSTYLE
  5
9DA
102
{ACAD_REACTORS
330
9C7
102
}
330
9C7
100
AcDbVisualStyle
  2
EdgeColorOff
 70
    22
177
     2
291
     1
 71
     2
176
     0
 72
     2
176
     0
 73
     0
176
     0
 90
        0
176
     0
 40
0.6
176
     0
 41
30.0
176
     0
 63
     7
421
 16777215
176
     0
 74
     1
176
     0
 91
        4
176
     0
 64
     7
176
     0
 65
   257
176
     0
 75
     1
176
     0
175
     1
176
     0
 42
1.0
176
     0
 92
        8
176
     2
 66
     7
176
     0
 43
1.0
176
     0
 76
     1
176
     0
 77
     6
176
     0
 78
     2
176
     0
 67
     7
176
     0
 79
     5
176
     0
170
     0
176
     0
171
     0
176
     0
290
     0
176
     0
 93
        1
176
     0
 44
0.0
176
     0
173
     0
176
     0
  0
VISUALSTYLE
  5
9D6
102
{ACAD_REACTORS
330
9C7
102
}
330
9C7
100
AcDbVisualStyle
  2
Facepattern
 70
    15
177
     2
291
     1
 71
     2
176
     1
 72
     2
176
     1
 73
     0
176
     1
 90
        0
176
     1
 40
0.6
176
     1
 41
30.0
176
     1
 63
     7
421
 16777215
176
     1
 74
     1
176
     1
 91
        4
176
     1
 64
     7
176
     1
 65
   257
176
     1
 75
     1
176
     1
175
     1
176
     1
 42
1.0
176
     1
 92
        8
176
     1
 66
     7
176
     1
 43
1.0
176
     1
 76
     1
176
     1
 77
     6
176
     1
 78
     2
176
     1
 67
     7
176
     1
 79
     5
176
     1
170
     0
176
     1
171
     0
176
     1
290
     0
176
     1
 93
        1
176
     1
 44
0.0
176
     1
173
     0
176
     1
  0
VISUALSTYLE
  5
9C8
102
{ACAD_REACTORS
330
9C7
102
}
330
9C7
100
AcDbVisualStyle
  2
Flat
 70
     0
177
     2
291
     1
 71
     2
176
     1
 72
     1
176
     1
 73
     1
176
     1
 90
        2
176
     1
 40
0.6
176
     1
 41
30.0
176
     1
 63
     7
421
 16777215
176
     1
 74
     0
176
     1
 91
        4
176
     1
 64
     7
176
     1
 65
   257
176
     1
 75
     1
176
     1
175
     1
176
     1
 42
1.0
176
     1
 92
        8
176
     1
 66
     7
176
     1
 43
1.0
176
     1
 76
     1
176
     1
 77
     6
176
     1
 78
     2
176
     1
 67
     7
176
     1
 79
     5
176
     1
170
     0
176
     1
171
     0
176
     1
290
     0
176
     1
 93
       13
176
     1
 44
0.0
176
     1
173
     0
176
     1
  0
VISUALSTYLE
  5
9C9
102
{ACAD_REACTORS
330
9C7
102
}
330
9C7
100
AcDbVisualStyle
  2
FlatWithEdges
 70
     1
177
     2
291
     1
 71
     2
176
     1
 72
     1
176
     1
 73
     1
176
     1
 90
        2
176
     1
 40
0.6
176
     1
 41
30.0
176
     1
 63
     7
421
 16777215
176
     1
 74
     1
176
     1
 91
        4
176
     1
 64
     7
176
     1
 65
   257
176
     1
 75
     1
176
     1
175
     1
176
     1
 42
1.0
176
     1
 92
        0
176
     1
 66
   257
176
     1
 43
1.0
176
     1
 76
     1
176
     1
 77
     6
176
     1
 78
     2
176
     1
 67
     7
176
     1
 79
     5
176
     1
170
     0
176
     1
171
     0
176
     1
290
     0
176
     1
 93
       13
176
     1
 44
0.0
176
     1
173
     0
176
     1
  0
VISUALSTYLE
  5
9CA
102
{ACAD_REACTORS
330
9C7
102
}
330
9C7
100
AcDbVisualStyle
  2
Gouraud
 70
     2
177
     2
291
     1
 71
     2
176
     1
 72
     2
176
     1
 73
     1
176
     1
 90
        2
176
     1
 40
0.6
176
     1
 41
30.0
176
     1
 63
     7
421
 16777215
176
     1
 74
     0
176
     1
 91
        4
176
     1
 64
     7
176
     1
 65
   257
176
     1
 75
     1
176
     1
175
     1
176
     1
 42
1.0
176
     1
 92
        0
176
     1
 66
     7
176
     1
 43
1.0
176
     1
 76
     1
176
     1
 77
     6
176
     1
 78
     2
176
     1
 67
     7
176
     1
 79
     5
176
     1
170
     0
176
     1
171
     0
176
     1
290
     0
176
     1
 93
       13
176
     1
 44
0.0
176
     1
173
     0
176
     1
  0
VISUALSTYLE
  5
9CB
102
{ACAD_REACTORS
330
9C7
102
}
330
9C7
100
AcDbVisualStyle
  2
GouraudWithEdges
 70
     3
177
     2
291
     1
 71
     2
176
     1
 72
     2
176
     1
 73
     1
176
     1
 90
        2
176
     1
 40
0.6
176
     1
 41
30.0
176
     1
 63
     7
421
 16777215
176
     1
 74
     1
176
     1
 91
        4
176
     1
 64
     7
176
     1
 65
   257
176
     1
 75
     1
176
     1
175
     1
176
     1
 42
1.0
176
     1
 92
        0
176
     1
 66
   257
176
     1
 43
1.0
176
     1
 76
     1
176
     1
 77
     6
176
     1
 78
     2
176
     1
 67
     7
176
     1
 79
     5
176
     1
170
     0
176
     1
171
     0
176
     1
290
     0
176
     1
 93
       13
176
     1
 44
0.0
176
     1
173
     0
176
     1
  0
VISUALSTYLE
  5
9D8
102
{ACAD_REACTORS
330
9C7
102
}
330
9C7
100
AcDbVisualStyle
  2
JitterOff
 70
    20
177
     2
291
     1
 71
     2
176
     0
 72
     2
176
     0
 73
     0
176
     0
 90
        0
176
     0
 40
0.6
176
     0
 41
30.0
176
     0
 63
     7
421
 16777215
176
     0
 74
     1
176
     0
 91
        4
176
     0
 64
     7
176
     0
 65
   257
176
     0
 75
     1
176
     0
175
     1
176
     0
 42
1.0
176
     0
 92
       10
176
     2
 66
     7
176
     0
 43
1.0
176
     0
 76
     1
176
     0
 77
     6
176
     0
 78
     2
176
     0
 67
     7
176
     0
 79
     5
176
     0
170
     0
176
     0
171
     0
176
     0
290
     0
176
     0
 93
        1
176
     0
 44
0.0
176
     0
173
     0
176
     0
  0
VISUALSTYLE
  5
9D5
102
{ACAD_REACTORS
330
9C7
102
}
330
9C7
100
AcDbVisualStyle
  2
Linepattern
 70
    14
177
     2
291
     1
 71
     2
176
     1
 72
     2
176
     1
 73
     0
176
     1
 90
        0
176
     1
 40
0.6
176
     1
 41
30.0
176
     1
 63
     7
421
 16777215
176
     1
 74
     1
176
     1
 91
        4
176
     1
 64
     7
176
     1
 65
   257
176
     1
 75
     7
176
     1
175
     7
176
     1
 42
1.0
176
     1
 92
        8
176
     1
 66
     7
176
     1
 43
1.0
176
     1
 76
     1
176
     1
 77
     6
176
     1
 78
     2
176
     1
 67
     7
176
     1
 79
     5
176
     1
170
     0
176
     1
171
     0
176
     1
290
     0
176
     1
 93
        1
176
     1
 44
0.0
176
     1
173
     0
176
     1
  0
VISUALSTYLE
  5
9D9
102
{ACAD_REACTORS
330
9C7
102
}
330
9C7
100
AcDbVisualStyle
  2
OverhangOff
 70
    21
177
     2
291
     1
 71
     2
176
     0
 72
     2
176
     0
 73
     0
176
     0
 90
        0
176
     0
 40
0.6
176
     0
 41
30.0
176
     0
 63
     7
421
 16777215
176
     0
 74
     1
176
     0
 91
        4
176
     0
 64
     7
176
     0
 65
   257
176
     0
 75
     1
176
     0
175
     1
176
     0
 42
1.0
176
     0
 92
        9
176
     2
 66
     7
176
     0
 43
1.0
176
     0
 76
     1
176
     0
 77
     6
176
     0
 78
     2
176
     0
 67
     7
176
     0
 79
     5
176
     0
170
     0
176
     0
171
     0
176
     0
290
     0
176
     0
 93
        1
176
     0
 44
0.0
176
     0
173
     0
176
     0
  0
VISUALSTYLE
  5
9D1
102
{ACAD_REACTORS
330
9C7
102
}
330
9C7
100
AcDbVisualStyle
  2
Realistic
 70
     8
177
     2
291
     0
 71
     2
176
     1
 72
     2
176
     1
 73
     0
176
     1
 90
        0
176
     1
 40
0.6
176
     1
 41
30.0
176
     1
 63
     7
421
 16777215
176
     1
 74
     1
176
     1
 91
        0
176
     1
 64
     7
176
     1
 65
   257
176
     1
 75
     1
176
     1
175
     1
176
     1
 42
1.0
176
     1
 92
        8
176
     1
 66
     8
424
  7895160
176
     1
 43
1.0
176
     1
 76
     1
176
     1
 77
     6
176
     1
 78
     2
176
     1
 67
     7
176
     1
 79
     5
176
     1
170
     0
176
     1
171
     0
176
     1
290
     0
176
     1
 93
       13
176
     1
 44
0.0
176
     1
173
     0
176
     1
  0
VISUALSTYLE
  5
9D4
102
{ACAD_REACTORS
330
9C7
102
}
330
9C7
100
AcDbVisualStyle
  2
Thicken
 70
    13
177
     2
291
     1
 71
     2
176
     1
 72
     2
176
     1
 73
     0
176
     1
 90
        0
176
     1
 40
0.6
176
     1
 41
30.0
176
     1
 63
     7
421
 16777215
176
     1
 74
     1
176
     1
 91
        4
176
     1
 64
     7
176
     1
 65
   257
176
     1
 75
     1
176
     1
175
     1
176
     1
 42
1.0
176
     1
 92
       12
176
     1
 66
     7
176
     1
 43
1.0
176
     1
 76
     1
176
     1
 77
     6
176
     1
 78
     2
176
     1
 67
     7
176
     1
 79
     5
176
     1
170
     0
176
     1
171
     0
176
     1
290
     0
176
     1
 93
        1
176
     1
 44
0.0
176
     1
173
     0
176
     1
  0
DICTIONARYVAR
  5
9F9
102
{ACAD_REACTORS
330
5E
102
}
330
5E
100
DictionaryVariables
280
     0
  1
1:1
  0
DICTIONARYVAR
  5
9F7
102
{ACAD_REACTORS
330
5E
102
}
330
5E
100
DictionaryVariables
280
     0
  1
STANDARD
  0
DICTIONARYVAR
  5
9F6
102
{ACAD_REACTORS
330
5E
102
}
330
5E
100
DictionaryVariables
280
     0
  1
STANDARD
  0
DICTIONARYVAR
  5
5F
102
{ACAD_REACTORS
330
5E
102
}
330
5E
100
DictionaryVariables
280
     0
  1
2
  0
DICTIONARYVAR
  5
63
102
{ACAD_REACTORS
330
5E
102
}
330
5E
100
DictionaryVariables
280
     0
  1
1
  0
DICTIONARYVAR
  5
9FB
102
{ACAD_REACTORS
330
5E
102
}
330
5E
100
DictionaryVariables
280
     0
  1
1
  0
DICTIONARYVAR
  5
9FC
102
{ACAD_REACTORS
330
5E
102
}
330
5E
100
DictionaryVariables
280
     0
  1
15
  0
DICTIONARYVAR
  5
9FA
102
{ACAD_REACTORS
330
5E
102
}
330
5E
100
DictionaryVariables
280
     0
  1
0
  0
DICTIONARYVAR
  5
9F8
102
{ACAD_REACTORS
330
5E
102
}
330
5E
100
DictionaryVariables
280
     0
  1
0
  0
DICTIONARY
  5
9B8
330
9B7
100
AcDbDictionary
280
     1
281
     1
  3
BUMPTILE
360
9BA
  3
DIFFUSETILE
360
9B9
  3
OPACITYTILE
360
9BD
  3
REFLECTIONTILE
360
9BC
  3
REFRACTIONTILE
360
9BE
  3
SPECULARTILE
360
9BB
  0
DICTIONARY
  5
9B0
330
9AF
100
AcDbDictionary
280
     1
281
     1
  3
BUMPTILE
360
9B2
  3
DIFFUSETILE
360
9B1
  3
OPACITYTILE
360
9B5
  3
REFLECTIONTILE
360
9B4
  3
REFRACTIONTILE
360
9B6
  3
SPECULARTILE
360
9B3
  0
DICTIONARY
  5
9C0
330
9BF
100
AcDbDictionary
280
     1
281
     1
  3
BUMPTILE
360
9C2
  3
DIFFUSETILE
360
9C1
  3
OPACITYTILE
360
9C5
  3
REFLECTIONTILE
360
9C4
  3
REFRACTIONTILE
360
9C6
  3
SPECULARTILE
360
9C3
  0
DICTIONARY
  5
9FD
330
9DD
100
AcDbDictionary
280
     1
281
     1
  3
ACAD_ROUNDTRIP_2008_TABLESTYLE_CELLSTYLEMAP
360
9FE
  0
XRECORD
  5
9BA
102
{ACAD_REACTORS
330
9B8
102
}
330
9B8
100
AcDbXrecord
280
     1
270
     1
271
     1
  0
XRECORD
  5
9B9
102
{ACAD_REACTORS
330
9B8
102
}
330
9B8
100
AcDbXrecord
280
     1
270
     1
271
     1
  0
XRECORD
  5
9BD
102
{ACAD_REACTORS
330
9B8
102
}
330
9B8
100
AcDbXrecord
280
     1
270
     1
271
     1
  0
XRECORD
  5
9BC
102
{ACAD_REACTORS
330
9B8
102
}
330
9B8
100
AcDbXrecord
280
     1
270
     1
271
     1
  0
XRECORD
  5
9BE
102
{ACAD_REACTORS
330
9B8
102
}
330
9B8
100
AcDbXrecord
280
     1
270
     1
271
     1
  0
XRECORD
  5
9BB
102
{ACAD_REACTORS
330
9B8
102
}
330
9B8
100
AcDbXrecord
280
     1
270
     1
271
     1
  0
XRECORD
  5
9B2
102
{ACAD_REACTORS
330
9B0
102
}
330
9B0
100
AcDbXrecord
280
     1
270
     1
271
     1
  0
XRECORD
  5
9B1
102
{ACAD_REACTORS
330
9B0
102
}
330
9B0
100
AcDbXrecord
280
     1
270
     1
271
     1
  0
XRECORD
  5
9B5
102
{ACAD_REACTORS
330
9B0
102
}
330
9B0
100
AcDbXrecord
280
     1
270
     1
271
     1
  0
XRECORD
  5
9B4
102
{ACAD_REACTORS
330
9B0
102
}
330
9B0
100
AcDbXrecord
280
     1
270
     1
271
     1
  0
XRECORD
  5
9B6
102
{ACAD_REACTORS
330
9B0
102
}
330
9B0
100
AcDbXrecord
280
     1
270
     1
271
     1
  0
XRECORD
  5
9B3
102
{ACAD_REACTORS
330
9B0
102
}
330
9B0
100
AcDbXrecord
280
     1
270
     1
271
     1
  0
XRECORD
  5
9C2
102
{ACAD_REACTORS
330
9C0
102
}
330
9C0
100
AcDbXrecord
280
     1
270
     1
271
     1
  0
XRECORD
  5
9C1
102
{ACAD_REACTORS
330
9C0
102
}
330
9C0
100
AcDbXrecord
280
     1
270
     1
271
     1
  0
XRECORD
  5
9C5
102
{ACAD_REACTORS
330
9C0
102
}
330
9C0
100
AcDbXrecord
280
     1
270
     1
271
     1
  0
XRECORD
  5
9C4
102
{ACAD_REACTORS
330
9C0
102
}
330
9C0
100
AcDbXrecord
280
     1
270
     1
271
     1
  0
XRECORD
  5
9C6
102
{ACAD_REACTORS
330
9C0
102
}
330
9C0
100
AcDbXrecord
280
     1
270
     1
271
     1
  0
XRECORD
  5
9C3
102
{ACAD_REACTORS
330
9C0
102
}
330
9C0
100
AcDbXrecord
280
     1
270
     1
271
     1
  0
CELLSTYLEMAP
  5
9FE
102
{ACAD_REACTORS
330
9FD
102
}
330
9FD
100
AcDbCellStyleMap
 90
        3
300
CELLSTYLE
  1
TABLEFORMAT_BEGIN
 90
        5
170
     1
 91
        0
 92
    32768
 62
   257
 93
        1
300
CONTENTFORMAT
  1
CONTENTFORMAT_BEGIN
 90
        0
 91
        0
 92
      512
 93
        0
300

 40
0.0
140
1.0
 94
        5
 62
     0
340
11
144
6.0
309
CONTENTFORMAT_END
171
     1
301
MARGIN
  1
CELLMARGIN_BEGIN
 40
1.5
 40
1.5
 40
1.5
 40
1.5
 40
4.5
 40
4.5
309
CELLMARGIN_END
 94
        6
 95
        1
302
GRIDFORMAT
  1
GRIDFORMAT_BEGIN
 90
        0
 91
        1
 62
     0
 92
       -2
340
0
 93
        0
 40
1.125
309
GRIDFORMAT_END
 95
        2
302
GRIDFORMAT
  1
GRIDFORMAT_BEGIN
 90
        0
 91
        1
 62
     0
 92
       -2
340
0
 93
        0
 40
1.125
309
GRIDFORMAT_END
 95
        4
302
GRIDFORMAT
  1
GRIDFORMAT_BEGIN
 90
        0
 91
        1
 62
     0
 92
       -2
340
0
 93
        0
 40
1.125
309
GRIDFORMAT_END
 95
        8
302
GRIDFORMAT
  1
GRIDFORMAT_BEGIN
 90
        0
 91
        1
 62
     0
 92
       -2
340
0
 93
        0
 40
1.125
309
GRIDFORMAT_END
 95
       16
302
GRIDFORMAT
  1
GRIDFORMAT_BEGIN
 90
        0
 91
        1
 62
     0
 92
       -2
340
0
 93
        0
 40
1.125
309
GRIDFORMAT_END
 95
       32
302
GRIDFORMAT
  1
GRIDFORMAT_BEGIN
 90
        0
 91
        1
 62
     0
 92
       -2
340
0
 93
        0
 40
1.125
309
GRIDFORMAT_END
309
TABLEFORMAT_END
  1
CELLSTYLE_BEGIN
 90
        1
 91
        1
300
_TITLE
309
CELLSTYLE_END
300
CELLSTYLE
  1
TABLEFORMAT_BEGIN
 90
        5
170
     1
 91
        0
 92
        0
 62
   257
 93
        1
300
CONTENTFORMAT
  1
CONTENTFORMAT_BEGIN
 90
        0
 91
        0
 92
      512
 93
        0
300

 40
0.0
140
1.0
 94
        5
 62
     0
340
11
144
4.5
309
CONTENTFORMAT_END
171
     1
301
MARGIN
  1
CELLMARGIN_BEGIN
 40
1.5
 40
1.5
 40
1.5
 40
1.5
 40
4.5
 40
4.5
309
CELLMARGIN_END
 94
        6
 95
        1
302
GRIDFORMAT
  1
GRIDFORMAT_BEGIN
 90
        0
 91
        1
 62
     0
 92
       -2
340
0
 93
        0
 40
1.125
309
GRIDFORMAT_END
 95
        2
302
GRIDFORMAT
  1
GRIDFORMAT_BEGIN
 90
        0
 91
        1
 62
     0
 92
       -2
340
0
 93
        0
 40
1.125
309
GRIDFORMAT_END
 95
        4
302
GRIDFORMAT
  1
GRIDFORMAT_BEGIN
 90
        0
 91
        1
 62
     0
 92
       -2
340
0
 93
        0
 40
1.125
309
GRIDFORMAT_END
 95
        8
302
GRIDFORMAT
  1
GRIDFORMAT_BEGIN
 90
        0
 91
        1
 62
     0
 92
       -2
340
0
 93
        0
 40
1.125
309
GRIDFORMAT_END
 95
       16
302
GRIDFORMAT
  1
GRIDFORMAT_BEGIN
 90
        0
 91
        1
 62
     0
 92
       -2
340
0
 93
        0
 40
1.125
309
GRIDFORMAT_END
 95
       32
302
GRIDFORMAT
  1
GRIDFORMAT_BEGIN
 90
        0
 91
        1
 62
     0
 92
       -2
340
0
 93
        0
 40
1.125
309
GRIDFORMAT_END
309
TABLEFORMAT_END
  1
CELLSTYLE_BEGIN
 90
        2
 91
        1
300
_HEADER
309
CELLSTYLE_END
300
CELLSTYLE
  1
TABLEFORMAT_BEGIN
 90
        5
170
     1
 91
        0
 92
        0
 62
   257
 93
        1
300
CONTENTFORMAT
  1
CONTENTFORMAT_BEGIN
 90
        0
 91
        0
 92
      512
 93
        0
300

 40
0.0
140
1.0
 94
        2
 62
     0
340
11
144
4.5
309
CONTENTFORMAT_END
171
     1
301
MARGIN
  1
CELLMARGIN_BEGIN
 40
1.5
 40
1.5
 40
1.5
 40
1.5
 40
4.5
 40
4.5
309
CELLMARGIN_END
 94
        6
 95
        1
302
GRIDFORMAT
  1
GRIDFORMAT_BEGIN
 90
        0
 91
        1
 62
     0
 92
       -2
340
0
 93
        0
 40
1.125
309
GRIDFORMAT_END
 95
        2
302
GRIDFORMAT
  1
GRIDFORMAT_BEGIN
 90
        0
 91
        1
 62
     0
 92
       -2
340
0
 93
        0
 40
1.125
309
GRIDFORMAT_END
 95
        4
302
GRIDFORMAT
  1
GRIDFORMAT_BEGIN
 90
        0
 91
        1
 62
     0
 92
       -2
340
0
 93
        0
 40
1.125
309
GRIDFORMAT_END
 95
        8
302
GRIDFORMAT
  1
GRIDFORMAT_BEGIN
 90
        0
 91
        1
 62
     0
 92
       -2
340
0
 93
        0
 40
1.125
309
GRIDFORMAT_END
 95
       16
302
GRIDFORMAT
  1
GRIDFORMAT_BEGIN
 90
        0
 91
        1
 62
     0
 92
       -2
340
0
 93
        0
 40
1.125
309
GRIDFORMAT_END
 95
       32
302
GRIDFORMAT
  1
GRIDFORMAT_BEGIN
 90
        0
 91
        1
 62
     0
 92
       -2
340
0
 93
        0
 40
1.125
309
GRIDFORMAT_END
309
TABLEFORMAT_END
  1
CELLSTYLE_BEGIN
 90
        3
 91
        2
300
_DATA
309
CELLSTYLE_END
  0
ENDSEC
  0
EOF
