  0
SECTION
  2
HEADER
  9
$ACADVER
  1
AC1015
  9
$ACADMAINTVER
 70
    14
  9
$DWGCODEPAGE
  3
ANSI_932
  9
$INSBASE
 10
0.0
 20
0.0
 30
0.0
  9
$EXTMIN
 10
-60.05752719820839
 20
21.30160405384276
 30
-0.0000000000000058
  9
$EXTMAX
 10
727.6918632285076
 20
755.4461108409072
 30
0.0000000000000104
  9
$LIMMIN
 10
0.0
 20
0.0
  9
$LIMMAX
 10
12.0
 20
9.0
  9
$ORTHOMODE
 70
     0
  9
$REGENMODE
 70
     1
  9
$FILLMODE
 70
     1
  9
$QTEXTMODE
 70
     0
  9
$MIRRTEXT
 70
     1
  9
$LTSCALE
 40
1.0
  9
$ATTMODE
 70
     1
  9
$TEXTSIZE
 40
0.2
  9
$TRACEWID
 40
0.05
  9
$TEXTSTYLE
  7
STANDARD
  9
$CLAYER
  8
0
  9
$CELTYPE
  6
CONTINUOUS
  9
$CECOLOR
 62
   256
  9
$CELTSCALE
 40
1.0
  9
$DISPSILH
 70
     0
  9
$DIMSCALE
 40
1.0
  9
$DIMASZ
 40
0.18
  9
$DIMEXO
 40
0.0625
  9
$DIMDLI
 40
0.38
  9
$DIMRND
 40
0.0
  9
$DIMDLE
 40
0.0
  9
$DIMEXE
 40
0.18
  9
$DIMTP
 40
0.0
  9
$DIMTM
 40
0.0
  9
$DIMTXT
 40
0.18
  9
$DIMCEN
 40
0.09
  9
$DIMTSZ
 40
0.0
  9
$DIMTOL
 70
     0
  9
$DIMLIM
 70
     0
  9
$DIMTIH
 70
     1
  9
$DIMTOH
 70
     1
  9
$DIMSE1
 70
     0
  9
$DIMSE2
 70
     0
  9
$DIMTAD
 70
     0
  9
$DIMZIN
 70
     0
  9
$DIMBLK
  1

  9
$DIMASO
 70
     1
  9
$DIMSHO
 70
     0
  9
$DIMPOST
  1

  9
$DIMAPOST
  1

  9
$DIMALT
 70
     0
  9
$DIMALTD
 70
     2
  9
$DIMALTF
 40
25.4
  9
$DIMLFAC
 40
1.0
  9
$DIMTOFL
 70
     0
  9
$DIMTVP
 40
0.0
  9
$DIMTIX
 70
     0
  9
$DIMSOXD
 70
     0
  9
$DIMSAH
 70
     0
  9
$DIMBLK1
  1

  9
$DIMBLK2
  1

  9
$DIMSTYLE
  2
STANDARD
  9
$DIMCLRD
 70
     0
  9
$DIMCLRE
 70
     0
  9
$DIMCLRT
 70
     0
  9
$DIMTFAC
 40
1.0
  9
$DIMGAP
 40
0.09
  9
$DIMJUST
 70
     0
  9
$DIMSD1
 70
     0
  9
$DIMSD2
 70
     0
  9
$DIMTOLJ
 70
     1
  9
$DIMTZIN
 70
     0
  9
$DIMALTZ
 70
     0
  9
$DIMALTTZ
 70
     0
  9
$DIMUPT
 70
     0
  9
$DIMDEC
 70
     4
  9
$DIMTDEC
 70
     4
  9
$DIMALTU
 70
     2
  9
$DIMALTTD
 70
     2
  9
$DIMTXSTY
  7
STANDARD
  9
$DIMAUNIT
 70
     0
  9
$DIMADEC
 70
     0
  9
$DIMALTRND
 40
0.0
  9
$DIMAZIN
 70
     0
  9
$DIMDSEP
 70
    46
  9
$DIMATFIT
 70
     3
  9
$DIMFRAC
 70
     0
  9
$DIMLDRBLK
  1

  9
$DIMLUNIT
 70
     2
  9
$DIMLWD
 70
    -2
  9
$DIMLWE
 70
    -2
  9
$DIMTMOVE
 70
     2
  9
$LUNITS
 70
     2
  9
$LUPREC
 70
     4
  9
$SKETCHINC
 40
0.1
  9
$FILLETRAD
 40
0.0
  9
$AUNITS
 70
     0
  9
$AUPREC
 70
     0
  9
$MENU
  1
.
  9
$ELEVATION
 40
0.0
  9
$PELEVATION
 40
0.0
  9
$THICKNESS
 40
0.0
  9
$LIMCHECK
 70
     0
  9
$CHAMFERA
 40
0.0
  9
$CHAMFERB
 40
0.0
  9
$CHAMFERC
 40
0.0
  9
$CHAMFERD
 40
0.0
  9
$SKPOLY
 70
     0
  9
$TDCREATE
 40
2452488.423138738
  9
$TDUCREATE
 40
2452488.048138738
  9
$TDUPDATE
 40
2456899.667441273
  9
$TDUUPDATE
 40
2456899.292441273
  9
$TDINDWG
 40
0.2312079398
  9
$TDUSRTIMER
 40
0.2312077662
  9
$USRTIMER
 70
     1
  9
$ANGBASE
 50
0.0
  9
$ANGDIR
 70
     0
  9
$PDMODE
 70
     3
  9
$PDSIZE
 40
0.0
  9
$PLINEWID
 40
0.0
  9
$SPLFRAME
 70
     0
  9
$SPLINETYPE
 70
     6
  9
$SPLINESEGS
 70
     8
  9
$HANDSEED
  5
25E6
  9
$SURFTAB1
 70
     6
  9
$SURFTAB2
 70
     6
  9
$SURFTYPE
 70
     6
  9
$SURFU
 70
     6
  9
$SURFV
 70
     6
  9
$UCSBASE
  2

  9
$UCSNAME
  2

  9
$UCSORG
 10
0.0
 20
0.0
 30
0.0
  9
$UCSXDIR
 10
1.0
 20
0.0
 30
0.0
  9
$UCSYDIR
 10
0.0
 20
1.0
 30
0.0
  9
$UCSORTHOREF
  2

  9
$UCSORTHOVIEW
 70
     0
  9
$UCSORGTOP
 10
0.0
 20
0.0
 30
0.0
  9
$UCSORGBOTTOM
 10
0.0
 20
0.0
 30
0.0
  9
$UCSORGLEFT
 10
0.0
 20
0.0
 30
0.0
  9
$UCSORGRIGHT
 10
0.0
 20
0.0
 30
0.0
  9
$UCSORGFRONT
 10
0.0
 20
0.0
 30
0.0
  9
$UCSORGBACK
 10
0.0
 20
0.0
 30
0.0
  9
$PUCSBASE
  2

  9
$PUCSNAME
  2

  9
$PUCSORG
 10
0.0
 20
0.0
 30
0.0
  9
$PUCSXDIR
 10
1.0
 20
0.0
 30
0.0
  9
$PUCSYDIR
 10
0.0
 20
1.0
 30
0.0
  9
$PUCSORTHOREF
  2

  9
$PUCSORTHOVIEW
 70
     0
  9
$PUCSORGTOP
 10
0.0
 20
0.0
 30
0.0
  9
$PUCSORGBOTTOM
 10
0.0
 20
0.0
 30
0.0
  9
$PUCSORGLEFT
 10
0.0
 20
0.0
 30
0.0
  9
$PUCSORGRIGHT
 10
0.0
 20
0.0
 30
0.0
  9
$PUCSORGFRONT
 10
0.0
 20
0.0
 30
0.0
  9
$PUCSORGBACK
 10
0.0
 20
0.0
 30
0.0
  9
$USERI1
 70
     0
  9
$USERI2
 70
     0
  9
$USERI3
 70
     0
  9
$USERI4
 70
     0
  9
$USERI5
 70
     0
  9
$USERR1
 40
0.0
  9
$USERR2
 40
0.0
  9
$USERR3
 40
0.0
  9
$USERR4
 40
0.0
  9
$USERR5
 40
0.0
  9
$WORLDVIEW
 70
     1
  9
$SHADEDGE
 70
     3
  9
$SHADEDIF
 70
    70
  9
$TILEMODE
 70
     1
  9
$MAXACTVP
 70
    48
  9
$PINSBASE
 10
0.0
 20
0.0
 30
0.0
  9
$PLIMCHECK
 70
     0
  9
$PEXTMIN
 10
1.000000000000000E+20
 20
1.000000000000000E+20
 30
1.000000000000000E+20
  9
$PEXTMAX
 10
-1.000000000000000E+20
 20
-1.000000000000000E+20
 30
-1.000000000000000E+20
  9
$PLIMMIN
 10
0.0
 20
0.0
  9
$PLIMMAX
 10
12.0
 20
9.0
  9
$UNITMODE
 70
     0
  9
$VISRETAIN
 70
     1
  9
$PLINEGEN
 70
     0
  9
$PSLTSCALE
 70
     1
  9
$TREEDEPTH
 70
  3020
  9
$CMLSTYLE
  2
Standard
  9
$CMLJUST
 70
     0
  9
$CMLSCALE
 40
1.0
  9
$PROXYGRAPHICS
 70
     1
  9
$MEASUREMENT
 70
     0
  9
$CELWEIGHT
370
    -1
  9
$ENDCAPS
280
     0
  9
$JOINSTYLE
280
     0
  9
$LWDISPLAY
290
     0
  9
$INSUNITS
 70
     0
  9
$HYPERLINKBASE
  1

  9
$STYLESHEET
  1

  9
$XEDIT
290
     1
  9
$CEPSNTYPE
380
     0
  9
$PSTYLEMODE
290
     1
  9
$FINGERPRINTGUID
  2
{F8320DCF-574D-4CAF-8F93-3AAEE2739928}
  9
$VERSIONGUID
  2
{9A2CA3AA-0152-42FB-91DB-8144CD162599}
  9
$EXTNAMES
290
     1
  9
$PSVPSCALE
 40
0.0
  9
$OLESTARTUP
290
     0
  0
ENDSEC
  0
SECTION
  2
CLASSES
  0
CLASS
  1
ACDBDICTIONARYWDFLT
  2
AcDbDictionaryWithDefault
  3
AutoCAD 2000
 90
        0
280
     0
281
     0
  0
CLASS
  1
ACDBPLACEHOLDER
  2
AcDbPlaceHolder
  3
AutoCAD 2000
 90
        0
280
     0
281
     0
  0
CLASS
  1
LAYOUT
  2
AcDbLayout
  3
AutoCAD 2000
 90
        0
280
     0
281
     0
  0
CLASS
  1
DICTIONARYVAR
  2
AcDbDictionaryVar
  3
AutoCAD 2000
 90
        0
280
     0
281
     0
  0
CLASS
  1
LONG_TRANSACTION
  2
AcDbLongTransaction
  3
AutoCAD 2000
 90
    32768
280
     0
281
     0
  0
CLASS
  1
LWPOLYLINE
  2
AcDbPolyline
  3
AutoCAD 2000
 90
    32768
280
     0
281
     1
  0
CLASS
  1
HATCH
  2
AcDbHatch
  3
AutoCAD 2000
 90
    32768
280
     0
281
     1
  0
CLASS
  1
XRECORD
  2
AcDbXrecord
  3
AutoCAD 2000
 90
    32768
280
     0
281
     0
  0
CLASS
  1
MATERIAL
  2
AcDbMaterial
  3
ObjectDBX Classes
 90
     1153
280
     0
281
     0
  0
CLASS
  1
VISUALSTYLE
  2
AcDbVisualStyle
  3
ObjectDBX Classes
 90
     4095
280
     0
281
     0
  0
CLASS
  1
TABLESTYLE
  2
AcDbTableStyle
  3
ObjectDBX Classes
 90
     4095
280
     0
281
     0
  0
CLASS
  1
SCALE
  2
AcDbScale
  3
ObjectDBX Classes
 90
     1153
280
     0
281
     0
  0
CLASS
  1
MLEADERSTYLE
  2
AcDbMLeaderStyle
  3
ACDB_MLEADERSTYLE_CLASS
 90
     4095
280
     0
281
     0
  0
CLASS
  1
ACME_DOCUMENT
  2
AcMeDbDoc
  3
AcMeServices
 90
    33792
280
     0
281
     0
  0
CLASS
  1
AMGSETTINGSOBJ
  2
AmgSettingsObj
  3
"AcadM|Product Description: AutoCAD Mechanical|Company: Autodesk, Inc."
 90
    33792
280
     0
281
     0
  0
CLASS
  1
ACMESCOPE
  2
AcMeScope
  3
AcMeServices
 90
    33792
280
     0
281
     0
  0
CLASS
  1
ACMECOMMANDHISTORY
  2
AcMeCommandHistory
  3
AcMeServices
 90
    33792
280
     0
281
     0
  0
CLASS
  1
ACIMSYSVARMAN
  2
AcImSysVarManager
  3
AcMeServices
 90
     1024
280
     0
281
     0
  0
CLASS
  1
ACIMINTSYSVAR
  2
AcImIntSysVar
  3
AcMeServices
 90
    33792
280
     0
281
     0
  0
CLASS
  1
ACMEDRAWINGMAN
  2
AcMeDrawingMan
  3
AcMeServices
 90
    33792
280
     0
281
     0
  0
CLASS
  1
ACMEVIEW
  2
AcMeView
  3
AcMeServices
 90
    33792
280
     0
281
     0
  0
CLASS
  1
ACDBENTITYCACHE
  2
AcMeEntityCache
  3
AcMeServices
 90
    33792
280
     0
281
     0
  0
CLASS
  1
GSMANAGER
  2
AcMeGSManager
  3
AcMeServices
 90
    33792
280
     0
281
     0
  0
CLASS
  1
AMDTINTERNALREACTOR
  2
AmdtInternalReactor
  3
AcMeServices
 90
    33792
280
     0
281
     0
  0
CLASS
  1
ACMESTATEMGR
  2
AcMeStateMgr
  3
AcMeServices
 90
    33792
280
     0
281
     0
  0
CLASS
  1
ACGREFMASTER
  2
AcGrefMaster
  3
AcAttribServices
 90
    33792
280
     0
281
     0
  0
CLASS
  1
AM_DRAWING_MGR
  2
AcDmDwgMgr
  3
AcMechDwgViewMgmt
 90
    33792
280
     0
281
     0
  0
CLASS
  1
AM_DWG_DOCUMENT
  2
AcDmDwgDocument
  3
AcMechDwgViewMgmt
 90
    33792
280
     0
281
     0
  0
CLASS
  1
AM_DWG_SHEET
  2
AcDmSheet
  3
AcMechDwgViewMgmt
 90
    33792
280
     0
281
     0
  0
CLASS
  1
AM_VIEWDIMPARMAP
  2
AcDmViewDimParMap
  3
AcMechDwgViewMgmt
 90
    33792
280
     0
281
     0
  0
CLASS
  1
ACIMREALSYSVAR
  2
AcImRealSysVar
  3
AcMeServices
 90
    33792
280
     0
281
     0
  0
CLASS
  1
AM_DWGMGR_NAME
  2
AcDmDwgMgrName
  3
AcMechDwgViewMgmt
 90
    33792
280
     0
281
     0
  0
CLASS
  1
ACME_DATABASE
  2
AcMeDbDatabase
  3
AcMeServices
 90
    33792
280
     0
281
     0
  0
CLASS
  1
ACRFINSADJUSTERMGR
  2
AcRfInsAdjusterMgr
  3
AcMeServices
 90
    33792
280
     0
281
     0
  0
CLASS
  1
ACGREFACADMASTER
  2
AcGrefacadMaster
  3
AcGrefServices
 90
    33792
280
     0
281
     0
  0
CLASS
  1
AMDTMENUSTATEMGR
  2
AmdtMenuStateMgr
  3
McadcomServices
 90
    33792
280
     0
281
     0
  0
CLASS
  1
AMDTMCOMMENUSTATE
  2
AmdtMcomMenuState
  3
McadcomServices
 90
    33792
280
     0
281
     0
  0
CLASS
  1
AMIMASTER
  2
AmiMaster
  3
AmiServices
 90
    33792
280
     0
281
     0
  0
CLASS
  1
MAPIAMMOUDLE
  2
MApiAmModule
  3
MApiAmServices
 90
    33792
280
     0
281
     0
  0
CLASS
  1
ACIMSTRSYSVAR
  2
AcImStrSysVar
  3
AcMeServices
 90
    33792
280
     0
281
     0
  0
CLASS
  1
AMDTADMENUSTATE
  2
AmdtAdMenuState
  3
DesignerServices
 90
    33792
280
     0
281
     0
  0
CLASS
  1
ADAPPL
  2
AcAdAppl
  3
DesignerServices
 90
    33792
280
     0
281
     0
  0
CLASS
  1
DEPMGR
  2
AcAdDepMgr
  3
DesignerServices
 90
    33792
280
     0
281
     0
  0
CLASS
  1
PARAMMGR
  2
AcAdParamMgr
  3
DesignerServices
 90
    33792
280
     0
281
     0
  0
CLASS
  1
PARAMSCOPE
  2
AcAdParamScope
  3
DesignerServices
 90
    33792
280
     0
281
     0
  0
CLASS
  1
NAMEDAPPL
  2
AcAdNamedAppl
  3
DesignerServices
 90
    33792
280
     0
281
     0
  0
CLASS
  1
AMDTDMMENUSTATE
  2
AmdtDmMenuState
  3
AcMechDwgViewMgmt
 90
    33792
280
     0
281
     0
  0
CLASS
  1
AMDTAMMENUSTATE
  2
AmdtAmMenuState
  3
DesignerAssemblies
 90
    33792
280
     0
281
     0
  0
CLASS
  1
ACAMPROJECT
  2
AcAmProject
  3
DesignerAssemblies
 90
    33792
280
     0
281
     0
  0
CLASS
  1
ACAMGRCOMPDEF
  2
AcAmGrCompDef
  3
DesignerAssemblies
 90
    33792
280
     0
281
     0
  0
CLASS
  1
ACCMCONTEXT
  2
AcCmContext
  3
DesignerAssemblies
 90
    33792
280
     0
281
     0
  0
CLASS
  1
ACAMCOMPDEF
  2
AcAmCompDef
  3
DesignerAssemblies
 90
    33792
280
     0
281
     0
  0
CLASS
  1
ACAMCOMPDEFMGR
  2
AcAmCompDefMgr
  3
DesignerAssemblies
 90
    33792
280
     0
281
     0
  0
CLASS
  1
AMCONTEXTMGR
  2
AcAmContextMgr
  3
DesignerAssemblies
 90
    33792
280
     0
281
     0
  0
CLASS
  1
ACAMCONTEXTMODELER
  2
AcAmContextModeler
  3
DesignerAssemblies
 90
    33792
280
     0
281
     0
  0
CLASS
  1
ACMDATADICTIONARY
  2
AcmDataDictionary
  3
"AcmSymBB|Product Description: AutoCAD Mechanical|Company: Autodesk, Inc."
 90
    33792
280
     0
281
     0
  0
CLASS
  1
CATALOGSTATE
  2
AcAmCatalogState
  3
DesignerAssemblies
 90
    33792
280
     0
281
     0
  0
CLASS
  1
ACAMGRCOMPDEFSET
  2
AcAmGrCompDefSet
  3
DesignerAssemblies
 90
    33792
280
     0
281
     0
  0
CLASS
  1
AMDTBROWSERDBTAB
  2
AmdtBrowserDbTab
  3
McadcomServices
 90
    33792
280
     0
281
     0
  0
CLASS
  1
CBROWSERAPPOBJECT
  2
CBrowserAppObject
  3
McadcomServices
 90
    33792
280
     0
281
     0
  0
CLASS
  1
DM_PLACEHOLDER
  2
AcDmSelsetPlaceholder
  3
AcMechDwgViewMgmt
 90
    33792
280
     0
281
     0
  0
CLASS
  1
EXACXREFPANELOBJECT
  2
ExAcXREFPanelObject
  3
EXAC_ESW
 90
    33793
280
     0
281
     0
  0
CLASS
  1
NPOCOLLECTION
  2
AcDbImpNonPersistentObjectsCollection
  3
ObjectDBX Classes
 90
    33921
280
     0
281
     0
  0
CLASS
  1
ACMSTANDARDANSI
  2
AcmStandardANSI
  3
"Amdt_StdImp|Product Description: AutoCAD Mechanical|Company: Autodesk, Inc."
 90
    33792
280
     0
281
     0
  0
CLASS
  1
ACMSURFSTANDARDANSI
  2
AcmSurfTextStdANSI
  3
"Amdt_StdImp|Product Description: AutoCAD Mechanical|Company: Autodesk, Inc."
 90
    33792
280
     0
281
     0
  0
CLASS
  1
ACMFCFSTANDARDANSI
  2
AcmFCFStdANSI
  3
"Amdt_StdImp|Product Description: AutoCAD Mechanical|Company: Autodesk, Inc."
 90
    33792
280
     0
281
     0
  0
CLASS
  1
ACMWELDSTANDARDANSI
  2
AcmWeldingStdANSI
  3
"Amdt_StdImp|Product Description: AutoCAD Mechanical|Company: Autodesk, Inc."
 90
    33792
280
     0
281
     0
  0
CLASS
  1
ACMIDSTANDARDANSI
  2
AcmIdStdANSI
  3
"Amdt_StdImp|Product Description: AutoCAD Mechanical|Company: Autodesk, Inc."
 90
    33792
280
     0
281
     0
  0
CLASS
  1
ACMDATUMSTANDARDANSI
  2
AcmDatumStdANSI
  3
"Amdt_StdImp|Product Description: AutoCAD Mechanical|Company: Autodesk, Inc."
 90
    33792
280
     0
281
     0
  0
CLASS
  1
ACMBOMSTANDARDANSI
  2
AcmBOMStdANSI
  3
"Amdt_StdImp|Product Description: AutoCAD Mechanical|Company: Autodesk, Inc."
 90
    33792
280
     0
281
     0
  0
CLASS
  1
ACMDETAILSTANDARDANSI
  2
AmdtDetailSymStdANSI
  3
"Amdt_StdImp|Product Description: AutoCAD Mechanical|Company: Autodesk, Inc."
 90
    33792
280
     0
281
     0
  0
CLASS
  1
ACMSECTIONSTANDARDANSI
  2
AmdtSectionSymStdANSI
  3
"Amdt_StdImp|Product Description: AutoCAD Mechanical|Company: Autodesk, Inc."
 90
    33792
280
     0
281
     0
  0
CLASS
  1
ACMCENTERLINESTANDARDANSI
  2
AmdtCenterLineStdANSI
  3
"Amdt_StdImp|Product Description: AutoCAD Mechanical|Company: Autodesk, Inc."
 90
    33792
280
     0
281
     0
  0
CLASS
  1
ACMTHREADLINESTANDARDANSI
  2
AmdtThreadLineStdANSI
  3
"Amdt_StdImp|Product Description: AutoCAD Mechanical|Company: Autodesk, Inc."
 90
    33792
280
     0
281
     0
  0
CLASS
  1
ACMNOTESTANDARDANSI
  2
AmdtNoteStdANSI
  3
"Amdt_StdImp|Product Description: AutoCAD Mechanical|Company: Autodesk, Inc."
 90
    33792
280
     0
281
     0
  0
CLASS
  1
ACMTAPERSTANDARDANSI
  2
AcmTaperStdANSI
  3
"Amdt_StdImp|Product Description: AutoCAD Mechanical|Company: Autodesk, Inc."
 90
    33792
280
     0
281
     0
  0
CLASS
  1
ACMANOOTATIONVIEWSTANDARDANSI
  2
AmdtAnViewStdANSI
  3
"Amdt_StdImp|Product Description: AutoCAD Mechanical|Company: Autodesk, Inc."
 90
    33792
280
     0
281
     0
  0
CLASS
  1
ACAMGLAYSTD
  2
AcAmgLayStd
  3
"AmgLay|Product Description: AutoCAD Mechanical|Company: Autodesk, Inc."
 90
    33792
280
     0
281
     0
  0
CLASS
  1
ACAMGDIMSTD
  2
AcAmgDimStd
  3
"AmgDim|Product Description: AutoCAD Mechanical|Company: Autodesk, Inc."
 90
    33792
280
     0
281
     0
  0
CLASS
  1
AMGOBJPROPCFG
  2
AmgObjPropCfg
  3
"AmgLay|Product Description: AutoCAD Mechanical|Company: Autodesk, Inc."
 90
    33793
280
     0
281
     0
  0
CLASS
  1
ACAMGHOLECHARTSTDANSI
  2
AcAmgHoleChartStdANSI
  3
AmgDim|Product Description: AutoCAD Mechanical|Company: Autodesk, Inc.
 90
    33792
280
     0
281
     0
  0
CLASS
  1
ACAMGTITLESTD
  2
AcAmgTitleStd
  3
"AmgTitle|Product Description: AutoCAD Mechanical|Company: Autodesk, Inc."
 90
    36863
280
     0
281
     0
  0
CLASS
  1
AMDTNOTETEMPLATEDB
  2
AmdtNoteTemplateDB
  3
AcmSymBB|Product Description: AutoCAD Mechanical|Company: Autodesk, Inc.
 90
    33792
280
     0
281
     0
  0
CLASS
  1
ACAMGFILTERDAT
  2
AcAmgFilterDat
  3
"AcadM|Product Description: AutoCAD Mechanical|Company: Autodesk, Inc."
 90
    33792
280
     0
281
     0
  0
CLASS
  1
SORTENTSTABLE
  2
AcDbSortentsTable
  3
AutoCAD 2000
 90
        0
280
     0
281
     0
  0
CLASS
  1
ACMSTANDARDJIS
  2
AcmStandardJIS
  3
"Amdt_StdImp|Product Description: AutoCAD Mechanical|Company: Autodesk, Inc."
 90
    33792
280
     0
281
     0
  0
CLASS
  1
ACMSURFSTANDARDJIS
  2
AcmSurfTextStdJIS
  3
"Amdt_StdImp|Product Description: AutoCAD Mechanical|Company: Autodesk, Inc."
 90
    33792
280
     0
281
     0
  0
CLASS
  1
ACMFCFSTANDARDJIS98
  2
AcmFCFStdJIS98
  3
"Amdt_StdImp|Product Description: AutoCAD Mechanical|Company: Autodesk, Inc."
 90
    33792
280
     0
281
     0
  0
CLASS
  1
ACMWELDSTANDARDJIS
  2
AcmWeldingStdJIS
  3
"Amdt_StdImp|Product Description: AutoCAD Mechanical|Company: Autodesk, Inc."
 90
    33792
280
     0
281
     0
  0
CLASS
  1
ACMIDSTANDARDJIS
  2
AcmIdStdJIS
  3
"Amdt_StdImp|Product Description: AutoCAD Mechanical|Company: Autodesk, Inc."
 90
    33792
280
     0
281
     0
  0
CLASS
  1
ACMDATUMSTANDARDJIS
  2
AcmDatumStdJIS
  3
"Amdt_StdImp|Product Description: AutoCAD Mechanical|Company: Autodesk, Inc."
 90
    33792
280
     0
281
     0
  0
CLASS
  1
ACMBOMSTANDARDJIS
  2
AcmBOMStdJIS
  3
"Amdt_StdImp|Product Description: AutoCAD Mechanical|Company: Autodesk, Inc."
 90
    33792
280
     0
281
     0
  0
CLASS
  1
ACMDETAILSTANDARDJIS
  2
AmdtDetailSymStdJIS
  3
"Amdt_StdImp|Product Description: AutoCAD Mechanical|Company: Autodesk, Inc."
 90
    33792
280
     0
281
     0
  0
CLASS
  1
ACMSECTIONSTANDARDJIS
  2
AmdtSectionSymStdJIS
  3
"Amdt_StdImp|Product Description: AutoCAD Mechanical|Company: Autodesk, Inc."
 90
    33792
280
     0
281
     0
  0
CLASS
  1
ACMCENTERLINESTANDARDJIS
  2
AmdtCenterLineStdJIS
  3
"Amdt_StdImp|Product Description: AutoCAD Mechanical|Company: Autodesk, Inc."
 90
    33792
280
     0
281
     0
  0
CLASS
  1
ACMNOTESTANDARDJIS
  2
AmdtNoteStdJIS
  3
"Amdt_StdImp|Product Description: AutoCAD Mechanical|Company: Autodesk, Inc."
 90
    33792
280
     0
281
     0
  0
CLASS
  1
ACAMGHOLECHARTSTDJIS
  2
AcAmgHoleChartStdJIS
  3
AmgDim|Product Description: AutoCAD Mechanical|Company: Autodesk, Inc.
 90
    33792
280
     0
281
     0
  0
CLASS
  1
ACMTHREADLINESTANDARDJIS
  2
AmdtThreadLineStdJIS
  3
"Amdt_StdImp|Product Description: AutoCAD Mechanical|Company: Autodesk, Inc."
 90
    33792
280
     0
281
     0
  0
CLASS
  1
ACMTAPERSTANDARDJIS
  2
AcmTaperStdJIS
  3
"Amdt_StdImp|Product Description: AutoCAD Mechanical|Company: Autodesk, Inc."
 90
    33792
280
     0
281
     0
  0
CLASS
  1
ACMANOOTATIONVIEWSTANDARDJIS
  2
AmdtAnViewStdJIS
  3
"Amdt_StdImp|Product Description: AutoCAD Mechanical|Company: Autodesk, Inc."
 90
    33792
280
     0
281
     0
  0
CLASS
  1
AMDTEDGESTANDARDJIS
  2
AmdtEdgeStdJIS
  3
"Amdt_StdImp|Product Description: AutoCAD Mechanical|Company: Autodesk, Inc."
 90
    33792
280
     0
281
     0
  0
CLASS
  1
ACMDATAENTRYBLOCK
  2
AcmDataEntryBlock
  3
AcmSymBB|Product Description: AutoCAD Mechanical|Company: Autodesk, Inc.
 90
    33792
280
     0
281
     0
  0
CLASS
  1
CELLSTYLEMAP
  2
AcDbCellStyleMap
  3
ObjectDBX Classes
 90
     1152
280
     0
281
     0
  0
CLASS
  1
ACAD_PROXY_OBJECT_WRAPPER
  2
AcDbProxyObjectWrapper
  3
AutoCAD 2000
 90
    32768
280
     0
281
     0
  0
CLASS
  1
LONG_TRANSACTION
  2
AcDbLongTransaction
  3
AutoCAD 2000
 90
    32768
280
     0
281
     0
  0
CLASS
  1
LWPOLYLINE
  2
AcDbPolyline
  3
AutoCAD 2000
 90
    32768
280
     0
281
     1
  0
CLASS
  1
HATCH
  2
AcDbHatch
  3
AutoCAD 2000
 90
    32768
280
     0
281
     1
  0
CLASS
  1
XRECORD
  2
AcDbXrecord
  3
AutoCAD 2000
 90
    32768
280
     0
281
     0
  0
ENDSEC
  0
SECTION
  2
TABLES
  0
TABLE
  2
VPORT
  5
1F9E
102
{ACAD_XDICTIONARY
360
2441
102
}
330
0
100
AcDbSymbolTable
 70
     2
  0
VPORT
  5
25E5
330
1F9E
100
AcDbSymbolTableRecord
100
AcDbViewportTableRecord
  2
*Active
 70
     0
 10
0.0
 20
0.0
 11
1.0
 21
1.0
 12
333.8171680151496
 22
388.373857447375
 13
0.0
 23
0.0
 14
1.0
 24
1.0
 15
0.0
 25
0.0
 16
0.0
 26
0.0
 36
1.0
 17
0.0
 27
0.0
 37
0.0
 40
738.8057417507918
 41
1.592161016949152
 42
50.0
 43
0.0
 44
0.0
 50
0.0
 51
0.0
 71
     0
 72
   100
 73
     1
 74
     3
 75
     0
 76
     0
 77
     0
 78
     0
281
     0
 65
     1
110
0.0
120
0.0
130
0.0
111
1.0
121
0.0
131
0.0
112
0.0
122
1.0
132
0.0
 79
     0
146
0.0
  0
ENDTAB
  0
TABLE
  2
LTYPE
  5
1F9B
330
0
100
AcDbSymbolTable
 70
     2
  0
LTYPE
  5
1FA9
330
1F9B
100
AcDbSymbolTableRecord
100
AcDbLinetypeTableRecord
  2
ByBlock
 70
     0
  3

 72
    65
 73
     0
 40
0.0
  0
LTYPE
  5
1FAA
330
1F9B
100
AcDbSymbolTableRecord
100
AcDbLinetypeTableRecord
  2
ByLayer
 70
     0
  3

 72
    65
 73
     0
 40
0.0
  0
LTYPE
  5
1FAB
330
1F9B
100
AcDbSymbolTableRecord
100
AcDbLinetypeTableRecord
  2
CONTINUOUS
 70
     0
  3
Solid line
 72
    65
 73
     0
 40
0.0
  0
LTYPE
  5
25C8
330
1F9B
100
AcDbSymbolTableRecord
100
AcDbLinetypeTableRecord
  2
CENTER
 70
     0
  3
__ . __
 72
    65
 73
     4
 40
7.0
 49
4.0
 74
     0
 49
-1.0
 74
     0
 49
1.0
 74
     0
 49
-1.0
 74
     0
  0
ENDTAB
  0
TABLE
  2
LAYER
  5
1F98
102
{ACAD_XDICTIONARY
360
25C9
102
}
330
0
100
AcDbSymbolTable
 70
     1
  0
LAYER
  5
1FA6
102
{ACAD_XDICTIONARY
360
2435
102
}
330
1F98
100
AcDbSymbolTableRecord
100
AcDbLayerTableRecord
  2
0
 70
     0
 62
     7
  6
CONTINUOUS
370
    -3
390
1FA5
  0
ENDTAB
  0
TABLE
  2
STYLE
  5
1F99
330
0
100
AcDbSymbolTable
 70
     1
  0
STYLE
  5
1FA7
330
1F99
100
AcDbSymbolTableRecord
100
AcDbTextStyleTableRecord
  2
STANDARD
 70
     0
 40
0.0
 41
1.0
 50
0.0
 71
     0
 42
0.2
  3
txt
  4
BIGFONT
  0
ENDTAB
  0
TABLE
  2
VIEW
  5
1F9C
330
0
100
AcDbSymbolTable
 70
     1
  0
VIEW
  5
1FC7
102
{ACAD_XDICTIONARY
360
256C
102
}
330
1F9C
100
AcDbSymbolTableRecord
100
AcDbViewTableRecord
  2
OLE1
 70
     0
 40
3692.141019219747
 10
1914.591370701856
 20
1272.206200738182
 41
4595.022665841169
 11
0.0
 21
0.0
 31
1.0
 12
0.0
 22
0.0
 32
0.0
 42
50.0
 43
0.0
 44
0.0
 50
0.0
 71
     0
281
     0
 72
     1
110
0.0
120
0.0
130
0.0
111
1.0
121
0.0
131
0.0
112
0.0
122
1.0
132
0.0
 79
     0
146
0.0
  0
ENDTAB
  0
TABLE
  2
UCS
  5
1F9D
330
0
100
AcDbSymbolTable
 70
     0
  0
ENDTAB
  0
TABLE
  2
APPID
  5
1F9F
330
0
100
AcDbSymbolTable
 70
    26
  0
APPID
  5
1FA8
330
1F9F
100
AcDbSymbolTableRecord
100
AcDbRegAppTableRecord
  2
ACAD
 70
     0
  0
APPID
  5
1FC8
330
1F9F
100
AcDbSymbolTableRecord
100
AcDbRegAppTableRecord
  2
MCAD_NO_VIS
 70
     0
  0
APPID
  5
1FC9
330
1F9F
100
AcDbSymbolTableRecord
100
AcDbRegAppTableRecord
  2
ACAD_TEMP_GRAPHIC
 70
     0
  0
APPID
  5
1FCA
330
1F9F
100
AcDbSymbolTableRecord
100
AcDbRegAppTableRecord
  2
ACATTRIBSERVICES
 70
     0
  0
APPID
  5
2076
330
1F9F
100
AcDbSymbolTableRecord
100
AcDbRegAppTableRecord
  2
ACAD_MLEADERVER
 70
     0
  0
APPID
  5
20B1
330
1F9F
100
AcDbSymbolTableRecord
100
AcDbRegAppTableRecord
  2
AD_DRAW
 70
     0
  0
APPID
  5
20D4
330
1F9F
100
AcDbSymbolTableRecord
100
AcDbRegAppTableRecord
  2
DESIGNERASSEMBLIES
 70
     0
  0
APPID
  5
20DA
330
1F9F
100
AcDbSymbolTableRecord
100
AcDbRegAppTableRecord
  2
ACADM_DIM_EDIT
 70
     0
  0
APPID
  5
20DB
330
1F9F
100
AcDbSymbolTableRecord
100
AcDbRegAppTableRecord
  2
AMDT_DM_ADJ
 70
     0
  0
APPID
  5
213A
330
1F9F
100
AcDbSymbolTableRecord
100
AcDbRegAppTableRecord
  2
ACAD_DSTYLE_DIMJOGGED_JOGANGLE_SYMBOL
 70
     0
  0
APPID
  5
213B
330
1F9F
100
AcDbSymbolTableRecord
100
AcDbRegAppTableRecord
  2
ACAD_DSTYLE_DIMJAG
 70
     0
  0
APPID
  5
213C
330
1F9F
100
AcDbSymbolTableRecord
100
AcDbRegAppTableRecord
  2
ACAD_DSTYLE_DIMTALN
 70
     0
  0
APPID
  5
213D
330
1F9F
100
AcDbSymbolTableRecord
100
AcDbRegAppTableRecord
  2
ACAD_PSEXT
 70
     0
  0
APPID
  5
244D
330
1F9F
100
AcDbSymbolTableRecord
100
AcDbRegAppTableRecord
  2
ACAD_DSTYLE_DIMARC_LENGTH_SYMBOL
 70
     0
  0
APPID
  5
244E
330
1F9F
100
AcDbSymbolTableRecord
100
AcDbRegAppTableRecord
  2
ACAD_DSTYLE_DIM_LINETYPE
 70
     0
  0
APPID
  5
244F
330
1F9F
100
AcDbSymbolTableRecord
100
AcDbRegAppTableRecord
  2
ACAD_DSTYLE_DIM_EXT1_LINETYPE
 70
     0
  0
APPID
  5
2450
330
1F9F
100
AcDbSymbolTableRecord
100
AcDbRegAppTableRecord
  2
ACAD_DSTYLE_DIM_EXT2_LINETYPE
 70
     0
  0
APPID
  5
24BE
330
1F9F
100
AcDbSymbolTableRecord
100
AcDbRegAppTableRecord
  2
ACAD_EXEMPT_FROM_CAD_STANDARDS
 70
     0
  0
APPID
  5
2554
330
1F9F
100
AcDbSymbolTableRecord
100
AcDbRegAppTableRecord
  2
AcadAnnotative
 70
     0
  0
APPID
  5
2555
330
1F9F
100
AcDbSymbolTableRecord
100
AcDbRegAppTableRecord
  2
GENIUS_GENODEF_13
 70
     0
  0
APPID
  5
2556
330
1F9F
100
AcDbSymbolTableRecord
100
AcDbRegAppTableRecord
  2
GENIUS_GENOBJ-N-FIL_13
 70
     0
  0
APPID
  5
2557
330
1F9F
100
AcDbSymbolTableRecord
100
AcDbRegAppTableRecord
  2
GENIUS_GENOBJ-N-CEN_13
 70
     0
  0
APPID
  5
2558
330
1F9F
100
AcDbSymbolTableRecord
100
AcDbRegAppTableRecord
  2
GENIUS_GENCEN_19
 70
     0
  0
APPID
  5
2559
330
1F9F
100
AcDbSymbolTableRecord
100
AcDbRegAppTableRecord
  2
GENIUS_GENSCREG_15
 70
     0
  0
APPID
  5
255A
330
1F9F
100
AcDbSymbolTableRecord
100
AcDbRegAppTableRecord
  2
GENIUS_GENOBJ-N-SDF_13
 70
     0
  0
APPID
  5
255B
330
1F9F
100
AcDbSymbolTableRecord
100
AcDbRegAppTableRecord
  2
AcAecLayerStandard
 70
     0
  0
ENDTAB
  0
TABLE
  2
DIMSTYLE
  5
1FA0
330
0
100
AcDbSymbolTable
 70
     1
100
AcDbDimStyleTable
 71
     0
  0
DIMSTYLE
105
1FCB
330
1FA0
100
AcDbSymbolTableRecord
100
AcDbDimStyleTableRecord
  2
STANDARD
 70
     0
279
     2
340
1FA7
  0
ENDTAB
  0
TABLE
  2
BLOCK_RECORD
  5
1F97
330
0
100
AcDbSymbolTable
 70
     0
  0
BLOCK_RECORD
  5
1FB4
102
{ACAD_XDICTIONARY
360
1FE0
102
}
330
1F97
100
AcDbSymbolTableRecord
100
AcDbBlockTableRecord
  2
*Model_Space
340
1FB7
  0
BLOCK_RECORD
  5
1FB0
102
{ACAD_XDICTIONARY
360
1FE2
102
}
330
1F97
100
AcDbSymbolTableRecord
100
AcDbBlockTableRecord
  2
*Paper_Space
340
1FB3
  0
ENDTAB
  0
ENDSEC
  0
SECTION
  2
BLOCKS
  0
BLOCK
  5
1FB5
330
1FB4
100
AcDbEntity
  8
0
100
AcDbBlockBegin
  2
*Model_Space
 70
     0
 10
0.0
 20
0.0
 30
0.0
  3
*Model_Space
  1

  0
ENDBLK
  5
1FB6
330
1FB4
100
AcDbEntity
  8
0
100
AcDbBlockEnd
  0
BLOCK
  5
1FB1
330
1FB0
100
AcDbEntity
 67
     1
  8
0
100
AcDbBlockBegin
  2
*Paper_Space
 70
     0
 10
0.0
 20
0.0
 30
0.0
  3
*Paper_Space
  1

  0
ENDBLK
  5
1FB2
330
1FB0
100
AcDbEntity
 67
     1
  8
0
100
AcDbBlockEnd
  0
ENDSEC
  0
SECTION
  2
ENTITIES
  0
LINE
  5
C79
330
1FB4
100
AcDbEntity
  8
0
  6
Continuous
100
AcDbLine
 10
150.0000000000016
 20
488.6342395092557
 30
0.0
 11
150.0000000000016
 21
514.0342395092559
 31
0.0
  0
LINE
  5
C7A
330
1FB4
100
AcDbEntity
  8
0
  6
Continuous
100
AcDbLine
 10
250.0000000000016
 20
488.6342395092557
 30
0.0
 11
250.0000000000016
 21
514.0342395092559
 31
0.0
  0
TEXT
  5
C94
330
1FB4
100
AcDbEntity
  8
0
  6
Continuous
100
AcDbText
 10
-60.0214797310009
 20
707.4115228653409
 30
0.0
 40
48.000002
  1
BVP__T60J10 3S
 41
1.268809999999999
100
AcDbText
  0
LINE
  5
D91
330
1FB4
100
AcDbEntity
  8
0
  6
Continuous
100
AcDbLine
 10
360.0
 20
210.7499699999999
 30
0.0
 11
360.0
 21
161.749954
 31
0.0
  0
LINE
  5
D92
330
1FB4
100
AcDbEntity
  8
0
  6
Continuous
100
AcDbLine
 10
440.0
 20
210.7499699999999
 30
0.0
 11
440.0
 21
161.749954
 31
0.0
  0
LINE
  5
D93
330
1FB4
100
AcDbEntity
  8
0
  6
Continuous
100
AcDbLine
 10
440.0
 20
210.7499699999999
 30
0.0
 11
360.0
 21
210.7499699999999
 31
0.0
  0
LINE
  5
D94
330
1FB4
100
AcDbEntity
  8
0
  6
Continuous
100
AcDbLine
 10
413.0
 20
206.2499599999999
 30
0.0
 11
413.0
 21
166.249962
 31
0.0
  0
LINE
  5
D95
330
1FB4
100
AcDbEntity
  8
0
  6
Continuous
100
AcDbLine
 10
387.0
 20
206.2499599999999
 30
0.0
 11
387.0
 21
166.249962
 31
0.0
  0
LINE
  5
D96
330
1FB4
100
AcDbEntity
  8
0
  6
Continuous
100
AcDbLine
 10
440.0
 20
161.749954
 30
0.0
 11
360.0
 21
161.749954
 31
0.0
  0
LINE
  5
D97
330
1FB4
100
AcDbEntity
  8
0
  6
Continuous
100
AcDbLine
 10
435.5
 20
206.2499599999999
 30
0.0
 11
435.5
 21
166.249962
 31
0.0
  0
LINE
  5
D98
330
1FB4
100
AcDbEntity
  8
0
  6
Continuous
100
AcDbLine
 10
435.5
 20
206.2499599999999
 30
0.0
 11
364.5
 21
206.2499599999999
 31
0.0
  0
LINE
  5
D99
330
1FB4
100
AcDbEntity
  8
0
  6
Continuous
100
AcDbLine
 10
435.5
 20
166.249962
 30
0.0
 11
364.5
 21
166.249962
 31
0.0
  0
LINE
  5
D9A
330
1FB4
100
AcDbEntity
  8
0
  6
Continuous
100
AcDbLine
 10
364.5
 20
206.2499599999999
 30
0.0
 11
364.5
 21
166.249962
 31
0.0
  0
ARC
  5
D9B
330
1FB4
100
AcDbEntity
  8
0
  6
Continuous
100
AcDbCircle
 10
400.0
 20
100.0
 30
0.0
 40
69.0
100
AcDbArc
 50
116.5008700000042
 51
63.4991309999966
  0
LINE
  5
EC0
330
1FB4
100
AcDbEntity
  8
0
  6
Continuous
100
AcDbLine
 10
177.0919229999998
 20
161.749992
 30
0.0
 11
222.908096
 21
161.749992
 31
0.0
  0
LINE
  5
EC1
330
1FB4
100
AcDbEntity
  8
0
  6
Continuous
100
AcDbLine
 10
167.999992
 20
210.7500099999998
 30
0.0
 11
232.0000079999998
 21
210.7500099999998
 31
0.0
  0
LINE
  5
EC2
330
1FB4
100
AcDbEntity
  8
0
  6
Continuous
100
AcDbLine
 10
232.0000079999998
 20
210.7500099999998
 30
0.0
 11
232.0000079999998
 21
186.729813
 31
0.0
  0
LINE
  5
EC3
330
1FB4
100
AcDbEntity
  8
0
  6
Continuous
100
AcDbLine
 10
167.999992
 20
210.7500099999998
 30
0.0
 11
167.999992
 21
186.729813
 31
0.0
  0
LINE
  5
EC4
330
1FB4
100
AcDbEntity
  8
0
  6
Continuous
100
AcDbLine
 10
231.9999919999999
 20
186.7298139999999
 30
0.0
 11
222.908081
 21
161.7499929999999
 31
0.0
  0
LINE
  5
EC5
330
1FB4
100
AcDbEntity
  8
0
  6
Continuous
100
AcDbLine
 10
168.0000059999999
 20
186.7298049999999
 30
0.0
 11
177.0919089999999
 21
161.7500059999999
 31
0.0
  0
LINE
  5
EC6
330
1FB4
100
AcDbEntity
  8
0
  6
Continuous
100
AcDbLine
 10
180.0
 20
161.7500109999998
 30
0.0
 11
180.0
 21
31.00002300000005
 31
0.0
  0
LINE
  5
EC8
330
1FB4
100
AcDbEntity
  8
0
  6
Continuous
100
AcDbLine
 10
220.0
 20
161.7500109999998
 30
0.0
 11
220.0
 21
31.00002300000005
 31
0.0
  0
LINE
  5
ECA
330
1FB4
100
AcDbEntity
  8
0
  6
Continuous
100
AcDbLine
 10
220.0
 20
31.00002300000005
 30
0.0
 11
180.0
 21
31.00002300000005
 31
0.0
  0
LINE
  5
162E
330
1FB4
100
AcDbEntity
  8
0
  6
Continuous
100
AcDbLine
 10
168.5000059999999
 20
210.7500099999998
 30
0.0
 11
231.4999939999999
 21
210.7500099999998
 31
0.0
  0
LINE
  5
165D
330
1FB4
100
AcDbEntity
  8
0
  6
Continuous
100
AcDbLine
 10
368.500006
 20
210.7499699999999
 30
0.0
 11
431.4999939999998
 21
210.7499699999999
 31
0.0
  0
LINE
  5
1D19
330
1FB4
100
AcDbEntity
  8
0
  6
Continuous
100
AcDbLine
 10
150.0
 20
145.5
 30
0.0
 11
152.8499987
 21
145.5
 31
0.0
  0
LINE
  5
1D1A
330
1FB4
100
AcDbEntity
  8
0
  6
Continuous
100
AcDbLine
 10
152.8499985999999
 20
145.500001
 30
0.0
 11
155.5251793
 21
138.1500019999998
 31
0.0
  0
LINE
  5
1D1B
330
1FB4
100
AcDbEntity
  8
0
  6
Continuous
100
AcDbLine
 10
155.5251794
 20
138.1500019999998
 30
0.0
 11
180.0
 21
138.1500019999998
 31
0.0
  0
LINE
  5
1D1C
330
1FB4
100
AcDbEntity
  8
0
  6
Continuous
100
AcDbLine
 10
150.0
 20
54.5
 30
0.0
 11
150.0
 21
145.5
 31
0.0
  0
LINE
  5
1D1D
330
1FB4
100
AcDbEntity
  8
0
  6
Continuous
100
AcDbLine
 10
155.5251794
 20
61.84999800000002
 30
0.0
 11
180.0
 21
61.84999800000002
 31
0.0
  0
LINE
  5
1D1E
330
1FB4
100
AcDbEntity
  8
0
  6
Continuous
100
AcDbLine
 10
152.8499985999999
 20
54.499999
 30
0.0
 11
155.5251793
 21
61.84999800000002
 31
0.0
  0
LINE
  5
1D1F
330
1FB4
100
AcDbEntity
  8
0
  6
Continuous
100
AcDbLine
 10
150.0
 20
54.5
 30
0.0
 11
152.8499987
 21
54.5
 31
0.0
  0
LINE
  5
1D21
330
1FB4
100
AcDbEntity
  8
0
  6
Continuous
100
AcDbLine
 10
155.5251794
 20
138.1500019999998
 30
0.0
 11
155.5251794
 21
61.84999800000002
 31
0.0
  0
LINE
  5
1D24
330
1FB4
100
AcDbEntity
  8
0
  6
Continuous
100
AcDbLine
 10
250.0
 20
54.5
 30
0.0
 11
247.1500012999999
 21
54.5
 31
0.0
  0
LINE
  5
1D25
330
1FB4
100
AcDbEntity
  8
0
  6
Continuous
100
AcDbLine
 10
247.1500014
 20
54.499999
 30
0.0
 11
244.4748206999999
 21
61.84999800000002
 31
0.0
  0
LINE
  5
1D26
330
1FB4
100
AcDbEntity
  8
0
  6
Continuous
100
AcDbLine
 10
244.4748205999999
 20
61.84999800000002
 30
0.0
 11
220.0
 21
61.84999800000002
 31
0.0
  0
LINE
  5
1D27
330
1FB4
100
AcDbEntity
  8
0
  6
Continuous
100
AcDbLine
 10
250.0
 20
145.5
 30
0.0
 11
250.0
 21
54.5
 31
0.0
  0
LINE
  5
1D28
330
1FB4
100
AcDbEntity
  8
0
  6
Continuous
100
AcDbLine
 10
244.4748205999999
 20
138.1500019999998
 30
0.0
 11
220.0
 21
138.1500019999998
 31
0.0
  0
LINE
  5
1D29
330
1FB4
100
AcDbEntity
  8
0
  6
Continuous
100
AcDbLine
 10
247.1500014
 20
145.500001
 30
0.0
 11
244.4748206999999
 21
138.1500019999998
 31
0.0
  0
LINE
  5
1D2A
330
1FB4
100
AcDbEntity
  8
0
  6
Continuous
100
AcDbLine
 10
250.0
 20
145.5
 30
0.0
 11
247.1500012999999
 21
145.5
 31
0.0
  0
LINE
  5
1D2C
330
1FB4
100
AcDbEntity
  8
0
  6
Continuous
100
AcDbLine
 10
244.4748205999999
 20
61.84999800000002
 30
0.0
 11
244.4748205999999
 21
138.1500019999998
 31
0.0
  0
CIRCLE
  5
1D60
330
1FB4
100
AcDbEntity
  8
0
  6
Continuous
100
AcDbCircle
 10
400.0
 20
100.0
 30
0.0
 40
45.49999999999999
  0
CIRCLE
  5
1D61
330
1FB4
100
AcDbEntity
  8
0
  6
Continuous
100
AcDbCircle
 10
400.0
 20
100.0
 30
0.0
 40
38.15000172525197
  0
LINE
  5
22B0
330
1FB4
100
AcDbEntity
  8
0
  6
Continuous
100
AcDbLine
 10
267.5001532670014
 20
311.750009999999
 30
0.0
 11
267.5001532670005
 21
210.750009999999
 31
0.0
  0
LINE
  5
22B1
330
1FB4
100
AcDbEntity
  8
0
  6
Continuous
100
AcDbLine
 10
273.5001532670014
 20
310.750009999999
 30
0.0
 11
273.5001532670005
 21
211.7500099999991
 31
0.0
  0
LINE
  5
22B2
330
1FB4
100
AcDbEntity
  8
0
  6
Continuous
100
AcDbLine
 10
112.5000000000011
 20
311.7500099999999
 30
0.0
 11
112.5000000000002
 21
210.7500100000009
 31
0.0
  0
LINE
  5
22B3
330
1FB4
100
AcDbEntity
  8
0
  6
Continuous
100
AcDbLine
 10
106.5000000000011
 20
310.7500099999999
 30
0.0
 11
106.5000000000002
 21
211.7500100000009
 31
0.0
  0
LINE
  5
22B4
330
1FB4
100
AcDbEntity
  8
0
  6
Continuous
100
AcDbLine
 10
272.5001532670014
 20
311.750009999999
 30
0.0
 11
107.5000000000011
 21
311.7500099999999
 31
0.0
  0
LINE
  5
22B5
330
1FB4
100
AcDbEntity
  8
0
  6
Continuous
100
AcDbLine
 10
272.5001532670005
 20
210.750009999999
 30
0.0
 11
107.5000000000002
 21
210.7500100000009
 31
0.0
  0
LINE
  5
22B6
330
1FB4
100
AcDbEntity
  8
0
  6
Continuous
100
AcDbLine
 10
99.89990234375069
 20
267.7500328581832
 30
0.0
 11
99.89990234375023
 21
254.7500328581832
 31
0.0
  0
LINE
  5
22B7
330
1FB4
100
AcDbEntity
  8
0
  6
Continuous
100
AcDbLine
 10
100.4799804687506
 20
268.7557091277144
 30
0.0
 11
104.3193359375006
 21
268.7557091277144
 31
0.0
  0
LINE
  5
22B8
330
1FB4
100
AcDbEntity
  8
0
  6
Continuous
100
AcDbLine
 10
100.4804687500006
 20
265.0029625456832
 30
0.0
 11
104.3189132571903
 21
265.0029625456832
 31
0.0
  0
LINE
  5
22B9
330
1FB4
100
AcDbEntity
  8
0
  6
Continuous
100
AcDbLine
 10
99.90018494709943
 20
267.7505027121374
 30
0.0
 11
100.4807513533503
 21
268.7560732068827
 31
0.0
  0
LINE
  5
22BA
330
1FB4
100
AcDbEntity
  8
0
  6
Continuous
100
AcDbLine
 10
104.3193359375002
 20
253.7446617644332
 30
0.0
 11
100.4799804687502
 21
253.7446617644332
 31
0.0
  0
LINE
  5
22BB
330
1FB4
100
AcDbEntity
  8
0
  6
Continuous
100
AcDbLine
 10
104.3184923633168
 20
257.4975914519332
 30
0.0
 11
100.4804687500006
 21
257.4975914519332
 31
0.0
  0
ARC
  5
22BC
330
1FB4
100
AcDbEntity
  8
0
  6
Continuous
100
AcDbCircle
 10
103.2226562500002
 20
255.6211266081832
 30
0.0
 40
3.322566986083984
100
AcDbArc
 50
145.6156973218397
 51
180.0
  0
ARC
  5
22BD
330
1FB4
100
AcDbEntity
  8
0
  6
Continuous
100
AcDbCircle
 10
112.3193359375006
 20
261.250032858183
 30
0.0
 40
12.41944122314453
100
AcDbArc
 50
162.4120613966381
 51
197.5879727542943
  0
LINE
  5
22BE
330
1FB4
100
AcDbEntity
  8
0
  6
Continuous
100
AcDbLine
 10
106.5000000000006
 20
269.2498497527142
 30
0.0
 11
104.8999023437506
 21
269.2498497527144
 31
0.0
  0
LINE
  5
22BF
330
1FB4
100
AcDbEntity
  8
0
  6
Continuous
100
AcDbLine
 10
106.5000000000002
 20
253.2500328581829
 30
0.0
 11
104.8999023437502
 21
253.2500328581832
 31
0.0
  0
LINE
  5
22C0
330
1FB4
100
AcDbEntity
  8
0
  6
Continuous
100
AcDbLine
 10
99.9006978888358
 20
254.7504784184807
 30
0.0
 11
100.4812642950857
 21
253.7449079237362
 31
0.0
  0
ARC
  5
22C1
330
1FB4
100
AcDbEntity
  8
0
  6
Continuous
100
AcDbCircle
 10
103.2226562500006
 20
266.8794273894332
 30
0.0
 40
3.322566986083984
100
AcDbArc
 50
180.0
 51
214.3843026781602
  0
LINE
  5
22C2
330
1FB4
100
AcDbEntity
  8
0
  6
Continuous
100
AcDbLine
 10
104.8999023437506
 20
269.2498497527144
 30
0.0
 11
104.8999023437502
 21
253.2500328581832
 31
0.0
  0
LINE
  5
22C3
330
1FB4
100
AcDbEntity
  8
0
  6
Continuous
100
AcDbLine
 10
104.9010624574718
 20
267.7507253140115
 30
0.0
 11
104.3205113100109
 21
268.7562693797585
 31
0.0
  0
LINE
  5
22C4
330
1FB4
100
AcDbEntity
  8
0
  6
Continuous
100
AcDbLine
 10
104.9005800333181
 20
254.7503086746023
 30
0.0
 11
104.3200136270681
 21
253.744738179857
 31
0.0
  0
LINE
  5
22C5
330
1FB4
100
AcDbEntity
  8
0
  6
Continuous
100
AcDbLine
 10
99.89990234375069
 20
257.2500328581832
 30
0.0
 11
92.00048828124977
 21
257.2500328581832
 31
0.0
  0
LINE
  5
22C6
330
1FB4
100
AcDbEntity
  8
0
  6
Continuous
100
AcDbLine
 10
99.89990234375069
 20
258.0503258269331
 30
0.0
 11
92.00048828124977
 21
258.0503258269331
 31
0.0
  0
LINE
  5
22C7
330
1FB4
100
AcDbEntity
  8
0
  6
Continuous
100
AcDbLine
 10
99.89990234375069
 20
264.4502281706832
 30
0.0
 11
92.00048828124977
 21
264.4502281706832
 31
0.0
  0
LINE
  5
22C8
330
1FB4
100
AcDbEntity
  8
0
  6
Continuous
100
AcDbLine
 10
99.89990234375069
 20
265.2500328581832
 30
0.0
 11
92.00048828124977
 21
265.2500328581832
 31
0.0
  0
LINE
  5
22C9
330
1FB4
100
AcDbEntity
  8
0
  6
Continuous
100
AcDbLine
 10
87.00054299394947
 20
254.7498505272328
 30
0.0
 11
87.58110940019856
 21
253.7442800324893
 31
0.0
  0
LINE
  5
22CA
330
1FB4
100
AcDbEntity
  8
0
  6
Continuous
100
AcDbLine
 10
92.00048828124932
 20
253.744510381593
 30
0.0
 11
87.58105468749931
 21
253.744510381593
 31
0.0
  0
ARC
  5
22CB
330
1FB4
100
AcDbEntity
  8
0
  6
Continuous
100
AcDbCircle
 10
90.32373046874932
 20
255.6207616022962
 30
0.0
 40
3.322566986083984
100
AcDbArc
 50
145.6156973218397
 51
180.0
  0
LINE
  5
22CC
330
1FB4
100
AcDbEntity
  8
0
  6
Continuous
100
AcDbLine
 10
92.00048828124977
 20
257.497195928468
 30
0.0
 11
87.58154296874977
 21
257.497195928468
 31
0.0
  0
ARC
  5
22CD
330
1FB4
100
AcDbEntity
  8
0
  6
Continuous
100
AcDbCircle
 10
99.42041015624978
 20
261.2500340632336
 30
0.0
 40
12.41944122314453
100
AcDbArc
 50
162.4120613966381
 51
197.5879727542943
  0
LINE
  5
22CE
330
1FB4
100
AcDbEntity
  8
0
  6
Continuous
100
AcDbLine
 10
87.00097656249978
 20
267.7500340632336
 30
0.0
 11
87.00097656249932
 21
254.749881475343
 31
0.0
  0
LINE
  5
22CF
330
1FB4
100
AcDbEntity
  8
0
  6
Continuous
100
AcDbLine
 10
92.00048828124932
 20
253.744510381593
 30
0.0
 11
92.00048828124977
 21
268.7554051569836
 31
0.0
  0
LINE
  5
22D0
330
1FB4
100
AcDbEntity
  8
0
  6
Continuous
100
AcDbLine
 10
87.58154296874977
 20
265.0029637507336
 30
0.0
 11
92.00048828124977
 21
265.0029637507336
 31
0.0
  0
ARC
  5
22D1
330
1FB4
100
AcDbEntity
  8
0
  6
Continuous
100
AcDbCircle
 10
90.32373046874978
 20
266.8794285944836
 30
0.0
 40
3.322566986083984
100
AcDbArc
 50
180.0
 51
214.3843026781602
  0
LINE
  5
22D2
330
1FB4
100
AcDbEntity
  8
0
  6
Continuous
100
AcDbLine
 10
87.00063964228935
 20
267.7499911926502
 30
0.0
 11
87.58120604853933
 21
268.7555616873946
 31
0.0
  0
LINE
  5
22D3
330
1FB4
100
AcDbEntity
  8
0
  6
Continuous
100
AcDbLine
 10
87.58105468749977
 20
268.7554051569836
 30
0.0
 11
92.00048828124977
 21
268.7554051569836
 31
0.0
  0
LINE
  5
22D4
330
1FB4
100
AcDbEntity
  8
0
  6
Continuous
100
AcDbLine
 10
273.5001532670014
 20
292.6722950855867
 30
0.0
 11
106.5000000000011
 21
292.6722950855885
 31
0.0
  0
LINE
  5
22D5
330
1FB4
100
AcDbEntity
  8
0
  6
Continuous
100
AcDbLine
 10
273.5001532670005
 20
229.8277249144105
 30
0.0
 11
106.5000000000002
 21
229.8277249144114
 31
0.0
  0
ARC
  5
22D8
330
1FB4
100
AcDbEntity
  8
0
  6
Continuous
100
AcDbCircle
 10
400.0
 20
261.2499699999999
 30
0.0
 40
44.0
100
AcDbArc
 50
139.5845609785632
 51
220.4154390214367
  0
ARC
  5
22D9
330
1FB4
100
AcDbEntity
  8
0
  6
Continuous
100
AcDbCircle
 10
400.0
 20
261.2499699999999
 30
0.0
 40
44.0
100
AcDbArc
 50
319.5845609785632
 51
40.41543902143678
  0
LINE
  5
22DA
330
1FB4
100
AcDbEntity
  8
0
  6
Continuous
100
AcDbLine
 10
433.4999999999999
 20
232.7236663488084
 30
0.0
 11
433.4999999999999
 21
213.7499699999999
 31
0.0
  0
LINE
  5
22DB
330
1FB4
100
AcDbEntity
  8
0
  6
Continuous
100
AcDbLine
 10
366.5
 20
232.7236663488075
 30
0.0
 11
366.5
 21
213.7499699999999
 31
0.0
  0
LINE
  5
22DC
330
1FB4
100
AcDbEntity
  8
0
  6
Continuous
100
AcDbLine
 10
418.154700538379
 20
311.7499699999999
 30
0.0
 11
430.4999999999999
 21
311.7499699999999
 31
0.0
  0
LINE
  5
22DD
330
1FB4
100
AcDbEntity
  8
0
  6
Continuous
100
AcDbLine
 10
418.154700538379
 20
210.7499699999999
 30
0.0
 11
430.4999999999999
 21
210.7499699999999
 31
0.0
  0
ARC
  5
22DE
330
1FB4
100
AcDbEntity
  8
0
  6
Continuous
100
AcDbCircle
 10
430.4999999999999
 20
308.7499699999999
 30
0.0
 40
3.0
100
AcDbArc
 50
0.0
 51
90.0
  0
ARC
  5
22DF
330
1FB4
100
AcDbEntity
  8
0
  6
Continuous
100
AcDbCircle
 10
369.5
 20
308.7499699999999
 30
0.0
 40
3.0
100
AcDbArc
 50
90.0
 51
180.0
  0
ARC
  5
22E0
330
1FB4
100
AcDbEntity
  8
0
  6
Continuous
100
AcDbCircle
 10
369.5
 20
213.7499699999999
 30
0.0
 40
3.0
100
AcDbArc
 50
180.0
 51
270.0
  0
ARC
  5
22E1
330
1FB4
100
AcDbEntity
  8
0
  6
Continuous
100
AcDbCircle
 10
430.4999999999999
 20
213.7499699999999
 30
0.0
 40
3.0
100
AcDbArc
 50
270.0
 51
0.0
  0
LINE
  5
22E2
330
1FB4
100
AcDbEntity
  8
0
  6
Continuous
100
AcDbLine
 10
366.5
 20
308.7499699999999
 30
0.0
 11
366.5
 21
289.7762736511914
 31
0.0
  0
LINE
  5
22E3
330
1FB4
100
AcDbEntity
  8
0
  6
Continuous
100
AcDbLine
 10
433.4999999999999
 20
308.7499699999999
 30
0.0
 11
433.4999999999999
 21
289.7762736511905
 31
0.0
  0
LINE
  5
22E4
330
1FB4
100
AcDbEntity
  8
0
  6
Continuous
100
AcDbLine
 10
425.0
 20
211.7444165005345
 30
0.0
 11
431.5
 21
215.4971932502668
 31
0.0
  0
LINE
  5
22E5
330
1FB4
100
AcDbEntity
  8
0
  6
Continuous
100
AcDbLine
 10
431.5
 20
223.0027467497321
 30
0.0
 11
431.5
 21
215.4971932502677
 31
0.0
  0
LINE
  5
22E6
330
1FB4
100
AcDbEntity
  8
0
  6
Continuous
100
AcDbLine
 10
425.0000000000008
 20
226.7555234994652
 30
0.0
 11
431.5
 21
223.002746749733
 31
0.0
  0
LINE
  5
22E7
330
1FB4
100
AcDbEntity
  8
0
  6
Continuous
100
AcDbLine
 10
418.5
 20
223.0027467497321
 30
0.0
 11
425.0
 21
226.7555234994652
 31
0.0
  0
LINE
  5
22E8
330
1FB4
100
AcDbEntity
  8
0
  6
Continuous
100
AcDbLine
 10
418.5
 20
223.002746749733
 30
0.0
 11
418.5
 21
215.4971932502677
 31
0.0
  0
LINE
  5
22E9
330
1FB4
100
AcDbEntity
  8
0
  6
Continuous
100
AcDbLine
 10
418.5000000000009
 20
215.4971932502677
 30
0.0
 11
425.0000000000008
 21
211.7444165005345
 31
0.0
  0
LINE
  5
22EA
330
1FB4
100
AcDbEntity
  8
0
  6
Continuous
100
AcDbLine
 10
375.0000000000009
 20
211.7444165005345
 30
0.0
 11
381.4999999999999
 21
215.4971932502668
 31
0.0
  0
LINE
  5
22EB
330
1FB4
100
AcDbEntity
  8
0
  6
Continuous
100
AcDbLine
 10
381.4999999999999
 20
223.0027467497321
 30
0.0
 11
381.4999999999999
 21
215.4971932502677
 31
0.0
  0
LINE
  5
22EC
330
1FB4
100
AcDbEntity
  8
0
  6
Continuous
100
AcDbLine
 10
375.0000000000009
 20
226.7555234994652
 30
0.0
 11
381.4999999999999
 21
223.002746749733
 31
0.0
  0
LINE
  5
22ED
330
1FB4
100
AcDbEntity
  8
0
  6
Continuous
100
AcDbLine
 10
368.5
 20
223.0027467497321
 30
0.0
 11
375.0
 21
226.7555234994652
 31
0.0
  0
LINE
  5
22EE
330
1FB4
100
AcDbEntity
  8
0
  6
Continuous
100
AcDbLine
 10
368.5
 20
223.002746749733
 30
0.0
 11
368.5
 21
215.4971932502677
 31
0.0
  0
LINE
  5
22EF
330
1FB4
100
AcDbEntity
  8
0
  6
Continuous
100
AcDbLine
 10
368.5000000000009
 20
215.4971932502677
 30
0.0
 11
375.0000000000009
 21
211.7444165005345
 31
0.0
  0
LINE
  5
22F0
330
1FB4
100
AcDbEntity
  8
0
  6
Continuous
100
AcDbLine
 10
425.0
 20
295.7444165005346
 30
0.0
 11
431.5
 21
299.4971932502668
 31
0.0
  0
LINE
  5
22F1
330
1FB4
100
AcDbEntity
  8
0
  6
Continuous
100
AcDbLine
 10
431.5
 20
307.0027467497321
 30
0.0
 11
431.5
 21
299.4971932502677
 31
0.0
  0
LINE
  5
22F2
330
1FB4
100
AcDbEntity
  8
0
  6
Continuous
100
AcDbLine
 10
425.0000000000008
 20
310.7555234994653
 30
0.0
 11
431.5
 21
307.0027467497331
 31
0.0
  0
LINE
  5
22F3
330
1FB4
100
AcDbEntity
  8
0
  6
Continuous
100
AcDbLine
 10
418.5
 20
307.0027467497321
 30
0.0
 11
425.0
 21
310.7555234994653
 31
0.0
  0
LINE
  5
22F4
330
1FB4
100
AcDbEntity
  8
0
  6
Continuous
100
AcDbLine
 10
418.5
 20
307.0027467497331
 30
0.0
 11
418.5
 21
299.4971932502677
 31
0.0
  0
LINE
  5
22F5
330
1FB4
100
AcDbEntity
  8
0
  6
Continuous
100
AcDbLine
 10
418.5000000000009
 20
299.4971932502677
 30
0.0
 11
425.0000000000008
 21
295.7444165005346
 31
0.0
  0
LINE
  5
22F6
330
1FB4
100
AcDbEntity
  8
0
  6
Continuous
100
AcDbLine
 10
375.0000000000009
 20
295.7444165005346
 30
0.0
 11
381.4999999999999
 21
299.4971932502668
 31
0.0
  0
LINE
  5
22F7
330
1FB4
100
AcDbEntity
  8
0
  6
Continuous
100
AcDbLine
 10
381.4999999999999
 20
307.0027467497321
 30
0.0
 11
381.4999999999999
 21
299.4971932502677
 31
0.0
  0
LINE
  5
22F8
330
1FB4
100
AcDbEntity
  8
0
  6
Continuous
100
AcDbLine
 10
375.0000000000009
 20
310.7555234994653
 30
0.0
 11
381.5000000000009
 21
307.0027467497331
 31
0.0
  0
LINE
  5
22F9
330
1FB4
100
AcDbEntity
  8
0
  6
Continuous
100
AcDbLine
 10
368.5
 20
307.0027467497321
 30
0.0
 11
375.0
 21
310.7555234994653
 31
0.0
  0
LINE
  5
22FA
330
1FB4
100
AcDbEntity
  8
0
  6
Continuous
100
AcDbLine
 10
368.5
 20
307.0027467497331
 30
0.0
 11
368.5
 21
299.4971932502677
 31
0.0
  0
LINE
  5
22FB
330
1FB4
100
AcDbEntity
  8
0
  6
Continuous
100
AcDbLine
 10
368.5000000000009
 20
299.4971932502677
 30
0.0
 11
375.0000000000009
 21
295.7444165005346
 31
0.0
  0
LINE
  5
22FC
330
1FB4
100
AcDbEntity
  8
0
  6
Continuous
100
AcDbLine
 10
383.0
 20
212.7499699999999
 30
0.0
 11
417.0
 21
212.7499699999999
 31
0.0
  0
LINE
  5
22FD
330
1FB4
100
AcDbEntity
  8
0
  6
Continuous
100
AcDbLine
 10
383.0
 20
309.7499699999999
 30
0.0
 11
417.0
 21
309.7499699999999
 31
0.0
  0
LINE
  5
22FE
330
1FB4
100
AcDbEntity
  8
0
  6
Continuous
100
AcDbLine
 10
381.8452994616209
 20
210.7499699999999
 30
0.0
 11
383.0
 21
212.7499699999999
 31
0.0
  0
LINE
  5
22FF
330
1FB4
100
AcDbEntity
  8
0
  6
Continuous
100
AcDbLine
 10
417.0
 20
309.7499699999999
 30
0.0
 11
418.154700538379
 21
311.7499699999999
 31
0.0
  0
LINE
  5
2300
330
1FB4
100
AcDbEntity
  8
0
  6
Continuous
100
AcDbLine
 10
381.8452994616209
 20
311.7499699999999
 30
0.0
 11
383.0
 21
309.7499699999999
 31
0.0
  0
LINE
  5
2301
330
1FB4
100
AcDbEntity
  8
0
  6
Continuous
100
AcDbLine
 10
417.0
 20
212.7499699999999
 30
0.0
 11
418.154700538379
 21
210.7499699999999
 31
0.0
  0
LINE
  5
2302
330
1FB4
100
AcDbEntity
  8
0
  6
Continuous
100
AcDbLine
 10
369.5
 20
210.7499699999999
 30
0.0
 11
381.8452994616209
 21
210.7499699999999
 31
0.0
  0
LINE
  5
2303
330
1FB4
100
AcDbEntity
  8
0
  6
Continuous
100
AcDbLine
 10
369.5
 20
311.7499699999999
 30
0.0
 11
381.8452994616209
 21
311.7499699999999
 31
0.0
  0
LINE
  5
2304
330
1FB4
100
AcDbEntity
  8
0
  6
Continuous
100
AcDbLine
 10
383.4999999999999
 20
311.7499699999999
 30
0.0
 11
416.5
 21
311.7499699999999
 31
0.0
  0
LINE
  5
2305
330
1FB4
100
AcDbEntity
  8
0
  6
Continuous
100
AcDbLine
 10
383.4999999999999
 20
210.7499699999999
 30
0.0
 11
416.5
 21
210.7499699999999
 31
0.0
  0
LINE
  5
2306
330
1FB4
100
AcDbEntity
  8
0
  6
Continuous
100
AcDbLine
 10
416.5
 20
212.7499699999999
 30
0.0
 11
416.5
 21
210.7499699999999
 31
0.0
  0
LINE
  5
2307
330
1FB4
100
AcDbEntity
  8
0
  6
Continuous
100
AcDbLine
 10
383.4999999999999
 20
212.7499699999999
 30
0.0
 11
383.4999999999999
 21
210.7499699999999
 31
0.0
  0
LINE
  5
2308
330
1FB4
100
AcDbEntity
  8
0
  6
Continuous
100
AcDbLine
 10
383.4999999999999
 20
311.7499699999999
 30
0.0
 11
383.4999999999999
 21
309.7499699999999
 31
0.0
  0
LINE
  5
2309
330
1FB4
100
AcDbEntity
  8
0
  6
Continuous
100
AcDbLine
 10
416.5
 20
311.7499699999999
 30
0.0
 11
416.5
 21
309.7499699999999
 31
0.0
  0
ARC
  5
230A
330
1FB4
100
AcDbEntity
  8
0
  6
Continuous
100
AcDbCircle
 10
101.5766601562506
 20
266.8792442839635
 30
0.0
 40
3.322566986083984
100
AcDbArc
 50
325.6156973218397
 51
0.0
  0
ARC
  5
230B
330
1FB4
100
AcDbEntity
  8
0
  6
Continuous
100
AcDbCircle
 10
92.47998046875068
 20
261.2503380339635
 30
0.0
 40
12.41944122314453
100
AcDbArc
 50
342.4120613966382
 51
17.58797275429438
  0
ARC
  5
230C
330
1FB4
100
AcDbEntity
  8
0
  6
Continuous
100
AcDbCircle
 10
101.5766601562502
 20
255.6209435027135
 30
0.0
 40
3.322566986083984
100
AcDbArc
 50
0.0
 51
34.38430267816021
  0
ARC
  5
230D
330
1FB4
100
AcDbEntity
  8
0
  6
Continuous
100
AcDbCircle
 10
107.5000000000011
 20
310.7500099999999
 30
0.0
 40
1.0
100
AcDbArc
 50
90.0
 51
180.0
  0
ARC
  5
230E
330
1FB4
100
AcDbEntity
  8
0
  6
Continuous
100
AcDbCircle
 10
272.5001532670014
 20
310.750009999999
 30
0.0
 40
1.0
100
AcDbArc
 50
0.0
 51
90.0
  0
ARC
  5
230F
330
1FB4
100
AcDbEntity
  8
0
  6
Continuous
100
AcDbCircle
 10
272.5001532670005
 20
211.7500099999991
 30
0.0
 40
1.0
100
AcDbArc
 50
270.0
 51
0.0
  0
ARC
  5
2310
330
1FB4
100
AcDbEntity
  8
0
  6
Continuous
100
AcDbCircle
 10
107.5000000000002
 20
211.7500100000009
 30
0.0
 40
1.0
100
AcDbArc
 50
180.0
 51
270.0
  0
LINE
  5
2311
330
1FB4
100
AcDbEntity
  8
0
  6
Continuous
100
AcDbLine
 10
104.8999861846798
 20
311.2500100000011
 30
0.0
 11
104.900013815318
 21
295.250010000001
 31
0.0
  0
LINE
  5
2312
330
1FB4
100
AcDbEntity
  8
0
  6
Continuous
100
AcDbLine
 10
99.90006593796557
 20
296.7498194428694
 30
0.0
 11
100.4806340807492
 21
295.7442499507155
 31
0.0
  0
LINE
  5
2313
330
1FB4
100
AcDbEntity
  8
0
  6
Continuous
100
AcDbLine
 10
104.9000129613971
 20
295.7444879317113
 30
0.0
 11
100.4805793676534
 21
295.7444802997256
 31
0.0
  0
ARC
  5
2314
330
1FB4
100
AcDbEntity
  8
0
  6
Continuous
100
AcDbCircle
 10
103.2232519087731
 20
297.6207362567933
 30
0.0
 40
3.322566986083984
100
AcDbArc
 50
145.6156973218397
 51
180.0
  0
LINE
  5
2315
330
1FB4
100
AcDbEntity
  8
0
  6
Continuous
100
AcDbLine
 10
104.900006480828
 20
299.4971734785808
 30
0.0
 11
100.4810611683344
 21
299.4971658474383
 31
0.0
  0
ARC
  5
2316
330
1FB4
100
AcDbEntity
  8
0
  6
Continuous
100
AcDbCircle
 10
112.3199218749844
 20
303.2500244269142
 30
0.0
 40
12.41944122314453
100
AcDbArc
 50
162.4120613966381
 51
197.5879727542943
  0
LINE
  5
2317
330
1FB4
100
AcDbEntity
  8
0
  6
Continuous
100
AcDbLine
 10
99.90047705630628
 20
309.7500029795996
 30
0.0
 11
99.90049950646358
 21
296.7498503917281
 31
0.0
  0
LINE
  5
2318
330
1FB4
100
AcDbEntity
  8
0
  6
Continuous
100
AcDbLine
 10
100.4810482065124
 20
307.002933669692
 30
0.0
 11
104.899993519006
 21
307.0029413008346
 31
0.0
  0
ARC
  5
2319
330
1FB4
100
AcDbEntity
  8
0
  6
Continuous
100
AcDbCircle
 10
103.2232324660137
 20
308.8794032489645
 30
0.0
 40
3.322566986083984
100
AcDbArc
 50
180.0
 51
214.3843026781602
  0
LINE
  5
231A
330
1FB4
100
AcDbEntity
  8
0
  6
Continuous
100
AcDbLine
 10
99.9001401361686
 20
309.7499601084341
 30
0.0
 11
100.480704805883
 21
310.7555316057664
 31
0.0
  0
LINE
  5
231B
330
1FB4
100
AcDbEntity
  8
0
  6
Continuous
100
AcDbLine
 10
100.4805534451154
 20
310.7553750750935
 30
0.0
 11
104.899987038859
 21
310.7553827070792
 31
0.0
  0
LINE
  5
231C
330
1FB4
100
AcDbEntity
  8
0
  6
Continuous
100
AcDbLine
 10
106.499986184682
 20
311.2500100000008
 30
0.0
 11
104.8999861846798
 21
311.2500100000011
 31
0.0
  0
LINE
  5
231D
330
1FB4
100
AcDbEntity
  8
0
  6
Continuous
100
AcDbLine
 10
106.5000138153202
 20
295.2500100000008
 30
0.0
 11
104.900013815318
 21
295.250010000001
 31
0.0
  0
LINE
  5
231E
330
1FB4
100
AcDbEntity
  8
0
  6
Continuous
100
AcDbLine
 10
104.8999861846789
 20
227.2500100000011
 30
0.0
 11
104.9000138153171
 21
211.2500100000011
 31
0.0
  0
LINE
  5
231F
330
1FB4
100
AcDbEntity
  8
0
  6
Continuous
100
AcDbLine
 10
99.90006593796557
 20
212.7498194428695
 30
0.0
 11
100.4806340807492
 21
211.7442499507156
 31
0.0
  0
LINE
  5
2320
330
1FB4
100
AcDbEntity
  8
0
  6
Continuous
100
AcDbLine
 10
104.9000129613962
 20
211.7444879317113
 30
0.0
 11
100.4805793676525
 21
211.7444802997256
 31
0.0
  0
ARC
  5
2321
330
1FB4
100
AcDbEntity
  8
0
  6
Continuous
100
AcDbCircle
 10
103.2232519087722
 20
213.6207362567934
 30
0.0
 40
3.322566986083984
100
AcDbArc
 50
145.6156973218397
 51
180.0
  0
LINE
  5
2322
330
1FB4
100
AcDbEntity
  8
0
  6
Continuous
100
AcDbLine
 10
104.9000064808271
 20
215.4971734785808
 30
0.0
 11
100.4810611683335
 21
215.4971658474383
 31
0.0
  0
ARC
  5
2323
330
1FB4
100
AcDbEntity
  8
0
  6
Continuous
100
AcDbCircle
 10
112.3199218749834
 20
219.2500244269133
 30
0.0
 40
12.41944122314453
100
AcDbArc
 50
162.4120613966381
 51
197.5879727542943
  0
LINE
  5
2324
330
1FB4
100
AcDbEntity
  8
0
  6
Continuous
100
AcDbLine
 10
99.90047705630628
 20
225.7500029795997
 30
0.0
 11
99.90049950646358
 21
212.7498503917281
 31
0.0
  0
LINE
  5
2325
330
1FB4
100
AcDbEntity
  8
0
  6
Continuous
100
AcDbLine
 10
100.4810482065115
 20
223.0029336696921
 30
0.0
 11
104.8999935190051
 21
223.0029413008347
 31
0.0
  0
ARC
  5
2326
330
1FB4
100
AcDbEntity
  8
0
  6
Continuous
100
AcDbCircle
 10
103.2232324660128
 20
224.8794032489645
 30
0.0
 40
3.322566986083984
100
AcDbArc
 50
180.0
 51
214.3843026781602
  0
LINE
  5
2327
330
1FB4
100
AcDbEntity
  8
0
  6
Continuous
100
AcDbLine
 10
99.9001401361677
 20
225.7499601084342
 30
0.0
 11
100.4807048058821
 21
226.7555316057655
 31
0.0
  0
LINE
  5
2328
330
1FB4
100
AcDbEntity
  8
0
  6
Continuous
100
AcDbLine
 10
100.4805534451154
 20
226.7553750750935
 30
0.0
 11
104.8999870388581
 21
226.7553827070792
 31
0.0
  0
LINE
  5
2329
330
1FB4
100
AcDbEntity
  8
0
  6
Continuous
100
AcDbLine
 10
106.4999861846811
 20
227.2500100000009
 30
0.0
 11
104.8999861846789
 21
227.2500100000011
 31
0.0
  0
LINE
  5
232A
330
1FB4
100
AcDbEntity
  8
0
  6
Continuous
100
AcDbLine
 10
106.5000138153193
 20
211.2500100000008
 30
0.0
 11
104.9000138153171
 21
211.2500100000011
 31
0.0
  0
LINE
  5
232B
330
1FB4
100
AcDbEntity
  8
0
  6
Continuous
100
AcDbLine
 10
275.1001670823227
 20
295.250009999999
 30
0.0
 11
275.1001394516854
 21
311.250009999999
 31
0.0
  0
LINE
  5
232C
330
1FB4
100
AcDbEntity
  8
0
  6
Continuous
100
AcDbLine
 10
280.1000873290361
 20
309.7502005571304
 30
0.0
 11
279.5195191862524
 21
310.7557700492843
 31
0.0
  0
LINE
  5
232D
330
1FB4
100
AcDbEntity
  8
0
  6
Continuous
100
AcDbLine
 10
275.1001403056063
 20
310.7555320682897
 30
0.0
 11
279.51957389935
 21
310.7555397002752
 31
0.0
  0
ARC
  5
232E
330
1FB4
100
AcDbEntity
  8
0
  6
Continuous
100
AcDbCircle
 10
276.7769013582294
 20
308.8792837432067
 30
0.0
 40
3.322566986083984
100
AcDbArc
 50
325.6157962667906
 51
0.000098944934685
  0
LINE
  5
232F
330
1FB4
100
AcDbEntity
  8
0
  6
Continuous
100
AcDbLine
 10
275.1001467861744
 20
307.0028465214202
 30
0.0
 11
279.5190920986672
 21
307.0028541525625
 31
0.0
  0
ARC
  5
2330
330
1FB4
100
AcDbEntity
  8
0
  6
Continuous
100
AcDbCircle
 10
267.6802313920172
 20
303.2499955730866
 30
0.0
 40
12.41944122314453
100
AcDbArc
 50
342.4121603415759
 51
17.58807169924794
  0
LINE
  5
2331
330
1FB4
100
AcDbEntity
  8
0
  6
Continuous
100
AcDbLine
 10
280.0996762106954
 20
296.7500170204002
 30
0.0
 11
280.0996537605381
 21
309.7501696082717
 31
0.0
  0
LINE
  5
2332
330
1FB4
100
AcDbEntity
  8
0
  6
Continuous
100
AcDbLine
 10
279.5191050604892
 20
299.4970863303078
 30
0.0
 11
275.1001597479965
 21
299.4970786991655
 31
0.0
  0
ARC
  5
2333
330
1FB4
100
AcDbEntity
  8
0
  6
Continuous
100
AcDbCircle
 10
276.7769208009888
 20
297.6206167510365
 30
0.0
 40
3.322566986083984
100
AcDbArc
 50
0.000098944934685
 51
34.38440162309523
  0
LINE
  5
2334
330
1FB4
100
AcDbEntity
  8
0
  6
Continuous
100
AcDbLine
 10
280.100013130834
 20
296.7500598915658
 30
0.0
 11
279.5194484611195
 21
295.7444883942343
 31
0.0
  0
LINE
  5
2335
330
1FB4
100
AcDbEntity
  8
0
  6
Continuous
100
AcDbLine
 10
279.5195998218871
 20
295.7446449249064
 30
0.0
 11
275.1001662281444
 21
295.7446372929209
 31
0.0
  0
LINE
  5
2336
330
1FB4
100
AcDbEntity
  8
0
  6
Continuous
100
AcDbLine
 10
273.5001670823205
 20
295.250009999999
 30
0.0
 11
275.1001670823227
 21
295.250009999999
 31
0.0
  0
LINE
  5
2337
330
1FB4
100
AcDbEntity
  8
0
  6
Continuous
100
AcDbLine
 10
273.5001394516823
 20
311.250009999999
 30
0.0
 11
275.1001394516845
 21
311.250009999999
 31
0.0
  0
LINE
  5
2338
330
1FB4
100
AcDbEntity
  8
0
  6
Continuous
100
AcDbLine
 10
275.1001670823227
 20
211.250009999999
 30
0.0
 11
275.1001394516845
 21
227.250009999999
 31
0.0
  0
LINE
  5
2339
330
1FB4
100
AcDbEntity
  8
0
  6
Continuous
100
AcDbLine
 10
280.1000873290361
 20
225.7502005571305
 30
0.0
 11
279.5195191862524
 21
226.7557700492843
 31
0.0
  0
LINE
  5
233A
330
1FB4
100
AcDbEntity
  8
0
  6
Continuous
100
AcDbLine
 10
275.1001403056054
 20
226.7555320682898
 30
0.0
 11
279.5195738993482
 21
226.7555397002752
 31
0.0
  0
ARC
  5
233B
330
1FB4
100
AcDbEntity
  8
0
  6
Continuous
100
AcDbCircle
 10
276.7769013582285
 20
224.8792837432068
 30
0.0
 40
3.322566986083984
100
AcDbArc
 50
325.6157962667906
 51
0.000098944934685
  0
LINE
  5
233C
330
1FB4
100
AcDbEntity
  8
0
  6
Continuous
100
AcDbLine
 10
275.1001467861736
 20
223.0028465214202
 30
0.0
 11
279.5190920986663
 21
223.0028541525626
 31
0.0
  0
ARC
  5
233D
330
1FB4
100
AcDbEntity
  8
0
  6
Continuous
100
AcDbCircle
 10
267.6802313920163
 20
219.2499955730866
 30
0.0
 40
12.41944122314453
100
AcDbArc
 50
342.4121603415759
 51
17.58807169924794
  0
LINE
  5
233E
330
1FB4
100
AcDbEntity
  8
0
  6
Continuous
100
AcDbLine
 10
280.0996762106954
 20
212.7500170204002
 30
0.0
 11
280.0996537605381
 21
225.7501696082718
 31
0.0
  0
LINE
  5
233F
330
1FB4
100
AcDbEntity
  8
0
  6
Continuous
100
AcDbLine
 10
279.5191050604882
 20
215.4970863303078
 30
0.0
 11
275.1001597479955
 21
215.4970786991655
 31
0.0
  0
ARC
  5
2340
330
1FB4
100
AcDbEntity
  8
0
  6
Continuous
100
AcDbCircle
 10
276.7769208009879
 20
213.6206167510365
 30
0.0
 40
3.322566986083984
100
AcDbArc
 50
0.000098944934685
 51
34.38440162309523
  0
LINE
  5
2341
330
1FB4
100
AcDbEntity
  8
0
  6
Continuous
100
AcDbLine
 10
280.1000131308331
 20
212.7500598915658
 30
0.0
 11
279.5194484611186
 21
211.7444883942344
 31
0.0
  0
LINE
  5
2342
330
1FB4
100
AcDbEntity
  8
0
  6
Continuous
100
AcDbLine
 10
279.5195998218862
 20
211.7446449249064
 30
0.0
 11
275.1001662281426
 21
211.7446372929209
 31
0.0
  0
LINE
  5
2343
330
1FB4
100
AcDbEntity
  8
0
  6
Continuous
100
AcDbLine
 10
273.5001670823196
 20
211.250009999999
 30
0.0
 11
275.1001670823218
 21
211.250009999999
 31
0.0
  0
LINE
  5
2344
330
1FB4
100
AcDbEntity
  8
0
  6
Continuous
100
AcDbLine
 10
273.5001394516814
 20
227.250009999999
 30
0.0
 11
275.1001394516836
 21
227.250009999999
 31
0.0
  0
LINE
  5
2347
330
1FB4
100
AcDbEntity
  8
0
  6
Continuous
100
AcDbLine
 10
112.5000000000016
 20
457.3338572488128
 30
0.0
 11
112.5000000000016
 21
545.3338572488128
 31
0.0
  0
LINE
  5
2348
330
1FB4
100
AcDbEntity
  8
0
  6
Continuous
100
AcDbLine
 10
267.500153267002
 20
457.3338771085992
 30
0.0
 11
267.500153267002
 21
545.3338771085982
 31
0.0
  0
LINE
  5
2349
330
1FB4
100
AcDbEntity
  8
0
  6
Continuous
100
AcDbLine
 10
272.5001531436999
 20
545.3338773553032
 30
0.0
 11
240.4999920000017
 21
545.3338734080005
 31
0.0
  0
LINE
  5
234A
330
1FB4
100
AcDbEntity
  8
0
  6
Continuous
100
AcDbLine
 10
222.4999620000015
 20
545.3338711876502
 30
0.0
 11
107.499999876646
 21
545.3338570021069
 31
0.0
  0
LINE
  5
234B
330
1FB4
100
AcDbEntity
  8
0
  6
Continuous
100
AcDbLine
 10
272.500153390405
 20
457.3338773553031
 30
0.0
 11
107.5000001233509
 21
457.3338570021069
 31
0.0
  0
LINE
  5
234C
330
1FB4
100
AcDbEntity
  8
0
  6
Continuous
100
AcDbLine
 10
273.5001532670302
 20
468.0343664271195
 30
0.0
 11
240.5777384258143
 21
468.034309747311
 31
0.0
  0
LINE
  5
234D
330
1FB4
100
AcDbEntity
  8
0
  6
Continuous
100
AcDbLine
 10
159.4224694870907
 20
468.0341700289718
 30
0.0
 11
106.4999999999734
 21
468.0340789167176
 31
0.0
  0
LINE
  5
234E
330
1FB4
100
AcDbEntity
  8
0
  6
Continuous
100
AcDbLine
 10
273.5001532670302
 20
534.634366427219
 30
0.0
 11
240.4999920000017
 21
534.634309613561
 31
0.0
  0
LINE
  5
234F
330
1FB4
100
AcDbEntity
  8
0
  6
Continuous
100
AcDbLine
 10
222.499962000002
 20
534.6342786243926
 30
0.0
 11
106.4999999999734
 21
534.6340789168171
 31
0.0
  0
LINE
  5
2350
330
1FB4
100
AcDbEntity
  8
0
  6
Continuous
100
AcDbLine
 10
273.5001532670302
 20
483.1795744996679
 30
0.0
 11
245.0000000000016
 21
483.1795254333026
 31
0.0
  0
LINE
  5
2351
330
1FB4
100
AcDbEntity
  8
0
  6
Continuous
100
AcDbLine
 10
155.0000000000016
 20
483.1793704877193
 30
0.0
 11
106.4999999999734
 21
483.1792869892661
 31
0.0
  0
LINE
  5
2352
330
1FB4
100
AcDbEntity
  8
0
  6
Continuous
100
AcDbLine
 10
273.5001532670302
 20
484.3342784918768
 30
0.0
 11
245.0000000000016
 21
484.3342294255115
 31
0.0
  0
LINE
  5
2353
330
1FB4
100
AcDbEntity
  8
0
  6
Continuous
100
AcDbLine
 10
155.0000000000016
 20
484.3340744799282
 30
0.0
 11
106.4999999999734
 21
484.3339909814749
 31
0.0
  0
LINE
  5
2354
330
1FB4
100
AcDbEntity
  8
0
  6
Continuous
100
AcDbLine
 10
273.5001532670302
 20
519.4889755764261
 30
0.0
 11
245.0000000000016
 21
519.4889265100608
 31
0.0
  0
LINE
  5
2355
330
1FB4
100
AcDbEntity
  8
0
  6
Continuous
100
AcDbLine
 10
155.0000000000016
 20
519.4887715644775
 30
0.0
 11
106.4999999999734
 21
519.4886880660241
 31
0.0
  0
LINE
  5
2356
330
1FB4
100
AcDbEntity
  8
0
  6
Continuous
100
AcDbLine
 10
273.5001532670302
 20
518.3342784918768
 30
0.0
 11
245.0000000000016
 21
518.3342294255115
 31
0.0
  0
LINE
  5
2357
330
1FB4
100
AcDbEntity
  8
0
  6
Continuous
100
AcDbLine
 10
155.0000000000016
 20
518.3340744799282
 30
0.0
 11
106.4999999999734
 21
518.3339909814749
 31
0.0
  0
LINE
  5
2358
330
1FB4
100
AcDbEntity
  8
0
  6
Continuous
100
AcDbLine
 10
280.1002509232509
 20
267.7500328581809
 30
0.0
 11
280.1002509232505
 21
254.7500328581809
 31
0.0
  0
LINE
  5
2359
330
1FB4
100
AcDbEntity
  8
0
  6
Continuous
100
AcDbLine
 10
279.5201727982509
 20
268.7557091277121
 30
0.0
 11
275.6808173295009
 21
268.7557091277124
 31
0.0
  0
LINE
  5
235A
330
1FB4
100
AcDbEntity
  8
0
  6
Continuous
100
AcDbLine
 10
279.519684517001
 20
265.0029625456809
 30
0.0
 11
275.6812400098112
 21
265.0029625456811
 31
0.0
  0
LINE
  5
235B
330
1FB4
100
AcDbEntity
  8
0
  6
Continuous
100
AcDbLine
 10
280.0999683199013
 20
267.750502712136
 30
0.0
 11
279.5194019136513
 21
268.7560732068805
 31
0.0
  0
LINE
  5
235C
330
1FB4
100
AcDbEntity
  8
0
  6
Continuous
100
AcDbLine
 10
275.6808173295005
 20
253.7446617644311
 30
0.0
 11
279.5201727982505
 21
253.7446617644309
 31
0.0
  0
LINE
  5
235D
330
1FB4
100
AcDbEntity
  8
0
  6
Continuous
100
AcDbLine
 10
275.6816609036838
 20
257.4975914519311
 30
0.0
 11
279.519684517001
 21
257.4975914519309
 31
0.0
  0
ARC
  5
235E
330
1FB4
100
AcDbEntity
  8
0
  6
Continuous
100
AcDbCircle
 10
276.7774970170005
 20
255.6211266081811
 30
0.0
 40
3.322566986083984
100
AcDbArc
 50
0.0
 51
34.38430267816021
  0
ARC
  5
235F
330
1FB4
100
AcDbEntity
  8
0
  6
Continuous
100
AcDbCircle
 10
267.680817329501
 20
261.2500328581811
 30
0.0
 40
12.41944122314453
100
AcDbArc
 50
342.4120272457055
 51
17.58793860336183
  0
LINE
  5
2360
330
1FB4
100
AcDbEntity
  8
0
  6
Continuous
100
AcDbLine
 10
273.5001532670009
 20
269.2498497527124
 30
0.0
 11
275.100250923251
 21
269.2498497527124
 31
0.0
  0
LINE
  5
2361
330
1FB4
100
AcDbEntity
  8
0
  6
Continuous
100
AcDbLine
 10
273.5001532670005
 20
253.2500328581811
 30
0.0
 11
275.1002509232505
 21
253.2500328581811
 31
0.0
  0
LINE
  5
2362
330
1FB4
100
AcDbEntity
  8
0
  6
Continuous
100
AcDbLine
 10
280.0994553781649
 20
254.7504784184784
 30
0.0
 11
279.5188889719149
 21
253.744907923734
 31
0.0
  0
ARC
  5
2363
330
1FB4
100
AcDbEntity
  8
0
  6
Continuous
100
AcDbCircle
 10
276.7774970170009
 20
266.8794273894311
 30
0.0
 40
3.322566986083984
100
AcDbArc
 50
325.6156973218397
 51
0.0
  0
LINE
  5
2364
330
1FB4
100
AcDbEntity
  8
0
  6
Continuous
100
AcDbLine
 10
275.100250923251
 20
269.2498497527124
 30
0.0
 11
275.1002509232505
 21
253.2500328581811
 31
0.0
  0
LINE
  5
2365
330
1FB4
100
AcDbEntity
  8
0
  6
Continuous
100
AcDbLine
 10
275.0990908095297
 20
267.7507253140095
 30
0.0
 11
275.6796419569907
 21
268.7562693797565
 31
0.0
  0
LINE
  5
2366
330
1FB4
100
AcDbEntity
  8
0
  6
Continuous
100
AcDbLine
 10
275.0995732336816
 20
254.7503086746003
 30
0.0
 11
275.6801396399325
 21
253.7447381798549
 31
0.0
  0
LINE
  5
2367
330
1FB4
100
AcDbEntity
  8
0
  6
Continuous
100
AcDbLine
 10
280.1002509232509
 20
257.2500328581809
 30
0.0
 11
287.9996649857782
 21
257.2500328581809
 31
0.0
  0
LINE
  5
2368
330
1FB4
100
AcDbEntity
  8
0
  6
Continuous
100
AcDbLine
 10
280.1002509232509
 20
258.0503258269309
 30
0.0
 11
287.9996649857782
 21
258.0503258269309
 31
0.0
  0
LINE
  5
2369
330
1FB4
100
AcDbEntity
  8
0
  6
Continuous
100
AcDbLine
 10
280.1002509232509
 20
264.4502281706809
 30
0.0
 11
287.9996649857782
 21
264.4502281706809
 31
0.0
  0
LINE
  5
236A
330
1FB4
100
AcDbEntity
  8
0
  6
Continuous
100
AcDbLine
 10
280.1002509232509
 20
265.2500328581809
 30
0.0
 11
287.9996649857782
 21
265.2500328581809
 31
0.0
  0
LINE
  5
236B
330
1FB4
100
AcDbEntity
  8
0
  6
Continuous
100
AcDbLine
 10
292.9996102730786
 20
254.7498505272306
 30
0.0
 11
292.4190438668285
 21
253.744280032487
 31
0.0
  0
LINE
  5
236C
330
1FB4
100
AcDbEntity
  8
0
  6
Continuous
100
AcDbLine
 10
287.9996649857778
 20
253.7445103815908
 30
0.0
 11
292.4190985795278
 21
253.7445103815908
 31
0.0
  0
ARC
  5
236D
330
1FB4
100
AcDbEntity
  8
0
  6
Continuous
100
AcDbCircle
 10
289.6764227982778
 20
255.6207616022939
 30
0.0
 40
3.322566986083984
100
AcDbArc
 50
0.0
 51
34.38430267816021
  0
LINE
  5
236E
330
1FB4
100
AcDbEntity
  8
0
  6
Continuous
100
AcDbLine
 10
287.9996649857782
 20
257.4971959284657
 30
0.0
 11
292.4186102982782
 21
257.4971959284657
 31
0.0
  0
ARC
  5
236F
330
1FB4
100
AcDbEntity
  8
0
  6
Continuous
100
AcDbCircle
 10
280.5797431107782
 20
261.2500340632314
 30
0.0
 40
12.41944122314453
100
AcDbArc
 50
342.4120272457055
 51
17.58793860336183
  0
LINE
  5
2370
330
1FB4
100
AcDbEntity
  8
0
  6
Continuous
100
AcDbLine
 10
292.9991767045283
 20
267.7500340632314
 30
0.0
 11
292.9991767045278
 21
254.7498814753407
 31
0.0
  0
LINE
  5
2371
330
1FB4
100
AcDbEntity
  8
0
  6
Continuous
100
AcDbLine
 10
287.9996649857778
 20
253.7445103815908
 30
0.0
 11
287.9996649857782
 21
268.7554051569814
 31
0.0
  0
LINE
  5
2372
330
1FB4
100
AcDbEntity
  8
0
  6
Continuous
100
AcDbLine
 10
292.4186102982782
 20
265.0029637507314
 30
0.0
 11
287.9996649857782
 21
265.0029637507314
 31
0.0
  0
ARC
  5
2373
330
1FB4
100
AcDbEntity
  8
0
  6
Continuous
100
AcDbCircle
 10
289.6764227982782
 20
266.8794285944814
 30
0.0
 40
3.322566986083984
100
AcDbArc
 50
325.6156973218397
 51
0.0
  0
LINE
  5
2374
330
1FB4
100
AcDbEntity
  8
0
  6
Continuous
100
AcDbLine
 10
292.9995136247396
 20
267.7499911926488
 30
0.0
 11
292.4189472184896
 21
268.7555616873924
 31
0.0
  0
LINE
  5
2375
330
1FB4
100
AcDbEntity
  8
0
  6
Continuous
100
AcDbLine
 10
292.4190985795283
 20
268.7554051569814
 30
0.0
 11
287.9996649857782
 21
268.7554051569814
 31
0.0
  0
ARC
  5
2376
330
1FB4
100
AcDbEntity
  8
0
  6
Continuous
100
AcDbCircle
 10
278.4234931107509
 20
266.8792442839621
 30
0.0
 40
3.322566986083984
100
AcDbArc
 50
180.0
 51
214.3843026781602
  0
ARC
  5
2377
330
1FB4
100
AcDbEntity
  8
0
  6
Continuous
100
AcDbCircle
 10
287.520172798251
 20
261.2503380339621
 30
0.0
 40
12.41944122314453
100
AcDbArc
 50
162.4120272457056
 51
197.5879386033614
  0
ARC
  5
2378
330
1FB4
100
AcDbEntity
  8
0
  6
Continuous
100
AcDbCircle
 10
278.4234931107505
 20
255.6209435027122
 30
0.0
 40
3.322566986083984
100
AcDbArc
 50
145.6156973218397
 51
180.0
  0
LINE
  5
2379
330
1FB4
100
AcDbEntity
  8
0
  6
Continuous
100
AcDbLine
 10
430.5055534994653
 20
261.2499699999999
 30
0.0
 11
426.7527767497331
 21
254.7499699999999
 31
0.0
  0
LINE
  5
237A
330
1FB4
100
AcDbEntity
  8
0
  6
Continuous
100
AcDbLine
 10
419.2472232502677
 20
254.7499699999999
 30
0.0
 11
426.7527767497321
 21
254.7499699999999
 31
0.0
  0
LINE
  5
237B
330
1FB4
100
AcDbEntity
  8
0
  6
Continuous
100
AcDbLine
 10
415.4944465005355
 20
261.2499699999999
 30
0.0
 11
419.2472232502669
 21
254.7499699999999
 31
0.0
  0
LINE
  5
237C
330
1FB4
100
AcDbEntity
  8
0
  6
Continuous
100
AcDbLine
 10
419.2472232502677
 20
267.7499699999999
 30
0.0
 11
415.4944465005346
 21
261.2499699999999
 31
0.0
  0
LINE
  5
237D
330
1FB4
100
AcDbEntity
  8
0
  6
Continuous
100
AcDbLine
 10
419.2472232502669
 20
267.7499699999999
 30
0.0
 11
426.7527767497321
 21
267.7499699999999
 31
0.0
  0
LINE
  5
237E
330
1FB4
100
AcDbEntity
  8
0
  6
Continuous
100
AcDbLine
 10
426.7527767497331
 20
267.7499699999999
 30
0.0
 11
430.5055534994653
 21
261.2499699999999
 31
0.0
  0
LINE
  5
237F
330
1FB4
100
AcDbEntity
  8
0
  6
Continuous
100
AcDbLine
 10
106.4999999999734
 20
516.3342461928741
 30
0.0
 11
104.8999023437234
 21
516.3342461928741
 31
0.0
  0
LINE
  5
2380
330
1FB4
100
AcDbEntity
  8
0
  6
Continuous
100
AcDbLine
 10
104.8999023437234
 20
516.3342461928741
 30
0.0
 11
104.899973102112
 21
534.1663040458889
 31
0.0
  0
LINE
  5
2381
330
1FB4
100
AcDbEntity
  8
0
  6
Continuous
100
AcDbLine
 10
97.50048152687382
 20
528.3340665412351
 30
0.0
 11
92.00048828122348
 21
528.3340665412351
 31
0.0
  0
LINE
  5
2382
330
1FB4
100
AcDbEntity
  8
0
  6
Continuous
100
AcDbLine
 10
97.50048429094917
 20
527.5337735724852
 30
0.0
 11
92.00048828122348
 21
527.5337735724852
 31
0.0
  0
LINE
  5
2383
330
1FB4
100
AcDbEntity
  8
0
  6
Continuous
100
AcDbLine
 10
97.50050639512195
 20
521.1338712287352
 30
0.0
 11
92.00048828122348
 21
521.1338712287352
 31
0.0
  0
LINE
  5
2384
330
1FB4
100
AcDbEntity
  8
0
  6
Continuous
100
AcDbLine
 10
97.50057478029052
 20
470.0018351167245
 30
0.0
 11
97.50057478029052
 21
483.0018351167437
 31
0.0
  0
LINE
  5
2385
330
1FB4
100
AcDbEntity
  8
0
  6
Continuous
100
AcDbLine
 10
102.5000864990405
 20
484.5018465135408
 30
0.0
 11
102.5000864990405
 21
468.5018465135171
 31
0.0
  0
LINE
  5
2386
330
1FB4
100
AcDbEntity
  8
0
  6
Continuous
100
AcDbLine
 10
106.4999999999734
 20
468.5018534210276
 30
0.0
 11
102.5000864990405
 21
468.5018465135181
 31
0.0
  0
LINE
  5
2387
330
1FB4
100
AcDbEntity
  8
0
  6
Continuous
100
AcDbLine
 10
106.4999999999734
 20
484.5018534210512
 30
0.0
 11
102.5000864990405
 21
484.5018465135408
 31
0.0
  0
LINE
  5
2388
330
1FB4
100
AcDbEntity
  8
0
  6
Continuous
100
AcDbLine
 10
87.58098936946849
 20
524.3340514553165
 30
0.0
 11
92.00048828122348
 21
524.3340590874149
 31
0.0
  0
LINE
  5
2389
330
1FB4
100
AcDbEntity
  8
0
  6
Continuous
100
AcDbLine
 10
104.9000864990401
 20
484.5018465135408
 30
0.0
 11
104.9000864990401
 21
468.5018465135171
 31
0.0
  0
LINE
  5
238A
330
1FB4
100
AcDbEntity
  8
0
  6
Continuous
100
AcDbLine
 10
106.4999999999734
 20
458.3340587036919
 30
0.0
 11
106.4999999999734
 21
544.3340587036918
 31
0.0
  0
ARC
  5
238B
330
1FB4
100
AcDbEntity
  8
0
  6
Continuous
100
AcDbCircle
 10
107.4999999999734
 20
458.3340587036919
 30
0.0
 40
1.0
100
AcDbArc
 50
180.0
 51
270.0
  0
LINE
  5
238C
330
1FB4
100
AcDbEntity
  8
0
  6
Continuous
100
AcDbLine
 10
102.5000864990405
 20
470.0018437504549
 30
0.0
 11
97.50057478029052
 21
470.0018351167245
 31
0.0
  0
LINE
  5
238D
330
1FB4
100
AcDbEntity
  8
0
  6
Continuous
100
AcDbLine
 10
102.5000864990405
 20
483.001843750475
 30
0.0
 11
97.50057478029052
 21
483.0018351167437
 31
0.0
  0
LINE
  5
238E
330
1FB4
100
AcDbEntity
  8
0
  6
Continuous
100
AcDbLine
 10
102.5000864990455
 20
476.5018437504648
 30
0.0
 11
98.08058758728462
 21
476.5018361183665
 31
0.0
  0
ARC
  5
238F
330
1FB4
100
AcDbEntity
  8
0
  6
Continuous
100
AcDbCircle
 10
106.8958982744351
 20
473.2518513416525
 30
0.0
 40
9.395323494156341
100
AcDbArc
 50
159.7623298033375
 51
200.2378680865096
  0
ARC
  5
2390
330
1FB4
100
AcDbEntity
  8
0
  6
Continuous
100
AcDbCircle
 10
106.8958982744351
 20
479.7518208950805
 30
0.0
 40
9.395323494156341
100
AcDbArc
 50
159.7621319134903
 51
200.2376701966624
  0
ARC
  5
2391
330
1FB4
100
AcDbEntity
  8
0
  6
Continuous
100
AcDbCircle
 10
107.4999999999734
 20
544.3340587036918
 30
0.0
 40
1.0
100
AcDbArc
 50
90.0
 51
180.0
  0
ARC
  5
2392
330
1FB4
100
AcDbEntity
  8
0
  6
Continuous
100
AcDbCircle
 10
109.2957141191171
 20
521.084096586891
 30
0.0
 40
9.395323494156341
100
AcDbArc
 50
188.6793829181277
 51
200.2378680865096
  0
LINE
  5
2393
330
1FB4
100
AcDbEntity
  8
0
  6
Continuous
100
AcDbLine
 10
104.8999023437234
 20
517.8340889956935
 30
0.0
 11
99.90039062497348
 21
517.8340803619621
 31
0.0
  0
ARC
  5
2394
330
1FB4
100
AcDbEntity
  8
0
  6
Continuous
100
AcDbCircle
 10
95.50457884957891
 20
521.0840955852582
 30
0.0
 40
9.395323494156341
100
AcDbArc
 50
339.7621319134903
 51
341.9071154525082
  0
LINE
  5
2395
330
1FB4
100
AcDbEntity
  8
0
  6
Continuous
100
AcDbLine
 10
92.00048828122348
 20
530.834059087424
 30
0.0
 11
87.00097656247256
 21
530.8340504536936
 31
0.0
  0
LINE
  5
2396
330
1FB4
100
AcDbEntity
  8
0
  6
Continuous
100
AcDbLine
 10
92.00048828122348
 20
517.8340590874049
 30
0.0
 11
92.00048828122348
 21
530.834059087424
 31
0.0
  0
LINE
  5
2397
330
1FB4
100
AcDbEntity
  8
0
  6
Continuous
100
AcDbLine
 10
92.00048828122348
 20
517.8340590874049
 30
0.0
 11
87.00097656247349
 21
517.8340504536736
 31
0.0
  0
LINE
  5
2398
330
1FB4
100
AcDbEntity
  8
0
  6
Continuous
100
AcDbLine
 10
87.00097656247256
 20
517.8340504536736
 30
0.0
 11
87.00097656247256
 21
530.8340504536927
 31
0.0
  0
ARC
  5
2399
330
1FB4
100
AcDbEntity
  8
0
  6
Continuous
100
AcDbCircle
 10
96.39630005661715
 20
521.0840666786025
 30
0.0
 40
9.395323494156341
100
AcDbArc
 50
159.7623298033375
 51
200.2378680865096
  0
ARC
  5
239A
330
1FB4
100
AcDbEntity
  8
0
  6
Continuous
100
AcDbCircle
 10
96.39630005661715
 20
527.5840362320304
 30
0.0
 40
9.395323494156341
100
AcDbArc
 50
159.7621319134903
 51
200.2376701966624
  0
LINE
  5
239B
330
1FB4
100
AcDbEntity
  8
0
  6
Continuous
100
AcDbLine
 10
97.50050915749747
 20
520.3340706297067
 30
0.0
 11
92.00048828122348
 21
520.334051633571
 31
0.0
  0
LINE
  5
239C
330
1FB4
100
AcDbEntity
  8
0
  6
Continuous
100
AcDbLine
 10
97.50046656411164
 20
532.6662898860368
 30
0.0
 11
97.50051146389873
 21
519.666289886095
 31
0.0
  0
LINE
  5
239D
330
1FB4
100
AcDbEntity
  8
0
  6
Continuous
100
AcDbLine
 10
102.5000283634024
 20
518.1662957567687
 30
0.0
 11
102.4999731021269
 21
534.1662957566968
 31
0.0
  0
LINE
  5
239E
330
1FB4
100
AcDbEntity
  8
0
  6
Continuous
100
AcDbLine
 10
106.499886603059
 20
534.1663026642063
 30
0.0
 11
102.4999731021269
 21
534.1662957566968
 31
0.0
  0
LINE
  5
239F
330
1FB4
100
AcDbEntity
  8
0
  6
Continuous
100
AcDbLine
 10
106.4999418643354
 20
518.1663026642791
 30
0.0
 11
102.5000283634033
 21
518.1662957567687
 31
0.0
  0
LINE
  5
23A0
330
1FB4
100
AcDbEntity
  8
0
  6
Continuous
100
AcDbLine
 10
102.4999782828616
 20
532.6662985197681
 30
0.0
 11
97.50046656411255
 21
532.6662898860368
 31
0.0
  0
LINE
  5
23A1
330
1FB4
100
AcDbEntity
  8
0
  6
Continuous
100
AcDbLine
 10
102.5000231826487
 20
519.6662985198263
 30
0.0
 11
97.50051146389873
 21
519.666289886095
 31
0.0
  0
LINE
  5
23A2
330
1FB4
100
AcDbEntity
  8
0
  6
Continuous
100
AcDbLine
 10
102.5000007327788
 20
526.166298519797
 30
0.0
 11
98.08050182099927
 21
526.1662908876988
 31
0.0
  0
ARC
  5
23A3
330
1FB4
100
AcDbEntity
  8
0
  6
Continuous
100
AcDbCircle
 10
106.8958012832025
 20
529.4163061109748
 30
0.0
 40
9.395323494156341
100
AcDbArc
 50
159.7623298033375
 51
200.2378680865279
  0
ARC
  5
23A4
330
1FB4
100
AcDbEntity
  8
0
  6
Continuous
100
AcDbCircle
 10
106.8958237329905
 20
522.916336557586
 30
0.0
 40
9.395323494156341
100
AcDbArc
 50
159.7625276932052
 51
200.2380659763744
  0
LINE
  5
23A5
330
1FB4
100
AcDbEntity
  8
0
  6
Continuous
100
AcDbLine
 10
99.90039552175389
 20
519.6662940304904
 30
0.0
 11
99.90040184990707
 21
517.8340803619821
 31
0.0
  0
LINE
  5
23A6
330
1FB4
100
AcDbEntity
  8
0
  6
Continuous
100
AcDbLine
 10
273.5001532670302
 20
516.3342461928741
 30
0.0
 11
275.1002509232802
 21
516.3342461928741
 31
0.0
  0
LINE
  5
23A7
330
1FB4
100
AcDbEntity
  8
0
  6
Continuous
100
AcDbLine
 10
275.1002509232802
 20
516.3342461928741
 30
0.0
 11
275.1001801648907
 21
534.1663040458889
 31
0.0
  0
LINE
  5
23A8
330
1FB4
100
AcDbEntity
  8
0
  6
Continuous
100
AcDbLine
 10
282.4996717401298
 20
528.3340665412351
 30
0.0
 11
287.9996649857801
 21
528.3340665412351
 31
0.0
  0
LINE
  5
23A9
330
1FB4
100
AcDbEntity
  8
0
  6
Continuous
100
AcDbLine
 10
282.4996689760536
 20
527.5337735724852
 30
0.0
 11
287.9996649857801
 21
527.5337735724852
 31
0.0
  0
LINE
  5
23AA
330
1FB4
100
AcDbEntity
  8
0
  6
Continuous
100
AcDbLine
 10
282.4996468718808
 20
521.1338712287352
 30
0.0
 11
287.9996649857801
 21
521.1338712287352
 31
0.0
  0
LINE
  5
23AB
330
1FB4
100
AcDbEntity
  8
0
  6
Continuous
100
AcDbLine
 10
282.4995784867131
 20
470.0018351167245
 30
0.0
 11
282.4995784867131
 21
483.0018351167437
 31
0.0
  0
LINE
  5
23AC
330
1FB4
100
AcDbEntity
  8
0
  6
Continuous
100
AcDbLine
 10
277.5000667679631
 20
484.5018465135408
 30
0.0
 11
277.5000667679631
 21
468.5018465135171
 31
0.0
  0
LINE
  5
23AD
330
1FB4
100
AcDbEntity
  8
0
  6
Continuous
100
AcDbLine
 10
273.5001532670302
 20
468.5018534210276
 30
0.0
 11
277.5000667679631
 21
468.5018465135181
 31
0.0
  0
LINE
  5
23AE
330
1FB4
100
AcDbEntity
  8
0
  6
Continuous
100
AcDbLine
 10
273.5001532670302
 20
484.5018534210512
 30
0.0
 11
277.5000667679622
 21
484.5018465135408
 31
0.0
  0
LINE
  5
23AF
330
1FB4
100
AcDbEntity
  8
0
  6
Continuous
100
AcDbLine
 10
292.4191638975356
 20
524.3340514553165
 30
0.0
 11
287.9996649857801
 21
524.3340590874149
 31
0.0
  0
LINE
  5
23B0
330
1FB4
100
AcDbEntity
  8
0
  6
Continuous
100
AcDbLine
 10
275.1000667679626
 20
484.5018465135408
 30
0.0
 11
275.1000667679626
 21
468.5018465135171
 31
0.0
  0
LINE
  5
23B1
330
1FB4
100
AcDbEntity
  8
0
  6
Continuous
100
AcDbLine
 10
273.5001532670302
 20
458.3340587036919
 30
0.0
 11
273.5001532670302
 21
544.3340587036918
 31
0.0
  0
ARC
  5
23B2
330
1FB4
100
AcDbEntity
  8
0
  6
Continuous
100
AcDbCircle
 10
272.5001532670302
 20
458.3340587036919
 30
0.0
 40
1.0
100
AcDbArc
 50
270.0
 51
0.0
  0
LINE
  5
23B3
330
1FB4
100
AcDbEntity
  8
0
  6
Continuous
100
AcDbLine
 10
277.5000667679631
 20
470.0018437504549
 30
0.0
 11
282.4995784867122
 21
470.0018351167245
 31
0.0
  0
LINE
  5
23B4
330
1FB4
100
AcDbEntity
  8
0
  6
Continuous
100
AcDbLine
 10
277.5000667679631
 20
483.001843750475
 30
0.0
 11
282.4995784867122
 21
483.0018351167437
 31
0.0
  0
LINE
  5
23B5
330
1FB4
100
AcDbEntity
  8
0
  6
Continuous
100
AcDbLine
 10
277.5000667679495
 20
476.5018437504652
 30
0.0
 11
281.9195656797181
 21
476.5018361183665
 31
0.0
  0
ARC
  5
23B6
330
1FB4
100
AcDbEntity
  8
0
  6
Continuous
100
AcDbCircle
 10
273.1042549925685
 20
473.2518513416525
 30
0.0
 40
9.395323494156341
100
AcDbArc
 50
339.7621319134903
 51
20.23767019666249
  0
ARC
  5
23B7
330
1FB4
100
AcDbEntity
  8
0
  6
Continuous
100
AcDbCircle
 10
273.1042549925685
 20
479.7518208950805
 30
0.0
 40
9.395323494156341
100
AcDbArc
 50
339.7623298033374
 51
20.23786808650964
  0
ARC
  5
23B8
330
1FB4
100
AcDbEntity
  8
0
  6
Continuous
100
AcDbCircle
 10
272.5001532670302
 20
544.3340587036918
 30
0.0
 40
1.0
100
AcDbArc
 50
0.0
 51
90.0
  0
ARC
  5
23B9
330
1FB4
100
AcDbEntity
  8
0
  6
Continuous
100
AcDbCircle
 10
270.7044391478865
 20
521.084096586891
 30
0.0
 40
9.395323494156341
100
AcDbArc
 50
339.7621319134903
 51
351.3206170818722
  0
LINE
  5
23BA
330
1FB4
100
AcDbEntity
  8
0
  6
Continuous
100
AcDbLine
 10
275.1002509232802
 20
517.8340889956935
 30
0.0
 11
280.0997626420302
 21
517.8340803619621
 31
0.0
  0
ARC
  5
23BB
330
1FB4
100
AcDbEntity
  8
0
  6
Continuous
100
AcDbCircle
 10
284.4955744174238
 20
521.0840955852582
 30
0.0
 40
9.395323494156341
100
AcDbArc
 50
198.0928845474917
 51
200.2378680865096
  0
LINE
  5
23BC
330
1FB4
100
AcDbEntity
  8
0
  6
Continuous
100
AcDbLine
 10
287.9996649857801
 20
530.834059087424
 30
0.0
 11
292.9991767045302
 21
530.8340504536936
 31
0.0
  0
LINE
  5
23BD
330
1FB4
100
AcDbEntity
  8
0
  6
Continuous
100
AcDbLine
 10
287.9996649857801
 20
517.8340590874049
 30
0.0
 11
287.9996649857801
 21
530.834059087424
 31
0.0
  0
LINE
  5
23BE
330
1FB4
100
AcDbEntity
  8
0
  6
Continuous
100
AcDbLine
 10
287.9996649857801
 20
517.8340590874049
 30
0.0
 11
292.9991767045302
 21
517.8340504536736
 31
0.0
  0
ARC
  5
23BF
330
1FB4
100
AcDbEntity
  8
0
  6
Continuous
100
AcDbCircle
 10
283.6038532103865
 20
521.0840666786025
 30
0.0
 40
9.395323494156341
100
AcDbArc
 50
339.7621319134903
 51
20.23767019666249
  0
LINE
  5
23C0
330
1FB4
100
AcDbEntity
  8
0
  6
Continuous
100
AcDbLine
 10
292.9991767045302
 20
517.8340504536736
 30
0.0
 11
292.9991767045302
 21
530.8340504536927
 31
0.0
  0
ARC
  5
23C1
330
1FB4
100
AcDbEntity
  8
0
  6
Continuous
100
AcDbCircle
 10
283.6038532103865
 20
527.5840362320304
 30
0.0
 40
9.395323494156341
100
AcDbArc
 50
339.7623298033374
 51
20.23786808650964
  0
LINE
  5
23C2
330
1FB4
100
AcDbEntity
  8
0
  6
Continuous
100
AcDbLine
 10
282.4996441095062
 20
520.3340706297067
 30
0.0
 11
287.9996649857801
 21
520.334051633571
 31
0.0
  0
LINE
  5
23C3
330
1FB4
100
AcDbEntity
  8
0
  6
Continuous
100
AcDbLine
 10
282.499686702892
 20
532.6662898860368
 30
0.0
 11
282.4996418031049
 21
519.666289886095
 31
0.0
  0
LINE
  5
23C4
330
1FB4
100
AcDbEntity
  8
0
  6
Continuous
100
AcDbLine
 10
277.5001249036012
 20
518.1662957567687
 30
0.0
 11
277.5001801648767
 21
534.1662957566968
 31
0.0
  0
LINE
  5
23C5
330
1FB4
100
AcDbEntity
  8
0
  6
Continuous
100
AcDbLine
 10
273.5002666639446
 20
534.1663026642063
 30
0.0
 11
277.5001801648767
 21
534.1662957566968
 31
0.0
  0
LINE
  5
23C6
330
1FB4
100
AcDbEntity
  8
0
  6
Continuous
100
AcDbLine
 10
273.5002114026682
 20
518.1663026642791
 30
0.0
 11
277.5001249036002
 21
518.1662957567687
 31
0.0
  0
LINE
  5
23C7
330
1FB4
100
AcDbEntity
  8
0
  6
Continuous
100
AcDbLine
 10
277.5001749841411
 20
532.6662985197681
 30
0.0
 11
282.4996867028911
 21
532.6662898860368
 31
0.0
  0
LINE
  5
23C8
330
1FB4
100
AcDbEntity
  8
0
  6
Continuous
100
AcDbLine
 10
277.5001300843549
 20
519.6662985198263
 30
0.0
 11
282.499641803104
 21
519.666289886095
 31
0.0
  0
LINE
  5
23C9
330
1FB4
100
AcDbEntity
  8
0
  6
Continuous
100
AcDbLine
 10
277.5001525342439
 20
526.166298519797
 30
0.0
 11
281.9196514460044
 21
526.1662908876988
 31
0.0
  0
ARC
  5
23CA
330
1FB4
100
AcDbEntity
  8
0
  6
Continuous
100
AcDbCircle
 10
273.1043519838011
 20
529.4163061109748
 30
0.0
 40
9.395323494156341
100
AcDbArc
 50
339.7621319134712
 51
20.23767019666249
  0
ARC
  5
23CB
330
1FB4
100
AcDbEntity
  8
0
  6
Continuous
100
AcDbCircle
 10
273.1043295340131
 20
522.916336557586
 30
0.0
 40
9.395323494156341
100
AcDbArc
 50
339.7619340236255
 51
20.23747230679475
  0
LINE
  5
23CC
330
1FB4
100
AcDbEntity
  8
0
  6
Continuous
100
AcDbLine
 10
280.0997577452497
 20
519.6662940304904
 30
0.0
 11
280.0997514170957
 21
517.8340803619821
 31
0.0
  0
CIRCLE
  5
23CD
330
1FB4
100
AcDbEntity
  8
0
  6
Continuous
100
AcDbCircle
 10
425.0
 20
219.2499699999999
 30
0.0
 40
7.5
  0
CIRCLE
  5
23CE
330
1FB4
100
AcDbEntity
  8
0
  6
Continuous
100
AcDbCircle
 10
425.0
 20
219.2499699999999
 30
0.0
 40
6.5
  0
CIRCLE
  5
23CF
330
1FB4
100
AcDbEntity
  8
0
  6
Continuous
100
AcDbCircle
 10
375.0
 20
219.2499699999999
 30
0.0
 40
7.5
  0
CIRCLE
  5
23D0
330
1FB4
100
AcDbEntity
  8
0
  6
Continuous
100
AcDbCircle
 10
375.0
 20
219.2499699999999
 30
0.0
 40
6.5
  0
CIRCLE
  5
23D1
330
1FB4
100
AcDbEntity
  8
0
  6
Continuous
100
AcDbCircle
 10
425.0
 20
303.2499699999999
 30
0.0
 40
7.5
  0
CIRCLE
  5
23D2
330
1FB4
100
AcDbEntity
  8
0
  6
Continuous
100
AcDbCircle
 10
425.0
 20
303.2499699999999
 30
0.0
 40
6.5
  0
CIRCLE
  5
23D3
330
1FB4
100
AcDbEntity
  8
0
  6
Continuous
100
AcDbCircle
 10
375.0
 20
303.2499699999999
 30
0.0
 40
7.5
  0
CIRCLE
  5
23D4
330
1FB4
100
AcDbEntity
  8
0
  6
Continuous
100
AcDbCircle
 10
375.0
 20
303.2499699999999
 30
0.0
 40
6.5
  0
CIRCLE
  5
23D5
330
1FB4
100
AcDbEntity
  8
0
  6
Continuous
100
AcDbCircle
 10
423.0
 20
261.2499699999999
 30
0.0
 40
7.5
  0
CIRCLE
  5
23D6
330
1FB4
100
AcDbEntity
  8
0
  6
Continuous
100
AcDbCircle
 10
423.0
 20
261.2499699999999
 30
0.0
 40
6.5
  0
CIRCLE
  5
23D7
330
1FB4
100
AcDbEntity
  8
0
  6
Continuous
100
AcDbCircle
 10
380.0
 20
261.2499699999999
 30
0.0
 40
4.25
  0
CIRCLE
  5
23D8
330
1FB4
100
AcDbEntity
  8
0
  6
Continuous
100
AcDbCircle
 10
380.0
 20
261.2499699999999
 30
0.0
 40
3.399999999999999
  0
LINE
  5
23D9
330
1FB4
100
AcDbEntity
  8
0
  6
Continuous
100
AcDbLine
 10
245.0000000000002
 20
311.7500099999995
 30
0.0
 11
155.0000000000002
 21
311.7500099999995
 31
0.0
  0
LINE
  5
23DA
330
1FB4
100
AcDbEntity
  8
0
  6
Continuous
100
AcDbLine
 10
215.0000000000002
 20
345.7500249999995
 30
0.0
 11
215.0000000000002
 21
316.2499794999996
 31
0.0
  0
LINE
  5
23DB
330
1FB4
100
AcDbEntity
  8
0
  6
Continuous
100
AcDbLine
 10
185.0000000000002
 20
345.7500249999995
 30
0.0
 11
185.0000000000002
 21
316.2499794999996
 31
0.0
  0
LINE
  5
23DC
330
1FB4
100
AcDbEntity
  8
0
  6
Continuous
100
AcDbLine
 10
215.0000000000002
 20
345.7500249999995
 30
0.0
 11
185.0000000000002
 21
345.7500249999995
 31
0.0
  0
LINE
  5
23DD
330
1FB4
100
AcDbEntity
  8
0
  6
Continuous
100
AcDbLine
 10
155.0000000000002
 20
351.7500099999995
 30
0.0
 11
155.0000000000002
 21
311.7500099999995
 31
0.0
  0
LINE
  5
23DE
330
1FB4
100
AcDbEntity
  8
0
  6
Continuous
100
AcDbLine
 10
245.0000000000002
 20
351.7500099999995
 30
0.0
 11
245.0000000000002
 21
311.7500099999995
 31
0.0
  0
LINE
  5
23DF
330
1FB4
100
AcDbEntity
  8
0
  6
Continuous
100
AcDbLine
 10
235.0000000000002
 20
361.7500099999995
 30
0.0
 11
165.0000000000002
 21
361.7500099999995
 31
0.0
  0
LINE
  5
23E0
330
1FB4
100
AcDbEntity
  8
0
  6
Continuous
100
AcDbLine
 10
155.0000000000002
 20
316.2499794999996
 30
0.0
 11
245.0000000000002
 21
316.2499794999996
 31
0.0
  0
ARC
  5
23E1
330
1FB4
100
AcDbEntity
  8
0
  6
Continuous
100
AcDbCircle
 10
235.0000000000002
 20
351.7500099999995
 30
0.0
 40
10.0
100
AcDbArc
 50
0.0
 51
90.00000299998466
  0
CIRCLE
  5
23E2
330
1FB4
100
AcDbEntity
  8
0
  6
Continuous
100
AcDbCircle
 10
231.5000149999998
 20
346.7500099999995
 30
0.0
 40
9.000030499999997
  0
ARC
  5
23E3
330
1FB4
100
AcDbEntity
  8
0
  6
Continuous
100
AcDbCircle
 10
165.0000000000002
 20
351.7500099999995
 30
0.0
 40
10.0
100
AcDbArc
 50
90.00000299998466
 51
180.000010000001
  0
LINE
  5
23E4
330
1FB4
100
AcDbEntity
  8
0
  6
Continuous
100
AcDbLine
 10
168.4999960000006
 20
311.7500099999995
 30
0.0
 11
231.4999810000001
 21
311.7500099999995
 31
0.0
  0
LINE
  5
23E5
330
1FB4
100
AcDbEntity
  8
0
  6
Continuous
100
AcDbLine
 10
222.4999620000015
 20
518.2342335092557
 30
0.0
 11
240.4999920000017
 21
518.2342335092557
 31
0.0
  0
LINE
  5
23E6
330
1FB4
100
AcDbEntity
  8
0
  6
Continuous
100
AcDbLine
 10
222.4999620000015
 20
518.2342335092557
 30
0.0
 11
222.4999620000015
 21
524.8342395092558
 31
0.0
  0
LINE
  5
23E7
330
1FB4
100
AcDbEntity
  8
0
  6
Continuous
100
AcDbLine
 10
240.4999920000017
 20
518.2342335092557
 30
0.0
 11
240.4999920000017
 21
524.8342395092558
 31
0.0
  0
LINE
  5
23E8
330
1FB4
100
AcDbEntity
  8
0
  6
Continuous
100
AcDbLine
 10
222.4999620000015
 20
529.3342395092558
 30
0.0
 11
222.4999620000015
 21
559.4342155092558
 31
0.0
  0
LINE
  5
23E9
330
1FB4
100
AcDbEntity
  8
0
  6
Continuous
100
AcDbLine
 10
240.4999920000017
 20
529.3342395092558
 30
0.0
 11
240.4999920000017
 21
559.4342155092558
 31
0.0
  0
LINE
  5
23EA
330
1FB4
100
AcDbEntity
  8
0
  6
Continuous
100
AcDbLine
 10
222.4999620000015
 20
559.4342155092558
 30
0.0
 11
240.4999920000017
 21
559.4342155092558
 31
0.0
  0
LINE
  5
23EB
330
1FB4
100
AcDbEntity
  8
0
  6
Continuous
100
AcDbLine
 10
155.0000000000016
 20
529.3342395092558
 30
0.0
 11
245.0000000000016
 21
529.3342395092558
 31
0.0
  0
LINE
  5
23EC
330
1FB4
100
AcDbEntity
  8
0
  6
Continuous
100
AcDbLine
 10
245.0000000000016
 20
476.3342395092559
 30
0.0
 11
245.0000000000016
 21
529.3342395092558
 31
0.0
  0
LINE
  5
23ED
330
1FB4
100
AcDbEntity
  8
0
  6
Continuous
100
AcDbLine
 10
155.0000000000016
 20
476.3342395092559
 30
0.0
 11
155.0000000000016
 21
529.3342395092558
 31
0.0
  0
LINE
  5
23EE
330
1FB4
100
AcDbEntity
  8
0
  6
Continuous
100
AcDbLine
 10
235.0000000000016
 20
466.3342395092558
 30
0.0
 11
165.0000000000016
 21
466.3342395092558
 31
0.0
  0
LINE
  5
23EF
330
1FB4
100
AcDbEntity
  8
0
  6
Continuous
100
AcDbLine
 10
155.0000000000016
 20
524.8342395092558
 30
0.0
 11
245.0000000000016
 21
524.8342395092558
 31
0.0
  0
CIRCLE
  5
23F0
330
1FB4
100
AcDbEntity
  8
0
  6
Continuous
100
AcDbCircle
 10
200.0000000000016
 20
501.3342395092559
 30
0.0
 40
15.0
  0
ARC
  5
23F1
330
1FB4
100
AcDbEntity
  8
0
  6
Continuous
100
AcDbCircle
 10
165.0000000000016
 20
476.3342395092559
 30
0.0
 40
10.0
100
AcDbArc
 50
180.000010000001
 51
270.0
  0
ARC
  5
23F2
330
1FB4
100
AcDbEntity
  8
0
  6
Continuous
100
AcDbCircle
 10
235.0000000000016
 20
476.3342395092559
 30
0.0
 40
10.0
100
AcDbArc
 50
269.999989999999
 51
0.0000006832429909
  0
LINE
  5
23F3
330
1FB4
100
AcDbEntity
  8
0
  6
Continuous
100
AcDbLine
 10
423.4999850000003
 20
361.7499319999998
 30
0.0
 11
428.000031
 21
361.7499319999998
 31
0.0
  0
LINE
  5
23F4
330
1FB4
100
AcDbEntity
  8
0
  6
Continuous
100
AcDbLine
 10
428.000031
 20
361.7499319999998
 30
0.0
 11
428.000031
 21
311.7499699999999
 31
0.0
  0
LINE
  5
23F5
330
1FB4
100
AcDbEntity
  8
0
  6
Continuous
100
AcDbLine
 10
428.000031
 20
311.7499699999999
 30
0.0
 11
365.0
 21
311.7499699999999
 31
0.0
  0
LINE
  5
23F6
330
1FB4
100
AcDbEntity
  8
0
  6
Continuous
100
AcDbLine
 10
365.0
 20
316.2499776
 30
0.0
 11
365.0
 21
311.7499699999999
 31
0.0
  0
LINE
  5
23F7
330
1FB4
100
AcDbEntity
  8
0
  6
Continuous
100
AcDbLine
 10
415.0
 20
345.749985
 30
0.0
 11
415.0
 21
316.2499776
 31
0.0
  0
LINE
  5
23F8
330
1FB4
100
AcDbEntity
  8
0
  6
Continuous
100
AcDbLine
 10
385.0
 20
345.749985
 30
0.0
 11
385.0
 21
316.2499776
 31
0.0
  0
LINE
  5
23F9
330
1FB4
100
AcDbEntity
  8
0
  6
Continuous
100
AcDbLine
 10
415.0
 20
345.749985
 30
0.0
 11
385.0
 21
345.749985
 31
0.0
  0
LINE
  5
23FA
330
1FB4
100
AcDbEntity
  8
0
  6
Continuous
100
AcDbLine
 10
416.900024
 20
354.7499619999999
 30
0.0
 11
416.900024
 21
336.7499319999998
 31
0.0
  0
LINE
  5
23FB
330
1FB4
100
AcDbEntity
  8
0
  6
Continuous
100
AcDbLine
 10
416.900024
 20
354.7499619999999
 30
0.0
 11
423.4999850000003
 21
354.7499619999999
 31
0.0
  0
LINE
  5
23FC
330
1FB4
100
AcDbEntity
  8
0
  6
Continuous
100
AcDbLine
 10
416.900024
 20
336.7499319999998
 30
0.0
 11
423.4999850000003
 21
336.7499319999998
 31
0.0
  0
LINE
  5
23FD
330
1FB4
100
AcDbEntity
  8
0
  6
Continuous
100
AcDbLine
 10
428.000031
 20
354.7499619999999
 30
0.0
 11
458.0999760000004
 21
354.7499619999999
 31
0.0
  0
LINE
  5
23FE
330
1FB4
100
AcDbEntity
  8
0
  6
Continuous
100
AcDbLine
 10
428.000031
 20
336.7499319999998
 30
0.0
 11
458.0999760000004
 21
336.7499319999998
 31
0.0
  0
LINE
  5
23FF
330
1FB4
100
AcDbEntity
  8
0
  6
Continuous
100
AcDbLine
 10
458.0999760000004
 20
354.7499619999999
 30
0.0
 11
458.0999760000004
 21
336.7499319999998
 31
0.0
  0
LINE
  5
2400
330
1FB4
100
AcDbEntity
  8
0
  6
Continuous
100
AcDbLine
 10
365.0
 20
316.2499776
 30
0.0
 11
423.4999850000003
 21
316.2499776
 31
0.0
  0
LINE
  5
2401
330
1FB4
100
AcDbEntity
  8
0
  6
Continuous
100
AcDbLine
 10
423.4999850000003
 20
361.7499319999998
 30
0.0
 11
423.4999850000003
 21
316.2499776
 31
0.0
  0
LINE
  5
241F
330
1FB4
100
AcDbEntity
  8
0
  6
Continuous
100
AcDbLine
 10
180.0000000000024
 20
457.3338659451696
 30
0.0
 11
180.0000000000023
 21
432.334262509256
 31
0.0
  0
LINE
  5
2420
330
1FB4
100
AcDbEntity
  8
0
  6
Continuous
100
AcDbLine
 10
220.0000000000022
 20
457.3338708792733
 30
0.0
 11
220.0000000000023
 21
432.334262509256
 31
0.0
  0
LINE
  5
2421
330
1FB4
100
AcDbEntity
  8
0
  6
Continuous
100
AcDbLine
 10
220.0000000000023
 20
432.334262509256
 30
0.0
 11
180.0000000000023
 21
432.334262509256
 31
0.0
  0
LINE
  5
2422
330
1FB4
100
AcDbEntity
  8
0
  6
Continuous
100
AcDbLine
 10
150.0000000000023
 20
455.8342395092559
 30
0.0
 11
150.0000000000023
 21
457.3338622445919
 31
0.0
  0
LINE
  5
2424
330
1FB4
100
AcDbEntity
  8
0
  6
Continuous
100
AcDbLine
 10
152.8499986000023
 20
455.8342385092559
 30
0.0
 11
153.3958171225109
 21
457.3338626634748
 31
0.0
  0
LINE
  5
2425
330
1FB4
100
AcDbEntity
  8
0
  6
Continuous
100
AcDbLine
 10
150.0000000000023
 20
455.8342395092559
 30
0.0
 11
152.8499987000023
 21
455.8342395092559
 31
0.0
  0
LINE
  5
2427
330
1FB4
100
AcDbEntity
  8
0
  6
Continuous
100
AcDbLine
 10
250.0000000000023
 20
455.8342395092559
 30
0.0
 11
247.1500013000023
 21
455.8342395092559
 31
0.0
  0
LINE
  5
2428
330
1FB4
100
AcDbEntity
  8
0
  6
Continuous
100
AcDbLine
 10
247.1500014000024
 20
455.8342385092559
 30
0.0
 11
246.6041786927488
 21
457.3338741609677
 31
0.0
  0
LINE
  5
242A
330
1FB4
100
AcDbEntity
  8
0
  6
Continuous
100
AcDbLine
 10
250.0000000000024
 20
457.3338745798509
 30
0.0
 11
250.0000000000023
 21
455.8342395092559
 31
0.0
  0
LINE
  5
242C
330
1FB4
100
AcDbEntity
  8
0
  6
Continuous
100
AcDbLine
 10
179.9998480303228
 20
545.3345439964846
 30
0.0
 11
179.9997616859487
 21
570.3341474322492
 31
0.0
  0
LINE
  5
242D
330
1FB4
100
AcDbEntity
  8
0
  6
Continuous
100
AcDbLine
 10
219.9998480301009
 20
545.3346772155708
 30
0.0
 11
219.9997616857101
 21
570.3342855854389
 31
0.0
  0
LINE
  5
242E
330
1FB4
100
AcDbEntity
  8
0
  6
Continuous
100
AcDbLine
 10
219.9997616857101
 20
570.3342855854389
 30
0.0
 11
179.9997616859487
 21
570.3341474322492
 31
0.0
  0
LINE
  5
242F
330
1FB4
100
AcDbEntity
  8
0
  6
Continuous
100
AcDbLine
 10
149.9998428510473
 20
546.8340668174971
 30
0.0
 11
149.9998480304888
 21
545.3344440821701
 31
0.0
  0
LINE
  5
2430
330
1FB4
100
AcDbEntity
  8
0
  6
Continuous
100
AcDbLine
 10
152.8498414510266
 20
546.834077660907
 30
0.0
 11
153.3956651529785
 21
545.3344553918614
 31
0.0
  0
LINE
  5
2431
330
1FB4
100
AcDbEntity
  8
0
  6
Continuous
100
AcDbLine
 10
149.9998428510473
 20
546.8340668174971
 30
0.0
 11
152.8498415510302
 21
546.8340766609073
 31
0.0
  0
LINE
  5
2432
330
1FB4
100
AcDbEntity
  8
0
  6
Continuous
100
AcDbLine
 10
249.9998428504508
 20
546.8344122004714
 30
0.0
 11
247.1498441504678
 21
546.8344023570612
 31
0.0
  0
LINE
  5
2433
330
1FB4
100
AcDbEntity
  8
0
  6
Continuous
100
AcDbLine
 10
247.1498442504644
 20
546.8344033570615
 30
0.0
 11
246.6040267227003
 21
545.3347658201801
 31
0.0
  0
LINE
  5
2434
330
1FB4
100
AcDbEntity
  8
0
  6
Continuous
100
AcDbLine
 10
249.999848029935
 20
545.3347771298854
 30
0.0
 11
249.9998428504508
 21
546.8344122004714
 31
0.0
  0
LINE
  5
25D5
330
1FB4
100
AcDbEntity
  8
0
  6
CENTER
100
AcDbLine
 10
135.6589245847368
 20
100.0
 30
0.0
 11
264.3410754152631
 21
100.0
 31
0.0
  0
LINE
  5
25D6
330
1FB4
100
AcDbEntity
  8
0
  6
CENTER
100
AcDbLine
 10
200.0
 20
21.353125375751
 30
0.0
 11
200.0
 21
371.8915029603611
 31
0.0
  0
LINE
  5
25D7
330
1FB4
100
AcDbEntity
  8
0
  6
CENTER
100
AcDbLine
 10
324.5632451000219
 20
100.0
 30
0.0
 11
475.436754899978
 21
100.0
 31
0.0
  0
LINE
  5
25D8
330
1FB4
100
AcDbEntity
  8
0
  6
CENTER
100
AcDbLine
 10
400.0
 20
23.3755381764854
 30
0.0
 11
400.0
 21
361.1816809015376
 31
0.0
  0
LINE
  5
25D9
330
1FB4
100
AcDbEntity
  8
0
  6
CENTER
100
AcDbLine
 10
78.46588085047128
 20
501.3342395092559
 30
0.0
 11
294.0083447658111
 21
501.3342395092559
 31
0.0
  0
LINE
  5
25DA
330
1FB4
100
AcDbEntity
  8
0
  6
CENTER
100
AcDbLine
 10
200.0000000000016
 20
423.4473925836933
 30
0.0
 11
200.0000000000016
 21
579.2210864348184
 31
0.0
  0
ENDSEC
  0
SECTION
  2
OBJECTS
  0
DICTIONARY
  5
1FA2
330
0
100
AcDbDictionary
281
     1
  3
ACAD_2007HEADERVARS_RT
350
2562
  3
ACAD_COLOR
350
204F
  3
ACAD_GROUP
350
1FA3
  3
ACAD_LAYOUT
350
1FAF
  3
ACAD_MATERIAL
350
2025
  3
ACAD_MLEADERSTYLE
350
2074
  3
ACAD_MLINESTYLE
350
1FAC
  3
ACAD_PLOTSETTINGS
350
1FAE
  3
ACAD_PLOTSTYLENAME
350
1FA4
  3
ACAD_SCALELIST
350
2052
  3
ACAD_TABLESTYLE
350
2050
  3
ACAD_VISUALSTYLE
350
203E
  3
ACDB_RECOMPOSE_DATA
350
243A
  3
AcDbVariableDictionary
350
2022
  3
AcmDictionary
350
20D5
  3
AcmSystemVariableManager
350
2572
  3
AMG
350
207E
  3
AMGSNAPSETTINGS
350
210B
  3
DWGPROPS
350
2561
  0
DICTIONARY
  5
2441
330
1F9E
100
AcDbDictionary
280
     1
281
     1
  3
ACAD_XREC_ROUNDTRIP
360
2567
  0
DICTIONARY
  5
25C9
330
1F98
100
AcDbDictionary
280
     1
281
     1
  3
ACAD_LAYERSTATES
360
25CA
  0
DICTIONARY
  5
2435
330
1FA6
100
AcDbDictionary
280
     1
281
     1
  3
ADSK_XREC_LAYER_RECONCILED
360
2436
  0
DICTIONARY
  5
256C
330
1FC7
100
AcDbDictionary
280
     1
281
     1
  3
ACAD_XREC_ROUNDTRIP
360
256D
  0
DICTIONARY
  5
1FE0
330
1FB4
100
AcDbDictionary
280
     1
281
     1
  3
ACAD_LAYOUTSELFREF
360
25B5
  3
ACAD_SORTENTS
360
2404
  0
DICTIONARY
  5
1FE2
330
1FB0
100
AcDbDictionary
280
     1
281
     1
  3
ACAD_LAYOUTSELFREF
360
25B4
  0
DICTIONARY
  5
2562
102
{ACAD_REACTORS
330
1FA2
102
}
330
1FA2
100
AcDbDictionary
281
     1
  3
DIMARCSYM
350
2563
  3
DIMLTEX1
350
2565
  3
DIMLTEX2
350
2566
  3
DIMLTYPE
350
2564
  0
DICTIONARY
  5
204F
102
{ACAD_REACTORS
330
1FA2
102
}
330
1FA2
100
AcDbDictionary
281
     1
  0
DICTIONARY
  5
1FA3
102
{ACAD_REACTORS
330
1FA2
102
}
330
1FA2
100
AcDbDictionary
281
     1
  0
DICTIONARY
  5
1FAF
102
{ACAD_REACTORS
330
1FA2
102
}
330
1FA2
100
AcDbDictionary
281
     1
  3
Model
350
1FB7
  3
ﾚｲｱｳﾄ1
350
1FB3
  0
DICTIONARY
  5
2025
102
{ACAD_REACTORS
330
1FA2
102
}
330
1FA2
100
AcDbDictionary
281
     1
  3
ByBlock
350
202E
  3
ByLayer
350
2026
  3
Global
350
2036
  0
DICTIONARY
  5
2074
102
{ACAD_REACTORS
330
1FA2
102
}
330
1FA2
100
AcDbDictionary
281
     1
  3
Standard
350
2075
  0
DICTIONARY
  5
1FAC
102
{ACAD_REACTORS
330
1FA2
102
}
330
1FA2
100
AcDbDictionary
281
     1
  3
Standard
350
1FAD
  0
DICTIONARY
  5
1FAE
102
{ACAD_REACTORS
330
1FA2
102
}
330
1FA2
100
AcDbDictionary
281
     1
  0
ACDBDICTIONARYWDFLT
  5
1FA4
102
{ACAD_REACTORS
330
1FA2
102
}
330
1FA2
100
AcDbDictionary
281
     1
  3
Normal
350
1FA5
100
AcDbDictionaryWithDefault
340
1FA5
  0
DICTIONARY
  5
2052
102
{ACAD_REACTORS
330
1FA2
102
}
330
1FA2
100
AcDbDictionary
281
     1
  3
A0
350
2053
  3
A1
350
2054
  3
A2
350
2055
  3
A3
350
2056
  3
A4
350
2057
  3
A5
350
2058
  3
A6
350
2059
  3
A7
350
205A
  3
A8
350
205B
  3
A9
350
205C
  3
B0
350
205D
  3
B1
350
205E
  3
B2
350
205F
  3
B3
350
2060
  3
B4
350
2061
  3
B5
350
2062
  3
B6
350
2063
  3
B7
350
2064
  3
B8
350
2065
  3
B9
350
2066
  3
C0
350
2067
  3
C1
350
2068
  3
C2
350
2069
  3
C3
350
206A
  3
C4
350
206B
  3
C5
350
206C
  3
C6
350
206D
  3
C7
350
206E
  3
C8
350
206F
  3
C9
350
2070
  3
D0
350
2071
  3
D1
350
2072
  3
D2
350
2073
  0
DICTIONARY
  5
2050
102
{ACAD_REACTORS
330
1FA2
102
}
330
1FA2
100
AcDbDictionary
281
     1
  3
Standard
350
2051
  0
DICTIONARY
  5
203E
102
{ACAD_REACTORS
330
1FA2
102
}
330
1FA2
100
AcDbDictionary
281
     1
  3
2dWireframe
350
2044
  3
3D Hidden
350
2046
  3
3dWireframe
350
2045
  3
Basic
350
2043
  3
Brighten
350
204A
  3
ColorChange
350
204E
  3
Conceptual
350
2047
  3
Dim
350
2049
  3
Facepattern
350
204D
  3
Flat
350
203F
  3
FlatWithEdges
350
2040
  3
Gouraud
350
2041
  3
GouraudWithEdges
350
2042
  3
Linepattern
350
204C
  3
Realistic
350
2048
  3
Thicken
350
204B
  0
XRECORD
  5
243A
102
{ACAD_REACTORS
330
1FA2
102
}
330
1FA2
100
AcDbXrecord
280
     1
 90
        1
330
2051
  0
DICTIONARY
  5
2022
102
{ACAD_REACTORS
330
1FA2
102
}
330
1FA2
100
AcDbDictionary
281
     1
  3
CANNOSCALE
350
2455
  3
CMLEADERSTYLE
350
2454
  3
CTABLESTYLE
350
2453
  3
DIMASSOC
350
2023
  3
INDEXCTL
350
2457
  3
SORTENTS
350
2456
  0
DICTIONARY
  5
20D5
102
{ACAD_REACTORS
330
1FA2
102
}
330
1FA2
100
AcDbDictionary
281
     1
  3
AcmStdDictionary
350
20E2
  0
ACAD_PROXY_OBJECT
  5
2572
102
{ACAD_REACTORS
330
1FA2
102
}
330
1FA2
100
AcDbProxyObject
 90
      499
 91
      517
 95
   917527
 70
     0
 93
       32
310
9014220038
330
0
 94
        0
  0
DICTIONARY
  5
207E
102
{ACAD_REACTORS
330
1FA2
102
}
330
1FA2
100
AcDbDictionary
281
     1
  0
DICTIONARY
  5
210B
102
{ACAD_REACTORS
330
1FA2
102
}
330
1FA2
100
AcDbDictionary
281
     1
  0
XRECORD
  5
2561
102
{ACAD_REACTORS
330
1FA2
102
}
330
1FA2
100
AcDbXrecord
280
     1
  1
DWGPROPS COOKIE
  2

  3

  4

  6

  7

  8
m
  9

300
=
301
=
302
=
303
=
304
=
305
=
306
=
307
=
308
=
309
=
 40
0.2306143171296296
 41
2452488.423138738
 42
2454750.480483576
  1

 90
        0
  0
XRECORD
  5
2567
102
{ACAD_REACTORS
330
2441
102
}
330
2441
100
AcDbXrecord
280
     1
102
VTR_0.000_0.000_1.000_1.000_VISUALSTYLE
340
2044
102
VTR_0.000_0.000_1.000_1.000_GRIDDISPLAY
 70
     3
102
VTR_0.000_0.000_1.000_1.000_GRIDMAJOR
 70
     5
102
VTR_0.000_0.000_1.000_1.000_DEFAULTLIGHTING
280
     1
102
VTR_0.000_0.000_1.000_1.000_DEFAULTLIGHTINGTYPE
 70
     1
102
VTR_0.000_0.000_1.000_1.000_BRIGHTNESS
141
0.0
102
VTR_0.000_0.000_1.000_1.000_CONTRAST
142
0.0
  0
DICTIONARY
  5
25CA
102
{ACAD_REACTORS
330
25C9
102
}
330
25C9
100
AcDbDictionary
281
     1
  0
XRECORD
  5
2436
102
{ACAD_REACTORS
330
2435
102
}
330
2435
100
AcDbXrecord
280
     1
290
     1
  0
XRECORD
  5
256D
102
{ACAD_REACTORS
330
256C
102
}
330
256C
100
AcDbXrecord
280
     1
102
CAMERAPLOTTABLE
 70
     0
102
VISUALSTYLE
340
2044
  0
XRECORD
  5
25B5
102
{ACAD_REACTORS
330
1FE0
102
}
330
1FE0
100
AcDbXrecord
280
     1
340
1FB4
  0
SORTENTSTABLE
  5
2404
102
{ACAD_REACTORS
330
1FE0
102
}
330
1FE0
100
AcDbSortentsTable
330
1FB4
331
2348
  5
2349
331
2309
  5
230A
331
22D2
  5
22D3
331
23FD
  5
23FE
331
23C6
  5
23C7
331
2350
  5
2351
331
2311
  5
2312
331
22DA
  5
22DB
331
2387
  5
2388
331
23CE
  5
23CF
331
2358
  5
2359
331
2319
  5
231A
331
22E2
  5
22E3
331
238F
  5
2390
331
23D6
  5
23D7
331
2321
  5
2322
331
2397
  5
2398
331
239F
  5
23A0
331
1D1F
  5
1D1F
331
22EA
  5
22EB
331
22B3
  5
22B4
331
2329
  5
232A
331
2360
  5
2361
331
1D27
  5
1D27
331
23DE
  5
23DF
331
23A7
  5
23A8
331
22F2
  5
22F3
331
22BB
  5
22BC
331
2331
  5
2332
331
2368
  5
2369
331
D98
  5
D98
331
23E6
  5
23E7
331
2339
  5
233A
331
22FA
  5
22FB
331
22C3
  5
22C4
331
2370
  5
2371
331
23AF
  5
23B0
331
23EE
  5
23EF
331
2341
  5
2342
331
2302
  5
2303
331
22CB
  5
22CC
331
2378
  5
2379
331
23B7
  5
23B8
331
23F6
  5
23F7
331
23BF
  5
23C0
331
EC0
  5
EC0
331
EC8
  5
EC8
331
2349
  5
234A
331
230A
  5
230B
331
22D3
  5
22D4
331
2380
  5
2381
331
23FE
  5
23FF
331
23C7
  5
23C8
331
2312
  5
2313
331
22DB
  5
22DC
331
2351
  5
2352
331
2388
  5
2389
331
2359
  5
235A
331
231A
  5
231B
331
22E3
  5
22E4
331
2390
  5
2391
331
23CF
  5
23D0
331
23D7
  5
23D8
331
2322
  5
2323
331
2398
  5
2399
331
C79
  5
C79
331
232A
  5
232B
331
22EB
  5
22EC
331
22B4
  5
22B5
331
2361
  5
2362
331
23A0
  5
23A1
331
1D28
  5
1D28
331
D91
  5
D91
331
23DF
  5
23E0
331
2332
  5
2333
331
22F3
  5
22F4
331
22BC
  5
22BD
331
2369
  5
236A
331
23A8
  5
23A9
331
D99
  5
D99
331
1D60
  5
1D61
331
23E7
  5
23E8
331
23B0
  5
23B1
331
22FB
  5
22FC
331
22C4
  5
22C5
331
233A
  5
233B
331
2371
  5
2372
331
23EF
  5
23F0
331
23B8
  5
23B9
331
2303
  5
2304
331
22CC
  5
22CD
331
2342
  5
2343
331
2379
  5
237A
331
23F7
  5
23F8
331
EC1
  5
EC1
331
234A
  5
234B
331
230B
  5
230C
331
22D4
  5
22D5
331
2381
  5
2382
331
23C0
  5
23C1
331
23FF
  5
2400
331
23C8
  5
23C9
331
2352
  5
2353
331
2313
  5
2314
331
22DC
  5
22DD
331
2389
  5
238A
331
23D0
  5
23D1
331
235A
  5
235B
331
231B
  5
231C
331
22E4
  5
22E5
331
2391
  5
2392
331
2323
  5
2324
331
2399
  5
239A
331
1D19
  5
1D19
331
C7A
  5
C7A
331
1D21
  5
1D21
331
23D8
  5
23D9
331
23A1
  5
23A2
331
22EC
  5
22ED
331
D92
  5
D92
331
1D29
  5
1D2A
331
22B5
  5
22B6
331
232B
  5
232C
331
2362
  5
2363
331
23E0
  5
23E1
331
2333
  5
2334
331
1D61
  5
22AE
331
D9A
  5
D9A
331
22BD
  5
22BE
331
22F4
  5
22F5
331
236A
  5
236B
331
23A9
  5
23AA
331
23E8
  5
23E9
331
233B
  5
233C
331
22FC
  5
22FD
331
22C5
  5
22C6
331
2372
  5
2373
331
23B1
  5
23B2
331
23F0
  5
23F1
331
2343
  5
2344
331
2304
  5
2305
331
22CD
  5
22CE
331
237A
  5
237B
331
23B9
  5
23BA
331
EC2
  5
EC2
331
ECA
  5
ECA
331
23F8
  5
23F9
331
23C1
  5
23C2
331
230C
  5
230D
331
22D5
  5
22D6
331
234B
  5
234C
331
2382
  5
2383
331
2400
  5
2401
331
23C9
  5
23CA
331
2314
  5
2315
331
22DD
  5
22DE
331
2353
  5
2354
331
238A
  5
238B
331
235B
  5
235C
331
231C
  5
231D
331
22E5
  5
22E6
331
2392
  5
2393
331
23D1
  5
23D2
331
2324
  5
2325
331
239A
  5
239B
331
1D1A
  5
1D1A
331
23D9
  5
23DA
331
232C
  5
232D
331
22ED
  5
22EE
331
1D2A
  5
1D2C
331
D93
  5
D93
331
22B6
  5
22B7
331
2363
  5
2364
331
23A2
  5
23A3
331
23E1
  5
23E2
331
2334
  5
2335
331
22F5
  5
22F6
331
D9B
  5
D9B
331
22BE
  5
22BF
331
236B
  5
236C
331
23AA
  5
23AB
331
23E9
  5
23EA
331
23B2
  5
23B3
331
22FD
  5
22FE
331
22C6
  5
22C7
331
233C
  5
233D
331
2373
  5
2374
331
23F1
  5
23F2
331
2344
  5
2345
331
22CE
  5
22CF
331
2305
  5
2306
331
237B
  5
237C
331
23BA
  5
23BB
331
EC3
  5
EC3
331
234C
  5
234D
331
230D
  5
230E
331
2383
  5
2384
331
23C2
  5
23C3
331
23F9
  5
23FA
331
23CA
  5
23CB
331
2354
  5
2355
331
2315
  5
2316
331
22DE
  5
22DF
331
238B
  5
238C
331
2401
  5
2403
331
23D2
  5
23D3
331
231D
  5
231E
331
22E6
  5
22E7
331
235C
  5
235D
331
2393
  5
2394
331
2325
  5
2326
331
239B
  5
239C
331
1D1B
  5
1D1B
331
C94
  5
C94
331
23A3
  5
23A4
331
22EE
  5
22EF
331
22B7
  5
22B8
331
232D
  5
232E
331
2364
  5
2365
331
23DA
  5
23DB
331
D94
  5
D94
331
2335
  5
2336
331
22BF
  5
22C0
331
22F6
  5
22F7
331
236C
  5
236D
331
23AB
  5
23AC
331
23E2
  5
23E3
331
233D
  5
233E
331
22FE
  5
22FF
331
22C7
  5
22C8
331
2374
  5
2375
331
23B3
  5
23B4
331
23EA
  5
23EB
331
2306
  5
2307
331
22CF
  5
22D0
331
237C
  5
237D
331
23BB
  5
23BC
331
23F2
  5
23F3
331
EC4
  5
EC4
331
23C3
  5
23C4
331
230E
  5
230F
331
234D
  5
234E
331
2384
  5
2385
331
23FA
  5
23FB
331
2316
  5
2317
331
22DF
  5
22E0
331
2355
  5
2356
331
238C
  5
238D
331
23CB
  5
23CC
331
235D
  5
235E
331
231E
  5
231F
331
22E7
  5
22E8
331
2394
  5
2395
331
23D3
  5
23D4
331
2326
  5
2327
331
239C
  5
239D
331
1D1C
  5
1D1C
331
22B0
  5
22B1
331
1D24
  5
1D24
331
2365
  5
2366
331
232E
  5
232F
331
22EF
  5
22F0
331
22B8
  5
22B9
331
23A4
  5
23A5
331
23DB
  5
23DC
331
1D2C
  5
1D60
331
D95
  5
D95
331
23AC
  5
23AD
331
236D
  5
236E
331
2336
  5
2337
331
22F7
  5
22F8
331
22C0
  5
22C1
331
23E3
  5
23E4
331
23B4
  5
23B5
331
2375
  5
2376
331
22FF
  5
2300
331
22C8
  5
22C9
331
233E
  5
233F
331
23EB
  5
23EC
331
237D
  5
237E
331
2307
  5
2308
331
23BC
  5
23BD
331
23F3
  5
23F4
331
EC5
  5
EC5
331
22D0
  5
22D1
331
23FB
  5
23FC
331
2385
  5
2386
331
234E
  5
234F
331
230F
  5
2310
331
22D8
  5
22D9
331
23C4
  5
23C5
331
23CC
  5
23CD
331
238D
  5
238E
331
2356
  5
2357
331
2317
  5
2318
331
22E0
  5
22E1
331
165D
  5
165D
331
23D4
  5
23D5
331
2395
  5
2396
331
231F
  5
2320
331
235E
  5
235F
331
239D
  5
239E
331
2327
  5
2328
331
1D1D
  5
1D1D
331
22E8
  5
22E9
331
22B1
  5
22B2
331
1D25
  5
1D25
331
23DC
  5
23DD
331
23A5
  5
23A6
331
2366
  5
2367
331
22F0
  5
22F1
331
22B9
  5
22BA
331
232F
  5
2330
331
D96
  5
D96
331
23E4
  5
23E5
331
236E
  5
236F
331
2337
  5
2338
331
22F8
  5
22F9
331
22C1
  5
22C2
331
23AD
  5
23AE
331
23EC
  5
23ED
331
2376
  5
2377
331
233F
  5
2340
331
2300
  5
2301
331
22C9
  5
22CA
331
23B5
  5
23B6
331
23F4
  5
23F5
331
23BD
  5
23BE
331
237E
  5
237F
331
2347
  5
2348
331
EC6
  5
EC6
331
2308
  5
2309
331
22D1
  5
22D2
331
23FC
  5
23FD
331
23C5
  5
23C6
331
2386
  5
2387
331
2310
  5
2311
331
22D9
  5
22DA
331
234F
  5
2350
331
162E
  5
162E
331
238E
  5
238F
331
2357
  5
2358
331
22E1
  5
22E2
331
2318
  5
2319
331
23CD
  5
23CE
331
2396
  5
2397
331
235F
  5
2360
331
2320
  5
2321
331
23D5
  5
23D6
331
239E
  5
239F
331
1D1E
  5
1D1E
331
2328
  5
2329
331
22E9
  5
22EA
331
22B2
  5
22B3
331
1D26
  5
1D26
331
23DD
  5
23DE
331
2330
  5
2331
331
22F1
  5
22F2
331
22BA
  5
22BB
331
2367
  5
2368
331
23A6
  5
23A7
331
D97
  5
D97
331
23E5
  5
23E6
331
23AE
  5
23AF
331
2338
  5
2339
331
22F9
  5
22FA
331
22C2
  5
22C3
331
236F
  5
2370
331
23ED
  5
23EE
331
23B6
  5
23B7
331
2301
  5
2302
331
22CA
  5
22CB
331
2340
  5
2341
331
2377
  5
2378
331
23F5
  5
23F6
331
237F
  5
2380
331
23BE
  5
23BF
  0
XRECORD
  5
25B4
102
{ACAD_REACTORS
330
1FE2
102
}
330
1FE2
100
AcDbXrecord
280
     1
340
1FB0
  0
XRECORD
  5
2563
102
{ACAD_REACTORS
330
2562
102
}
330
2562
100
AcDbXrecord
280
     1
 70
     1
  0
XRECORD
  5
2565
102
{ACAD_REACTORS
330
2562
102
}
330
2562
100
AcDbXrecord
280
     1
340
1FA9
  0
XRECORD
  5
2566
102
{ACAD_REACTORS
330
2562
102
}
330
2562
100
AcDbXrecord
280
     1
340
1FA9
  0
XRECORD
  5
2564
102
{ACAD_REACTORS
330
2562
102
}
330
2562
100
AcDbXrecord
280
     1
340
1FA9
  0
LAYOUT
  5
1FB7
102
{ACAD_XDICTIONARY
360
256A
102
}
102
{ACAD_REACTORS
330
1FAF
102
}
330
1FAF
100
AcDbPlotSettings
  1

  2
SII LP-2150 (D-SCAN C2)
  4

  6

 40
0.0
 41
0.0
 42
0.0
 43
0.0
 44
0.0
 45
0.0
 46
0.0
 47
0.0
 48
0.0
 49
0.0
140
0.0
141
0.0
142
1.0
143
1.0
 70
  1712
 72
     0
 73
     0
 74
     0
  7

 75
     0
147
1.0
148
0.0
149
0.0
100
AcDbLayout
  1
Model
 70
     1
 71
     0
 10
0.0
 20
0.0
 11
12.0
 21
9.0
 12
0.0
 22
0.0
 32
0.0
 14
0.0
 24
0.0
 34
0.0
 15
0.0
 25
0.0
 35
0.0
146
0.0
 13
0.0
 23
0.0
 33
0.0
 16
1.0
 26
0.0
 36
0.0
 17
0.0
 27
1.0
 37
0.0
 76
     0
330
1FB4
  0
LAYOUT
  5
1FB3
102
{ACAD_XDICTIONARY
360
2568
102
}
102
{ACAD_REACTORS
330
1FAF
102
}
330
1FAF
100
AcDbPlotSettings
  1

  2
SII LP-2150 (D-SCAN C2)
  4

  6

 40
0.0
 41
0.0
 42
0.0
 43
0.0
 44
0.0
 45
0.0
 46
0.0
 47
0.0
 48
0.0
 49
0.0
140
0.0
141
0.0
142
1.0
143
1.0
 70
   688
 72
     0
 73
     0
 74
     5
  7

 75
    16
147
1.0
148
0.0
149
0.0
100
AcDbLayout
  1
ﾚｲｱｳﾄ1
 70
     1
 71
     1
 10
0.0
 20
0.0
 11
12.0
 21
9.0
 12
0.0
 22
0.0
 32
0.0
 14
1.000000000000000E+20
 24
1.000000000000000E+20
 34
1.000000000000000E+20
 15
-1.000000000000000E+20
 25
-1.000000000000000E+20
 35
-1.000000000000000E+20
146
0.0
 13
0.0
 23
0.0
 33
0.0
 16
1.0
 26
0.0
 36
0.0
 17
0.0
 27
1.0
 37
0.0
 76
     0
330
1FB0
  0
ACAD_PROXY_OBJECT
  5
202E
102
{ACAD_XDICTIONARY
360
202F
102
}
102
{ACAD_REACTORS
330
2025
102
}
330
2025
100
AcDbProxyObject
 90
      499
 91
      508
 95
   917527
 70
     0
 93
     1340
310
42109E509B1BD8DAC02004014080404555555555555953FAA155555555555654FEA9AA400014080404555555555555953FAA155555555555654FEA9AA400000000000000E03F4080404555555555555953FAA155555555555654FEA9AA4014080404555555555555953FAA155555555555654FEA9AA4010201011555555555
310
55654FEA8555555555555953FAA6A9005020101155555555555654FEA8555555555555953FAA6A9000
 94
        0
  0
ACAD_PROXY_OBJECT
  5
2026
102
{ACAD_XDICTIONARY
360
2027
102
}
102
{ACAD_REACTORS
330
2025
102
}
330
2025
100
AcDbProxyObject
 90
      499
 91
      508
 95
   917527
 70
     0
 93
     1340
310
42109E53185E595C802004014080404555555555555953FAA155555555555654FEA9AA400014080404555555555555953FAA155555555555654FEA9AA400000000000000E03F4080404555555555555953FAA155555555555654FEA9AA4014080404555555555555953FAA155555555555654FEA9AA4010201011555555555
310
55654FEA8555555555555953FAA6A9005020101155555555555654FEA8555555555555953FAA6A9000
 94
        0
  0
ACAD_PROXY_OBJECT
  5
2036
102
{ACAD_XDICTIONARY
360
2037
102
}
102
{ACAD_REACTORS
330
2025
102
}
330
2025
100
AcDbProxyObject
 90
      499
 91
      508
 95
   917527
 70
     0
 93
     1332
310
41D1DB1BD8985B002004014080404555555555555953FAA155555555555654FEA9AA400014080404555555555555953FAA155555555555654FEA9AA400000000000000E03F4080404555555555555953FAA155555555555654FEA9AA4014080404555555555555953FAA155555555555654FEA9AA401020101155555555555
310
654FEA8555555555555953FAA6A9005020101155555555555654FEA8555555555555953FAA6A9000
 94
        0
  0
ACAD_PROXY_OBJECT
  5
2075
102
{ACAD_REACTORS
330
2074
102
}
330
2074
100
AcDbProxyObject
 90
      499
 91
      512
 95
   917527
 70
     0
 93
      618
310
40901902A4063FBFFFFFE056BD1B81E855B9FC0AD7A3703D0AD73F4254DD185B99185C990000AD7A3703D0AC73F90141901A02B5E8DC0F42B1CFC02B5E8DC0F42B1CFE5764000000000000300FC6
340
1FA9
340
0
340
1FA7
340
0
 94
        0
1001
ACAD_MLEADERVER
1070
     2
  0
MLINESTYLE
  5
1FAD
102
{ACAD_REACTORS
330
1FAC
102
}
330
1FAC
100
AcDbMlineStyle
  2
STANDARD
 70
     0
  3

 62
   256
 51
90.0
 52
90.0
 71
     2
 49
0.5
 62
   256
  6
BYLAYER
 49
-0.5
 62
   256
  6
BYLAYER
  0
ACDBPLACEHOLDER
  5
1FA5
102
{ACAD_REACTORS
330
1FA4
102
}
330
1FA4
  0
ACAD_PROXY_OBJECT
  5
2053
102
{ACAD_REACTORS
330
2052
102
}
330
2052
100
AcDbProxyObject
 90
      499
 91
      511
 95
   917527
 70
     0
 93
       49
310
904313A31005B8
 94
        0
  0
ACAD_PROXY_OBJECT
  5
2054
102
{ACAD_REACTORS
330
2052
102
}
330
2052
100
AcDbProxyObject
 90
      499
 91
      511
 95
   917527
 70
     0
 93
      113
310
904313A3200400000000000000406B
 94
        0
  0
ACAD_PROXY_OBJECT
  5
2055
102
{ACAD_REACTORS
330
2052
102
}
330
2052
100
AcDbProxyObject
 90
      499
 91
      511
 95
   917527
 70
     0
 93
      113
310
904313A34004000000000000104042
 94
        0
  0
ACAD_PROXY_OBJECT
  5
2056
102
{ACAD_REACTORS
330
2052
102
}
330
2052
100
AcDbProxyObject
 90
      499
 91
      511
 95
   917527
 70
     0
 93
      113
310
904313A3500400000000000014406B
 94
        0
  0
ACAD_PROXY_OBJECT
  5
2057
102
{ACAD_REACTORS
330
2052
102
}
330
2052
100
AcDbProxyObject
 90
      499
 91
      511
 95
   917527
 70
     0
 93
      113
310
904313A38004000000000000204042
 94
        0
  0
ACAD_PROXY_OBJECT
  5
2058
102
{ACAD_REACTORS
330
2052
102
}
330
2052
100
AcDbProxyObject
 90
      499
 91
      511
 95
   917527
 70
     0
 93
      121
310
905313A3130004000000000000244051
 94
        0
  0
ACAD_PROXY_OBJECT
  5
2059
102
{ACAD_REACTORS
330
2052
102
}
330
2052
100
AcDbProxyObject
 90
      499
 91
      511
 95
   917527
 70
     0
 93
      121
310
905313A3136004000000000000304009
 94
        0
  0
ACAD_PROXY_OBJECT
  5
205A
102
{ACAD_REACTORS
330
2052
102
}
330
2052
100
AcDbProxyObject
 90
      499
 91
      511
 95
   917527
 70
     0
 93
      121
310
905313A3230004000000000000344051
 94
        0
  0
ACAD_PROXY_OBJECT
  5
205B
102
{ACAD_REACTORS
330
2052
102
}
330
2052
100
AcDbProxyObject
 90
      499
 91
      511
 95
   917527
 70
     0
 93
      121
310
905313A33300040000000000003E4009
 94
        0
  0
ACAD_PROXY_OBJECT
  5
205C
102
{ACAD_REACTORS
330
2052
102
}
330
2052
100
AcDbProxyObject
 90
      499
 91
      511
 95
   917527
 70
     0
 93
      121
310
905313A3430004000000000000444051
 94
        0
  0
ACAD_PROXY_OBJECT
  5
205D
102
{ACAD_REACTORS
330
2052
102
}
330
2052
100
AcDbProxyObject
 90
      499
 91
      511
 95
   917527
 70
     0
 93
      121
310
905313A3530004000000000000494009
 94
        0
  0
ACAD_PROXY_OBJECT
  5
205E
102
{ACAD_REACTORS
330
2052
102
}
330
2052
100
AcDbProxyObject
 90
      499
 91
      511
 95
   917527
 70
     0
 93
      129
310
906313A313030004000000000000594038
 94
        0
  0
ACAD_PROXY_OBJECT
  5
205F
102
{ACAD_REACTORS
330
2052
102
}
330
2052
100
AcDbProxyObject
 90
      499
 91
      511
 95
   917527
 70
     0
 93
      113
310
904323A31000000000000000010140
 94
        0
  0
ACAD_PROXY_OBJECT
  5
2060
102
{ACAD_REACTORS
330
2052
102
}
330
2052
100
AcDbProxyObject
 90
      499
 91
      511
 95
   917527
 70
     0
 93
      113
310
904343A31000000000000000410159
 94
        0
  0
ACAD_PROXY_OBJECT
  5
2061
102
{ACAD_REACTORS
330
2052
102
}
330
2052
100
AcDbProxyObject
 90
      499
 91
      511
 95
   917527
 70
     0
 93
      113
310
904383A31000000000000000810140
 94
        0
  0
ACAD_PROXY_OBJECT
  5
2062
102
{ACAD_REACTORS
330
2052
102
}
330
2052
100
AcDbProxyObject
 90
      499
 91
      511
 95
   917527
 70
     0
 93
      121
310
90531303A31000000000000000910140
 94
        0
  0
ACAD_PROXY_OBJECT
  5
2063
102
{ACAD_REACTORS
330
2052
102
}
330
2052
100
AcDbProxyObject
 90
      499
 91
      511
 95
   917527
 70
     0
 93
      129
310
9063130303A31000000000000001650102
 94
        0
  0
ACAD_PROXY_OBJECT
  5
2064
102
{ACAD_REACTORS
330
2052
102
}
330
2052
100
AcDbProxyObject
 90
      499
 91
      511
 95
   917527
 70
     0
 93
      265
310
90F312F31323822203D2031272D302200000000000000200FC00000000000028402B
 94
        0
  0
ACAD_PROXY_OBJECT
  5
2065
102
{ACAD_REACTORS
330
2052
102
}
330
2052
100
AcDbProxyObject
 90
      499
 91
      511
 95
   917527
 70
     0
 93
      257
310
90E312F363422203D2031272D302200000000000000240FC000000000000284000
 94
        0
  0
ACAD_PROXY_OBJECT
  5
2066
102
{ACAD_REACTORS
330
2052
102
}
330
2052
100
AcDbProxyObject
 90
      499
 91
      511
 95
   917527
 70
     0
 93
      257
310
90E312F333222203D2031272D302200000000000000280FC000000000000284040
 94
        0
  0
ACAD_PROXY_OBJECT
  5
2067
102
{ACAD_REACTORS
330
2052
102
}
330
2052
100
AcDbProxyObject
 90
      499
 91
      511
 95
   917527
 70
     0
 93
      257
310
90E312F313622203D2031272D3022000000000000002C0FC000000000000284000
 94
        0
  0
ACAD_PROXY_OBJECT
  5
2068
102
{ACAD_REACTORS
330
2052
102
}
330
2052
100
AcDbProxyObject
 90
      499
 91
      511
 95
   917527
 70
     0
 93
      257
310
90E332F333222203D2031272D3022000000000000002E0FC000000000000284040
 94
        0
  0
ACAD_PROXY_OBJECT
  5
2069
102
{ACAD_REACTORS
330
2052
102
}
330
2052
100
AcDbProxyObject
 90
      499
 91
      511
 95
   917527
 70
     0
 93
      249
310
90D312F3822203D2031272D302200000000000000300FC000000000000284040
 94
        0
  0
ACAD_PROXY_OBJECT
  5
206A
102
{ACAD_REACTORS
330
2052
102
}
330
2052
100
AcDbProxyObject
 90
      499
 91
      511
 95
   917527
 70
     0
 93
      257
310
90E332F313622203D2031272D302200000000000000320FC000000000000284040
 94
        0
  0
ACAD_PROXY_OBJECT
  5
206B
102
{ACAD_REACTORS
330
2052
102
}
330
2052
100
AcDbProxyObject
 90
      499
 91
      511
 95
   917527
 70
     0
 93
      249
310
90D312F3422203D2031272D302200000000000000340FC000000000000284040
 94
        0
  0
ACAD_PROXY_OBJECT
  5
206C
102
{ACAD_REACTORS
330
2052
102
}
330
2052
100
AcDbProxyObject
 90
      499
 91
      511
 95
   917527
 70
     0
 93
      249
310
90D332F3822203D2031272D302200000000000000360FC000000000000284040
 94
        0
  0
ACAD_PROXY_OBJECT
  5
206D
102
{ACAD_REACTORS
330
2052
102
}
330
2052
100
AcDbProxyObject
 90
      499
 91
      511
 95
   917527
 70
     0
 93
      249
310
90D312F3222203D2031272D302200000000000000380FC000000000000284040
 94
        0
  0
ACAD_PROXY_OBJECT
  5
206E
102
{ACAD_REACTORS
330
2052
102
}
330
2052
100
AcDbProxyObject
 90
      499
 91
      511
 95
   917527
 70
     0
 93
      249
310
90D332F3422203D2031272D3022000000000000003A0FC000000000000284040
 94
        0
  0
ACAD_PROXY_OBJECT
  5
206F
102
{ACAD_REACTORS
330
2052
102
}
330
2052
100
AcDbProxyObject
 90
      499
 91
      511
 95
   917527
 70
     0
 93
      169
310
90B3122203D2031272D3022004000000000000284000
 94
        0
  0
ACAD_PROXY_OBJECT
  5
2070
102
{ACAD_REACTORS
330
2052
102
}
330
2052
100
AcDbProxyObject
 90
      499
 91
      511
 95
   917527
 70
     0
 93
      265
310
90F312D312F3222203D2031272D3022000000000000003E0FC00000000000028402B
 94
        0
  0
ACAD_PROXY_OBJECT
  5
2071
102
{ACAD_REACTORS
330
2052
102
}
330
2052
100
AcDbProxyObject
 90
      499
 91
      511
 95
   917527
 70
     0
 93
      233
310
90B3322203D2031272D30220000000000000002100000000000000284028
 94
        0
  0
ACAD_PROXY_OBJECT
  5
2072
102
{ACAD_REACTORS
330
2052
102
}
330
2052
100
AcDbProxyObject
 90
      499
 91
      511
 95
   917527
 70
     0
 93
      233
310
90B3622203D2031272D30220000000000000006100000000000000284000
 94
        0
  0
ACAD_PROXY_OBJECT
  5
2073
102
{ACAD_REACTORS
330
2052
102
}
330
2052
100
AcDbProxyObject
 90
      499
 91
      511
 95
   917527
 70
     0
 93
      257
310
90E31272D3022203D2031272D3022000000000000000A100000000000000284000
 94
        0
  0
ACAD_PROXY_OBJECT
  5
2051
102
{ACAD_XDICTIONARY
360
2438
102
}
102
{ACAD_REACTORS
330
2050
102
}
330
2050
100
AcDbProxyObject
 90
      499
 91
      510
 95
   917527
 70
     0
 93
     1849
310
4254DD185B99185C990028B81E85EB51B8AE3F2E07A17AD46E2B8FC02B5E8DC0F42B1CFD028000000C1008070000C3001FDFF8000000C1003FBFF000000182007F7FE00000030400FEFFC00000060801FDFF8000000C1003FBFF00000018200000000000000681FA0B0000001820100E000186003FBFF000000182007F7FE0
310
0000030400FEFFC00000060801FDFF8000000C1003FBFF000000182007F7FE000000304000AD7A3703D0AC73F4160000003040201C00030C007F7FE00000030400FEFFC00000060801FDFF8000000C1003FBFF000000182007F7FE00000030400FEFFC000000608000
340
1FA7
340
1FA7
340
1FA7
 94
        0
  0
ACAD_PROXY_OBJECT
  5
2044
102
{ACAD_REACTORS
330
203E
102
}
330
203E
100
AcDbProxyObject
 90
      499
 91
      509
 95
   917527
 70
     0
 93
      444
310
430C9915DA5C99599C985B59401049028333333333333E3BF0000000000000FB0107901411070040501600405405064090741402480A0340
 94
        0
1001
ACAD
1000
AcDbSavedByObjectVersion
1070
     0
  0
ACAD_PROXY_OBJECT
  5
2046
102
{ACAD_REACTORS
330
203E
102
}
330
203E
100
AcDbProxyObject
 90
      499
 91
      509
 95
   917527
 70
     0
 93
      508
310
428CD108121A5919195B8010640502408333333333333E3BF0000000000000FB01079024090700405020000000000001110200405405064090740C02480A0340
 94
        0
1001
ACAD
1000
AcDbSavedByObjectVersion
1070
     0
  0
ACAD_PROXY_OBJECT
  5
2045
102
{ACAD_REACTORS
330
203E
102
}
330
203E
100
AcDbProxyObject
 90
      499
 91
      509
 95
   917527
 70
     0
 93
      444
310
430CD915DA5C99599C985B59401059028333333333333E3BF0000000000000FB0107901411070040501600405405064090741402480A0345
 94
        0
1001
ACAD
1000
AcDbSavedByObjectVersion
1070
     0
  0
ACAD_PROXY_OBJECT
  5
2043
102
{ACAD_REACTORS
330
203E
102
}
330
203E
100
AcDbProxyObject
 90
      499
 91
      509
 95
   917527
 70
     0
 93
      396
310
4190985CDA58C0107406404333333333333E3BF0000000000000FB0107A41107004050150841D405064090741402480A0358
 94
        0
1001
ACAD
1000
AcDbSavedByObjectVersion
1070
     0
  0
ACAD_PROXY_OBJECT
  5
204A
102
{ACAD_REACTORS
330
203E
102
}
330
203E
100
AcDbProxyObject
 90
      499
 91
      509
 95
   917527
 70
     0
 93
      436
310
42509C9A59DA1D195B8010C409028333333333333E3BF0000000000000FB010790141107004050150841D405064090741402480A029956
 94
        0
1001
ACAD
1000
AcDbSavedByObjectVersion
1070
     0
  0
ACAD_PROXY_OBJECT
  5
204E
102
{ACAD_REACTORS
330
203E
102
}
330
203E
100
AcDbProxyObject
 90
      499
 91
      509
 95
   917527
 70
     0
 93
      460
310
4310DBDB1BDC90DA185B99D9401104090240C333333333333E3BF0000000000000FB0108901411070040501508421405064090741402480A0354
 94
        0
1001
ACAD
1000
AcDbSavedByObjectVersion
1070
     0
  0
ACAD_PROXY_OBJECT
  5
2047
102
{ACAD_REACTORS
330
203E
102
}
330
203E
100
AcDbProxyObject
 90
      499
 91
      509
 95
   917527
 70
     0
 93
      508
310
42D0DBDB98D95C1D1D585B0010940D028333333333333E3BF0000000000000FB0107902409070040501000000000000111010841D405064090740C02480A0340
 94
        0
1001
ACAD
1000
AcDbSavedByObjectVersion
1070
     0
  0
ACAD_PROXY_OBJECT
  5
2049
102
{ACAD_REACTORS
330
203E
102
}
330
203E
100
AcDbProxyObject
 90
      499
 91
      509
 95
   917527
 70
     0
 93
      420
310
41111A5B4010B409028333333333333E3BF0000000000000FB010790141107004050150841D405064090741402480A02677FFFFFD4
 94
        0
1001
ACAD
1000
AcDbSavedByObjectVersion
1070
     0
  0
ACAD_PROXY_OBJECT
  5
204D
102
{ACAD_REACTORS
330
203E
102
}
330
203E
100
AcDbProxyObject
 90
      499
 91
      509
 95
   917527
 70
     0
 93
      452
310
43119858D95C185D1D195C9B8010F409028333333333333E3BF0000000000000FB010790141107004050150841D405064090741402480A0350
 94
        0
1001
ACAD
1000
AcDbSavedByObjectVersion
1070
     0
  0
ACAD_PROXY_OBJECT
  5
203F
102
{ACAD_REACTORS
330
203E
102
}
330
203E
100
AcDbProxyObject
 90
      499
 91
      509
 95
   917527
 70
     0
 93
      396
310
41519B185D00240901404333333333333E3BF0000000000000F9010740A41107004050150841D405064090741402480A1B5A
 94
        0
1001
ACAD
1000
AcDbSavedByObjectVersion
1070
     0
  0
ACAD_PROXY_OBJECT
  5
2040
102
{ACAD_REACTORS
330
203E
102
}
330
203E
100
AcDbProxyObject
 90
      499
 91
      509
 95
   917527
 70
     0
 93
      484
310
43919B185D15DA5D1A115919D95CC010140901404333333333333E3BF0000000000000F9010740901411070040501600405405064090741402480A1B50
 94
        0
1001
ACAD
1000
AcDbSavedByObjectVersion
1070
     0
  0
ACAD_PROXY_OBJECT
  5
2041
102
{ACAD_REACTORS
330
203E
102
}
330
203E
100
AcDbProxyObject
 90
      499
 91
      509
 95
   917527
 70
     0
 93
      420
310
4211DBDD5C985D590010240902404333333333333E3BF0000000000000F9010740A411070040501641D405064090741402480A1B55
 94
        0
1001
ACAD
1000
AcDbSavedByObjectVersion
1070
     0
  0
ACAD_PROXY_OBJECT
  5
2042
102
{ACAD_REACTORS
330
203E
102
}
330
203E
100
AcDbProxyObject
 90
      499
 91
      509
 95
   917527
 70
     0
 93
      508
310
4451DBDD5C985D5915DA5D1A115919D95CC010340902404333333333333E3BF0000000000000F9010740901411070040501600405405064090741402480A1B50
 94
        0
1001
ACAD
1000
AcDbSavedByObjectVersion
1070
     0
  0
ACAD_PROXY_OBJECT
  5
204C
102
{ACAD_REACTORS
330
203E
102
}
330
203E
100
AcDbProxyObject
 90
      499
 91
      509
 95
   917527
 70
     0
 93
      452
310
43131A5B995C185D1D195C9B8010E409028333333333333E3BF0000000000000FB010790141107004050750841D405064090741402483A0350
 94
        0
1001
ACAD
1000
AcDbSavedByObjectVersion
1070
     0
  0
ACAD_PROXY_OBJECT
  5
2048
102
{ACAD_REACTORS
330
203E
102
}
330
203E
100
AcDbProxyObject
 90
      499
 91
      509
 95
   917527
 70
     0
 93
      428
310
429499585B1A5CDD1A58C0108409028333333333333E3BF0000000000000FB01079019070040501508421405064090741402480A1B45
 94
        0
1001
ACAD
1000
AcDbSavedByObjectVersion
1070
     0
  0
ACAD_PROXY_OBJECT
  5
204B
102
{ACAD_REACTORS
330
203E
102
}
330
203E
100
AcDbProxyObject
 90
      499
 91
      509
 95
   917527
 70
     0
 93
      420
310
42151A1A58DAD95B8010D409028333333333333E3BF0000000000000FB010790141107004050150C41D405064090741402480A0354
 94
        0
1001
ACAD
1000
AcDbSavedByObjectVersion
1070
     0
  0
DICTIONARYVAR
  5
2455
102
{ACAD_REACTORS
330
2022
102
}
330
2022
100
DictionaryVariables
280
     0
  1
1:1
  0
DICTIONARYVAR
  5
2454
102
{ACAD_REACTORS
330
2022
102
}
330
2022
100
DictionaryVariables
280
     0
  1
STANDARD
  0
DICTIONARYVAR
  5
2453
102
{ACAD_REACTORS
330
2022
102
}
330
2022
100
DictionaryVariables
280
     0
  1
STANDARD
  0
DICTIONARYVAR
  5
2023
102
{ACAD_REACTORS
330
2022
102
}
330
2022
100
DictionaryVariables
280
     0
  1
1
  0
DICTIONARYVAR
  5
2457
102
{ACAD_REACTORS
330
2022
102
}
330
2022
100
DictionaryVariables
280
     0
  1
0
  0
DICTIONARYVAR
  5
2456
102
{ACAD_REACTORS
330
2022
102
}
330
2022
100
DictionaryVariables
280
     0
  1
127
  0
DICTIONARY
  5
20E2
102
{ACAD_REACTORS
330
20D5
102
}
330
20D5
100
AcDbDictionary
281
     1
  0
DICTIONARY
  5
256A
330
1FB7
100
AcDbDictionary
280
     1
281
     1
  3
ACAD_XREC_ROUNDTRIP
360
256B
  0
DICTIONARY
  5
2568
330
1FB3
100
AcDbDictionary
280
     1
281
     1
  3
ACAD_XREC_ROUNDTRIP
360
2569
  0
DICTIONARY
  5
202F
330
202E
100
AcDbDictionary
280
     1
281
     1
  3
ACAD_XREC_ROUNDTRIP
360
256F
  3
BUMPTILE
360
2031
  3
DIFFUSETILE
360
2030
  3
OPACITYTILE
360
2034
  3
REFLECTIONTILE
360
2033
  3
REFRACTIONTILE
360
2035
  3
SPECULARTILE
360
2032
  0
DICTIONARY
  5
2027
330
2026
100
AcDbDictionary
280
     1
281
     1
  3
ACAD_XREC_ROUNDTRIP
360
256E
  3
BUMPTILE
360
2029
  3
DIFFUSETILE
360
2028
  3
OPACITYTILE
360
202C
  3
REFLECTIONTILE
360
202B
  3
REFRACTIONTILE
360
202D
  3
SPECULARTILE
360
202A
  0
DICTIONARY
  5
2037
330
2036
100
AcDbDictionary
280
     1
281
     1
  3
ACAD_XREC_ROUNDTRIP
360
2570
  3
BUMPTILE
360
2039
  3
DIFFUSETILE
360
2038
  3
OPACITYTILE
360
203C
  3
REFLECTIONTILE
360
203B
  3
REFRACTIONTILE
360
203D
  3
SPECULARTILE
360
203A
  0
DICTIONARY
  5
2438
330
2051
100
AcDbDictionary
280
     1
281
     1
  3
ACAD_ROUNDTRIP_2008_TABLESTYLE_CELLSTYLEMAP
360
2560
  3
ACAD_XREC_ROUNDTRIP
360
2571
  0
XRECORD
  5
256B
102
{ACAD_REACTORS
330
256A
102
}
330
256A
100
AcDbXrecord
280
     1
102
SHADEPLOT
 70
     0
102
SHADEPLOTRESLEVEL
 70
     2
102
SHADEPLOTCUSTOMDPI
 70
   300
  0
XRECORD
  5
2569
102
{ACAD_REACTORS
330
2568
102
}
330
2568
100
AcDbXrecord
280
     1
102
SHADEPLOT
 70
     0
102
SHADEPLOTRESLEVEL
 70
     2
102
SHADEPLOTCUSTOMDPI
 70
   300
  0
XRECORD
  5
256F
102
{ACAD_REACTORS
330
202F
102
}
330
202F
100
AcDbXrecord
280
     1
102
MATERIAL
148
0.0
149
0.0
149
0.0
 93
        0
 94
      127
282
     0
 72
     0
 77
     0
171
     0
175
     0
179
     0
273
     0
  0
XRECORD
  5
2031
102
{ACAD_REACTORS
330
202F
102
}
330
202F
100
AcDbXrecord
280
     1
270
     1
271
     1
  0
XRECORD
  5
2030
102
{ACAD_REACTORS
330
202F
102
}
330
202F
100
AcDbXrecord
280
     1
270
     1
271
     1
  0
XRECORD
  5
2034
102
{ACAD_REACTORS
330
202F
102
}
330
202F
100
AcDbXrecord
280
     1
270
     1
271
     1
  0
XRECORD
  5
2033
102
{ACAD_REACTORS
330
202F
102
}
330
202F
100
AcDbXrecord
280
     1
270
     1
271
     1
  0
XRECORD
  5
2035
102
{ACAD_REACTORS
330
202F
102
}
330
202F
100
AcDbXrecord
280
     1
270
     1
271
     1
  0
XRECORD
  5
2032
102
{ACAD_REACTORS
330
202F
102
}
330
202F
100
AcDbXrecord
280
     1
270
     1
271
     1
  0
XRECORD
  5
256E
102
{ACAD_REACTORS
330
2027
102
}
330
2027
100
AcDbXrecord
280
     1
102
MATERIAL
148
0.0
149
0.0
149
0.0
 93
        0
 94
      127
282
     0
 72
     0
 77
     0
171
     0
175
     0
179
     0
273
     0
  0
XRECORD
  5
2029
102
{ACAD_REACTORS
330
2027
102
}
330
2027
100
AcDbXrecord
280
     1
270
     1
271
     1
  0
XRECORD
  5
2028
102
{ACAD_REACTORS
330
2027
102
}
330
2027
100
AcDbXrecord
280
     1
270
     1
271
     1
  0
XRECORD
  5
202C
102
{ACAD_REACTORS
330
2027
102
}
330
2027
100
AcDbXrecord
280
     1
270
     1
271
     1
  0
XRECORD
  5
202B
102
{ACAD_REACTORS
330
2027
102
}
330
2027
100
AcDbXrecord
280
     1
270
     1
271
     1
  0
XRECORD
  5
202D
102
{ACAD_REACTORS
330
2027
102
}
330
2027
100
AcDbXrecord
280
     1
270
     1
271
     1
  0
XRECORD
  5
202A
102
{ACAD_REACTORS
330
2027
102
}
330
2027
100
AcDbXrecord
280
     1
270
     1
271
     1
  0
XRECORD
  5
2570
102
{ACAD_REACTORS
330
2037
102
}
330
2037
100
AcDbXrecord
280
     1
102
MATERIAL
148
0.0
149
0.0
149
0.0
 93
        0
 94
      127
282
     0
 72
     0
 77
     0
171
     0
175
     0
179
     0
273
     0
  0
XRECORD
  5
2039
102
{ACAD_REACTORS
330
2037
102
}
330
2037
100
AcDbXrecord
280
     1
270
     1
271
     1
  0
XRECORD
  5
2038
102
{ACAD_REACTORS
330
2037
102
}
330
2037
100
AcDbXrecord
280
     1
270
     1
271
     1
  0
XRECORD
  5
203C
102
{ACAD_REACTORS
330
2037
102
}
330
2037
100
AcDbXrecord
280
     1
270
     1
271
     1
  0
XRECORD
  5
203B
102
{ACAD_REACTORS
330
2037
102
}
330
2037
100
AcDbXrecord
280
     1
270
     1
271
     1
  0
XRECORD
  5
203D
102
{ACAD_REACTORS
330
2037
102
}
330
2037
100
AcDbXrecord
280
     1
270
     1
271
     1
  0
XRECORD
  5
203A
102
{ACAD_REACTORS
330
2037
102
}
330
2037
100
AcDbXrecord
280
     1
270
     1
271
     1
  0
ACAD_PROXY_OBJECT
  5
2560
102
{ACAD_REACTORS
330
2438
102
}
330
2438
100
AcDbProxyObject
 90
      499
 91
      602
 95
   917527
 70
     0
 93
     1044
310
40D054060020000020000003200101A000080002A5058000000C100000000000000340FE901405075F5449544C450041501A8000000C800406800020000A9416000000304000AD7A3703D0AC73FA409014217D2115051115480105406A0000003200101A000080002A5028000000C10002B5E8DC0F42B1CFE903409065F444
310
15441005
340
1FA7
340
1FA7
340
1FA7
 94
        0
  0
XRECORD
  5
2571
102
{ACAD_REACTORS
330
2438
102
}
330
2438
100
AcDbXrecord
280
     1
102
ACAD_ROUNDTRIP_PRE2007_TABLESTYLE
 90
      512
 91
        0
  1

 92
      512
 93
        0
  2

 94
      512
 95
        0
  3

  0
ENDSEC
  0
EOF
