  0
SECTION
  2
HEADER
  9
$ACADVER
  1
AC1015
  9
$ACADMAINTVER
 70
    14
  9
$DWGCODEPAGE
  3
ANSI_932
  9
$INSBASE
 10
0.0
 20
0.0
 30
0.0
  9
$EXTMIN
 10
-144.6455911845903
 20
21.30180494551223
 30
-0.0000000000000058
  9
$EXTMAX
 10
707.494848201981
 20
749.3706815884475
 30
0.0000000000000104
  9
$LIMMIN
 10
0.0
 20
0.0
  9
$LIMMAX
 10
12.0
 20
9.0
  9
$ORTHOMODE
 70
     0
  9
$REGENMODE
 70
     1
  9
$FILLMODE
 70
     1
  9
$QTEXTMODE
 70
     0
  9
$MIRRTEXT
 70
     1
  9
$LTSCALE
 40
1.0
  9
$ATTMODE
 70
     1
  9
$TEXTSIZE
 40
0.2
  9
$TRACEWID
 40
0.05
  9
$TEXTSTYLE
  7
STANDARD
  9
$CLAYER
  8
0
  9
$CELTYPE
  6
CONTINUOUS
  9
$CECOLOR
 62
   256
  9
$CELTSCALE
 40
1.0
  9
$DISPSILH
 70
     0
  9
$DIMSCALE
 40
1.0
  9
$DIMASZ
 40
0.18
  9
$DIMEXO
 40
0.0625
  9
$DIMDLI
 40
0.38
  9
$DIMRND
 40
0.0
  9
$DIMDLE
 40
0.0
  9
$DIMEXE
 40
0.18
  9
$DIMTP
 40
0.0
  9
$DIMTM
 40
0.0
  9
$DIMTXT
 40
0.18
  9
$DIMCEN
 40
0.09
  9
$DIMTSZ
 40
0.0
  9
$DIMTOL
 70
     0
  9
$DIMLIM
 70
     0
  9
$DIMTIH
 70
     1
  9
$DIMTOH
 70
     1
  9
$DIMSE1
 70
     0
  9
$DIMSE2
 70
     0
  9
$DIMTAD
 70
     0
  9
$DIMZIN
 70
     0
  9
$DIMBLK
  1

  9
$DIMASO
 70
     1
  9
$DIMSHO
 70
     0
  9
$DIMPOST
  1

  9
$DIMAPOST
  1

  9
$DIMALT
 70
     0
  9
$DIMALTD
 70
     2
  9
$DIMALTF
 40
25.4
  9
$DIMLFAC
 40
1.0
  9
$DIMTOFL
 70
     0
  9
$DIMTVP
 40
0.0
  9
$DIMTIX
 70
     0
  9
$DIMSOXD
 70
     0
  9
$DIMSAH
 70
     0
  9
$DIMBLK1
  1

  9
$DIMBLK2
  1

  9
$DIMSTYLE
  2
STANDARD
  9
$DIMCLRD
 70
     0
  9
$DIMCLRE
 70
     0
  9
$DIMCLRT
 70
     0
  9
$DIMTFAC
 40
1.0
  9
$DIMGAP
 40
0.09
  9
$DIMJUST
 70
     0
  9
$DIMSD1
 70
     0
  9
$DIMSD2
 70
     0
  9
$DIMTOLJ
 70
     1
  9
$DIMTZIN
 70
     0
  9
$DIMALTZ
 70
     0
  9
$DIMALTTZ
 70
     0
  9
$DIMUPT
 70
     0
  9
$DIMDEC
 70
     4
  9
$DIMTDEC
 70
     4
  9
$DIMALTU
 70
     2
  9
$DIMALTTD
 70
     2
  9
$DIMTXSTY
  7
STANDARD
  9
$DIMAUNIT
 70
     0
  9
$DIMADEC
 70
     0
  9
$DIMALTRND
 40
0.0
  9
$DIMAZIN
 70
     0
  9
$DIMDSEP
 70
    46
  9
$DIMATFIT
 70
     3
  9
$DIMFRAC
 70
     0
  9
$DIMLDRBLK
  1

  9
$DIMLUNIT
 70
     2
  9
$DIMLWD
 70
    -2
  9
$DIMLWE
 70
    -2
  9
$DIMTMOVE
 70
     2
  9
$LUNITS
 70
     2
  9
$LUPREC
 70
     4
  9
$SKETCHINC
 40
0.1
  9
$FILLETRAD
 40
0.0
  9
$AUNITS
 70
     0
  9
$AUPREC
 70
     0
  9
$MENU
  1
.
  9
$ELEVATION
 40
0.0
  9
$PELEVATION
 40
0.0
  9
$THICKNESS
 40
0.0
  9
$LIMCHECK
 70
     0
  9
$CHAMFERA
 40
0.0
  9
$CHAMFERB
 40
0.0
  9
$CHAMFERC
 40
0.0
  9
$CHAMFERD
 40
0.0
  9
$SKPOLY
 70
     0
  9
$TDCREATE
 40
2452488.423138738
  9
$TDUCREATE
 40
2452488.048138738
  9
$TDUPDATE
 40
2456899.667483935
  9
$TDUUPDATE
 40
2456899.292483935
  9
$TDINDWG
 40
0.2334296412
  9
$TDUSRTIMER
 40
0.2334294560
  9
$USRTIMER
 70
     1
  9
$ANGBASE
 50
0.0
  9
$ANGDIR
 70
     0
  9
$PDMODE
 70
     3
  9
$PDSIZE
 40
0.0
  9
$PLINEWID
 40
0.0
  9
$SPLFRAME
 70
     0
  9
$SPLINETYPE
 70
     6
  9
$SPLINESEGS
 70
     8
  9
$HANDSEED
  5
25AB
  9
$SURFTAB1
 70
     6
  9
$SURFTAB2
 70
     6
  9
$SURFTYPE
 70
     6
  9
$SURFU
 70
     6
  9
$SURFV
 70
     6
  9
$UCSBASE
  2

  9
$UCSNAME
  2

  9
$UCSORG
 10
0.0
 20
0.0
 30
0.0
  9
$UCSXDIR
 10
1.0
 20
0.0
 30
0.0
  9
$UCSYDIR
 10
0.0
 20
1.0
 30
0.0
  9
$UCSORTHOREF
  2

  9
$UCSORTHOVIEW
 70
     0
  9
$UCSORGTOP
 10
0.0
 20
0.0
 30
0.0
  9
$UCSORGBOTTOM
 10
0.0
 20
0.0
 30
0.0
  9
$UCSORGLEFT
 10
0.0
 20
0.0
 30
0.0
  9
$UCSORGRIGHT
 10
0.0
 20
0.0
 30
0.0
  9
$UCSORGFRONT
 10
0.0
 20
0.0
 30
0.0
  9
$UCSORGBACK
 10
0.0
 20
0.0
 30
0.0
  9
$PUCSBASE
  2

  9
$PUCSNAME
  2

  9
$PUCSORG
 10
0.0
 20
0.0
 30
0.0
  9
$PUCSXDIR
 10
1.0
 20
0.0
 30
0.0
  9
$PUCSYDIR
 10
0.0
 20
1.0
 30
0.0
  9
$PUCSORTHOREF
  2

  9
$PUCSORTHOVIEW
 70
     0
  9
$PUCSORGTOP
 10
0.0
 20
0.0
 30
0.0
  9
$PUCSORGBOTTOM
 10
0.0
 20
0.0
 30
0.0
  9
$PUCSORGLEFT
 10
0.0
 20
0.0
 30
0.0
  9
$PUCSORGRIGHT
 10
0.0
 20
0.0
 30
0.0
  9
$PUCSORGFRONT
 10
0.0
 20
0.0
 30
0.0
  9
$PUCSORGBACK
 10
0.0
 20
0.0
 30
0.0
  9
$USERI1
 70
     0
  9
$USERI2
 70
     0
  9
$USERI3
 70
     0
  9
$USERI4
 70
     0
  9
$USERI5
 70
     0
  9
$USERR1
 40
0.0
  9
$USERR2
 40
0.0
  9
$USERR3
 40
0.0
  9
$USERR4
 40
0.0
  9
$USERR5
 40
0.0
  9
$WORLDVIEW
 70
     1
  9
$SHADEDGE
 70
     3
  9
$SHADEDIF
 70
    70
  9
$TILEMODE
 70
     1
  9
$MAXACTVP
 70
    48
  9
$PINSBASE
 10
0.0
 20
0.0
 30
0.0
  9
$PLIMCHECK
 70
     0
  9
$PEXTMIN
 10
1.000000000000000E+20
 20
1.000000000000000E+20
 30
1.000000000000000E+20
  9
$PEXTMAX
 10
-1.000000000000000E+20
 20
-1.000000000000000E+20
 30
-1.000000000000000E+20
  9
$PLIMMIN
 10
0.0
 20
0.0
  9
$PLIMMAX
 10
12.0
 20
9.0
  9
$UNITMODE
 70
     0
  9
$VISRETAIN
 70
     1
  9
$PLINEGEN
 70
     0
  9
$PSLTSCALE
 70
     1
  9
$TREEDEPTH
 70
  3020
  9
$CMLSTYLE
  2
Standard
  9
$CMLJUST
 70
     0
  9
$CMLSCALE
 40
1.0
  9
$PROXYGRAPHICS
 70
     1
  9
$MEASUREMENT
 70
     0
  9
$CELWEIGHT
370
    -1
  9
$ENDCAPS
280
     0
  9
$JOINSTYLE
280
     0
  9
$LWDISPLAY
290
     0
  9
$INSUNITS
 70
     0
  9
$HYPERLINKBASE
  1

  9
$STYLESHEET
  1

  9
$XEDIT
290
     1
  9
$CEPSNTYPE
380
     0
  9
$PSTYLEMODE
290
     1
  9
$FINGERPRINTGUID
  2
{F190E97A-F80F-45D6-ADF0-76E67F70A42C}
  9
$VERSIONGUID
  2
{3F846C4A-FB97-4B68-8427-2752B5CEE10E}
  9
$EXTNAMES
290
     1
  9
$PSVPSCALE
 40
0.0
  9
$OLESTARTUP
290
     0
  0
ENDSEC
  0
SECTION
  2
CLASSES
  0
CLASS
  1
ACDBDICTIONARYWDFLT
  2
AcDbDictionaryWithDefault
  3
AutoCAD 2000
 90
        0
280
     0
281
     0
  0
CLASS
  1
ACDBPLACEHOLDER
  2
AcDbPlaceHolder
  3
AutoCAD 2000
 90
        0
280
     0
281
     0
  0
CLASS
  1
LAYOUT
  2
AcDbLayout
  3
AutoCAD 2000
 90
        0
280
     0
281
     0
  0
CLASS
  1
DICTIONARYVAR
  2
AcDbDictionaryVar
  3
AutoCAD 2000
 90
        0
280
     0
281
     0
  0
CLASS
  1
LONG_TRANSACTION
  2
AcDbLongTransaction
  3
AutoCAD 2000
 90
    32768
280
     0
281
     0
  0
CLASS
  1
LWPOLYLINE
  2
AcDbPolyline
  3
AutoCAD 2000
 90
    32768
280
     0
281
     1
  0
CLASS
  1
HATCH
  2
AcDbHatch
  3
AutoCAD 2000
 90
    32768
280
     0
281
     1
  0
CLASS
  1
XRECORD
  2
AcDbXrecord
  3
AutoCAD 2000
 90
    32768
280
     0
281
     0
  0
CLASS
  1
MATERIAL
  2
AcDbMaterial
  3
ObjectDBX Classes
 90
     1153
280
     0
281
     0
  0
CLASS
  1
VISUALSTYLE
  2
AcDbVisualStyle
  3
ObjectDBX Classes
 90
     4095
280
     0
281
     0
  0
CLASS
  1
TABLESTYLE
  2
AcDbTableStyle
  3
ObjectDBX Classes
 90
     4095
280
     0
281
     0
  0
CLASS
  1
SCALE
  2
AcDbScale
  3
ObjectDBX Classes
 90
     1153
280
     0
281
     0
  0
CLASS
  1
MLEADERSTYLE
  2
AcDbMLeaderStyle
  3
ACDB_MLEADERSTYLE_CLASS
 90
     4095
280
     0
281
     0
  0
CLASS
  1
ACME_DOCUMENT
  2
AcMeDbDoc
  3
AcMeServices
 90
    33792
280
     0
281
     0
  0
CLASS
  1
AMGSETTINGSOBJ
  2
AmgSettingsObj
  3
"AcadM|Product Description: AutoCAD Mechanical|Company: Autodesk, Inc."
 90
    33792
280
     0
281
     0
  0
CLASS
  1
ACMESCOPE
  2
AcMeScope
  3
AcMeServices
 90
    33792
280
     0
281
     0
  0
CLASS
  1
ACMECOMMANDHISTORY
  2
AcMeCommandHistory
  3
AcMeServices
 90
    33792
280
     0
281
     0
  0
CLASS
  1
ACIMSYSVARMAN
  2
AcImSysVarManager
  3
AcMeServices
 90
     1024
280
     0
281
     0
  0
CLASS
  1
ACIMINTSYSVAR
  2
AcImIntSysVar
  3
AcMeServices
 90
    33792
280
     0
281
     0
  0
CLASS
  1
ACMEDRAWINGMAN
  2
AcMeDrawingMan
  3
AcMeServices
 90
    33792
280
     0
281
     0
  0
CLASS
  1
ACMEVIEW
  2
AcMeView
  3
AcMeServices
 90
    33792
280
     0
281
     0
  0
CLASS
  1
ACDBENTITYCACHE
  2
AcMeEntityCache
  3
AcMeServices
 90
    33792
280
     0
281
     0
  0
CLASS
  1
GSMANAGER
  2
AcMeGSManager
  3
AcMeServices
 90
    33792
280
     0
281
     0
  0
CLASS
  1
AMDTINTERNALREACTOR
  2
AmdtInternalReactor
  3
AcMeServices
 90
    33792
280
     0
281
     0
  0
CLASS
  1
ACMESTATEMGR
  2
AcMeStateMgr
  3
AcMeServices
 90
    33792
280
     0
281
     0
  0
CLASS
  1
ACGREFMASTER
  2
AcGrefMaster
  3
AcAttribServices
 90
    33792
280
     0
281
     0
  0
CLASS
  1
AM_DRAWING_MGR
  2
AcDmDwgMgr
  3
AcMechDwgViewMgmt
 90
    33792
280
     0
281
     0
  0
CLASS
  1
AM_DWG_DOCUMENT
  2
AcDmDwgDocument
  3
AcMechDwgViewMgmt
 90
    33792
280
     0
281
     0
  0
CLASS
  1
AM_DWG_SHEET
  2
AcDmSheet
  3
AcMechDwgViewMgmt
 90
    33792
280
     0
281
     0
  0
CLASS
  1
AM_VIEWDIMPARMAP
  2
AcDmViewDimParMap
  3
AcMechDwgViewMgmt
 90
    33792
280
     0
281
     0
  0
CLASS
  1
ACIMREALSYSVAR
  2
AcImRealSysVar
  3
AcMeServices
 90
    33792
280
     0
281
     0
  0
CLASS
  1
AM_DWGMGR_NAME
  2
AcDmDwgMgrName
  3
AcMechDwgViewMgmt
 90
    33792
280
     0
281
     0
  0
CLASS
  1
ACME_DATABASE
  2
AcMeDbDatabase
  3
AcMeServices
 90
    33792
280
     0
281
     0
  0
CLASS
  1
ACRFINSADJUSTERMGR
  2
AcRfInsAdjusterMgr
  3
AcMeServices
 90
    33792
280
     0
281
     0
  0
CLASS
  1
ACGREFACADMASTER
  2
AcGrefacadMaster
  3
AcGrefServices
 90
    33792
280
     0
281
     0
  0
CLASS
  1
AMDTMENUSTATEMGR
  2
AmdtMenuStateMgr
  3
McadcomServices
 90
    33792
280
     0
281
     0
  0
CLASS
  1
AMDTMCOMMENUSTATE
  2
AmdtMcomMenuState
  3
McadcomServices
 90
    33792
280
     0
281
     0
  0
CLASS
  1
AMIMASTER
  2
AmiMaster
  3
AmiServices
 90
    33792
280
     0
281
     0
  0
CLASS
  1
MAPIAMMOUDLE
  2
MApiAmModule
  3
MApiAmServices
 90
    33792
280
     0
281
     0
  0
CLASS
  1
ACIMSTRSYSVAR
  2
AcImStrSysVar
  3
AcMeServices
 90
    33792
280
     0
281
     0
  0
CLASS
  1
AMDTADMENUSTATE
  2
AmdtAdMenuState
  3
DesignerServices
 90
    33792
280
     0
281
     0
  0
CLASS
  1
ADAPPL
  2
AcAdAppl
  3
DesignerServices
 90
    33792
280
     0
281
     0
  0
CLASS
  1
DEPMGR
  2
AcAdDepMgr
  3
DesignerServices
 90
    33792
280
     0
281
     0
  0
CLASS
  1
PARAMMGR
  2
AcAdParamMgr
  3
DesignerServices
 90
    33792
280
     0
281
     0
  0
CLASS
  1
PARAMSCOPE
  2
AcAdParamScope
  3
DesignerServices
 90
    33792
280
     0
281
     0
  0
CLASS
  1
NAMEDAPPL
  2
AcAdNamedAppl
  3
DesignerServices
 90
    33792
280
     0
281
     0
  0
CLASS
  1
AMDTDMMENUSTATE
  2
AmdtDmMenuState
  3
AcMechDwgViewMgmt
 90
    33792
280
     0
281
     0
  0
CLASS
  1
AMDTAMMENUSTATE
  2
AmdtAmMenuState
  3
DesignerAssemblies
 90
    33792
280
     0
281
     0
  0
CLASS
  1
ACAMPROJECT
  2
AcAmProject
  3
DesignerAssemblies
 90
    33792
280
     0
281
     0
  0
CLASS
  1
ACAMGRCOMPDEF
  2
AcAmGrCompDef
  3
DesignerAssemblies
 90
    33792
280
     0
281
     0
  0
CLASS
  1
ACCMCONTEXT
  2
AcCmContext
  3
DesignerAssemblies
 90
    33792
280
     0
281
     0
  0
CLASS
  1
ACAMCOMPDEF
  2
AcAmCompDef
  3
DesignerAssemblies
 90
    33792
280
     0
281
     0
  0
CLASS
  1
ACAMCOMPDEFMGR
  2
AcAmCompDefMgr
  3
DesignerAssemblies
 90
    33792
280
     0
281
     0
  0
CLASS
  1
AMCONTEXTMGR
  2
AcAmContextMgr
  3
DesignerAssemblies
 90
    33792
280
     0
281
     0
  0
CLASS
  1
ACAMCONTEXTMODELER
  2
AcAmContextModeler
  3
DesignerAssemblies
 90
    33792
280
     0
281
     0
  0
CLASS
  1
ACMDATADICTIONARY
  2
AcmDataDictionary
  3
"AcmSymBB|Product Description: AutoCAD Mechanical|Company: Autodesk, Inc."
 90
    33792
280
     0
281
     0
  0
CLASS
  1
CATALOGSTATE
  2
AcAmCatalogState
  3
DesignerAssemblies
 90
    33792
280
     0
281
     0
  0
CLASS
  1
ACAMGRCOMPDEFSET
  2
AcAmGrCompDefSet
  3
DesignerAssemblies
 90
    33792
280
     0
281
     0
  0
CLASS
  1
AMDTBROWSERDBTAB
  2
AmdtBrowserDbTab
  3
McadcomServices
 90
    33792
280
     0
281
     0
  0
CLASS
  1
CBROWSERAPPOBJECT
  2
CBrowserAppObject
  3
McadcomServices
 90
    33792
280
     0
281
     0
  0
CLASS
  1
DM_PLACEHOLDER
  2
AcDmSelsetPlaceholder
  3
AcMechDwgViewMgmt
 90
    33792
280
     0
281
     0
  0
CLASS
  1
EXACXREFPANELOBJECT
  2
ExAcXREFPanelObject
  3
EXAC_ESW
 90
    33793
280
     0
281
     0
  0
CLASS
  1
NPOCOLLECTION
  2
AcDbImpNonPersistentObjectsCollection
  3
ObjectDBX Classes
 90
    33921
280
     0
281
     0
  0
CLASS
  1
ACMSTANDARDANSI
  2
AcmStandardANSI
  3
"Amdt_StdImp|Product Description: AutoCAD Mechanical|Company: Autodesk, Inc."
 90
    33792
280
     0
281
     0
  0
CLASS
  1
ACMSURFSTANDARDANSI
  2
AcmSurfTextStdANSI
  3
"Amdt_StdImp|Product Description: AutoCAD Mechanical|Company: Autodesk, Inc."
 90
    33792
280
     0
281
     0
  0
CLASS
  1
ACMFCFSTANDARDANSI
  2
AcmFCFStdANSI
  3
"Amdt_StdImp|Product Description: AutoCAD Mechanical|Company: Autodesk, Inc."
 90
    33792
280
     0
281
     0
  0
CLASS
  1
ACMWELDSTANDARDANSI
  2
AcmWeldingStdANSI
  3
"Amdt_StdImp|Product Description: AutoCAD Mechanical|Company: Autodesk, Inc."
 90
    33792
280
     0
281
     0
  0
CLASS
  1
ACMIDSTANDARDANSI
  2
AcmIdStdANSI
  3
"Amdt_StdImp|Product Description: AutoCAD Mechanical|Company: Autodesk, Inc."
 90
    33792
280
     0
281
     0
  0
CLASS
  1
ACMDATUMSTANDARDANSI
  2
AcmDatumStdANSI
  3
"Amdt_StdImp|Product Description: AutoCAD Mechanical|Company: Autodesk, Inc."
 90
    33792
280
     0
281
     0
  0
CLASS
  1
ACMBOMSTANDARDANSI
  2
AcmBOMStdANSI
  3
"Amdt_StdImp|Product Description: AutoCAD Mechanical|Company: Autodesk, Inc."
 90
    33792
280
     0
281
     0
  0
CLASS
  1
ACMDETAILSTANDARDANSI
  2
AmdtDetailSymStdANSI
  3
"Amdt_StdImp|Product Description: AutoCAD Mechanical|Company: Autodesk, Inc."
 90
    33792
280
     0
281
     0
  0
CLASS
  1
ACMSECTIONSTANDARDANSI
  2
AmdtSectionSymStdANSI
  3
"Amdt_StdImp|Product Description: AutoCAD Mechanical|Company: Autodesk, Inc."
 90
    33792
280
     0
281
     0
  0
CLASS
  1
ACMCENTERLINESTANDARDANSI
  2
AmdtCenterLineStdANSI
  3
"Amdt_StdImp|Product Description: AutoCAD Mechanical|Company: Autodesk, Inc."
 90
    33792
280
     0
281
     0
  0
CLASS
  1
ACMTHREADLINESTANDARDANSI
  2
AmdtThreadLineStdANSI
  3
"Amdt_StdImp|Product Description: AutoCAD Mechanical|Company: Autodesk, Inc."
 90
    33792
280
     0
281
     0
  0
CLASS
  1
ACMNOTESTANDARDANSI
  2
AmdtNoteStdANSI
  3
"Amdt_StdImp|Product Description: AutoCAD Mechanical|Company: Autodesk, Inc."
 90
    33792
280
     0
281
     0
  0
CLASS
  1
ACMTAPERSTANDARDANSI
  2
AcmTaperStdANSI
  3
"Amdt_StdImp|Product Description: AutoCAD Mechanical|Company: Autodesk, Inc."
 90
    33792
280
     0
281
     0
  0
CLASS
  1
ACMANOOTATIONVIEWSTANDARDANSI
  2
AmdtAnViewStdANSI
  3
"Amdt_StdImp|Product Description: AutoCAD Mechanical|Company: Autodesk, Inc."
 90
    33792
280
     0
281
     0
  0
CLASS
  1
ACAMGLAYSTD
  2
AcAmgLayStd
  3
"AmgLay|Product Description: AutoCAD Mechanical|Company: Autodesk, Inc."
 90
    33792
280
     0
281
     0
  0
CLASS
  1
ACAMGDIMSTD
  2
AcAmgDimStd
  3
"AmgDim|Product Description: AutoCAD Mechanical|Company: Autodesk, Inc."
 90
    33792
280
     0
281
     0
  0
CLASS
  1
AMGOBJPROPCFG
  2
AmgObjPropCfg
  3
"AmgLay|Product Description: AutoCAD Mechanical|Company: Autodesk, Inc."
 90
    33793
280
     0
281
     0
  0
CLASS
  1
ACAMGHOLECHARTSTDANSI
  2
AcAmgHoleChartStdANSI
  3
AmgDim|Product Description: AutoCAD Mechanical|Company: Autodesk, Inc.
 90
    33792
280
     0
281
     0
  0
CLASS
  1
ACAMGTITLESTD
  2
AcAmgTitleStd
  3
"AmgTitle|Product Description: AutoCAD Mechanical|Company: Autodesk, Inc."
 90
    36863
280
     0
281
     0
  0
CLASS
  1
AMDTNOTETEMPLATEDB
  2
AmdtNoteTemplateDB
  3
AcmSymBB|Product Description: AutoCAD Mechanical|Company: Autodesk, Inc.
 90
    33792
280
     0
281
     0
  0
CLASS
  1
ACAMGFILTERDAT
  2
AcAmgFilterDat
  3
"AcadM|Product Description: AutoCAD Mechanical|Company: Autodesk, Inc."
 90
    33792
280
     0
281
     0
  0
CLASS
  1
SORTENTSTABLE
  2
AcDbSortentsTable
  3
AutoCAD 2000
 90
    32768
280
     0
281
     0
  0
CLASS
  1
ACMSTANDARDJIS
  2
AcmStandardJIS
  3
"Amdt_StdImp|Product Description: AutoCAD Mechanical|Company: Autodesk, Inc."
 90
    33792
280
     0
281
     0
  0
CLASS
  1
ACMSURFSTANDARDJIS
  2
AcmSurfTextStdJIS
  3
"Amdt_StdImp|Product Description: AutoCAD Mechanical|Company: Autodesk, Inc."
 90
    33792
280
     0
281
     0
  0
CLASS
  1
ACMFCFSTANDARDJIS98
  2
AcmFCFStdJIS98
  3
"Amdt_StdImp|Product Description: AutoCAD Mechanical|Company: Autodesk, Inc."
 90
    33792
280
     0
281
     0
  0
CLASS
  1
ACMWELDSTANDARDJIS
  2
AcmWeldingStdJIS
  3
"Amdt_StdImp|Product Description: AutoCAD Mechanical|Company: Autodesk, Inc."
 90
    33792
280
     0
281
     0
  0
CLASS
  1
ACMIDSTANDARDJIS
  2
AcmIdStdJIS
  3
"Amdt_StdImp|Product Description: AutoCAD Mechanical|Company: Autodesk, Inc."
 90
    33792
280
     0
281
     0
  0
CLASS
  1
ACMDATUMSTANDARDJIS
  2
AcmDatumStdJIS
  3
"Amdt_StdImp|Product Description: AutoCAD Mechanical|Company: Autodesk, Inc."
 90
    33792
280
     0
281
     0
  0
CLASS
  1
ACMBOMSTANDARDJIS
  2
AcmBOMStdJIS
  3
"Amdt_StdImp|Product Description: AutoCAD Mechanical|Company: Autodesk, Inc."
 90
    33792
280
     0
281
     0
  0
CLASS
  1
ACMDETAILSTANDARDJIS
  2
AmdtDetailSymStdJIS
  3
"Amdt_StdImp|Product Description: AutoCAD Mechanical|Company: Autodesk, Inc."
 90
    33792
280
     0
281
     0
  0
CLASS
  1
ACMSECTIONSTANDARDJIS
  2
AmdtSectionSymStdJIS
  3
"Amdt_StdImp|Product Description: AutoCAD Mechanical|Company: Autodesk, Inc."
 90
    33792
280
     0
281
     0
  0
CLASS
  1
ACMCENTERLINESTANDARDJIS
  2
AmdtCenterLineStdJIS
  3
"Amdt_StdImp|Product Description: AutoCAD Mechanical|Company: Autodesk, Inc."
 90
    33792
280
     0
281
     0
  0
CLASS
  1
ACMNOTESTANDARDJIS
  2
AmdtNoteStdJIS
  3
"Amdt_StdImp|Product Description: AutoCAD Mechanical|Company: Autodesk, Inc."
 90
    33792
280
     0
281
     0
  0
CLASS
  1
ACAMGHOLECHARTSTDJIS
  2
AcAmgHoleChartStdJIS
  3
AmgDim|Product Description: AutoCAD Mechanical|Company: Autodesk, Inc.
 90
    33792
280
     0
281
     0
  0
CLASS
  1
ACMTHREADLINESTANDARDJIS
  2
AmdtThreadLineStdJIS
  3
"Amdt_StdImp|Product Description: AutoCAD Mechanical|Company: Autodesk, Inc."
 90
    33792
280
     0
281
     0
  0
CLASS
  1
ACMTAPERSTANDARDJIS
  2
AcmTaperStdJIS
  3
"Amdt_StdImp|Product Description: AutoCAD Mechanical|Company: Autodesk, Inc."
 90
    33792
280
     0
281
     0
  0
CLASS
  1
ACMANOOTATIONVIEWSTANDARDJIS
  2
AmdtAnViewStdJIS
  3
"Amdt_StdImp|Product Description: AutoCAD Mechanical|Company: Autodesk, Inc."
 90
    33792
280
     0
281
     0
  0
CLASS
  1
AMDTEDGESTANDARDJIS
  2
AmdtEdgeStdJIS
  3
"Amdt_StdImp|Product Description: AutoCAD Mechanical|Company: Autodesk, Inc."
 90
    33792
280
     0
281
     0
  0
CLASS
  1
ACMDATAENTRYBLOCK
  2
AcmDataEntryBlock
  3
AcmSymBB|Product Description: AutoCAD Mechanical|Company: Autodesk, Inc.
 90
    33792
280
     0
281
     0
  0
CLASS
  1
CELLSTYLEMAP
  2
AcDbCellStyleMap
  3
ObjectDBX Classes
 90
     1152
280
     0
281
     0
  0
CLASS
  1
ACAD_PROXY_OBJECT_WRAPPER
  2
AcDbProxyObjectWrapper
  3
AutoCAD 2000
 90
    32768
280
     0
281
     0
  0
CLASS
  1
LONG_TRANSACTION
  2
AcDbLongTransaction
  3
AutoCAD 2000
 90
    32768
280
     0
281
     0
  0
CLASS
  1
LWPOLYLINE
  2
AcDbPolyline
  3
AutoCAD 2000
 90
    32768
280
     0
281
     1
  0
CLASS
  1
HATCH
  2
AcDbHatch
  3
AutoCAD 2000
 90
    32768
280
     0
281
     1
  0
CLASS
  1
XRECORD
  2
AcDbXrecord
  3
AutoCAD 2000
 90
    32768
280
     0
281
     0
  0
ENDSEC
  0
SECTION
  2
TABLES
  0
TABLE
  2
VPORT
  5
1FAF
102
{ACAD_XDICTIONARY
360
2407
102
}
330
0
100
AcDbSymbolTable
 70
     2
  0
VPORT
  5
25AA
330
1FAF
100
AcDbSymbolTableRecord
100
AcDbViewportTableRecord
  2
*Active
 70
     0
 10
0.0
 20
0.0
 11
1.0
 21
1.0
 12
281.4246285086955
 22
385.3362432669799
 13
0.0
 23
0.0
 14
1.0
 24
1.0
 15
0.0
 25
0.0
 16
0.0
 26
0.0
 36
1.0
 17
0.0
 27
0.0
 37
0.0
 40
732.6915361771762
 41
1.592161016949152
 42
50.0
 43
0.0
 44
0.0
 50
0.0
 51
0.0
 71
     0
 72
   100
 73
     1
 74
     3
 75
     0
 76
     0
 77
     0
 78
     0
281
     0
 65
     1
110
0.0
120
0.0
130
0.0
111
1.0
121
0.0
131
0.0
112
0.0
122
1.0
132
0.0
 79
     0
146
0.0
  0
ENDTAB
  0
TABLE
  2
LTYPE
  5
1FAC
330
0
100
AcDbSymbolTable
 70
     2
  0
LTYPE
  5
1FBA
330
1FAC
100
AcDbSymbolTableRecord
100
AcDbLinetypeTableRecord
  2
ByBlock
 70
     0
  3

 72
    65
 73
     0
 40
0.0
  0
LTYPE
  5
1FBB
330
1FAC
100
AcDbSymbolTableRecord
100
AcDbLinetypeTableRecord
  2
ByLayer
 70
     0
  3

 72
    65
 73
     0
 40
0.0
  0
LTYPE
  5
1FBC
330
1FAC
100
AcDbSymbolTableRecord
100
AcDbLinetypeTableRecord
  2
CONTINUOUS
 70
     0
  3
Solid line
 72
    65
 73
     0
 40
0.0
  0
LTYPE
  5
258B
330
1FAC
100
AcDbSymbolTableRecord
100
AcDbLinetypeTableRecord
  2
CENTER
 70
     0
  3
__ . __
 72
    65
 73
     4
 40
7.0
 49
4.0
 74
     0
 49
-1.0
 74
     0
 49
1.0
 74
     0
 49
-1.0
 74
     0
  0
ENDTAB
  0
TABLE
  2
LAYER
  5
1FA9
102
{ACAD_XDICTIONARY
360
258C
102
}
330
0
100
AcDbSymbolTable
 70
     1
  0
LAYER
  5
1FB7
102
{ACAD_XDICTIONARY
360
23FB
102
}
330
1FA9
100
AcDbSymbolTableRecord
100
AcDbLayerTableRecord
  2
0
 70
     0
 62
     7
  6
CONTINUOUS
370
    -3
390
1FB6
  0
ENDTAB
  0
TABLE
  2
STYLE
  5
1FAA
330
0
100
AcDbSymbolTable
 70
     1
  0
STYLE
  5
1FB8
330
1FAA
100
AcDbSymbolTableRecord
100
AcDbTextStyleTableRecord
  2
STANDARD
 70
     0
 40
0.0
 41
1.0
 50
0.0
 71
     0
 42
0.2
  3
txt
  4
BIGFONT
  0
ENDTAB
  0
TABLE
  2
VIEW
  5
1FAD
330
0
100
AcDbSymbolTable
 70
     1
  0
VIEW
  5
1FCA
102
{ACAD_XDICTIONARY
360
2530
102
}
330
1FAD
100
AcDbSymbolTableRecord
100
AcDbViewTableRecord
  2
OLE1
 70
     0
 40
3692.141019219747
 10
1914.591370701856
 20
1272.206200738182
 41
4595.022665841169
 11
0.0
 21
0.0
 31
1.0
 12
0.0
 22
0.0
 32
0.0
 42
50.0
 43
0.0
 44
0.0
 50
0.0
 71
     0
281
     0
 72
     1
110
0.0
120
0.0
130
0.0
111
1.0
121
0.0
131
0.0
112
0.0
122
1.0
132
0.0
 79
     0
146
0.0
  0
ENDTAB
  0
TABLE
  2
UCS
  5
1FAE
330
0
100
AcDbSymbolTable
 70
     0
  0
ENDTAB
  0
TABLE
  2
APPID
  5
1FB0
330
0
100
AcDbSymbolTable
 70
    26
  0
APPID
  5
1FB9
330
1FB0
100
AcDbSymbolTableRecord
100
AcDbRegAppTableRecord
  2
ACAD
 70
     0
  0
APPID
  5
1FCB
330
1FB0
100
AcDbSymbolTableRecord
100
AcDbRegAppTableRecord
  2
MCAD_NO_VIS
 70
     0
  0
APPID
  5
1FCC
330
1FB0
100
AcDbSymbolTableRecord
100
AcDbRegAppTableRecord
  2
ACAD_TEMP_GRAPHIC
 70
     0
  0
APPID
  5
1FCD
330
1FB0
100
AcDbSymbolTableRecord
100
AcDbRegAppTableRecord
  2
ACATTRIBSERVICES
 70
     0
  0
APPID
  5
205F
330
1FB0
100
AcDbSymbolTableRecord
100
AcDbRegAppTableRecord
  2
ACAD_MLEADERVER
 70
     0
  0
APPID
  5
2098
330
1FB0
100
AcDbSymbolTableRecord
100
AcDbRegAppTableRecord
  2
AD_DRAW
 70
     0
  0
APPID
  5
20BB
330
1FB0
100
AcDbSymbolTableRecord
100
AcDbRegAppTableRecord
  2
DESIGNERASSEMBLIES
 70
     0
  0
APPID
  5
20C1
330
1FB0
100
AcDbSymbolTableRecord
100
AcDbRegAppTableRecord
  2
ACADM_DIM_EDIT
 70
     0
  0
APPID
  5
20C2
330
1FB0
100
AcDbSymbolTableRecord
100
AcDbRegAppTableRecord
  2
AMDT_DM_ADJ
 70
     0
  0
APPID
  5
212D
330
1FB0
100
AcDbSymbolTableRecord
100
AcDbRegAppTableRecord
  2
ACAD_DSTYLE_DIMJOGGED_JOGANGLE_SYMBOL
 70
     0
  0
APPID
  5
212E
330
1FB0
100
AcDbSymbolTableRecord
100
AcDbRegAppTableRecord
  2
ACAD_DSTYLE_DIMJAG
 70
     0
  0
APPID
  5
212F
330
1FB0
100
AcDbSymbolTableRecord
100
AcDbRegAppTableRecord
  2
ACAD_DSTYLE_DIMTALN
 70
     0
  0
APPID
  5
2130
330
1FB0
100
AcDbSymbolTableRecord
100
AcDbRegAppTableRecord
  2
ACAD_PSEXT
 70
     0
  0
APPID
  5
2413
330
1FB0
100
AcDbSymbolTableRecord
100
AcDbRegAppTableRecord
  2
ACAD_DSTYLE_DIMARC_LENGTH_SYMBOL
 70
     0
  0
APPID
  5
2414
330
1FB0
100
AcDbSymbolTableRecord
100
AcDbRegAppTableRecord
  2
ACAD_DSTYLE_DIM_LINETYPE
 70
     0
  0
APPID
  5
2415
330
1FB0
100
AcDbSymbolTableRecord
100
AcDbRegAppTableRecord
  2
ACAD_DSTYLE_DIM_EXT1_LINETYPE
 70
     0
  0
APPID
  5
2416
330
1FB0
100
AcDbSymbolTableRecord
100
AcDbRegAppTableRecord
  2
ACAD_DSTYLE_DIM_EXT2_LINETYPE
 70
     0
  0
APPID
  5
2483
330
1FB0
100
AcDbSymbolTableRecord
100
AcDbRegAppTableRecord
  2
ACAD_EXEMPT_FROM_CAD_STANDARDS
 70
     0
  0
APPID
  5
2518
330
1FB0
100
AcDbSymbolTableRecord
100
AcDbRegAppTableRecord
  2
AcadAnnotative
 70
     0
  0
APPID
  5
2519
330
1FB0
100
AcDbSymbolTableRecord
100
AcDbRegAppTableRecord
  2
GENIUS_GENODEF_13
 70
     0
  0
APPID
  5
251A
330
1FB0
100
AcDbSymbolTableRecord
100
AcDbRegAppTableRecord
  2
GENIUS_GENOBJ-N-FIL_13
 70
     0
  0
APPID
  5
251B
330
1FB0
100
AcDbSymbolTableRecord
100
AcDbRegAppTableRecord
  2
GENIUS_GENOBJ-N-CEN_13
 70
     0
  0
APPID
  5
251C
330
1FB0
100
AcDbSymbolTableRecord
100
AcDbRegAppTableRecord
  2
GENIUS_GENCEN_19
 70
     0
  0
APPID
  5
251D
330
1FB0
100
AcDbSymbolTableRecord
100
AcDbRegAppTableRecord
  2
GENIUS_GENSCREG_15
 70
     0
  0
APPID
  5
251E
330
1FB0
100
AcDbSymbolTableRecord
100
AcDbRegAppTableRecord
  2
GENIUS_GENOBJ-N-SDF_13
 70
     0
  0
APPID
  5
251F
330
1FB0
100
AcDbSymbolTableRecord
100
AcDbRegAppTableRecord
  2
AcAecLayerStandard
 70
     0
  0
ENDTAB
  0
TABLE
  2
DIMSTYLE
  5
1FB1
330
0
100
AcDbSymbolTable
 70
     1
100
AcDbDimStyleTable
 71
     0
  0
DIMSTYLE
105
1FCE
330
1FB1
100
AcDbSymbolTableRecord
100
AcDbDimStyleTableRecord
  2
STANDARD
 70
     0
279
     2
340
1FB8
  0
ENDTAB
  0
TABLE
  2
BLOCK_RECORD
  5
1FA8
330
0
100
AcDbSymbolTable
 70
     0
  0
BLOCK_RECORD
  5
1FC5
102
{ACAD_XDICTIONARY
360
1FD7
102
}
330
1FA8
100
AcDbSymbolTableRecord
100
AcDbBlockTableRecord
  2
*Model_Space
340
1FC8
  0
BLOCK_RECORD
  5
1FC1
102
{ACAD_XDICTIONARY
360
1FD9
102
}
330
1FA8
100
AcDbSymbolTableRecord
100
AcDbBlockTableRecord
  2
*Paper_Space
340
1FC4
  0
ENDTAB
  0
ENDSEC
  0
SECTION
  2
BLOCKS
  0
BLOCK
  5
1FC6
330
1FC5
100
AcDbEntity
  8
0
100
AcDbBlockBegin
  2
*Model_Space
 70
     0
 10
0.0
 20
0.0
 30
0.0
  3
*Model_Space
  1

  0
ENDBLK
  5
1FC7
330
1FC5
100
AcDbEntity
  8
0
100
AcDbBlockEnd
  0
BLOCK
  5
1FC2
330
1FC1
100
AcDbEntity
 67
     1
  8
0
100
AcDbBlockBegin
  2
*Paper_Space
 70
     0
 10
0.0
 20
0.0
 30
0.0
  3
*Paper_Space
  1

  0
ENDBLK
  5
1FC3
330
1FC1
100
AcDbEntity
 67
     1
  8
0
100
AcDbBlockEnd
  0
ENDSEC
  0
SECTION
  2
ENTITIES
  0
TEXT
  5
FD1
330
1FC5
100
AcDbEntity
  8
0
  6
Continuous
100
AcDbText
 10
-144.6065971784783
 20
701.3363717593221
 30
0.0
 40
48.000002
  1
BVP__T60J10 2.5S
 41
1.24425
100
AcDbText
  0
LINE
  5
10C7
330
1FC5
100
AcDbEntity
  8
0
  6
Continuous
100
AcDbLine
 10
360.0
 20
204.85001
 30
0.0
 11
360.0
 21
155.85001
 31
0.0
  0
LINE
  5
10C8
330
1FC5
100
AcDbEntity
  8
0
  6
Continuous
100
AcDbLine
 10
440.0
 20
204.85001
 30
0.0
 11
440.0
 21
155.85001
 31
0.0
  0
LINE
  5
10C9
330
1FC5
100
AcDbEntity
  8
0
  6
Continuous
100
AcDbLine
 10
440.0
 20
204.85001
 30
0.0
 11
360.0
 21
204.85001
 31
0.0
  0
LINE
  5
10CA
330
1FC5
100
AcDbEntity
  8
0
  6
Continuous
100
AcDbLine
 10
413.0
 20
200.35001
 30
0.0
 11
413.0
 21
160.350006
 31
0.0
  0
LINE
  5
10CB
330
1FC5
100
AcDbEntity
  8
0
  6
Continuous
100
AcDbLine
 10
387.0
 20
200.35001
 30
0.0
 11
387.0
 21
160.350006
 31
0.0
  0
LINE
  5
10CC
330
1FC5
100
AcDbEntity
  8
0
  6
Continuous
100
AcDbLine
 10
440.0
 20
155.85001
 30
0.0
 11
360.0
 21
155.85001
 31
0.0
  0
LINE
  5
10CD
330
1FC5
100
AcDbEntity
  8
0
  6
Continuous
100
AcDbLine
 10
435.5
 20
200.35001
 30
0.0
 11
435.5
 21
160.350006
 31
0.0
  0
LINE
  5
10CE
330
1FC5
100
AcDbEntity
  8
0
  6
Continuous
100
AcDbLine
 10
435.5
 20
200.35001
 30
0.0
 11
364.5
 21
200.35001
 31
0.0
  0
LINE
  5
10CF
330
1FC5
100
AcDbEntity
  8
0
  6
Continuous
100
AcDbLine
 10
435.5
 20
160.350006
 30
0.0
 11
364.5
 21
160.350006
 31
0.0
  0
LINE
  5
10D0
330
1FC5
100
AcDbEntity
  8
0
  6
Continuous
100
AcDbLine
 10
364.5
 20
200.35001
 30
0.0
 11
364.5
 21
160.350006
 31
0.0
  0
ARC
  5
10D1
330
1FC5
100
AcDbEntity
  8
0
  6
Continuous
100
AcDbCircle
 10
400.0000000000102
 20
100.0
 30
0.0
 40
64.0
100
AcDbArc
 50
119.2311999999937
 51
60.76880399999692
  0
LINE
  5
11D8
330
1FC5
100
AcDbEntity
  8
0
  6
Continuous
100
AcDbLine
 10
180.0
 20
155.8499909999999
 30
0.0
 11
180.0
 21
35.99998500000003
 31
0.0
  0
LINE
  5
11D9
330
1FC5
100
AcDbEntity
  8
0
  6
Continuous
100
AcDbLine
 10
180.0
 20
35.99998500000003
 30
0.0
 11
220.0
 21
35.99998500000003
 31
0.0
  0
LINE
  5
11DA
330
1FC5
100
AcDbEntity
  8
0
  6
Continuous
100
AcDbLine
 10
220.0
 20
155.8499909999999
 30
0.0
 11
220.0
 21
35.99998500000003
 31
0.0
  0
LINE
  5
11DB
330
1FC5
100
AcDbEntity
  8
0
  6
Continuous
100
AcDbLine
 10
177.091904
 20
155.8499909999999
 30
0.0
 11
222.908096
 21
155.8499909999999
 31
0.0
  0
LINE
  5
11DC
330
1FC5
100
AcDbEntity
  8
0
  6
Continuous
100
AcDbLine
 10
167.999992
 20
204.85001
 30
0.0
 11
232.0000079999998
 21
204.85001
 31
0.0
  0
LINE
  5
11DD
330
1FC5
100
AcDbEntity
  8
0
  6
Continuous
100
AcDbLine
 10
232.0000079999998
 20
204.85001
 30
0.0
 11
232.0000079999998
 21
180.8298109999999
 31
0.0
  0
LINE
  5
11DE
330
1FC5
100
AcDbEntity
  8
0
  6
Continuous
100
AcDbLine
 10
167.999992
 20
204.85001
 30
0.0
 11
167.999992
 21
180.8298109999999
 31
0.0
  0
LINE
  5
11DF
330
1FC5
100
AcDbEntity
  8
0
  6
Continuous
100
AcDbLine
 10
232.0000009999999
 20
180.8298149999999
 30
0.0
 11
222.9080859999999
 21
155.8499839999998
 31
0.0
  0
LINE
  5
11E0
330
1FC5
100
AcDbEntity
  8
0
  6
Continuous
100
AcDbLine
 10
167.9999989999998
 20
180.8298149999999
 30
0.0
 11
177.0919099999999
 21
155.849995
 31
0.0
  0
LINE
  5
15A8
330
1FC5
100
AcDbEntity
  8
0
  6
Continuous
100
AcDbLine
 10
168.5000059999999
 20
204.85001
 30
0.0
 11
231.4999939999999
 21
204.85001
 31
0.0
  0
LINE
  5
15D7
330
1FC5
100
AcDbEntity
  8
0
  6
Continuous
100
AcDbLine
 10
368.500006
 20
204.85001
 30
0.0
 11
431.4999939999998
 21
204.85001
 31
0.0
  0
LINE
  5
1CED
330
1FC5
100
AcDbEntity
  8
0
  6
Continuous
100
AcDbLine
 10
150.0
 20
138.7499999999998
 30
0.0
 11
152.8499991999999
 21
138.7499999999998
 31
0.0
  0
LINE
  5
1CEE
330
1FC5
100
AcDbEntity
  8
0
  6
Continuous
100
AcDbLine
 10
152.8499991999999
 20
138.7499999999998
 30
0.0
 11
155.3977906
 21
131.750001
 31
0.0
  0
LINE
  5
1CEF
330
1FC5
100
AcDbEntity
  8
0
  6
Continuous
100
AcDbLine
 10
155.3977908999998
 20
131.75
 30
0.0
 11
180.0
 21
131.75
 31
0.0
  0
LINE
  5
1CF0
330
1FC5
100
AcDbEntity
  8
0
  6
Continuous
100
AcDbLine
 10
150.0
 20
61.25
 30
0.0
 11
150.0
 21
138.7499999999998
 31
0.0
  0
LINE
  5
1CF1
330
1FC5
100
AcDbEntity
  8
0
  6
Continuous
100
AcDbLine
 10
155.3977908999998
 20
68.25
 30
0.0
 11
180.0
 21
68.25
 31
0.0
  0
LINE
  5
1CF2
330
1FC5
100
AcDbEntity
  8
0
  6
Continuous
100
AcDbLine
 10
152.8499991999999
 20
61.25
 30
0.0
 11
155.3977906
 21
68.249999
 31
0.0
  0
LINE
  5
1CF3
330
1FC5
100
AcDbEntity
  8
0
  6
Continuous
100
AcDbLine
 10
150.0
 20
61.25
 30
0.0
 11
152.8499991999999
 21
61.25
 31
0.0
  0
LINE
  5
1CF5
330
1FC5
100
AcDbEntity
  8
0
  6
Continuous
100
AcDbLine
 10
155.3977908999998
 20
131.75
 30
0.0
 11
155.3977908999998
 21
68.25
 31
0.0
  0
LINE
  5
1CF8
330
1FC5
100
AcDbEntity
  8
0
  6
Continuous
100
AcDbLine
 10
249.9999999999999
 20
61.2500000000001
 30
0.0
 11
247.1500007999999
 21
61.2500000000001
 31
0.0
  0
LINE
  5
1CF9
330
1FC5
100
AcDbEntity
  8
0
  6
Continuous
100
AcDbLine
 10
247.1500007999999
 20
61.2500000000001
 30
0.0
 11
244.6022093999999
 21
68.24999900000012
 31
0.0
  0
LINE
  5
1CFA
330
1FC5
100
AcDbEntity
  8
0
  6
Continuous
100
AcDbLine
 10
244.6022090999998
 20
68.25000000000009
 30
0.0
 11
220.0
 21
68.25000000000009
 31
0.0
  0
LINE
  5
1CFB
330
1FC5
100
AcDbEntity
  8
0
  6
Continuous
100
AcDbLine
 10
249.9999999999999
 20
138.7499999999998
 30
0.0
 11
249.9999999999999
 21
61.2500000000001
 31
0.0
  0
LINE
  5
1CFC
330
1FC5
100
AcDbEntity
  8
0
  6
Continuous
100
AcDbLine
 10
244.6022090999998
 20
131.75
 30
0.0
 11
220.0
 21
131.75
 31
0.0
  0
LINE
  5
1CFD
330
1FC5
100
AcDbEntity
  8
0
  6
Continuous
100
AcDbLine
 10
247.1500007999999
 20
138.7499999999998
 30
0.0
 11
244.6022093999999
 21
131.750001
 31
0.0
  0
LINE
  5
1CFE
330
1FC5
100
AcDbEntity
  8
0
  6
Continuous
100
AcDbLine
 10
249.9999999999999
 20
138.7499999999998
 30
0.0
 11
247.1500007999999
 21
138.7499999999998
 31
0.0
  0
LINE
  5
1D00
330
1FC5
100
AcDbEntity
  8
0
  6
Continuous
100
AcDbLine
 10
244.6022090999998
 20
68.25000000000009
 30
0.0
 11
244.6022090999998
 21
131.75
 31
0.0
  0
CIRCLE
  5
1D62
330
1FC5
100
AcDbEntity
  8
0
  6
Continuous
100
AcDbCircle
 10
400.0000000000102
 20
100.0
 30
0.0
 40
38.75
  0
CIRCLE
  5
1D63
330
1FC5
100
AcDbEntity
  8
0
  6
Continuous
100
AcDbCircle
 10
400.0000000000102
 20
100.0
 30
0.0
 40
31.75
  0
LINE
  5
22A4
330
1FC5
100
AcDbEntity
  8
0
  6
Continuous
100
AcDbLine
 10
78.13842773437568
 20
255.3500100000014
 30
0.0
 11
299.0214233398708
 21
255.3500099999987
 31
0.0
  0
LINE
  5
22A5
330
1FC5
100
AcDbEntity
  8
0
  6
Continuous
100
AcDbLine
 10
267.5001532670014
 20
305.8500099999992
 30
0.0
 11
267.5001532670003
 21
204.8500099999992
 31
0.0
  0
LINE
  5
22A6
330
1FC5
100
AcDbEntity
  8
0
  6
Continuous
100
AcDbLine
 10
273.5001532670014
 20
304.8500099999992
 30
0.0
 11
273.5001532670003
 21
205.8500099999991
 31
0.0
  0
LINE
  5
22A7
330
1FC5
100
AcDbEntity
  8
0
  6
Continuous
100
AcDbLine
 10
112.5000000000011
 20
305.8500100000001
 30
0.0
 11
112.5
 21
204.850010000001
 31
0.0
  0
LINE
  5
22A8
330
1FC5
100
AcDbEntity
  8
0
  6
Continuous
100
AcDbLine
 10
106.5000000000011
 20
304.8500100000001
 30
0.0
 11
106.4999999999999
 21
205.850010000001
 31
0.0
  0
LINE
  5
22A9
330
1FC5
100
AcDbEntity
  8
0
  6
Continuous
100
AcDbLine
 10
272.5001532670014
 20
305.8500099999992
 30
0.0
 11
107.5000000000011
 21
305.8500100000001
 31
0.0
  0
LINE
  5
22AA
330
1FC5
100
AcDbEntity
  8
0
  6
Continuous
100
AcDbLine
 10
272.5001532670003
 20
204.8500099999992
 30
0.0
 11
107.4999999999999
 21
204.850010000001
 31
0.0
  0
LINE
  5
22AB
330
1FC5
100
AcDbEntity
  8
0
  6
Continuous
100
AcDbLine
 10
99.89990234375069
 20
261.8500328581833
 30
0.0
 11
99.89990234375046
 21
248.8500328581833
 31
0.0
  0
LINE
  5
22AC
330
1FC5
100
AcDbEntity
  8
0
  6
Continuous
100
AcDbLine
 10
100.4799804687506
 20
262.8557091277146
 30
0.0
 11
104.3193359375006
 21
262.8557091277146
 31
0.0
  0
LINE
  5
22AD
330
1FC5
100
AcDbEntity
  8
0
  6
Continuous
100
AcDbLine
 10
100.4804687500006
 20
259.1029625456833
 30
0.0
 11
104.3189132571903
 21
259.1029625456833
 31
0.0
  0
LINE
  5
22AE
330
1FC5
100
AcDbEntity
  8
0
  6
Continuous
100
AcDbLine
 10
99.90018494709943
 20
261.8505027121375
 30
0.0
 11
100.4807513533503
 21
262.8560732068829
 31
0.0
  0
LINE
  5
22AF
330
1FC5
100
AcDbEntity
  8
0
  6
Continuous
100
AcDbLine
 10
104.3193359375004
 20
247.8446617644333
 30
0.0
 11
100.4799804687504
 21
247.8446617644333
 31
0.0
  0
LINE
  5
22B0
330
1FC5
100
AcDbEntity
  8
0
  6
Continuous
100
AcDbLine
 10
104.3184923633168
 20
251.5975914519333
 30
0.0
 11
100.4804687500006
 21
251.5975914519333
 31
0.0
  0
ARC
  5
22B1
330
1FC5
100
AcDbEntity
  8
0
  6
Continuous
100
AcDbCircle
 10
103.2226562500004
 20
249.7211266081833
 30
0.0
 40
3.322566986083984
100
AcDbArc
 50
145.6156973218391
 51
180.0
  0
ARC
  5
22B2
330
1FC5
100
AcDbEntity
  8
0
  6
Continuous
100
AcDbCircle
 10
112.3193359375006
 20
255.3500328581831
 30
0.0
 40
12.41944122314453
100
AcDbArc
 50
162.4120613966393
 51
197.5879727542967
  0
LINE
  5
22B3
330
1FC5
100
AcDbEntity
  8
0
  6
Continuous
100
AcDbLine
 10
106.5000000000006
 20
263.3498497527143
 30
0.0
 11
104.8999023437506
 21
263.3498497527146
 31
0.0
  0
LINE
  5
22B4
330
1FC5
100
AcDbEntity
  8
0
  6
Continuous
100
AcDbLine
 10
106.5000000000004
 20
247.3500328581831
 30
0.0
 11
104.8999023437504
 21
247.3500328581833
 31
0.0
  0
LINE
  5
22B5
330
1FC5
100
AcDbEntity
  8
0
  6
Continuous
100
AcDbLine
 10
99.90069788883602
 20
248.8504784184808
 30
0.0
 11
100.481264295086
 21
247.8449079237364
 31
0.0
  0
ARC
  5
22B6
330
1FC5
100
AcDbEntity
  8
0
  6
Continuous
100
AcDbCircle
 10
103.2226562500006
 20
260.9794273894333
 30
0.0
 40
3.322566986083984
100
AcDbArc
 50
180.0
 51
214.3843026781608
  0
LINE
  5
22B7
330
1FC5
100
AcDbEntity
  8
0
  6
Continuous
100
AcDbLine
 10
104.8999023437506
 20
263.3498497527146
 30
0.0
 11
104.8999023437504
 21
247.3500328581833
 31
0.0
  0
LINE
  5
22B8
330
1FC5
100
AcDbEntity
  8
0
  6
Continuous
100
AcDbLine
 10
104.9010624574718
 20
261.8507253140117
 30
0.0
 11
104.3205113100109
 21
262.8562693797587
 31
0.0
  0
LINE
  5
22B9
330
1FC5
100
AcDbEntity
  8
0
  6
Continuous
100
AcDbLine
 10
104.9005800333184
 20
248.8503086746025
 30
0.0
 11
104.3200136270684
 21
247.8447381798571
 31
0.0
  0
LINE
  5
22BA
330
1FC5
100
AcDbEntity
  8
0
  6
Continuous
100
AcDbLine
 10
99.89990234375069
 20
251.3500328581833
 30
0.0
 11
92.00048828124977
 21
251.3500328581833
 31
0.0
  0
LINE
  5
22BB
330
1FC5
100
AcDbEntity
  8
0
  6
Continuous
100
AcDbLine
 10
99.89990234375069
 20
252.1503258269333
 30
0.0
 11
92.00048828124977
 21
252.1503258269333
 31
0.0
  0
LINE
  5
22BC
330
1FC5
100
AcDbEntity
  8
0
  6
Continuous
100
AcDbLine
 10
99.89990234375069
 20
258.5502281706833
 30
0.0
 11
92.00048828124977
 21
258.5502281706833
 31
0.0
  0
LINE
  5
22BD
330
1FC5
100
AcDbEntity
  8
0
  6
Continuous
100
AcDbLine
 10
99.89990234375069
 20
259.3500328581833
 30
0.0
 11
92.00048828124977
 21
259.3500328581833
 31
0.0
  0
LINE
  5
22BE
330
1FC5
100
AcDbEntity
  8
0
  6
Continuous
100
AcDbLine
 10
87.00054299394968
 20
248.849850527233
 30
0.0
 11
87.58110940019879
 21
247.8442800324894
 31
0.0
  0
LINE
  5
22BF
330
1FC5
100
AcDbEntity
  8
0
  6
Continuous
100
AcDbLine
 10
92.00048828124954
 20
247.8445103815932
 30
0.0
 11
87.58105468749954
 21
247.8445103815932
 31
0.0
  0
ARC
  5
22C0
330
1FC5
100
AcDbEntity
  8
0
  6
Continuous
100
AcDbCircle
 10
90.32373046874955
 20
249.7207616022963
 30
0.0
 40
3.322566986083984
100
AcDbArc
 50
145.6156973218391
 51
180.0
  0
LINE
  5
22C1
330
1FC5
100
AcDbEntity
  8
0
  6
Continuous
100
AcDbLine
 10
92.00048828124977
 20
251.5971959284681
 30
0.0
 11
87.58154296874977
 21
251.5971959284681
 31
0.0
  0
ARC
  5
22C2
330
1FC5
100
AcDbEntity
  8
0
  6
Continuous
100
AcDbCircle
 10
99.42041015624978
 20
255.3500340632337
 30
0.0
 40
12.41944122314453
100
AcDbArc
 50
162.4120613966393
 51
197.5879727542967
  0
LINE
  5
22C3
330
1FC5
100
AcDbEntity
  8
0
  6
Continuous
100
AcDbLine
 10
87.00097656249978
 20
261.8500340632337
 30
0.0
 11
87.00097656249955
 21
248.8498814753431
 31
0.0
  0
LINE
  5
22C4
330
1FC5
100
AcDbEntity
  8
0
  6
Continuous
100
AcDbLine
 10
92.00048828124954
 20
247.8445103815932
 30
0.0
 11
92.00048828124977
 21
262.8554051569838
 31
0.0
  0
LINE
  5
22C5
330
1FC5
100
AcDbEntity
  8
0
  6
Continuous
100
AcDbLine
 10
87.58154296874977
 20
259.1029637507338
 30
0.0
 11
92.00048828124977
 21
259.1029637507338
 31
0.0
  0
ARC
  5
22C6
330
1FC5
100
AcDbEntity
  8
0
  6
Continuous
100
AcDbCircle
 10
90.32373046874978
 20
260.9794285944837
 30
0.0
 40
3.322566986083984
100
AcDbArc
 50
180.0
 51
214.3843026781608
  0
LINE
  5
22C7
330
1FC5
100
AcDbEntity
  8
0
  6
Continuous
100
AcDbLine
 10
87.00063964228935
 20
261.8499911926503
 30
0.0
 11
87.58120604853933
 21
262.8555616873948
 31
0.0
  0
LINE
  5
22C8
330
1FC5
100
AcDbEntity
  8
0
  6
Continuous
100
AcDbLine
 10
87.58105468749977
 20
262.8554051569838
 30
0.0
 11
92.00048828124977
 21
262.8554051569838
 31
0.0
  0
LINE
  5
22C9
330
1FC5
100
AcDbEntity
  8
0
  6
Continuous
100
AcDbLine
 10
273.5001532670012
 20
286.7722950855868
 30
0.0
 11
106.5000000000009
 21
286.7722950855886
 31
0.0
  0
LINE
  5
22CA
330
1FC5
100
AcDbEntity
  8
0
  6
Continuous
100
AcDbLine
 10
273.5001532670005
 20
223.9277249144106
 30
0.0
 11
106.5000000000002
 21
223.9277249144115
 31
0.0
  0
ARC
  5
22CD
330
1FC5
100
AcDbEntity
  8
0
  6
Continuous
100
AcDbCircle
 10
399.9999999999999
 20
255.3500099999999
 30
0.0
 40
44.0
100
AcDbArc
 50
139.5845609785565
 51
220.4154390214434
  0
ARC
  5
22CE
330
1FC5
100
AcDbEntity
  8
0
  6
Continuous
100
AcDbCircle
 10
399.9999999999999
 20
255.3500099999999
 30
0.0
 40
44.0
100
AcDbArc
 50
319.5845609785564
 51
40.41543902144348
  0
LINE
  5
22CF
330
1FC5
100
AcDbEntity
  8
0
  6
Continuous
100
AcDbLine
 10
433.4999999999999
 20
226.8237063488085
 30
0.0
 11
433.4999999999999
 21
207.8500099999999
 31
0.0
  0
LINE
  5
22D0
330
1FC5
100
AcDbEntity
  8
0
  6
Continuous
100
AcDbLine
 10
366.4999999999999
 20
226.8237063488076
 30
0.0
 11
366.4999999999999
 21
207.8500099999999
 31
0.0
  0
LINE
  5
22D1
330
1FC5
100
AcDbEntity
  8
0
  6
Continuous
100
AcDbLine
 10
418.1547005383789
 20
305.8500099999999
 30
0.0
 11
430.4999999999998
 21
305.8500099999999
 31
0.0
  0
LINE
  5
22D2
330
1FC5
100
AcDbEntity
  8
0
  6
Continuous
100
AcDbLine
 10
418.1547005383789
 20
204.85001
 30
0.0
 11
430.4999999999998
 21
204.85001
 31
0.0
  0
ARC
  5
22D3
330
1FC5
100
AcDbEntity
  8
0
  6
Continuous
100
AcDbCircle
 10
430.4999999999998
 20
302.85001
 30
0.0
 40
3.0
100
AcDbArc
 50
0.0
 51
90.0
  0
ARC
  5
22D4
330
1FC5
100
AcDbEntity
  8
0
  6
Continuous
100
AcDbCircle
 10
369.4999999999998
 20
302.85001
 30
0.0
 40
3.0
100
AcDbArc
 50
90.0
 51
180.0
  0
ARC
  5
22D5
330
1FC5
100
AcDbEntity
  8
0
  6
Continuous
100
AcDbCircle
 10
369.4999999999998
 20
207.8500099999999
 30
0.0
 40
3.0
100
AcDbArc
 50
180.0
 51
270.0
  0
ARC
  5
22D6
330
1FC5
100
AcDbEntity
  8
0
  6
Continuous
100
AcDbCircle
 10
430.4999999999998
 20
207.8500099999999
 30
0.0
 40
3.0
100
AcDbArc
 50
270.0
 51
0.0
  0
LINE
  5
22D7
330
1FC5
100
AcDbEntity
  8
0
  6
Continuous
100
AcDbLine
 10
366.4999999999999
 20
302.85001
 30
0.0
 11
366.4999999999999
 21
283.8763136511914
 31
0.0
  0
LINE
  5
22D8
330
1FC5
100
AcDbEntity
  8
0
  6
Continuous
100
AcDbLine
 10
433.4999999999999
 20
302.85001
 30
0.0
 11
433.4999999999999
 21
283.8763136511905
 31
0.0
  0
LINE
  5
22D9
330
1FC5
100
AcDbEntity
  8
0
  6
Continuous
100
AcDbLine
 10
424.9999999999999
 20
205.8444565005346
 30
0.0
 11
431.4999999999998
 21
209.5972332502668
 31
0.0
  0
LINE
  5
22DA
330
1FC5
100
AcDbEntity
  8
0
  6
Continuous
100
AcDbLine
 10
431.4999999999998
 20
217.1027867497322
 30
0.0
 11
431.4999999999998
 21
209.5972332502678
 31
0.0
  0
LINE
  5
22DB
330
1FC5
100
AcDbEntity
  8
0
  6
Continuous
100
AcDbLine
 10
425.0000000000007
 20
220.8555634994653
 30
0.0
 11
431.4999999999998
 21
217.1027867497331
 31
0.0
  0
LINE
  5
22DC
330
1FC5
100
AcDbEntity
  8
0
  6
Continuous
100
AcDbLine
 10
418.4999999999998
 20
217.1027867497322
 30
0.0
 11
424.9999999999999
 21
220.8555634994653
 31
0.0
  0
LINE
  5
22DD
330
1FC5
100
AcDbEntity
  8
0
  6
Continuous
100
AcDbLine
 10
418.4999999999998
 20
217.1027867497331
 30
0.0
 11
418.4999999999998
 21
209.5972332502678
 31
0.0
  0
LINE
  5
22DE
330
1FC5
100
AcDbEntity
  8
0
  6
Continuous
100
AcDbLine
 10
418.5000000000007
 20
209.5972332502678
 30
0.0
 11
425.0000000000007
 21
205.8444565005346
 31
0.0
  0
LINE
  5
22DF
330
1FC5
100
AcDbEntity
  8
0
  6
Continuous
100
AcDbLine
 10
375.0000000000007
 20
205.8444565005346
 30
0.0
 11
381.4999999999999
 21
209.5972332502668
 31
0.0
  0
LINE
  5
22E0
330
1FC5
100
AcDbEntity
  8
0
  6
Continuous
100
AcDbLine
 10
381.4999999999999
 20
217.1027867497322
 30
0.0
 11
381.4999999999999
 21
209.5972332502678
 31
0.0
  0
LINE
  5
22E1
330
1FC5
100
AcDbEntity
  8
0
  6
Continuous
100
AcDbLine
 10
375.0000000000007
 20
220.8555634994653
 30
0.0
 11
381.4999999999999
 21
217.1027867497331
 31
0.0
  0
LINE
  5
22E2
330
1FC5
100
AcDbEntity
  8
0
  6
Continuous
100
AcDbLine
 10
368.4999999999998
 20
217.1027867497322
 30
0.0
 11
374.9999999999999
 21
220.8555634994653
 31
0.0
  0
LINE
  5
22E3
330
1FC5
100
AcDbEntity
  8
0
  6
Continuous
100
AcDbLine
 10
368.4999999999998
 20
217.1027867497331
 30
0.0
 11
368.4999999999998
 21
209.5972332502678
 31
0.0
  0
LINE
  5
22E4
330
1FC5
100
AcDbEntity
  8
0
  6
Continuous
100
AcDbLine
 10
368.5000000000008
 20
209.5972332502678
 30
0.0
 11
375.0000000000007
 21
205.8444565005346
 31
0.0
  0
LINE
  5
22E5
330
1FC5
100
AcDbEntity
  8
0
  6
Continuous
100
AcDbLine
 10
424.9999999999999
 20
289.8444565005346
 30
0.0
 11
431.4999999999998
 21
293.5972332502668
 31
0.0
  0
LINE
  5
22E6
330
1FC5
100
AcDbEntity
  8
0
  6
Continuous
100
AcDbLine
 10
431.4999999999998
 20
301.1027867497322
 30
0.0
 11
431.4999999999998
 21
293.5972332502677
 31
0.0
  0
LINE
  5
22E7
330
1FC5
100
AcDbEntity
  8
0
  6
Continuous
100
AcDbLine
 10
425.0000000000007
 20
304.8555634994653
 30
0.0
 11
431.4999999999998
 21
301.1027867497331
 31
0.0
  0
LINE
  5
22E8
330
1FC5
100
AcDbEntity
  8
0
  6
Continuous
100
AcDbLine
 10
418.4999999999998
 20
301.1027867497322
 30
0.0
 11
424.9999999999999
 21
304.8555634994653
 31
0.0
  0
LINE
  5
22E9
330
1FC5
100
AcDbEntity
  8
0
  6
Continuous
100
AcDbLine
 10
418.4999999999998
 20
301.1027867497331
 30
0.0
 11
418.4999999999998
 21
293.5972332502677
 31
0.0
  0
LINE
  5
22EA
330
1FC5
100
AcDbEntity
  8
0
  6
Continuous
100
AcDbLine
 10
418.5000000000007
 20
293.5972332502677
 30
0.0
 11
425.0000000000007
 21
289.8444565005346
 31
0.0
  0
LINE
  5
22EB
330
1FC5
100
AcDbEntity
  8
0
  6
Continuous
100
AcDbLine
 10
375.0000000000007
 20
289.8444565005346
 30
0.0
 11
381.4999999999999
 21
293.5972332502668
 31
0.0
  0
LINE
  5
22EC
330
1FC5
100
AcDbEntity
  8
0
  6
Continuous
100
AcDbLine
 10
381.4999999999999
 20
301.1027867497322
 30
0.0
 11
381.4999999999999
 21
293.5972332502677
 31
0.0
  0
LINE
  5
22ED
330
1FC5
100
AcDbEntity
  8
0
  6
Continuous
100
AcDbLine
 10
375.0000000000007
 20
304.8555634994653
 30
0.0
 11
381.5000000000008
 21
301.1027867497331
 31
0.0
  0
LINE
  5
22EE
330
1FC5
100
AcDbEntity
  8
0
  6
Continuous
100
AcDbLine
 10
368.4999999999998
 20
301.1027867497322
 30
0.0
 11
374.9999999999999
 21
304.8555634994653
 31
0.0
  0
LINE
  5
22EF
330
1FC5
100
AcDbEntity
  8
0
  6
Continuous
100
AcDbLine
 10
368.4999999999998
 20
301.1027867497331
 30
0.0
 11
368.4999999999998
 21
293.5972332502677
 31
0.0
  0
LINE
  5
22F0
330
1FC5
100
AcDbEntity
  8
0
  6
Continuous
100
AcDbLine
 10
368.5000000000008
 20
293.5972332502677
 30
0.0
 11
375.0000000000007
 21
289.8444565005346
 31
0.0
  0
LINE
  5
22F1
330
1FC5
100
AcDbEntity
  8
0
  6
Continuous
100
AcDbLine
 10
382.9999999999998
 20
206.85001
 30
0.0
 11
416.9999999999999
 21
206.85001
 31
0.0
  0
LINE
  5
22F2
330
1FC5
100
AcDbEntity
  8
0
  6
Continuous
100
AcDbLine
 10
382.9999999999998
 20
303.85001
 30
0.0
 11
416.9999999999999
 21
303.85001
 31
0.0
  0
LINE
  5
22F3
330
1FC5
100
AcDbEntity
  8
0
  6
Continuous
100
AcDbLine
 10
381.8452994616208
 20
204.85001
 30
0.0
 11
382.9999999999998
 21
206.85001
 31
0.0
  0
LINE
  5
22F4
330
1FC5
100
AcDbEntity
  8
0
  6
Continuous
100
AcDbLine
 10
416.9999999999999
 20
303.85001
 30
0.0
 11
418.1547005383789
 21
305.8500099999999
 31
0.0
  0
LINE
  5
22F5
330
1FC5
100
AcDbEntity
  8
0
  6
Continuous
100
AcDbLine
 10
381.8452994616208
 20
305.8500099999999
 30
0.0
 11
382.9999999999998
 21
303.85001
 31
0.0
  0
LINE
  5
22F6
330
1FC5
100
AcDbEntity
  8
0
  6
Continuous
100
AcDbLine
 10
416.9999999999999
 20
206.85001
 30
0.0
 11
418.1547005383789
 21
204.85001
 31
0.0
  0
LINE
  5
22F7
330
1FC5
100
AcDbEntity
  8
0
  6
Continuous
100
AcDbLine
 10
369.4999999999998
 20
204.85001
 30
0.0
 11
381.8452994616208
 21
204.85001
 31
0.0
  0
LINE
  5
22F8
330
1FC5
100
AcDbEntity
  8
0
  6
Continuous
100
AcDbLine
 10
369.4999999999998
 20
305.8500099999999
 30
0.0
 11
381.8452994616208
 21
305.8500099999999
 31
0.0
  0
LINE
  5
22F9
330
1FC5
100
AcDbEntity
  8
0
  6
Continuous
100
AcDbLine
 10
383.4999999999999
 20
305.8500099999999
 30
0.0
 11
416.4999999999999
 21
305.8500099999999
 31
0.0
  0
LINE
  5
22FA
330
1FC5
100
AcDbEntity
  8
0
  6
Continuous
100
AcDbLine
 10
383.4999999999999
 20
204.85001
 30
0.0
 11
416.4999999999999
 21
204.85001
 31
0.0
  0
LINE
  5
22FB
330
1FC5
100
AcDbEntity
  8
0
  6
Continuous
100
AcDbLine
 10
416.4999999999999
 20
206.85001
 30
0.0
 11
416.4999999999999
 21
204.85001
 31
0.0
  0
LINE
  5
22FC
330
1FC5
100
AcDbEntity
  8
0
  6
Continuous
100
AcDbLine
 10
383.4999999999999
 20
206.85001
 30
0.0
 11
383.4999999999999
 21
204.85001
 31
0.0
  0
LINE
  5
22FD
330
1FC5
100
AcDbEntity
  8
0
  6
Continuous
100
AcDbLine
 10
383.4999999999999
 20
305.8500099999999
 30
0.0
 11
383.4999999999999
 21
303.85001
 31
0.0
  0
LINE
  5
22FE
330
1FC5
100
AcDbEntity
  8
0
  6
Continuous
100
AcDbLine
 10
416.4999999999999
 20
305.8500099999999
 30
0.0
 11
416.4999999999999
 21
303.85001
 31
0.0
  0
ARC
  5
22FF
330
1FC5
100
AcDbEntity
  8
0
  6
Continuous
100
AcDbCircle
 10
101.5766601562506
 20
260.9792442839637
 30
0.0
 40
3.322566986083984
100
AcDbArc
 50
325.6156973218391
 51
0.0
  0
ARC
  5
2300
330
1FC5
100
AcDbEntity
  8
0
  6
Continuous
100
AcDbCircle
 10
92.47998046875068
 20
255.3503380339636
 30
0.0
 40
12.41944122314453
100
AcDbArc
 50
342.4120613966393
 51
17.58797275429671
  0
ARC
  5
2301
330
1FC5
100
AcDbEntity
  8
0
  6
Continuous
100
AcDbCircle
 10
101.5766601562504
 20
249.7209435027136
 30
0.0
 40
3.322566986083984
100
AcDbArc
 50
0.0
 51
34.38430267816087
  0
ARC
  5
2302
330
1FC5
100
AcDbEntity
  8
0
  6
Continuous
100
AcDbCircle
 10
107.5000000000011
 20
304.8500100000001
 30
0.0
 40
1.0
100
AcDbArc
 50
90.0
 51
180.0
  0
ARC
  5
2303
330
1FC5
100
AcDbEntity
  8
0
  6
Continuous
100
AcDbCircle
 10
272.5001532670014
 20
304.8500099999992
 30
0.0
 40
1.0
100
AcDbArc
 50
0.0
 51
90.0
  0
ARC
  5
2304
330
1FC5
100
AcDbEntity
  8
0
  6
Continuous
100
AcDbCircle
 10
272.5001532670003
 20
205.8500099999991
 30
0.0
 40
1.0
100
AcDbArc
 50
270.0
 51
0.0
  0
ARC
  5
2305
330
1FC5
100
AcDbEntity
  8
0
  6
Continuous
100
AcDbCircle
 10
107.4999999999999
 20
205.850010000001
 30
0.0
 40
1.0
100
AcDbArc
 50
180.0
 51
270.0
  0
LINE
  5
2306
330
1FC5
100
AcDbEntity
  8
0
  6
Continuous
100
AcDbLine
 10
104.8999861846798
 20
305.3500100000012
 30
0.0
 11
104.900013815318
 21
289.3500100000012
 31
0.0
  0
LINE
  5
2307
330
1FC5
100
AcDbEntity
  8
0
  6
Continuous
100
AcDbLine
 10
99.90006593796557
 20
290.8498194428696
 30
0.0
 11
100.4806340807492
 21
289.8442499507157
 31
0.0
  0
LINE
  5
2308
330
1FC5
100
AcDbEntity
  8
0
  6
Continuous
100
AcDbLine
 10
104.9000129613971
 20
289.8444879317114
 30
0.0
 11
100.4805793676534
 21
289.8444802997257
 31
0.0
  0
ARC
  5
2309
330
1FC5
100
AcDbEntity
  8
0
  6
Continuous
100
AcDbCircle
 10
103.2232519087731
 20
291.7207362567935
 30
0.0
 40
3.322566986083984
100
AcDbArc
 50
145.6156973218391
 51
180.0
  0
LINE
  5
230A
330
1FC5
100
AcDbEntity
  8
0
  6
Continuous
100
AcDbLine
 10
104.900006480828
 20
293.5971734785809
 30
0.0
 11
100.4810611683344
 21
293.5971658474384
 31
0.0
  0
ARC
  5
230B
330
1FC5
100
AcDbEntity
  8
0
  6
Continuous
100
AcDbCircle
 10
112.3199218749844
 20
297.3500244269144
 30
0.0
 40
12.41944122314453
100
AcDbArc
 50
162.4120613966393
 51
197.5879727542967
  0
LINE
  5
230C
330
1FC5
100
AcDbEntity
  8
0
  6
Continuous
100
AcDbLine
 10
99.90047705630628
 20
303.8500029795998
 30
0.0
 11
99.90049950646358
 21
290.8498503917282
 31
0.0
  0
LINE
  5
230D
330
1FC5
100
AcDbEntity
  8
0
  6
Continuous
100
AcDbLine
 10
100.4810482065124
 20
301.1029336696922
 30
0.0
 11
104.899993519006
 21
301.1029413008348
 31
0.0
  0
ARC
  5
230E
330
1FC5
100
AcDbEntity
  8
0
  6
Continuous
100
AcDbCircle
 10
103.2232324660137
 20
302.9794032489646
 30
0.0
 40
3.322566986083984
100
AcDbArc
 50
180.0
 51
214.3843026781608
  0
LINE
  5
230F
330
1FC5
100
AcDbEntity
  8
0
  6
Continuous
100
AcDbLine
 10
99.9001401361686
 20
303.8499601084343
 30
0.0
 11
100.480704805883
 21
304.8555316057666
 31
0.0
  0
LINE
  5
2310
330
1FC5
100
AcDbEntity
  8
0
  6
Continuous
100
AcDbLine
 10
100.4805534451154
 20
304.8553750750936
 30
0.0
 11
104.899987038859
 21
304.8553827070793
 31
0.0
  0
LINE
  5
2311
330
1FC5
100
AcDbEntity
  8
0
  6
Continuous
100
AcDbLine
 10
106.499986184682
 20
305.350010000001
 30
0.0
 11
104.8999861846798
 21
305.3500100000012
 31
0.0
  0
LINE
  5
2312
330
1FC5
100
AcDbEntity
  8
0
  6
Continuous
100
AcDbLine
 10
106.5000138153202
 20
289.350010000001
 30
0.0
 11
104.900013815318
 21
289.3500100000012
 31
0.0
  0
LINE
  5
2313
330
1FC5
100
AcDbEntity
  8
0
  6
Continuous
100
AcDbLine
 10
104.8999861846789
 20
221.3500100000012
 30
0.0
 11
104.9000138153169
 21
205.3500100000012
 31
0.0
  0
LINE
  5
2314
330
1FC5
100
AcDbEntity
  8
0
  6
Continuous
100
AcDbLine
 10
99.90006593796534
 20
206.8498194428696
 30
0.0
 11
100.480634080749
 21
205.8442499507157
 31
0.0
  0
LINE
  5
2315
330
1FC5
100
AcDbEntity
  8
0
  6
Continuous
100
AcDbLine
 10
104.9000129613959
 20
205.8444879317114
 30
0.0
 11
100.4805793676523
 21
205.8444802997257
 31
0.0
  0
ARC
  5
2316
330
1FC5
100
AcDbEntity
  8
0
  6
Continuous
100
AcDbCircle
 10
103.2232519087719
 20
207.7207362567935
 30
0.0
 40
3.322566986083984
100
AcDbArc
 50
145.6156973218391
 51
180.0
  0
LINE
  5
2317
330
1FC5
100
AcDbEntity
  8
0
  6
Continuous
100
AcDbLine
 10
104.9000064808269
 20
209.597173478581
 30
0.0
 11
100.4810611683333
 21
209.5971658474384
 31
0.0
  0
ARC
  5
2318
330
1FC5
100
AcDbEntity
  8
0
  6
Continuous
100
AcDbCircle
 10
112.3199218749834
 20
213.3500244269134
 30
0.0
 40
12.41944122314453
100
AcDbArc
 50
162.4120613966393
 51
197.5879727542967
  0
LINE
  5
2319
330
1FC5
100
AcDbEntity
  8
0
  6
Continuous
100
AcDbLine
 10
99.90047705630628
 20
219.8500029795998
 30
0.0
 11
99.90049950646335
 21
206.8498503917282
 31
0.0
  0
LINE
  5
231A
330
1FC5
100
AcDbEntity
  8
0
  6
Continuous
100
AcDbLine
 10
100.4810482065115
 20
217.1029336696922
 30
0.0
 11
104.8999935190051
 21
217.1029413008347
 31
0.0
  0
ARC
  5
231B
330
1FC5
100
AcDbEntity
  8
0
  6
Continuous
100
AcDbCircle
 10
103.2232324660128
 20
218.9794032489646
 30
0.0
 40
3.322566986083984
100
AcDbArc
 50
180.0
 51
214.3843026781608
  0
LINE
  5
231C
330
1FC5
100
AcDbEntity
  8
0
  6
Continuous
100
AcDbLine
 10
99.9001401361677
 20
219.8499601084342
 30
0.0
 11
100.4807048058821
 21
220.8555316057656
 31
0.0
  0
LINE
  5
231D
330
1FC5
100
AcDbEntity
  8
0
  6
Continuous
100
AcDbLine
 10
100.4805534451154
 20
220.8553750750936
 30
0.0
 11
104.8999870388581
 21
220.8553827070793
 31
0.0
  0
LINE
  5
231E
330
1FC5
100
AcDbEntity
  8
0
  6
Continuous
100
AcDbLine
 10
106.4999861846811
 20
221.350010000001
 30
0.0
 11
104.8999861846789
 21
221.3500100000012
 31
0.0
  0
LINE
  5
231F
330
1FC5
100
AcDbEntity
  8
0
  6
Continuous
100
AcDbLine
 10
106.5000138153191
 20
205.350010000001
 30
0.0
 11
104.9000138153169
 21
205.3500100000012
 31
0.0
  0
LINE
  5
2320
330
1FC5
100
AcDbEntity
  8
0
  6
Continuous
100
AcDbLine
 10
275.1001670823227
 20
289.3500099999992
 30
0.0
 11
275.1001394516854
 21
305.3500099999991
 31
0.0
  0
LINE
  5
2321
330
1FC5
100
AcDbEntity
  8
0
  6
Continuous
100
AcDbLine
 10
280.1000873290361
 20
303.8502005571306
 30
0.0
 11
279.5195191862524
 21
304.8557700492845
 31
0.0
  0
LINE
  5
2322
330
1FC5
100
AcDbEntity
  8
0
  6
Continuous
100
AcDbLine
 10
275.1001403056063
 20
304.8555320682899
 30
0.0
 11
279.51957389935
 21
304.8555397002753
 31
0.0
  0
ARC
  5
2323
330
1FC5
100
AcDbEntity
  8
0
  6
Continuous
100
AcDbCircle
 10
276.7769013582294
 20
302.9792837432069
 30
0.0
 40
3.322566986083984
100
AcDbArc
 50
325.6157962667899
 51
0.000098944934685
  0
LINE
  5
2324
330
1FC5
100
AcDbEntity
  8
0
  6
Continuous
100
AcDbLine
 10
275.1001467861744
 20
301.1028465214203
 30
0.0
 11
279.5190920986672
 21
301.1028541525627
 31
0.0
  0
ARC
  5
2325
330
1FC5
100
AcDbEntity
  8
0
  6
Continuous
100
AcDbCircle
 10
267.6802313920172
 20
297.3499955730867
 30
0.0
 40
12.41944122314453
100
AcDbArc
 50
342.412160341574
 51
17.58807169925028
  0
LINE
  5
2326
330
1FC5
100
AcDbEntity
  8
0
  6
Continuous
100
AcDbLine
 10
280.0996762106954
 20
290.8500170204003
 30
0.0
 11
280.0996537605381
 21
303.8501696082719
 31
0.0
  0
LINE
  5
2327
330
1FC5
100
AcDbEntity
  8
0
  6
Continuous
100
AcDbLine
 10
279.5191050604892
 20
293.5970863303079
 30
0.0
 11
275.1001597479965
 21
293.5970786991656
 31
0.0
  0
ARC
  5
2328
330
1FC5
100
AcDbEntity
  8
0
  6
Continuous
100
AcDbCircle
 10
276.7769208009888
 20
291.7206167510367
 30
0.0
 40
3.322566986083984
100
AcDbArc
 50
0.000098944934685
 51
34.38440162309523
  0
LINE
  5
2329
330
1FC5
100
AcDbEntity
  8
0
  6
Continuous
100
AcDbLine
 10
280.100013130834
 20
290.8500598915659
 30
0.0
 11
279.5194484611195
 21
289.8444883942345
 31
0.0
  0
LINE
  5
232A
330
1FC5
100
AcDbEntity
  8
0
  6
Continuous
100
AcDbLine
 10
279.5195998218871
 20
289.8446449249065
 30
0.0
 11
275.1001662281444
 21
289.844637292921
 31
0.0
  0
LINE
  5
232B
330
1FC5
100
AcDbEntity
  8
0
  6
Continuous
100
AcDbLine
 10
273.5001670823205
 20
289.3500099999992
 30
0.0
 11
275.1001670823227
 21
289.3500099999992
 31
0.0
  0
LINE
  5
232C
330
1FC5
100
AcDbEntity
  8
0
  6
Continuous
100
AcDbLine
 10
273.5001394516823
 20
305.3500099999991
 30
0.0
 11
275.1001394516845
 21
305.3500099999991
 31
0.0
  0
LINE
  5
232D
330
1FC5
100
AcDbEntity
  8
0
  6
Continuous
100
AcDbLine
 10
275.1001670823224
 20
205.3500099999991
 30
0.0
 11
275.1001394516845
 21
221.3500099999992
 31
0.0
  0
LINE
  5
232E
330
1FC5
100
AcDbEntity
  8
0
  6
Continuous
100
AcDbLine
 10
280.1000873290361
 20
219.8502005571306
 30
0.0
 11
279.5195191862524
 21
220.8557700492844
 31
0.0
  0
LINE
  5
232F
330
1FC5
100
AcDbEntity
  8
0
  6
Continuous
100
AcDbLine
 10
275.1001403056054
 20
220.8555320682898
 30
0.0
 11
279.5195738993482
 21
220.8555397002753
 31
0.0
  0
ARC
  5
2330
330
1FC5
100
AcDbEntity
  8
0
  6
Continuous
100
AcDbCircle
 10
276.7769013582285
 20
218.9792837432069
 30
0.0
 40
3.322566986083984
100
AcDbArc
 50
325.6157962667899
 51
0.000098944934685
  0
LINE
  5
2331
330
1FC5
100
AcDbEntity
  8
0
  6
Continuous
100
AcDbLine
 10
275.1001467861736
 20
217.1028465214203
 30
0.0
 11
279.5190920986663
 21
217.1028541525627
 31
0.0
  0
ARC
  5
2332
330
1FC5
100
AcDbEntity
  8
0
  6
Continuous
100
AcDbCircle
 10
267.6802313920163
 20
213.3499955730867
 30
0.0
 40
12.41944122314453
100
AcDbArc
 50
342.412160341574
 51
17.58807169925028
  0
LINE
  5
2333
330
1FC5
100
AcDbEntity
  8
0
  6
Continuous
100
AcDbLine
 10
280.0996762106951
 20
206.8500170204004
 30
0.0
 11
280.0996537605381
 21
219.8501696082719
 31
0.0
  0
LINE
  5
2334
330
1FC5
100
AcDbEntity
  8
0
  6
Continuous
100
AcDbLine
 10
279.519105060488
 20
209.597086330308
 30
0.0
 11
275.1001597479953
 21
209.5970786991656
 31
0.0
  0
ARC
  5
2335
330
1FC5
100
AcDbEntity
  8
0
  6
Continuous
100
AcDbCircle
 10
276.7769208009876
 20
207.7206167510366
 30
0.0
 40
3.322566986083984
100
AcDbArc
 50
0.000098944934685
 51
34.38440162309523
  0
LINE
  5
2336
330
1FC5
100
AcDbEntity
  8
0
  6
Continuous
100
AcDbLine
 10
280.1000131308328
 20
206.8500598915659
 30
0.0
 11
279.5194484611183
 21
205.8444883942345
 31
0.0
  0
LINE
  5
2337
330
1FC5
100
AcDbEntity
  8
0
  6
Continuous
100
AcDbLine
 10
279.519599821886
 20
205.8446449249065
 30
0.0
 11
275.1001662281423
 21
205.8446372929211
 31
0.0
  0
LINE
  5
2338
330
1FC5
100
AcDbEntity
  8
0
  6
Continuous
100
AcDbLine
 10
273.5001670823194
 20
205.3500099999991
 30
0.0
 11
275.1001670823216
 21
205.3500099999991
 31
0.0
  0
LINE
  5
2339
330
1FC5
100
AcDbEntity
  8
0
  6
Continuous
100
AcDbLine
 10
273.5001394516814
 20
221.3500099999992
 30
0.0
 11
275.1001394516836
 21
221.3500099999992
 31
0.0
  0
LINE
  5
233C
330
1FC5
100
AcDbEntity
  8
0
  6
Continuous
100
AcDbLine
 10
112.5000000000018
 20
471.3392366667939
 30
0.0
 11
112.5000000000018
 21
559.3392366667939
 31
0.0
  0
LINE
  5
233D
330
1FC5
100
AcDbEntity
  8
0
  6
Continuous
100
AcDbLine
 10
267.5001532670021
 20
471.3392565265802
 30
0.0
 11
267.5001532670021
 21
559.3392565265793
 31
0.0
  0
LINE
  5
233E
330
1FC5
100
AcDbEntity
  8
0
  6
Continuous
100
AcDbLine
 10
272.5001531437001
 20
559.3392567732843
 30
0.0
 11
240.4999920000018
 21
559.3392528259816
 31
0.0
  0
LINE
  5
233F
330
1FC5
100
AcDbEntity
  8
0
  6
Continuous
100
AcDbLine
 10
222.4999620000017
 20
559.3392506056312
 30
0.0
 11
107.4999998766461
 21
559.3392364200879
 31
0.0
  0
LINE
  5
2340
330
1FC5
100
AcDbEntity
  8
0
  6
Continuous
100
AcDbLine
 10
272.500153390405
 20
471.3392567732843
 30
0.0
 11
107.5000001233511
 21
471.3392364200879
 31
0.0
  0
LINE
  5
2341
330
1FC5
100
AcDbEntity
  8
0
  6
Continuous
100
AcDbLine
 10
273.5001532670303
 20
482.0397458451005
 30
0.0
 11
240.5777384258137
 21
482.0396891652919
 31
0.0
  0
LINE
  5
2342
330
1FC5
100
AcDbEntity
  8
0
  6
Continuous
100
AcDbLine
 10
159.4224694870899
 20
482.0395494469531
 30
0.0
 11
106.4999999999736
 21
482.0394583346987
 31
0.0
  0
LINE
  5
2343
330
1FC5
100
AcDbEntity
  8
0
  6
Continuous
100
AcDbLine
 10
273.5001532670303
 20
548.6397458452
 30
0.0
 11
240.4999920000018
 21
548.6396890315421
 31
0.0
  0
LINE
  5
2344
330
1FC5
100
AcDbEntity
  8
0
  6
Continuous
100
AcDbLine
 10
222.4999620000019
 20
548.6396580423737
 30
0.0
 11
106.4999999999736
 21
548.6394583347982
 31
0.0
  0
LINE
  5
2345
330
1FC5
100
AcDbEntity
  8
0
  6
Continuous
100
AcDbLine
 10
273.5001532670303
 20
497.184953917649
 30
0.0
 11
245.0000000000016
 21
497.1849048512837
 31
0.0
  0
LINE
  5
2346
330
1FC5
100
AcDbEntity
  8
0
  6
Continuous
100
AcDbLine
 10
155.0000000000018
 20
497.1847499057004
 30
0.0
 11
106.4999999999736
 21
497.1846664072471
 31
0.0
  0
LINE
  5
2347
330
1FC5
100
AcDbEntity
  8
0
  6
Continuous
100
AcDbLine
 10
273.5001532670303
 20
498.3396579098579
 30
0.0
 11
245.0000000000016
 21
498.3396088434925
 31
0.0
  0
LINE
  5
2348
330
1FC5
100
AcDbEntity
  8
0
  6
Continuous
100
AcDbLine
 10
155.0000000000018
 20
498.3394538979093
 30
0.0
 11
106.4999999999736
 21
498.3393703994559
 31
0.0
  0
LINE
  5
2349
330
1FC5
100
AcDbEntity
  8
0
  6
Continuous
100
AcDbLine
 10
273.5001532670303
 20
533.4943549944072
 30
0.0
 11
245.0000000000016
 21
533.4943059280418
 31
0.0
  0
LINE
  5
234A
330
1FC5
100
AcDbEntity
  8
0
  6
Continuous
100
AcDbLine
 10
155.0000000000018
 20
533.4941509824585
 30
0.0
 11
106.4999999999736
 21
533.4940674840053
 31
0.0
  0
LINE
  5
234B
330
1FC5
100
AcDbEntity
  8
0
  6
Continuous
100
AcDbLine
 10
273.5001532670303
 20
532.3396579098579
 30
0.0
 11
245.0000000000016
 21
532.3396088434925
 31
0.0
  0
LINE
  5
234C
330
1FC5
100
AcDbEntity
  8
0
  6
Continuous
100
AcDbLine
 10
155.0000000000018
 20
532.3394538979092
 30
0.0
 11
106.4999999999736
 21
532.339370399456
 31
0.0
  0
LINE
  5
234D
330
1FC5
100
AcDbEntity
  8
0
  6
Continuous
100
AcDbLine
 10
280.1002509232509
 20
261.850032858181
 30
0.0
 11
280.1002509232507
 21
248.850032858181
 31
0.0
  0
LINE
  5
234E
330
1FC5
100
AcDbEntity
  8
0
  6
Continuous
100
AcDbLine
 10
279.5201727982509
 20
262.8557091277123
 30
0.0
 11
275.6808173295009
 21
262.8557091277125
 31
0.0
  0
LINE
  5
234F
330
1FC5
100
AcDbEntity
  8
0
  6
Continuous
100
AcDbLine
 10
279.519684517001
 20
259.102962545681
 30
0.0
 11
275.6812400098112
 21
259.1029625456812
 31
0.0
  0
LINE
  5
2350
330
1FC5
100
AcDbEntity
  8
0
  6
Continuous
100
AcDbLine
 10
280.0999683199013
 20
261.8505027121361
 30
0.0
 11
279.5194019136513
 21
262.8560732068806
 31
0.0
  0
LINE
  5
2351
330
1FC5
100
AcDbEntity
  8
0
  6
Continuous
100
AcDbLine
 10
275.6808173295007
 20
247.8446617644312
 30
0.0
 11
279.5201727982507
 21
247.844661764431
 31
0.0
  0
LINE
  5
2352
330
1FC5
100
AcDbEntity
  8
0
  6
Continuous
100
AcDbLine
 10
275.6816609036838
 20
251.5975914519312
 30
0.0
 11
279.519684517001
 21
251.597591451931
 31
0.0
  0
ARC
  5
2353
330
1FC5
100
AcDbEntity
  8
0
  6
Continuous
100
AcDbCircle
 10
276.7774970170007
 20
249.7211266081813
 30
0.0
 40
3.322566986083984
100
AcDbArc
 50
0.0
 51
34.38430267816087
  0
ARC
  5
2354
330
1FC5
100
AcDbEntity
  8
0
  6
Continuous
100
AcDbCircle
 10
267.680817329501
 20
255.3500328581812
 30
0.0
 40
12.41944122314453
100
AcDbArc
 50
342.4120272457032
 51
17.58793860336067
  0
LINE
  5
2355
330
1FC5
100
AcDbEntity
  8
0
  6
Continuous
100
AcDbLine
 10
273.5001532670009
 20
263.3498497527125
 30
0.0
 11
275.100250923251
 21
263.3498497527125
 31
0.0
  0
LINE
  5
2356
330
1FC5
100
AcDbEntity
  8
0
  6
Continuous
100
AcDbLine
 10
273.5001532670007
 20
247.3500328581812
 30
0.0
 11
275.1002509232507
 21
247.3500328581812
 31
0.0
  0
LINE
  5
2357
330
1FC5
100
AcDbEntity
  8
0
  6
Continuous
100
AcDbLine
 10
280.0994553781652
 20
248.8504784184785
 30
0.0
 11
279.5188889719152
 21
247.8449079237341
 31
0.0
  0
ARC
  5
2358
330
1FC5
100
AcDbEntity
  8
0
  6
Continuous
100
AcDbCircle
 10
276.7774970170009
 20
260.9794273894312
 30
0.0
 40
3.322566986083984
100
AcDbArc
 50
325.6156973218391
 51
0.0
  0
LINE
  5
2359
330
1FC5
100
AcDbEntity
  8
0
  6
Continuous
100
AcDbLine
 10
275.100250923251
 20
263.3498497527125
 30
0.0
 11
275.1002509232507
 21
247.3500328581812
 31
0.0
  0
LINE
  5
235A
330
1FC5
100
AcDbEntity
  8
0
  6
Continuous
100
AcDbLine
 10
275.0990908095297
 20
261.8507253140096
 30
0.0
 11
275.6796419569907
 21
262.8562693797566
 31
0.0
  0
LINE
  5
235B
330
1FC5
100
AcDbEntity
  8
0
  6
Continuous
100
AcDbLine
 10
275.0995732336818
 20
248.8503086746004
 30
0.0
 11
275.6801396399328
 21
247.8447381798551
 31
0.0
  0
LINE
  5
235C
330
1FC5
100
AcDbEntity
  8
0
  6
Continuous
100
AcDbLine
 10
280.1002509232509
 20
251.350032858181
 30
0.0
 11
287.9996649857782
 21
251.350032858181
 31
0.0
  0
LINE
  5
235D
330
1FC5
100
AcDbEntity
  8
0
  6
Continuous
100
AcDbLine
 10
280.1002509232509
 20
252.150325826931
 30
0.0
 11
287.9996649857782
 21
252.150325826931
 31
0.0
  0
LINE
  5
235E
330
1FC5
100
AcDbEntity
  8
0
  6
Continuous
100
AcDbLine
 10
280.1002509232509
 20
258.550228170681
 30
0.0
 11
287.9996649857782
 21
258.550228170681
 31
0.0
  0
LINE
  5
235F
330
1FC5
100
AcDbEntity
  8
0
  6
Continuous
100
AcDbLine
 10
280.1002509232509
 20
259.350032858181
 30
0.0
 11
287.9996649857782
 21
259.350032858181
 31
0.0
  0
LINE
  5
2360
330
1FC5
100
AcDbEntity
  8
0
  6
Continuous
100
AcDbLine
 10
292.9996102730788
 20
248.8498505272307
 30
0.0
 11
292.4190438668288
 21
247.8442800324871
 31
0.0
  0
LINE
  5
2361
330
1FC5
100
AcDbEntity
  8
0
  6
Continuous
100
AcDbLine
 10
287.999664985778
 20
247.8445103815908
 30
0.0
 11
292.419098579528
 21
247.8445103815908
 31
0.0
  0
ARC
  5
2362
330
1FC5
100
AcDbEntity
  8
0
  6
Continuous
100
AcDbCircle
 10
289.676422798278
 20
249.720761602294
 30
0.0
 40
3.322566986083984
100
AcDbArc
 50
0.0
 51
34.38430267816087
  0
LINE
  5
2363
330
1FC5
100
AcDbEntity
  8
0
  6
Continuous
100
AcDbLine
 10
287.9996649857782
 20
251.5971959284659
 30
0.0
 11
292.4186102982782
 21
251.5971959284659
 31
0.0
  0
ARC
  5
2364
330
1FC5
100
AcDbEntity
  8
0
  6
Continuous
100
AcDbCircle
 10
280.5797431107782
 20
255.3500340632315
 30
0.0
 40
12.41944122314453
100
AcDbArc
 50
342.4120272457032
 51
17.58793860336067
  0
LINE
  5
2365
330
1FC5
100
AcDbEntity
  8
0
  6
Continuous
100
AcDbLine
 10
292.9991767045283
 20
261.8500340632315
 30
0.0
 11
292.999176704528
 21
248.8498814753409
 31
0.0
  0
LINE
  5
2366
330
1FC5
100
AcDbEntity
  8
0
  6
Continuous
100
AcDbLine
 10
287.999664985778
 20
247.8445103815908
 30
0.0
 11
287.9996649857782
 21
262.8554051569815
 31
0.0
  0
LINE
  5
2367
330
1FC5
100
AcDbEntity
  8
0
  6
Continuous
100
AcDbLine
 10
292.4186102982782
 20
259.1029637507315
 30
0.0
 11
287.9996649857782
 21
259.1029637507315
 31
0.0
  0
ARC
  5
2368
330
1FC5
100
AcDbEntity
  8
0
  6
Continuous
100
AcDbCircle
 10
289.6764227982782
 20
260.9794285944815
 30
0.0
 40
3.322566986083984
100
AcDbArc
 50
325.6156973218391
 51
0.0
  0
LINE
  5
2369
330
1FC5
100
AcDbEntity
  8
0
  6
Continuous
100
AcDbLine
 10
292.9995136247396
 20
261.8499911926489
 30
0.0
 11
292.4189472184896
 21
262.8555616873925
 31
0.0
  0
LINE
  5
236A
330
1FC5
100
AcDbEntity
  8
0
  6
Continuous
100
AcDbLine
 10
292.4190985795283
 20
262.8554051569815
 30
0.0
 11
287.9996649857782
 21
262.8554051569815
 31
0.0
  0
ARC
  5
236B
330
1FC5
100
AcDbEntity
  8
0
  6
Continuous
100
AcDbCircle
 10
278.4234931107509
 20
260.9792442839623
 30
0.0
 40
3.322566986083984
100
AcDbArc
 50
180.0
 51
214.3843026781608
  0
ARC
  5
236C
330
1FC5
100
AcDbEntity
  8
0
  6
Continuous
100
AcDbCircle
 10
287.520172798251
 20
255.3503380339623
 30
0.0
 40
12.41944122314453
100
AcDbArc
 50
162.4120272457032
 51
197.5879386033606
  0
ARC
  5
236D
330
1FC5
100
AcDbEntity
  8
0
  6
Continuous
100
AcDbCircle
 10
278.4234931107507
 20
249.7209435027123
 30
0.0
 40
3.322566986083984
100
AcDbArc
 50
145.6156973218391
 51
180.0
  0
LINE
  5
236E
330
1FC5
100
AcDbEntity
  8
0
  6
Continuous
100
AcDbLine
 10
430.5055534994652
 20
255.3500099999999
 30
0.0
 11
426.7527767497329
 21
248.8500099999999
 31
0.0
  0
LINE
  5
236F
330
1FC5
100
AcDbEntity
  8
0
  6
Continuous
100
AcDbLine
 10
419.2472232502677
 20
248.8500099999999
 30
0.0
 11
426.7527767497321
 21
248.8500099999999
 31
0.0
  0
LINE
  5
2370
330
1FC5
100
AcDbEntity
  8
0
  6
Continuous
100
AcDbLine
 10
415.4944465005354
 20
255.3500099999999
 30
0.0
 11
419.2472232502667
 21
248.8500099999999
 31
0.0
  0
LINE
  5
2371
330
1FC5
100
AcDbEntity
  8
0
  6
Continuous
100
AcDbLine
 10
419.2472232502677
 20
261.8500099999999
 30
0.0
 11
415.4944465005345
 21
255.3500099999999
 31
0.0
  0
LINE
  5
2372
330
1FC5
100
AcDbEntity
  8
0
  6
Continuous
100
AcDbLine
 10
419.2472232502667
 20
261.8500099999999
 30
0.0
 11
426.7527767497321
 21
261.8500099999999
 31
0.0
  0
LINE
  5
2373
330
1FC5
100
AcDbEntity
  8
0
  6
Continuous
100
AcDbLine
 10
426.7527767497329
 20
261.8500099999999
 30
0.0
 11
430.5055534994652
 21
255.3500099999999
 31
0.0
  0
LINE
  5
2374
330
1FC5
100
AcDbEntity
  8
0
  6
Continuous
100
AcDbLine
 10
106.4999999999736
 20
530.3396256108552
 30
0.0
 11
104.8999023437236
 21
530.3396256108552
 31
0.0
  0
LINE
  5
2375
330
1FC5
100
AcDbEntity
  8
0
  6
Continuous
100
AcDbLine
 10
104.8999023437236
 20
530.3396256108552
 30
0.0
 11
104.8999731021122
 21
548.1716834638699
 31
0.0
  0
LINE
  5
2376
330
1FC5
100
AcDbEntity
  8
0
  6
Continuous
100
AcDbLine
 10
97.50048152687396
 20
542.3394459592162
 30
0.0
 11
92.00048828122362
 21
542.3394459592162
 31
0.0
  0
LINE
  5
2377
330
1FC5
100
AcDbEntity
  8
0
  6
Continuous
100
AcDbLine
 10
97.50048429094931
 20
541.5391529904662
 30
0.0
 11
92.00048828122362
 21
541.5391529904662
 31
0.0
  0
LINE
  5
2378
330
1FC5
100
AcDbEntity
  8
0
  6
Continuous
100
AcDbLine
 10
97.5005063951221
 20
535.1392506467163
 30
0.0
 11
92.00048828122362
 21
535.1392506467163
 31
0.0
  0
LINE
  5
2379
330
1FC5
100
AcDbEntity
  8
0
  6
Continuous
100
AcDbLine
 10
97.50057478029066
 20
484.0072145347057
 30
0.0
 11
97.50057478029066
 21
497.0072145347248
 31
0.0
  0
LINE
  5
237A
330
1FC5
100
AcDbEntity
  8
0
  6
Continuous
100
AcDbLine
 10
102.5000864990406
 20
498.5072259315219
 30
0.0
 11
102.5000864990406
 21
482.5072259314983
 31
0.0
  0
LINE
  5
237B
330
1FC5
100
AcDbEntity
  8
0
  6
Continuous
100
AcDbLine
 10
106.4999999999736
 20
482.5072328390087
 30
0.0
 11
102.5000864990406
 21
482.5072259314992
 31
0.0
  0
LINE
  5
237C
330
1FC5
100
AcDbEntity
  8
0
  6
Continuous
100
AcDbLine
 10
106.4999999999736
 20
498.5072328390323
 30
0.0
 11
102.5000864990406
 21
498.5072259315219
 31
0.0
  0
LINE
  5
237D
330
1FC5
100
AcDbEntity
  8
0
  6
Continuous
100
AcDbLine
 10
87.5809893694684
 20
538.3394308732976
 30
0.0
 11
92.00048828122362
 21
538.339438505396
 31
0.0
  0
LINE
  5
237E
330
1FC5
100
AcDbEntity
  8
0
  6
Continuous
100
AcDbLine
 10
104.9000864990403
 20
498.5072259315219
 30
0.0
 11
104.9000864990403
 21
482.5072259314983
 31
0.0
  0
LINE
  5
237F
330
1FC5
100
AcDbEntity
  8
0
  6
Continuous
100
AcDbLine
 10
106.4999999999736
 20
472.339438121673
 30
0.0
 11
106.4999999999736
 21
558.3394381216729
 31
0.0
  0
ARC
  5
2380
330
1FC5
100
AcDbEntity
  8
0
  6
Continuous
100
AcDbCircle
 10
107.4999999999736
 20
472.339438121673
 30
0.0
 40
1.0
100
AcDbArc
 50
180.0
 51
270.0
  0
LINE
  5
2381
330
1FC5
100
AcDbEntity
  8
0
  6
Continuous
100
AcDbLine
 10
102.5000864990406
 20
484.007223168436
 30
0.0
 11
97.50057478029066
 21
484.0072145347057
 31
0.0
  0
LINE
  5
2382
330
1FC5
100
AcDbEntity
  8
0
  6
Continuous
100
AcDbLine
 10
102.5000864990406
 20
497.0072231684561
 30
0.0
 11
97.50057478029066
 21
497.0072145347248
 31
0.0
  0
LINE
  5
2383
330
1FC5
100
AcDbEntity
  8
0
  6
Continuous
100
AcDbLine
 10
102.5000864990454
 20
490.5072231684458
 30
0.0
 11
98.08058758728476
 21
490.5072155363476
 31
0.0
  0
ARC
  5
2384
330
1FC5
100
AcDbEntity
  8
0
  6
Continuous
100
AcDbCircle
 10
106.8958982744352
 20
487.2572307596336
 30
0.0
 40
9.395323494156341
100
AcDbArc
 50
159.7623298033367
 51
200.2378680865051
  0
ARC
  5
2385
330
1FC5
100
AcDbEntity
  8
0
  6
Continuous
100
AcDbCircle
 10
106.8958982744352
 20
493.7572003130616
 30
0.0
 40
9.395323494156341
100
AcDbArc
 50
159.7621319134949
 51
200.2376701966632
  0
ARC
  5
2386
330
1FC5
100
AcDbEntity
  8
0
  6
Continuous
100
AcDbCircle
 10
107.4999999999736
 20
558.3394381216729
 30
0.0
 40
1.0
100
AcDbArc
 50
90.0
 51
180.0
  0
ARC
  5
2387
330
1FC5
100
AcDbEntity
  8
0
  6
Continuous
100
AcDbCircle
 10
109.2957141191172
 20
535.0894760048721
 30
0.0
 40
9.395323494156341
100
AcDbArc
 50
188.6793829181268
 51
200.2378680865051
  0
LINE
  5
2388
330
1FC5
100
AcDbEntity
  8
0
  6
Continuous
100
AcDbLine
 10
104.8999023437236
 20
531.8394684136745
 30
0.0
 11
99.90039062497363
 21
531.8394597799432
 31
0.0
  0
ARC
  5
2389
330
1FC5
100
AcDbEntity
  8
0
  6
Continuous
100
AcDbCircle
 10
95.50457884957905
 20
535.0894750032392
 30
0.0
 40
9.395323494156341
100
AcDbArc
 50
339.7621319134949
 51
341.9071154525149
  0
LINE
  5
238A
330
1FC5
100
AcDbEntity
  8
0
  6
Continuous
100
AcDbLine
 10
92.00048828122362
 20
544.8394385054051
 30
0.0
 11
87.00097656247271
 21
544.8394298716747
 31
0.0
  0
LINE
  5
238B
330
1FC5
100
AcDbEntity
  8
0
  6
Continuous
100
AcDbLine
 10
92.00048828122362
 20
531.839438505386
 30
0.0
 11
92.00048828122362
 21
544.8394385054051
 31
0.0
  0
LINE
  5
238C
330
1FC5
100
AcDbEntity
  8
0
  6
Continuous
100
AcDbLine
 10
92.00048828122362
 20
531.839438505386
 30
0.0
 11
87.00097656247363
 21
531.8394298716547
 31
0.0
  0
LINE
  5
238D
330
1FC5
100
AcDbEntity
  8
0
  6
Continuous
100
AcDbLine
 10
87.00097656247271
 20
531.8394298716547
 30
0.0
 11
87.00097656247271
 21
544.8394298716737
 31
0.0
  0
ARC
  5
238E
330
1FC5
100
AcDbEntity
  8
0
  6
Continuous
100
AcDbCircle
 10
96.39630005661729
 20
535.0894460965836
 30
0.0
 40
9.395323494156341
100
AcDbArc
 50
159.7623298033367
 51
200.2378680865051
  0
ARC
  5
238F
330
1FC5
100
AcDbEntity
  8
0
  6
Continuous
100
AcDbCircle
 10
96.39630005661729
 20
541.5894156500115
 30
0.0
 40
9.395323494156341
100
AcDbArc
 50
159.7621319134949
 51
200.2376701966632
  0
LINE
  5
2390
330
1FC5
100
AcDbEntity
  8
0
  6
Continuous
100
AcDbLine
 10
97.50050915749762
 20
534.3394500476878
 30
0.0
 11
92.00048828122362
 21
534.3394310515521
 31
0.0
  0
LINE
  5
2391
330
1FC5
100
AcDbEntity
  8
0
  6
Continuous
100
AcDbLine
 10
97.50046656411178
 20
546.6716693040178
 30
0.0
 11
97.50051146389887
 21
533.671669304076
 31
0.0
  0
LINE
  5
2392
330
1FC5
100
AcDbEntity
  8
0
  6
Continuous
100
AcDbLine
 10
102.5000283634026
 20
532.1716751747498
 30
0.0
 11
102.4999731021271
 21
548.1716751746779
 31
0.0
  0
LINE
  5
2393
330
1FC5
100
AcDbEntity
  8
0
  6
Continuous
100
AcDbLine
 10
106.4998866030591
 20
548.1716820821874
 30
0.0
 11
102.4999731021271
 21
548.1716751746779
 31
0.0
  0
LINE
  5
2394
330
1FC5
100
AcDbEntity
  8
0
  6
Continuous
100
AcDbLine
 10
106.4999418643356
 20
532.1716820822602
 30
0.0
 11
102.5000283634035
 21
532.1716751747498
 31
0.0
  0
LINE
  5
2395
330
1FC5
100
AcDbEntity
  8
0
  6
Continuous
100
AcDbLine
 10
102.4999782828617
 20
546.6716779377492
 30
0.0
 11
97.50046656411269
 21
546.6716693040178
 31
0.0
  0
LINE
  5
2396
330
1FC5
100
AcDbEntity
  8
0
  6
Continuous
100
AcDbLine
 10
102.5000231826488
 20
533.6716779378074
 30
0.0
 11
97.50051146389887
 21
533.671669304076
 31
0.0
  0
LINE
  5
2397
330
1FC5
100
AcDbEntity
  8
0
  6
Continuous
100
AcDbLine
 10
102.5000007327789
 20
540.1716779377781
 30
0.0
 11
98.08050182099941
 21
540.1716703056798
 31
0.0
  0
ARC
  5
2398
330
1FC5
100
AcDbEntity
  8
0
  6
Continuous
100
AcDbCircle
 10
106.8958012832026
 20
543.4216855289559
 30
0.0
 40
9.395323494156341
100
AcDbArc
 50
159.7623298033367
 51
200.237868086534
  0
ARC
  5
2399
330
1FC5
100
AcDbEntity
  8
0
  6
Continuous
100
AcDbCircle
 10
106.8958237329907
 20
536.921715975567
 30
0.0
 40
9.395323494156341
100
AcDbArc
 50
159.7625276932045
 51
200.2380659763789
  0
LINE
  5
239A
330
1FC5
100
AcDbEntity
  8
0
  6
Continuous
100
AcDbLine
 10
99.90039552175403
 20
533.6716734484715
 30
0.0
 11
99.90040184990721
 21
531.8394597799632
 31
0.0
  0
LINE
  5
239B
330
1FC5
100
AcDbEntity
  8
0
  6
Continuous
100
AcDbLine
 10
273.5001532670303
 20
530.3396256108552
 30
0.0
 11
275.1002509232803
 21
530.3396256108552
 31
0.0
  0
LINE
  5
239C
330
1FC5
100
AcDbEntity
  8
0
  6
Continuous
100
AcDbLine
 10
275.1002509232803
 20
530.3396256108552
 30
0.0
 11
275.1001801648908
 21
548.1716834638699
 31
0.0
  0
LINE
  5
239D
330
1FC5
100
AcDbEntity
  8
0
  6
Continuous
100
AcDbLine
 10
282.49967174013
 20
542.3394459592162
 30
0.0
 11
287.9996649857803
 21
542.3394459592162
 31
0.0
  0
LINE
  5
239E
330
1FC5
100
AcDbEntity
  8
0
  6
Continuous
100
AcDbLine
 10
282.4996689760537
 20
541.5391529904662
 30
0.0
 11
287.9996649857803
 21
541.5391529904662
 31
0.0
  0
LINE
  5
239F
330
1FC5
100
AcDbEntity
  8
0
  6
Continuous
100
AcDbLine
 10
282.4996468718809
 20
535.1392506467163
 30
0.0
 11
287.9996649857803
 21
535.1392506467163
 31
0.0
  0
LINE
  5
23A0
330
1FC5
100
AcDbEntity
  8
0
  6
Continuous
100
AcDbLine
 10
282.4995784867132
 20
484.0072145347057
 30
0.0
 11
282.4995784867132
 21
497.0072145347248
 31
0.0
  0
LINE
  5
23A1
330
1FC5
100
AcDbEntity
  8
0
  6
Continuous
100
AcDbLine
 10
277.5000667679632
 20
498.5072259315219
 30
0.0
 11
277.5000667679632
 21
482.5072259314983
 31
0.0
  0
LINE
  5
23A2
330
1FC5
100
AcDbEntity
  8
0
  6
Continuous
100
AcDbLine
 10
273.5001532670303
 20
482.5072328390087
 30
0.0
 11
277.5000667679632
 21
482.5072259314992
 31
0.0
  0
LINE
  5
23A3
330
1FC5
100
AcDbEntity
  8
0
  6
Continuous
100
AcDbLine
 10
273.5001532670303
 20
498.5072328390323
 30
0.0
 11
277.5000667679623
 21
498.5072259315219
 31
0.0
  0
LINE
  5
23A4
330
1FC5
100
AcDbEntity
  8
0
  6
Continuous
100
AcDbLine
 10
292.4191638975355
 20
538.3394308732976
 30
0.0
 11
287.9996649857803
 21
538.339438505396
 31
0.0
  0
LINE
  5
23A5
330
1FC5
100
AcDbEntity
  8
0
  6
Continuous
100
AcDbLine
 10
275.1000667679627
 20
498.5072259315219
 30
0.0
 11
275.1000667679627
 21
482.5072259314983
 31
0.0
  0
LINE
  5
23A6
330
1FC5
100
AcDbEntity
  8
0
  6
Continuous
100
AcDbLine
 10
273.5001532670303
 20
472.339438121673
 30
0.0
 11
273.5001532670303
 21
558.3394381216729
 31
0.0
  0
ARC
  5
23A7
330
1FC5
100
AcDbEntity
  8
0
  6
Continuous
100
AcDbCircle
 10
272.5001532670303
 20
472.339438121673
 30
0.0
 40
1.0
100
AcDbArc
 50
270.0
 51
0.0
  0
LINE
  5
23A8
330
1FC5
100
AcDbEntity
  8
0
  6
Continuous
100
AcDbLine
 10
277.5000667679632
 20
484.007223168436
 30
0.0
 11
282.4995784867123
 21
484.0072145347057
 31
0.0
  0
LINE
  5
23A9
330
1FC5
100
AcDbEntity
  8
0
  6
Continuous
100
AcDbLine
 10
277.5000667679632
 20
497.0072231684561
 30
0.0
 11
282.4995784867123
 21
497.0072145347248
 31
0.0
  0
LINE
  5
23AA
330
1FC5
100
AcDbEntity
  8
0
  6
Continuous
100
AcDbLine
 10
277.5000667679492
 20
490.5072231684463
 30
0.0
 11
281.9195656797182
 21
490.5072155363476
 31
0.0
  0
ARC
  5
23AB
330
1FC5
100
AcDbEntity
  8
0
  6
Continuous
100
AcDbCircle
 10
273.1042549925687
 20
487.2572307596336
 30
0.0
 40
9.395323494156341
100
AcDbArc
 50
339.7621319134949
 51
20.23767019666326
  0
ARC
  5
23AC
330
1FC5
100
AcDbEntity
  8
0
  6
Continuous
100
AcDbCircle
 10
273.1042549925687
 20
493.7572003130616
 30
0.0
 40
9.395323494156341
100
AcDbArc
 50
339.7623298033367
 51
20.2378680865051
  0
ARC
  5
23AD
330
1FC5
100
AcDbEntity
  8
0
  6
Continuous
100
AcDbCircle
 10
272.5001532670303
 20
558.3394381216729
 30
0.0
 40
1.0
100
AcDbArc
 50
0.0
 51
90.0
  0
ARC
  5
23AE
330
1FC5
100
AcDbEntity
  8
0
  6
Continuous
100
AcDbCircle
 10
270.7044391478866
 20
535.0894760048721
 30
0.0
 40
9.395323494156341
100
AcDbArc
 50
339.7621319134949
 51
351.3206170818731
  0
LINE
  5
23AF
330
1FC5
100
AcDbEntity
  8
0
  6
Continuous
100
AcDbLine
 10
275.1002509232803
 20
531.8394684136745
 30
0.0
 11
280.0997626420303
 21
531.8394597799432
 31
0.0
  0
ARC
  5
23B0
330
1FC5
100
AcDbEntity
  8
0
  6
Continuous
100
AcDbCircle
 10
284.495574417424
 20
535.0894750032392
 30
0.0
 40
9.395323494156341
100
AcDbArc
 50
198.092884547485
 51
200.2378680865051
  0
LINE
  5
23B1
330
1FC5
100
AcDbEntity
  8
0
  6
Continuous
100
AcDbLine
 10
287.9996649857803
 20
544.8394385054051
 30
0.0
 11
292.9991767045303
 21
544.8394298716747
 31
0.0
  0
LINE
  5
23B2
330
1FC5
100
AcDbEntity
  8
0
  6
Continuous
100
AcDbLine
 10
287.9996649857803
 20
531.839438505386
 30
0.0
 11
287.9996649857803
 21
544.8394385054051
 31
0.0
  0
LINE
  5
23B3
330
1FC5
100
AcDbEntity
  8
0
  6
Continuous
100
AcDbLine
 10
287.9996649857803
 20
531.839438505386
 30
0.0
 11
292.9991767045303
 21
531.8394298716547
 31
0.0
  0
ARC
  5
23B4
330
1FC5
100
AcDbEntity
  8
0
  6
Continuous
100
AcDbCircle
 10
283.6038532103866
 20
535.0894460965836
 30
0.0
 40
9.395323494156341
100
AcDbArc
 50
339.7621319134949
 51
20.23767019666326
  0
LINE
  5
23B5
330
1FC5
100
AcDbEntity
  8
0
  6
Continuous
100
AcDbLine
 10
292.9991767045303
 20
531.8394298716547
 30
0.0
 11
292.9991767045303
 21
544.8394298716737
 31
0.0
  0
ARC
  5
23B6
330
1FC5
100
AcDbEntity
  8
0
  6
Continuous
100
AcDbCircle
 10
283.6038532103866
 20
541.5894156500115
 30
0.0
 40
9.395323494156341
100
AcDbArc
 50
339.7623298033367
 51
20.2378680865051
  0
LINE
  5
23B7
330
1FC5
100
AcDbEntity
  8
0
  6
Continuous
100
AcDbLine
 10
282.4996441095063
 20
534.3394500476878
 30
0.0
 11
287.9996649857803
 21
534.3394310515521
 31
0.0
  0
LINE
  5
23B8
330
1FC5
100
AcDbEntity
  8
0
  6
Continuous
100
AcDbLine
 10
282.4996867028921
 20
546.6716693040178
 30
0.0
 11
282.499641803105
 21
533.671669304076
 31
0.0
  0
LINE
  5
23B9
330
1FC5
100
AcDbEntity
  8
0
  6
Continuous
100
AcDbLine
 10
277.5001249036013
 20
532.1716751747498
 30
0.0
 11
277.5001801648768
 21
548.1716751746779
 31
0.0
  0
LINE
  5
23BA
330
1FC5
100
AcDbEntity
  8
0
  6
Continuous
100
AcDbLine
 10
273.5002666639447
 20
548.1716820821874
 30
0.0
 11
277.5001801648768
 21
548.1716751746779
 31
0.0
  0
LINE
  5
23BB
330
1FC5
100
AcDbEntity
  8
0
  6
Continuous
100
AcDbLine
 10
273.5002114026683
 20
532.1716820822602
 30
0.0
 11
277.5001249036004
 21
532.1716751747498
 31
0.0
  0
LINE
  5
23BC
330
1FC5
100
AcDbEntity
  8
0
  6
Continuous
100
AcDbLine
 10
277.5001749841412
 20
546.6716779377492
 30
0.0
 11
282.4996867028912
 21
546.6716693040178
 31
0.0
  0
LINE
  5
23BD
330
1FC5
100
AcDbEntity
  8
0
  6
Continuous
100
AcDbLine
 10
277.5001300843551
 20
533.6716779378074
 30
0.0
 11
282.4996418031041
 21
533.671669304076
 31
0.0
  0
LINE
  5
23BE
330
1FC5
100
AcDbEntity
  8
0
  6
Continuous
100
AcDbLine
 10
277.5001525342438
 20
540.1716779377781
 30
0.0
 11
281.9196514460045
 21
540.1716703056798
 31
0.0
  0
ARC
  5
23BF
330
1FC5
100
AcDbEntity
  8
0
  6
Continuous
100
AcDbCircle
 10
273.1043519838012
 20
543.4216855289559
 30
0.0
 40
9.395323494156341
100
AcDbArc
 50
339.7621319134659
 51
20.23767019666326
  0
ARC
  5
23C0
330
1FC5
100
AcDbEntity
  8
0
  6
Continuous
100
AcDbCircle
 10
273.1043295340132
 20
536.921715975567
 30
0.0
 40
9.395323494156341
100
AcDbArc
 50
339.7619340236179
 51
20.23747230679551
  0
LINE
  5
23C1
330
1FC5
100
AcDbEntity
  8
0
  6
Continuous
100
AcDbLine
 10
280.0997577452499
 20
533.6716734484715
 30
0.0
 11
280.0997514170958
 21
531.8394597799632
 31
0.0
  0
CIRCLE
  5
23C2
330
1FC5
100
AcDbEntity
  8
0
  6
Continuous
100
AcDbCircle
 10
424.9999999999999
 20
213.35001
 30
0.0
 40
7.5
  0
CIRCLE
  5
23C3
330
1FC5
100
AcDbEntity
  8
0
  6
Continuous
100
AcDbCircle
 10
424.9999999999999
 20
213.35001
 30
0.0
 40
6.5
  0
CIRCLE
  5
23C4
330
1FC5
100
AcDbEntity
  8
0
  6
Continuous
100
AcDbCircle
 10
374.9999999999999
 20
213.35001
 30
0.0
 40
7.5
  0
CIRCLE
  5
23C5
330
1FC5
100
AcDbEntity
  8
0
  6
Continuous
100
AcDbCircle
 10
374.9999999999999
 20
213.35001
 30
0.0
 40
6.5
  0
CIRCLE
  5
23C6
330
1FC5
100
AcDbEntity
  8
0
  6
Continuous
100
AcDbCircle
 10
424.9999999999999
 20
297.3500099999999
 30
0.0
 40
7.5
  0
CIRCLE
  5
23C7
330
1FC5
100
AcDbEntity
  8
0
  6
Continuous
100
AcDbCircle
 10
424.9999999999999
 20
297.3500099999999
 30
0.0
 40
6.5
  0
CIRCLE
  5
23C8
330
1FC5
100
AcDbEntity
  8
0
  6
Continuous
100
AcDbCircle
 10
374.9999999999999
 20
297.3500099999999
 30
0.0
 40
7.5
  0
CIRCLE
  5
23C9
330
1FC5
100
AcDbEntity
  8
0
  6
Continuous
100
AcDbCircle
 10
374.9999999999999
 20
297.3500099999999
 30
0.0
 40
6.5
  0
CIRCLE
  5
23CA
330
1FC5
100
AcDbEntity
  8
0
  6
Continuous
100
AcDbCircle
 10
422.9999999999998
 20
255.3500099999999
 30
0.0
 40
7.5
  0
CIRCLE
  5
23CB
330
1FC5
100
AcDbEntity
  8
0
  6
Continuous
100
AcDbCircle
 10
422.9999999999998
 20
255.3500099999999
 30
0.0
 40
6.5
  0
CIRCLE
  5
23CC
330
1FC5
100
AcDbEntity
  8
0
  6
Continuous
100
AcDbCircle
 10
379.9999999999998
 20
255.3500099999999
 30
0.0
 40
4.25
  0
CIRCLE
  5
23CD
330
1FC5
100
AcDbEntity
  8
0
  6
Continuous
100
AcDbCircle
 10
379.9999999999998
 20
255.3500099999999
 30
0.0
 40
3.399999999999999
  0
LINE
  5
23CE
330
1FC5
100
AcDbEntity
  8
0
  6
Continuous
100
AcDbLine
 10
245.0000000000004
 20
305.8500099999996
 30
0.0
 11
155.0000000000004
 21
305.8500099999996
 31
0.0
  0
LINE
  5
23CF
330
1FC5
100
AcDbEntity
  8
0
  6
Continuous
100
AcDbLine
 10
215.0000000000004
 20
339.8500249999997
 30
0.0
 11
215.0000000000004
 21
310.3499794999998
 31
0.0
  0
LINE
  5
23D0
330
1FC5
100
AcDbEntity
  8
0
  6
Continuous
100
AcDbLine
 10
185.0000000000004
 20
339.8500249999997
 30
0.0
 11
185.0000000000004
 21
310.3499794999998
 31
0.0
  0
LINE
  5
23D1
330
1FC5
100
AcDbEntity
  8
0
  6
Continuous
100
AcDbLine
 10
215.0000000000004
 20
339.8500249999997
 30
0.0
 11
185.0000000000004
 21
339.8500249999997
 31
0.0
  0
LINE
  5
23D2
330
1FC5
100
AcDbEntity
  8
0
  6
Continuous
100
AcDbLine
 10
155.0000000000004
 20
345.8500099999996
 30
0.0
 11
155.0000000000004
 21
305.8500099999996
 31
0.0
  0
LINE
  5
23D3
330
1FC5
100
AcDbEntity
  8
0
  6
Continuous
100
AcDbLine
 10
245.0000000000004
 20
345.8500099999996
 30
0.0
 11
245.0000000000004
 21
305.8500099999996
 31
0.0
  0
LINE
  5
23D4
330
1FC5
100
AcDbEntity
  8
0
  6
Continuous
100
AcDbLine
 10
235.0000000000004
 20
355.8500099999996
 30
0.0
 11
165.0000000000004
 21
355.8500099999996
 31
0.0
  0
LINE
  5
23D5
330
1FC5
100
AcDbEntity
  8
0
  6
Continuous
100
AcDbLine
 10
155.0000000000004
 20
310.3499794999998
 30
0.0
 11
245.0000000000004
 21
310.3499794999998
 31
0.0
  0
ARC
  5
23D6
330
1FC5
100
AcDbEntity
  8
0
  6
Continuous
100
AcDbCircle
 10
235.0000000000004
 20
345.8500099999996
 30
0.0
 40
10.0
100
AcDbArc
 50
0.0
 51
90.00000299998466
  0
CIRCLE
  5
23D7
330
1FC5
100
AcDbEntity
  8
0
  6
Continuous
100
AcDbCircle
 10
231.500015
 20
340.8500099999996
 30
0.0
 40
9.000030499999997
  0
ARC
  5
23D8
330
1FC5
100
AcDbEntity
  8
0
  6
Continuous
100
AcDbCircle
 10
165.0000000000004
 20
345.8500099999996
 30
0.0
 40
10.0
100
AcDbArc
 50
90.00000299998466
 51
180.000010000001
  0
LINE
  5
23D9
330
1FC5
100
AcDbEntity
  8
0
  6
Continuous
100
AcDbLine
 10
168.4999960000004
 20
305.8500099999996
 30
0.0
 11
231.4999810000003
 21
305.8500099999996
 31
0.0
  0
LINE
  5
23DA
330
1FC5
100
AcDbEntity
  8
0
  6
Continuous
100
AcDbLine
 10
222.4999620000017
 20
532.2396129272369
 30
0.0
 11
240.4999920000018
 21
532.2396129272369
 31
0.0
  0
LINE
  5
23DB
330
1FC5
100
AcDbEntity
  8
0
  6
Continuous
100
AcDbLine
 10
222.4999620000017
 20
532.2396129272369
 30
0.0
 11
222.4999620000017
 21
538.8396189272369
 31
0.0
  0
LINE
  5
23DC
330
1FC5
100
AcDbEntity
  8
0
  6
Continuous
100
AcDbLine
 10
240.4999920000018
 20
532.2396129272369
 30
0.0
 11
240.4999920000018
 21
538.8396189272369
 31
0.0
  0
LINE
  5
23DD
330
1FC5
100
AcDbEntity
  8
0
  6
Continuous
100
AcDbLine
 10
222.4999620000017
 20
543.339618927237
 30
0.0
 11
222.4999620000017
 21
573.4395949272369
 31
0.0
  0
LINE
  5
23DE
330
1FC5
100
AcDbEntity
  8
0
  6
Continuous
100
AcDbLine
 10
240.4999920000018
 20
543.339618927237
 30
0.0
 11
240.4999920000018
 21
573.4395949272369
 31
0.0
  0
LINE
  5
23DF
330
1FC5
100
AcDbEntity
  8
0
  6
Continuous
100
AcDbLine
 10
222.4999620000017
 20
573.4395949272369
 30
0.0
 11
240.4999920000018
 21
573.4395949272369
 31
0.0
  0
LINE
  5
23E0
330
1FC5
100
AcDbEntity
  8
0
  6
Continuous
100
AcDbLine
 10
155.0000000000018
 20
543.339618927237
 30
0.0
 11
245.0000000000018
 21
543.339618927237
 31
0.0
  0
LINE
  5
23E1
330
1FC5
100
AcDbEntity
  8
0
  6
Continuous
100
AcDbLine
 10
245.0000000000018
 20
490.339618927237
 30
0.0
 11
245.0000000000018
 21
543.339618927237
 31
0.0
  0
LINE
  5
23E2
330
1FC5
100
AcDbEntity
  8
0
  6
Continuous
100
AcDbLine
 10
155.0000000000018
 20
490.339618927237
 30
0.0
 11
155.0000000000018
 21
543.339618927237
 31
0.0
  0
LINE
  5
23E3
330
1FC5
100
AcDbEntity
  8
0
  6
Continuous
100
AcDbLine
 10
235.0000000000018
 20
480.3396189272369
 30
0.0
 11
165.0000000000018
 21
480.3396189272369
 31
0.0
  0
LINE
  5
23E4
330
1FC5
100
AcDbEntity
  8
0
  6
Continuous
100
AcDbLine
 10
155.0000000000018
 20
538.8396189272369
 30
0.0
 11
245.0000000000018
 21
538.8396189272369
 31
0.0
  0
CIRCLE
  5
23E5
330
1FC5
100
AcDbEntity
  8
0
  6
Continuous
100
AcDbCircle
 10
200.0000000000018
 20
515.339618927237
 30
0.0
 40
15.0
  0
ARC
  5
23E6
330
1FC5
100
AcDbEntity
  8
0
  6
Continuous
100
AcDbCircle
 10
165.0000000000018
 20
490.339618927237
 30
0.0
 40
10.0
100
AcDbArc
 50
180.000010000001
 51
270.0
  0
ARC
  5
23E7
330
1FC5
100
AcDbEntity
  8
0
  6
Continuous
100
AcDbCircle
 10
235.0000000000018
 20
490.339618927237
 30
0.0
 40
10.0
100
AcDbArc
 50
269.999989999999
 51
0.0000006832429909
  0
LINE
  5
23E8
330
1FC5
100
AcDbEntity
  8
0
  6
Continuous
100
AcDbLine
 10
423.4999850000003
 20
355.8499719999998
 30
0.0
 11
428.0000309999999
 21
355.8499719999998
 31
0.0
  0
LINE
  5
23E9
330
1FC5
100
AcDbEntity
  8
0
  6
Continuous
100
AcDbLine
 10
428.0000309999999
 20
355.8499719999998
 30
0.0
 11
428.0000309999999
 21
305.8500099999999
 31
0.0
  0
LINE
  5
23EA
330
1FC5
100
AcDbEntity
  8
0
  6
Continuous
100
AcDbLine
 10
428.0000309999999
 20
305.8500099999999
 30
0.0
 11
364.9999999999999
 21
305.8500099999999
 31
0.0
  0
LINE
  5
23EB
330
1FC5
100
AcDbEntity
  8
0
  6
Continuous
100
AcDbLine
 10
364.9999999999999
 20
310.3500176000001
 30
0.0
 11
364.9999999999999
 21
305.8500099999999
 31
0.0
  0
LINE
  5
23EC
330
1FC5
100
AcDbEntity
  8
0
  6
Continuous
100
AcDbLine
 10
414.9999999999998
 20
339.850025
 30
0.0
 11
414.9999999999998
 21
310.3500176000001
 31
0.0
  0
LINE
  5
23ED
330
1FC5
100
AcDbEntity
  8
0
  6
Continuous
100
AcDbLine
 10
384.9999999999998
 20
339.850025
 30
0.0
 11
384.9999999999998
 21
310.3500176000001
 31
0.0
  0
LINE
  5
23EE
330
1FC5
100
AcDbEntity
  8
0
  6
Continuous
100
AcDbLine
 10
414.9999999999998
 20
339.850025
 30
0.0
 11
384.9999999999998
 21
339.850025
 31
0.0
  0
LINE
  5
23EF
330
1FC5
100
AcDbEntity
  8
0
  6
Continuous
100
AcDbLine
 10
416.9000239999999
 20
348.850002
 30
0.0
 11
416.9000239999999
 21
330.8499719999998
 31
0.0
  0
LINE
  5
23F0
330
1FC5
100
AcDbEntity
  8
0
  6
Continuous
100
AcDbLine
 10
416.9000239999999
 20
348.850002
 30
0.0
 11
423.4999850000003
 21
348.850002
 31
0.0
  0
LINE
  5
23F1
330
1FC5
100
AcDbEntity
  8
0
  6
Continuous
100
AcDbLine
 10
416.9000239999999
 20
330.8499719999998
 30
0.0
 11
423.4999850000003
 21
330.8499719999998
 31
0.0
  0
LINE
  5
23F2
330
1FC5
100
AcDbEntity
  8
0
  6
Continuous
100
AcDbLine
 10
428.0000309999999
 20
348.850002
 30
0.0
 11
458.0999760000003
 21
348.850002
 31
0.0
  0
LINE
  5
23F3
330
1FC5
100
AcDbEntity
  8
0
  6
Continuous
100
AcDbLine
 10
428.0000309999999
 20
330.8499719999998
 30
0.0
 11
458.0999760000003
 21
330.8499719999998
 31
0.0
  0
LINE
  5
23F4
330
1FC5
100
AcDbEntity
  8
0
  6
Continuous
100
AcDbLine
 10
458.0999760000003
 20
348.850002
 30
0.0
 11
458.0999760000003
 21
330.8499719999998
 31
0.0
  0
LINE
  5
23F5
330
1FC5
100
AcDbEntity
  8
0
  6
Continuous
100
AcDbLine
 10
364.9999999999999
 20
310.3500176000001
 30
0.0
 11
423.4999850000003
 21
310.3500176000001
 31
0.0
  0
LINE
  5
23F6
330
1FC5
100
AcDbEntity
  8
0
  6
Continuous
100
AcDbLine
 10
423.4999850000003
 20
355.8499719999998
 30
0.0
 11
423.4999850000003
 21
310.3500176000001
 31
0.0
  0
LINE
  5
23F9
330
1FC5
100
AcDbEntity
  8
0
  6
Continuous
100
AcDbLine
 10
150.0000000000018
 20
502.639618927237
 30
0.0
 11
150.0000000000018
 21
528.0396189272371
 31
0.0
  0
LINE
  5
23FA
330
1FC5
100
AcDbEntity
  8
0
  6
Continuous
100
AcDbLine
 10
250.0000000000018
 20
502.639618927237
 30
0.0
 11
250.0000000000018
 21
528.0396189272371
 31
0.0
  0
LINE
  5
2598
330
1FC5
100
AcDbEntity
  8
0
  6
CENTER
100
AcDbLine
 10
400.0000000000102
 20
23.3755381764854
 30
0.0
 11
400.0000000000102
 21
361.1816809015376
 31
0.0
  0
LINE
  5
2599
330
1FC5
100
AcDbEntity
  8
0
  6
CENTER
100
AcDbLine
 10
324.5632451000322
 20
100.0
 30
0.0
 11
475.4367548999882
 21
100.0
 31
0.0
  0
LINE
  5
259A
330
1FC5
100
AcDbEntity
  8
0
  6
CENTER
100
AcDbLine
 10
200.0000000000102
 20
21.353125375751
 30
0.0
 11
200.0000000000102
 21
371.8915029603611
 31
0.0
  0
LINE
  5
259B
330
1FC5
100
AcDbEntity
  8
0
  6
CENTER
100
AcDbLine
 10
135.658924584747
 20
100.0
 30
0.0
 11
264.3410754152733
 21
100.0
 31
0.0
  0
LINE
  5
259C
330
1FC5
100
AcDbEntity
  8
0
  6
CENTER
100
AcDbLine
 10
200.0000000000018
 20
456.75160409568
 30
0.0
 11
200.0000000000018
 21
573.9276337587941
 31
0.0
  0
LINE
  5
259D
330
1FC5
100
AcDbEntity
  8
0
  6
CENTER
100
AcDbLine
 10
78.46588085047142
 20
515.339618927237
 30
0.0
 11
294.0083447658112
 21
515.339618927237
 31
0.0
  0
ENDSEC
  0
SECTION
  2
OBJECTS
  0
DICTIONARY
  5
1FB3
330
0
100
AcDbDictionary
281
     1
  3
ACAD_2007HEADERVARS_RT
350
2526
  3
ACAD_COLOR
350
2038
  3
ACAD_GROUP
350
1FB4
  3
ACAD_LAYOUT
350
1FC0
  3
ACAD_MATERIAL
350
200E
  3
ACAD_MLEADERSTYLE
350
205D
  3
ACAD_MLINESTYLE
350
1FBD
  3
ACAD_PLOTSETTINGS
350
1FBF
  3
ACAD_PLOTSTYLENAME
350
1FB5
  3
ACAD_SCALELIST
350
203B
  3
ACAD_TABLESTYLE
350
2039
  3
ACAD_VISUALSTYLE
350
2027
  3
ACDB_RECOMPOSE_DATA
350
2400
  3
AcDbVariableDictionary
350
200B
  3
AcmDictionary
350
20BC
  3
AcmSystemVariableManager
350
2536
  3
AMG
350
2064
  3
AMGSNAPSETTINGS
350
20FD
  3
DWGPROPS
350
2525
  0
DICTIONARY
  5
2407
330
1FAF
100
AcDbDictionary
280
     1
281
     1
  3
ACAD_XREC_ROUNDTRIP
360
252B
  0
DICTIONARY
  5
258C
330
1FA9
100
AcDbDictionary
280
     1
281
     1
  3
ACAD_LAYERSTATES
360
258D
  0
DICTIONARY
  5
23FB
330
1FB7
100
AcDbDictionary
280
     1
281
     1
  3
ADSK_XREC_LAYER_RECONCILED
360
23FC
  0
DICTIONARY
  5
2530
330
1FCA
100
AcDbDictionary
280
     1
281
     1
  3
ACAD_XREC_ROUNDTRIP
360
2531
  0
DICTIONARY
  5
1FD7
330
1FC5
100
AcDbDictionary
280
     1
281
     1
  3
ACAD_LAYOUTSELFREF
360
2578
  0
DICTIONARY
  5
1FD9
330
1FC1
100
AcDbDictionary
280
     1
281
     1
  3
ACAD_LAYOUTSELFREF
360
2577
  0
DICTIONARY
  5
2526
102
{ACAD_REACTORS
330
1FB3
102
}
330
1FB3
100
AcDbDictionary
281
     1
  3
DIMARCSYM
350
2527
  3
DIMLTEX1
350
2529
  3
DIMLTEX2
350
252A
  3
DIMLTYPE
350
2528
  0
DICTIONARY
  5
2038
102
{ACAD_REACTORS
330
1FB3
102
}
330
1FB3
100
AcDbDictionary
281
     1
  0
DICTIONARY
  5
1FB4
102
{ACAD_REACTORS
330
1FB3
102
}
330
1FB3
100
AcDbDictionary
281
     1
  0
DICTIONARY
  5
1FC0
102
{ACAD_REACTORS
330
1FB3
102
}
330
1FB3
100
AcDbDictionary
281
     1
  3
Model
350
1FC8
  3
ﾚｲｱｳﾄ1
350
1FC4
  0
DICTIONARY
  5
200E
102
{ACAD_REACTORS
330
1FB3
102
}
330
1FB3
100
AcDbDictionary
281
     1
  3
ByBlock
350
2017
  3
ByLayer
350
200F
  3
Global
350
201F
  0
DICTIONARY
  5
205D
102
{ACAD_REACTORS
330
1FB3
102
}
330
1FB3
100
AcDbDictionary
281
     1
  3
Standard
350
205E
  0
DICTIONARY
  5
1FBD
102
{ACAD_REACTORS
330
1FB3
102
}
330
1FB3
100
AcDbDictionary
281
     1
  3
Standard
350
1FBE
  0
DICTIONARY
  5
1FBF
102
{ACAD_REACTORS
330
1FB3
102
}
330
1FB3
100
AcDbDictionary
281
     1
  0
ACDBDICTIONARYWDFLT
  5
1FB5
102
{ACAD_REACTORS
330
1FB3
102
}
330
1FB3
100
AcDbDictionary
281
     1
  3
Normal
350
1FB6
100
AcDbDictionaryWithDefault
340
1FB6
  0
DICTIONARY
  5
203B
102
{ACAD_REACTORS
330
1FB3
102
}
330
1FB3
100
AcDbDictionary
281
     1
  3
A0
350
203C
  3
A1
350
203D
  3
A2
350
203E
  3
A3
350
203F
  3
A4
350
2040
  3
A5
350
2041
  3
A6
350
2042
  3
A7
350
2043
  3
A8
350
2044
  3
A9
350
2045
  3
B0
350
2046
  3
B1
350
2047
  3
B2
350
2048
  3
B3
350
2049
  3
B4
350
204A
  3
B5
350
204B
  3
B6
350
204C
  3
B7
350
204D
  3
B8
350
204E
  3
B9
350
204F
  3
C0
350
2050
  3
C1
350
2051
  3
C2
350
2052
  3
C3
350
2053
  3
C4
350
2054
  3
C5
350
2055
  3
C6
350
2056
  3
C7
350
2057
  3
C8
350
2058
  3
C9
350
2059
  3
D0
350
205A
  3
D1
350
205B
  3
D2
350
205C
  0
DICTIONARY
  5
2039
102
{ACAD_REACTORS
330
1FB3
102
}
330
1FB3
100
AcDbDictionary
281
     1
  3
Standard
350
203A
  0
DICTIONARY
  5
2027
102
{ACAD_REACTORS
330
1FB3
102
}
330
1FB3
100
AcDbDictionary
281
     1
  3
2dWireframe
350
202D
  3
3D Hidden
350
202F
  3
3dWireframe
350
202E
  3
Basic
350
202C
  3
Brighten
350
2033
  3
ColorChange
350
2037
  3
Conceptual
350
2030
  3
Dim
350
2032
  3
Facepattern
350
2036
  3
Flat
350
2028
  3
FlatWithEdges
350
2029
  3
Gouraud
350
202A
  3
GouraudWithEdges
350
202B
  3
Linepattern
350
2035
  3
Realistic
350
2031
  3
Thicken
350
2034
  0
XRECORD
  5
2400
102
{ACAD_REACTORS
330
1FB3
102
}
330
1FB3
100
AcDbXrecord
280
     1
 90
        1
330
203A
  0
DICTIONARY
  5
200B
102
{ACAD_REACTORS
330
1FB3
102
}
330
1FB3
100
AcDbDictionary
281
     1
  3
CANNOSCALE
350
241B
  3
CMLEADERSTYLE
350
241A
  3
CTABLESTYLE
350
2419
  3
DIMASSOC
350
200C
  3
INDEXCTL
350
241D
  3
SORTENTS
350
241C
  0
DICTIONARY
  5
20BC
102
{ACAD_REACTORS
330
1FB3
102
}
330
1FB3
100
AcDbDictionary
281
     1
  3
AcmStdDictionary
350
20C9
  0
ACAD_PROXY_OBJECT
  5
2536
102
{ACAD_REACTORS
330
1FB3
102
}
330
1FB3
100
AcDbProxyObject
 90
      499
 91
      517
 95
   917527
 70
     0
 93
       32
310
90142200E7
330
0
 94
        0
  0
DICTIONARY
  5
2064
102
{ACAD_REACTORS
330
1FB3
102
}
330
1FB3
100
AcDbDictionary
281
     1
  0
DICTIONARY
  5
20FD
102
{ACAD_REACTORS
330
1FB3
102
}
330
1FB3
100
AcDbDictionary
281
     1
  0
XRECORD
  5
2525
102
{ACAD_REACTORS
330
1FB3
102
}
330
1FB3
100
AcDbXrecord
280
     1
  1
DWGPROPS COOKIE
  2

  3

  4

  6

  7

  8
m
  9

300
=
301
=
302
=
303
=
304
=
305
=
306
=
307
=
308
=
309
=
 40
0.2320527777777777
 41
2452488.423138738
 42
2454750.480540717
  1

 90
        0
  0
XRECORD
  5
252B
102
{ACAD_REACTORS
330
2407
102
}
330
2407
100
AcDbXrecord
280
     1
102
VTR_0.000_0.000_1.000_1.000_VISUALSTYLE
340
202D
102
VTR_0.000_0.000_1.000_1.000_GRIDDISPLAY
 70
     3
102
VTR_0.000_0.000_1.000_1.000_GRIDMAJOR
 70
     5
102
VTR_0.000_0.000_1.000_1.000_DEFAULTLIGHTING
280
     1
102
VTR_0.000_0.000_1.000_1.000_DEFAULTLIGHTINGTYPE
 70
     1
102
VTR_0.000_0.000_1.000_1.000_BRIGHTNESS
141
0.0
102
VTR_0.000_0.000_1.000_1.000_CONTRAST
142
0.0
  0
DICTIONARY
  5
258D
102
{ACAD_REACTORS
330
258C
102
}
330
258C
100
AcDbDictionary
281
     1
  0
XRECORD
  5
23FC
102
{ACAD_REACTORS
330
23FB
102
}
330
23FB
100
AcDbXrecord
280
     1
290
     1
  0
XRECORD
  5
2531
102
{ACAD_REACTORS
330
2530
102
}
330
2530
100
AcDbXrecord
280
     1
102
CAMERAPLOTTABLE
 70
     0
102
VISUALSTYLE
340
202D
  0
XRECORD
  5
2578
102
{ACAD_REACTORS
330
1FD7
102
}
330
1FD7
100
AcDbXrecord
280
     1
340
1FC5
  0
XRECORD
  5
2577
102
{ACAD_REACTORS
330
1FD9
102
}
330
1FD9
100
AcDbXrecord
280
     1
340
1FC1
  0
XRECORD
  5
2527
102
{ACAD_REACTORS
330
2526
102
}
330
2526
100
AcDbXrecord
280
     1
 70
     1
  0
XRECORD
  5
2529
102
{ACAD_REACTORS
330
2526
102
}
330
2526
100
AcDbXrecord
280
     1
340
1FBA
  0
XRECORD
  5
252A
102
{ACAD_REACTORS
330
2526
102
}
330
2526
100
AcDbXrecord
280
     1
340
1FBA
  0
XRECORD
  5
2528
102
{ACAD_REACTORS
330
2526
102
}
330
2526
100
AcDbXrecord
280
     1
340
1FBA
  0
LAYOUT
  5
1FC8
102
{ACAD_XDICTIONARY
360
252E
102
}
102
{ACAD_REACTORS
330
1FC0
102
}
330
1FC0
100
AcDbPlotSettings
  1

  2
SII LP-2150 (D-SCAN C2)
  4

  6

 40
0.0
 41
0.0
 42
0.0
 43
0.0
 44
0.0
 45
0.0
 46
0.0
 47
0.0
 48
0.0
 49
0.0
140
0.0
141
0.0
142
1.0
143
1.0
 70
  1712
 72
     0
 73
     0
 74
     0
  7

 75
     0
147
1.0
148
0.0
149
0.0
100
AcDbLayout
  1
Model
 70
     1
 71
     0
 10
0.0
 20
0.0
 11
12.0
 21
9.0
 12
0.0
 22
0.0
 32
0.0
 14
0.0
 24
0.0
 34
0.0
 15
0.0
 25
0.0
 35
0.0
146
0.0
 13
0.0
 23
0.0
 33
0.0
 16
1.0
 26
0.0
 36
0.0
 17
0.0
 27
1.0
 37
0.0
 76
     0
330
1FC5
  0
LAYOUT
  5
1FC4
102
{ACAD_XDICTIONARY
360
252C
102
}
102
{ACAD_REACTORS
330
1FC0
102
}
330
1FC0
100
AcDbPlotSettings
  1

  2
SII LP-2150 (D-SCAN C2)
  4

  6

 40
0.0
 41
0.0
 42
0.0
 43
0.0
 44
0.0
 45
0.0
 46
0.0
 47
0.0
 48
0.0
 49
0.0
140
0.0
141
0.0
142
1.0
143
1.0
 70
   688
 72
     0
 73
     0
 74
     5
  7

 75
    16
147
1.0
148
0.0
149
0.0
100
AcDbLayout
  1
ﾚｲｱｳﾄ1
 70
     1
 71
     1
 10
0.0
 20
0.0
 11
12.0
 21
9.0
 12
0.0
 22
0.0
 32
0.0
 14
1.000000000000000E+20
 24
1.000000000000000E+20
 34
1.000000000000000E+20
 15
-1.000000000000000E+20
 25
-1.000000000000000E+20
 35
-1.000000000000000E+20
146
0.0
 13
0.0
 23
0.0
 33
0.0
 16
1.0
 26
0.0
 36
0.0
 17
0.0
 27
1.0
 37
0.0
 76
     0
330
1FC1
  0
ACAD_PROXY_OBJECT
  5
2017
102
{ACAD_XDICTIONARY
360
2018
102
}
102
{ACAD_REACTORS
330
200E
102
}
330
200E
100
AcDbProxyObject
 90
      499
 91
      508
 95
   917527
 70
     0
 93
     1340
310
42109E509B1BD8DAC02004014080404555555555555953FAA155555555555654FEA9AA400014080404555555555555953FAA155555555555654FEA9AA400000000000000E03F4080404555555555555953FAA155555555555654FEA9AA4014080404555555555555953FAA155555555555654FEA9AA4010201011555555555
310
55654FEA8555555555555953FAA6A9005020101155555555555654FEA8555555555555953FAA6A9000
 94
        0
  0
ACAD_PROXY_OBJECT
  5
200F
102
{ACAD_XDICTIONARY
360
2010
102
}
102
{ACAD_REACTORS
330
200E
102
}
330
200E
100
AcDbProxyObject
 90
      499
 91
      508
 95
   917527
 70
     0
 93
     1340
310
42109E53185E595C802004014080404555555555555953FAA155555555555654FEA9AA400014080404555555555555953FAA155555555555654FEA9AA400000000000000E03F4080404555555555555953FAA155555555555654FEA9AA4014080404555555555555953FAA155555555555654FEA9AA4010201011555555555
310
55654FEA8555555555555953FAA6A9005020101155555555555654FEA8555555555555953FAA6A9000
 94
        0
  0
ACAD_PROXY_OBJECT
  5
201F
102
{ACAD_XDICTIONARY
360
2020
102
}
102
{ACAD_REACTORS
330
200E
102
}
330
200E
100
AcDbProxyObject
 90
      499
 91
      508
 95
   917527
 70
     0
 93
     1332
310
41D1DB1BD8985B002004014080404555555555555953FAA155555555555654FEA9AA400014080404555555555555953FAA155555555555654FEA9AA400000000000000E03F4080404555555555555953FAA155555555555654FEA9AA4014080404555555555555953FAA155555555555654FEA9AA401020101155555555555
310
654FEA8555555555555953FAA6A9005020101155555555555654FEA8555555555555953FAA6A9000
 94
        0
  0
ACAD_PROXY_OBJECT
  5
205E
102
{ACAD_REACTORS
330
205D
102
}
330
205D
100
AcDbProxyObject
 90
      499
 91
      512
 95
   917527
 70
     0
 93
      618
310
40901902A4063FBFFFFFE056BD1B81E855B9FC0AD7A3703D0AD73F4254DD185B99185C990000AD7A3703D0AC73F90141901A02B5E8DC0F42B1CFC02B5E8DC0F42B1CFE5764000000000000300FC6
340
1FBA
340
0
340
1FB8
340
0
 94
        0
1001
ACAD_MLEADERVER
1070
     2
  0
MLINESTYLE
  5
1FBE
102
{ACAD_REACTORS
330
1FBD
102
}
330
1FBD
100
AcDbMlineStyle
  2
STANDARD
 70
     0
  3

 62
   256
 51
90.0
 52
90.0
 71
     2
 49
0.5
 62
   256
  6
BYLAYER
 49
-0.5
 62
   256
  6
BYLAYER
  0
ACDBPLACEHOLDER
  5
1FB6
102
{ACAD_REACTORS
330
1FB5
102
}
330
1FB5
  0
ACAD_PROXY_OBJECT
  5
203C
102
{ACAD_REACTORS
330
203B
102
}
330
203B
100
AcDbProxyObject
 90
      499
 91
      511
 95
   917527
 70
     0
 93
       49
310
904313A3100580
 94
        0
  0
ACAD_PROXY_OBJECT
  5
203D
102
{ACAD_REACTORS
330
203B
102
}
330
203B
100
AcDbProxyObject
 90
      499
 91
      511
 95
   917527
 70
     0
 93
      113
310
904313A3200400000000000000406B
 94
        0
  0
ACAD_PROXY_OBJECT
  5
203E
102
{ACAD_REACTORS
330
203B
102
}
330
203B
100
AcDbProxyObject
 90
      499
 91
      511
 95
   917527
 70
     0
 93
      113
310
904313A34004000000000000104042
 94
        0
  0
ACAD_PROXY_OBJECT
  5
203F
102
{ACAD_REACTORS
330
203B
102
}
330
203B
100
AcDbProxyObject
 90
      499
 91
      511
 95
   917527
 70
     0
 93
      113
310
904313A3500400000000000014406B
 94
        0
  0
ACAD_PROXY_OBJECT
  5
2040
102
{ACAD_REACTORS
330
203B
102
}
330
203B
100
AcDbProxyObject
 90
      499
 91
      511
 95
   917527
 70
     0
 93
      113
310
904313A38004000000000000204042
 94
        0
  0
ACAD_PROXY_OBJECT
  5
2041
102
{ACAD_REACTORS
330
203B
102
}
330
203B
100
AcDbProxyObject
 90
      499
 91
      511
 95
   917527
 70
     0
 93
      121
310
905313A3130004000000000000244051
 94
        0
  0
ACAD_PROXY_OBJECT
  5
2042
102
{ACAD_REACTORS
330
203B
102
}
330
203B
100
AcDbProxyObject
 90
      499
 91
      511
 95
   917527
 70
     0
 93
      121
310
905313A3136004000000000000304009
 94
        0
  0
ACAD_PROXY_OBJECT
  5
2043
102
{ACAD_REACTORS
330
203B
102
}
330
203B
100
AcDbProxyObject
 90
      499
 91
      511
 95
   917527
 70
     0
 93
      121
310
905313A3230004000000000000344051
 94
        0
  0
ACAD_PROXY_OBJECT
  5
2044
102
{ACAD_REACTORS
330
203B
102
}
330
203B
100
AcDbProxyObject
 90
      499
 91
      511
 95
   917527
 70
     0
 93
      121
310
905313A33300040000000000003E4009
 94
        0
  0
ACAD_PROXY_OBJECT
  5
2045
102
{ACAD_REACTORS
330
203B
102
}
330
203B
100
AcDbProxyObject
 90
      499
 91
      511
 95
   917527
 70
     0
 93
      121
310
905313A3430004000000000000444051
 94
        0
  0
ACAD_PROXY_OBJECT
  5
2046
102
{ACAD_REACTORS
330
203B
102
}
330
203B
100
AcDbProxyObject
 90
      499
 91
      511
 95
   917527
 70
     0
 93
      121
310
905313A3530004000000000000494009
 94
        0
  0
ACAD_PROXY_OBJECT
  5
2047
102
{ACAD_REACTORS
330
203B
102
}
330
203B
100
AcDbProxyObject
 90
      499
 91
      511
 95
   917527
 70
     0
 93
      129
310
906313A313030004000000000000594038
 94
        0
  0
ACAD_PROXY_OBJECT
  5
2048
102
{ACAD_REACTORS
330
203B
102
}
330
203B
100
AcDbProxyObject
 90
      499
 91
      511
 95
   917527
 70
     0
 93
      113
310
904323A31000000000000000010140
 94
        0
  0
ACAD_PROXY_OBJECT
  5
2049
102
{ACAD_REACTORS
330
203B
102
}
330
203B
100
AcDbProxyObject
 90
      499
 91
      511
 95
   917527
 70
     0
 93
      113
310
904343A31000000000000000410159
 94
        0
  0
ACAD_PROXY_OBJECT
  5
204A
102
{ACAD_REACTORS
330
203B
102
}
330
203B
100
AcDbProxyObject
 90
      499
 91
      511
 95
   917527
 70
     0
 93
      113
310
904383A31000000000000000810140
 94
        0
  0
ACAD_PROXY_OBJECT
  5
204B
102
{ACAD_REACTORS
330
203B
102
}
330
203B
100
AcDbProxyObject
 90
      499
 91
      511
 95
   917527
 70
     0
 93
      121
310
90531303A31000000000000000910140
 94
        0
  0
ACAD_PROXY_OBJECT
  5
204C
102
{ACAD_REACTORS
330
203B
102
}
330
203B
100
AcDbProxyObject
 90
      499
 91
      511
 95
   917527
 70
     0
 93
      129
310
9063130303A31000000000000001650102
 94
        0
  0
ACAD_PROXY_OBJECT
  5
204D
102
{ACAD_REACTORS
330
203B
102
}
330
203B
100
AcDbProxyObject
 90
      499
 91
      511
 95
   917527
 70
     0
 93
      265
310
90F312F31323822203D2031272D302200000000000000200FC00000000000028402B
 94
        0
  0
ACAD_PROXY_OBJECT
  5
204E
102
{ACAD_REACTORS
330
203B
102
}
330
203B
100
AcDbProxyObject
 90
      499
 91
      511
 95
   917527
 70
     0
 93
      257
310
90E312F363422203D2031272D302200000000000000240FC000000000000284000
 94
        0
  0
ACAD_PROXY_OBJECT
  5
204F
102
{ACAD_REACTORS
330
203B
102
}
330
203B
100
AcDbProxyObject
 90
      499
 91
      511
 95
   917527
 70
     0
 93
      257
310
90E312F333222203D2031272D302200000000000000280FC000000000000284040
 94
        0
  0
ACAD_PROXY_OBJECT
  5
2050
102
{ACAD_REACTORS
330
203B
102
}
330
203B
100
AcDbProxyObject
 90
      499
 91
      511
 95
   917527
 70
     0
 93
      257
310
90E312F313622203D2031272D3022000000000000002C0FC000000000000284000
 94
        0
  0
ACAD_PROXY_OBJECT
  5
2051
102
{ACAD_REACTORS
330
203B
102
}
330
203B
100
AcDbProxyObject
 90
      499
 91
      511
 95
   917527
 70
     0
 93
      257
310
90E332F333222203D2031272D3022000000000000002E0FC000000000000284040
 94
        0
  0
ACAD_PROXY_OBJECT
  5
2052
102
{ACAD_REACTORS
330
203B
102
}
330
203B
100
AcDbProxyObject
 90
      499
 91
      511
 95
   917527
 70
     0
 93
      249
310
90D312F3822203D2031272D302200000000000000300FC000000000000284040
 94
        0
  0
ACAD_PROXY_OBJECT
  5
2053
102
{ACAD_REACTORS
330
203B
102
}
330
203B
100
AcDbProxyObject
 90
      499
 91
      511
 95
   917527
 70
     0
 93
      257
310
90E332F313622203D2031272D302200000000000000320FC000000000000284040
 94
        0
  0
ACAD_PROXY_OBJECT
  5
2054
102
{ACAD_REACTORS
330
203B
102
}
330
203B
100
AcDbProxyObject
 90
      499
 91
      511
 95
   917527
 70
     0
 93
      249
310
90D312F3422203D2031272D302200000000000000340FC000000000000284040
 94
        0
  0
ACAD_PROXY_OBJECT
  5
2055
102
{ACAD_REACTORS
330
203B
102
}
330
203B
100
AcDbProxyObject
 90
      499
 91
      511
 95
   917527
 70
     0
 93
      249
310
90D332F3822203D2031272D302200000000000000360FC000000000000284040
 94
        0
  0
ACAD_PROXY_OBJECT
  5
2056
102
{ACAD_REACTORS
330
203B
102
}
330
203B
100
AcDbProxyObject
 90
      499
 91
      511
 95
   917527
 70
     0
 93
      249
310
90D312F3222203D2031272D302200000000000000380FC000000000000284040
 94
        0
  0
ACAD_PROXY_OBJECT
  5
2057
102
{ACAD_REACTORS
330
203B
102
}
330
203B
100
AcDbProxyObject
 90
      499
 91
      511
 95
   917527
 70
     0
 93
      249
310
90D332F3422203D2031272D3022000000000000003A0FC000000000000284040
 94
        0
  0
ACAD_PROXY_OBJECT
  5
2058
102
{ACAD_REACTORS
330
203B
102
}
330
203B
100
AcDbProxyObject
 90
      499
 91
      511
 95
   917527
 70
     0
 93
      169
310
90B3122203D2031272D3022004000000000000284000
 94
        0
  0
ACAD_PROXY_OBJECT
  5
2059
102
{ACAD_REACTORS
330
203B
102
}
330
203B
100
AcDbProxyObject
 90
      499
 91
      511
 95
   917527
 70
     0
 93
      265
310
90F312D312F3222203D2031272D3022000000000000003E0FC00000000000028402B
 94
        0
  0
ACAD_PROXY_OBJECT
  5
205A
102
{ACAD_REACTORS
330
203B
102
}
330
203B
100
AcDbProxyObject
 90
      499
 91
      511
 95
   917527
 70
     0
 93
      233
310
90B3322203D2031272D30220000000000000002100000000000000284028
 94
        0
  0
ACAD_PROXY_OBJECT
  5
205B
102
{ACAD_REACTORS
330
203B
102
}
330
203B
100
AcDbProxyObject
 90
      499
 91
      511
 95
   917527
 70
     0
 93
      233
310
90B3622203D2031272D30220000000000000006100000000000000284000
 94
        0
  0
ACAD_PROXY_OBJECT
  5
205C
102
{ACAD_REACTORS
330
203B
102
}
330
203B
100
AcDbProxyObject
 90
      499
 91
      511
 95
   917527
 70
     0
 93
      257
310
90E31272D3022203D2031272D3022000000000000000A100000000000000284000
 94
        0
  0
ACAD_PROXY_OBJECT
  5
203A
102
{ACAD_XDICTIONARY
360
23FE
102
}
102
{ACAD_REACTORS
330
2039
102
}
330
2039
100
AcDbProxyObject
 90
      499
 91
      510
 95
   917527
 70
     0
 93
     1849
310
4254DD185B99185C990028B81E85EB51B8AE3F2E07A17AD46E2B8FC02B5E8DC0F42B1CFD028000000C1008070000C3001FDFF8000000C1003FBFF000000182007F7FE00000030400FEFFC00000060801FDFF8000000C1003FBFF00000018200000000000000681FA0B0000001820100E000186003FBFF000000182007F7FE0
310
0000030400FEFFC00000060801FDFF8000000C1003FBFF000000182007F7FE000000304000AD7A3703D0AC73F4160000003040201C00030C007F7FE00000030400FEFFC00000060801FDFF8000000C1003FBFF000000182007F7FE00000030400FEFFC000000608000
340
1FB8
340
1FB8
340
1FB8
 94
        0
  0
ACAD_PROXY_OBJECT
  5
202D
102
{ACAD_REACTORS
330
2027
102
}
330
2027
100
AcDbProxyObject
 90
      499
 91
      509
 95
   917527
 70
     0
 93
      444
310
430C9915DA5C99599C985B59401049028333333333333E3BF0000000000000FB0107901411070040501600405405064090741402480A0340
 94
        0
1001
ACAD
1000
AcDbSavedByObjectVersion
1070
     0
  0
ACAD_PROXY_OBJECT
  5
202F
102
{ACAD_REACTORS
330
2027
102
}
330
2027
100
AcDbProxyObject
 90
      499
 91
      509
 95
   917527
 70
     0
 93
      508
310
428CD108121A5919195B8010640502408333333333333E3BF0000000000000FB01079024090700405020000000000001110200405405064090740C02480A0340
 94
        0
1001
ACAD
1000
AcDbSavedByObjectVersion
1070
     0
  0
ACAD_PROXY_OBJECT
  5
202E
102
{ACAD_REACTORS
330
2027
102
}
330
2027
100
AcDbProxyObject
 90
      499
 91
      509
 95
   917527
 70
     0
 93
      444
310
430CD915DA5C99599C985B59401059028333333333333E3BF0000000000000FB0107901411070040501600405405064090741402480A0345
 94
        0
1001
ACAD
1000
AcDbSavedByObjectVersion
1070
     0
  0
ACAD_PROXY_OBJECT
  5
202C
102
{ACAD_REACTORS
330
2027
102
}
330
2027
100
AcDbProxyObject
 90
      499
 91
      509
 95
   917527
 70
     0
 93
      396
310
4190985CDA58C0107406404333333333333E3BF0000000000000FB0107A41107004050150841D405064090741402480A0358
 94
        0
1001
ACAD
1000
AcDbSavedByObjectVersion
1070
     0
  0
ACAD_PROXY_OBJECT
  5
2033
102
{ACAD_REACTORS
330
2027
102
}
330
2027
100
AcDbProxyObject
 90
      499
 91
      509
 95
   917527
 70
     0
 93
      436
310
42509C9A59DA1D195B8010C409028333333333333E3BF0000000000000FB010790141107004050150841D405064090741402480A029956
 94
        0
1001
ACAD
1000
AcDbSavedByObjectVersion
1070
     0
  0
ACAD_PROXY_OBJECT
  5
2037
102
{ACAD_REACTORS
330
2027
102
}
330
2027
100
AcDbProxyObject
 90
      499
 91
      509
 95
   917527
 70
     0
 93
      460
310
4310DBDB1BDC90DA185B99D9401104090240C333333333333E3BF0000000000000FB0108901411070040501508421405064090741402480A0354
 94
        0
1001
ACAD
1000
AcDbSavedByObjectVersion
1070
     0
  0
ACAD_PROXY_OBJECT
  5
2030
102
{ACAD_REACTORS
330
2027
102
}
330
2027
100
AcDbProxyObject
 90
      499
 91
      509
 95
   917527
 70
     0
 93
      508
310
42D0DBDB98D95C1D1D585B0010940D028333333333333E3BF0000000000000FB0107902409070040501000000000000111010841D405064090740C02480A0340
 94
        0
1001
ACAD
1000
AcDbSavedByObjectVersion
1070
     0
  0
ACAD_PROXY_OBJECT
  5
2032
102
{ACAD_REACTORS
330
2027
102
}
330
2027
100
AcDbProxyObject
 90
      499
 91
      509
 95
   917527
 70
     0
 93
      420
310
41111A5B4010B409028333333333333E3BF0000000000000FB010790141107004050150841D405064090741402480A02677FFFFFD4
 94
        0
1001
ACAD
1000
AcDbSavedByObjectVersion
1070
     0
  0
ACAD_PROXY_OBJECT
  5
2036
102
{ACAD_REACTORS
330
2027
102
}
330
2027
100
AcDbProxyObject
 90
      499
 91
      509
 95
   917527
 70
     0
 93
      452
310
43119858D95C185D1D195C9B8010F409028333333333333E3BF0000000000000FB010790141107004050150841D405064090741402480A0350
 94
        0
1001
ACAD
1000
AcDbSavedByObjectVersion
1070
     0
  0
ACAD_PROXY_OBJECT
  5
2028
102
{ACAD_REACTORS
330
2027
102
}
330
2027
100
AcDbProxyObject
 90
      499
 91
      509
 95
   917527
 70
     0
 93
      396
310
41519B185D00240901404333333333333E3BF0000000000000F9010740A41107004050150841D405064090741402480A1B5A
 94
        0
1001
ACAD
1000
AcDbSavedByObjectVersion
1070
     0
  0
ACAD_PROXY_OBJECT
  5
2029
102
{ACAD_REACTORS
330
2027
102
}
330
2027
100
AcDbProxyObject
 90
      499
 91
      509
 95
   917527
 70
     0
 93
      484
310
43919B185D15DA5D1A115919D95CC010140901404333333333333E3BF0000000000000F9010740901411070040501600405405064090741402480A1B50
 94
        0
1001
ACAD
1000
AcDbSavedByObjectVersion
1070
     0
  0
ACAD_PROXY_OBJECT
  5
202A
102
{ACAD_REACTORS
330
2027
102
}
330
2027
100
AcDbProxyObject
 90
      499
 91
      509
 95
   917527
 70
     0
 93
      420
310
4211DBDD5C985D590010240902404333333333333E3BF0000000000000F9010740A411070040501641D405064090741402480A1B55
 94
        0
1001
ACAD
1000
AcDbSavedByObjectVersion
1070
     0
  0
ACAD_PROXY_OBJECT
  5
202B
102
{ACAD_REACTORS
330
2027
102
}
330
2027
100
AcDbProxyObject
 90
      499
 91
      509
 95
   917527
 70
     0
 93
      508
310
4451DBDD5C985D5915DA5D1A115919D95CC010340902404333333333333E3BF0000000000000F9010740901411070040501600405405064090741402480A1B50
 94
        0
1001
ACAD
1000
AcDbSavedByObjectVersion
1070
     0
  0
ACAD_PROXY_OBJECT
  5
2035
102
{ACAD_REACTORS
330
2027
102
}
330
2027
100
AcDbProxyObject
 90
      499
 91
      509
 95
   917527
 70
     0
 93
      452
310
43131A5B995C185D1D195C9B8010E409028333333333333E3BF0000000000000FB010790141107004050750841D405064090741402483A0350
 94
        0
1001
ACAD
1000
AcDbSavedByObjectVersion
1070
     0
  0
ACAD_PROXY_OBJECT
  5
2031
102
{ACAD_REACTORS
330
2027
102
}
330
2027
100
AcDbProxyObject
 90
      499
 91
      509
 95
   917527
 70
     0
 93
      428
310
429499585B1A5CDD1A58C0108409028333333333333E3BF0000000000000FB01079019070040501508421405064090741402480A1B45
 94
        0
1001
ACAD
1000
AcDbSavedByObjectVersion
1070
     0
  0
ACAD_PROXY_OBJECT
  5
2034
102
{ACAD_REACTORS
330
2027
102
}
330
2027
100
AcDbProxyObject
 90
      499
 91
      509
 95
   917527
 70
     0
 93
      420
310
42151A1A58DAD95B8010D409028333333333333E3BF0000000000000FB010790141107004050150C41D405064090741402480A0354
 94
        0
1001
ACAD
1000
AcDbSavedByObjectVersion
1070
     0
  0
DICTIONARYVAR
  5
241B
102
{ACAD_REACTORS
330
200B
102
}
330
200B
100
DictionaryVariables
280
     0
  1
1:1
  0
DICTIONARYVAR
  5
241A
102
{ACAD_REACTORS
330
200B
102
}
330
200B
100
DictionaryVariables
280
     0
  1
STANDARD
  0
DICTIONARYVAR
  5
2419
102
{ACAD_REACTORS
330
200B
102
}
330
200B
100
DictionaryVariables
280
     0
  1
STANDARD
  0
DICTIONARYVAR
  5
200C
102
{ACAD_REACTORS
330
200B
102
}
330
200B
100
DictionaryVariables
280
     0
  1
1
  0
DICTIONARYVAR
  5
241D
102
{ACAD_REACTORS
330
200B
102
}
330
200B
100
DictionaryVariables
280
     0
  1
0
  0
DICTIONARYVAR
  5
241C
102
{ACAD_REACTORS
330
200B
102
}
330
200B
100
DictionaryVariables
280
     0
  1
127
  0
DICTIONARY
  5
20C9
102
{ACAD_REACTORS
330
20BC
102
}
330
20BC
100
AcDbDictionary
281
     1
  0
DICTIONARY
  5
252E
330
1FC8
100
AcDbDictionary
280
     1
281
     1
  3
ACAD_XREC_ROUNDTRIP
360
252F
  0
DICTIONARY
  5
252C
330
1FC4
100
AcDbDictionary
280
     1
281
     1
  3
ACAD_XREC_ROUNDTRIP
360
252D
  0
DICTIONARY
  5
2018
330
2017
100
AcDbDictionary
280
     1
281
     1
  3
ACAD_XREC_ROUNDTRIP
360
2533
  3
BUMPTILE
360
201A
  3
DIFFUSETILE
360
2019
  3
OPACITYTILE
360
201D
  3
REFLECTIONTILE
360
201C
  3
REFRACTIONTILE
360
201E
  3
SPECULARTILE
360
201B
  0
DICTIONARY
  5
2010
330
200F
100
AcDbDictionary
280
     1
281
     1
  3
ACAD_XREC_ROUNDTRIP
360
2532
  3
BUMPTILE
360
2012
  3
DIFFUSETILE
360
2011
  3
OPACITYTILE
360
2015
  3
REFLECTIONTILE
360
2014
  3
REFRACTIONTILE
360
2016
  3
SPECULARTILE
360
2013
  0
DICTIONARY
  5
2020
330
201F
100
AcDbDictionary
280
     1
281
     1
  3
ACAD_XREC_ROUNDTRIP
360
2534
  3
BUMPTILE
360
2022
  3
DIFFUSETILE
360
2021
  3
OPACITYTILE
360
2025
  3
REFLECTIONTILE
360
2024
  3
REFRACTIONTILE
360
2026
  3
SPECULARTILE
360
2023
  0
DICTIONARY
  5
23FE
330
203A
100
AcDbDictionary
280
     1
281
     1
  3
ACAD_ROUNDTRIP_2008_TABLESTYLE_CELLSTYLEMAP
360
2524
  3
ACAD_XREC_ROUNDTRIP
360
2535
  0
XRECORD
  5
252F
102
{ACAD_REACTORS
330
252E
102
}
330
252E
100
AcDbXrecord
280
     1
102
SHADEPLOT
 70
     0
102
SHADEPLOTRESLEVEL
 70
     2
102
SHADEPLOTCUSTOMDPI
 70
   300
  0
XRECORD
  5
252D
102
{ACAD_REACTORS
330
252C
102
}
330
252C
100
AcDbXrecord
280
     1
102
SHADEPLOT
 70
     0
102
SHADEPLOTRESLEVEL
 70
     2
102
SHADEPLOTCUSTOMDPI
 70
   300
  0
XRECORD
  5
2533
102
{ACAD_REACTORS
330
2018
102
}
330
2018
100
AcDbXrecord
280
     1
102
MATERIAL
148
0.0
149
0.0
149
0.0
 93
        0
 94
      127
282
     0
 72
     0
 77
     0
171
     0
175
     0
179
     0
273
     0
  0
XRECORD
  5
201A
102
{ACAD_REACTORS
330
2018
102
}
330
2018
100
AcDbXrecord
280
     1
270
     1
271
     1
  0
XRECORD
  5
2019
102
{ACAD_REACTORS
330
2018
102
}
330
2018
100
AcDbXrecord
280
     1
270
     1
271
     1
  0
XRECORD
  5
201D
102
{ACAD_REACTORS
330
2018
102
}
330
2018
100
AcDbXrecord
280
     1
270
     1
271
     1
  0
XRECORD
  5
201C
102
{ACAD_REACTORS
330
2018
102
}
330
2018
100
AcDbXrecord
280
     1
270
     1
271
     1
  0
XRECORD
  5
201E
102
{ACAD_REACTORS
330
2018
102
}
330
2018
100
AcDbXrecord
280
     1
270
     1
271
     1
  0
XRECORD
  5
201B
102
{ACAD_REACTORS
330
2018
102
}
330
2018
100
AcDbXrecord
280
     1
270
     1
271
     1
  0
XRECORD
  5
2532
102
{ACAD_REACTORS
330
2010
102
}
330
2010
100
AcDbXrecord
280
     1
102
MATERIAL
148
0.0
149
0.0
149
0.0
 93
        0
 94
      127
282
     0
 72
     0
 77
     0
171
     0
175
     0
179
     0
273
     0
  0
XRECORD
  5
2012
102
{ACAD_REACTORS
330
2010
102
}
330
2010
100
AcDbXrecord
280
     1
270
     1
271
     1
  0
XRECORD
  5
2011
102
{ACAD_REACTORS
330
2010
102
}
330
2010
100
AcDbXrecord
280
     1
270
     1
271
     1
  0
XRECORD
  5
2015
102
{ACAD_REACTORS
330
2010
102
}
330
2010
100
AcDbXrecord
280
     1
270
     1
271
     1
  0
XRECORD
  5
2014
102
{ACAD_REACTORS
330
2010
102
}
330
2010
100
AcDbXrecord
280
     1
270
     1
271
     1
  0
XRECORD
  5
2016
102
{ACAD_REACTORS
330
2010
102
}
330
2010
100
AcDbXrecord
280
     1
270
     1
271
     1
  0
XRECORD
  5
2013
102
{ACAD_REACTORS
330
2010
102
}
330
2010
100
AcDbXrecord
280
     1
270
     1
271
     1
  0
XRECORD
  5
2534
102
{ACAD_REACTORS
330
2020
102
}
330
2020
100
AcDbXrecord
280
     1
102
MATERIAL
148
0.0
149
0.0
149
0.0
 93
        0
 94
      127
282
     0
 72
     0
 77
     0
171
     0
175
     0
179
     0
273
     0
  0
XRECORD
  5
2022
102
{ACAD_REACTORS
330
2020
102
}
330
2020
100
AcDbXrecord
280
     1
270
     1
271
     1
  0
XRECORD
  5
2021
102
{ACAD_REACTORS
330
2020
102
}
330
2020
100
AcDbXrecord
280
     1
270
     1
271
     1
  0
XRECORD
  5
2025
102
{ACAD_REACTORS
330
2020
102
}
330
2020
100
AcDbXrecord
280
     1
270
     1
271
     1
  0
XRECORD
  5
2024
102
{ACAD_REACTORS
330
2020
102
}
330
2020
100
AcDbXrecord
280
     1
270
     1
271
     1
  0
XRECORD
  5
2026
102
{ACAD_REACTORS
330
2020
102
}
330
2020
100
AcDbXrecord
280
     1
270
     1
271
     1
  0
XRECORD
  5
2023
102
{ACAD_REACTORS
330
2020
102
}
330
2020
100
AcDbXrecord
280
     1
270
     1
271
     1
  0
ACAD_PROXY_OBJECT
  5
2524
102
{ACAD_REACTORS
330
23FE
102
}
330
23FE
100
AcDbProxyObject
 90
      499
 91
      602
 95
   917527
 70
     0
 93
     1044
310
40D054060020000020000003200101A000080002A5058000000C100000000000000340FE901405075F5449544C450041501A8000000C800406800020000A9416000000304000AD7A3703D0AC73FA409014217D2115051115480105406A0000003200101A000080002A5028000000C10002B5E8DC0F42B1CFE903409065F444
310
15441005
340
1FB8
340
1FB8
340
1FB8
 94
        0
  0
XRECORD
  5
2535
102
{ACAD_REACTORS
330
23FE
102
}
330
23FE
100
AcDbXrecord
280
     1
102
ACAD_ROUNDTRIP_PRE2007_TABLESTYLE
 90
      512
 91
        0
  1

 92
      512
 93
        0
  2

 94
      512
 95
        0
  3

  0
ENDSEC
  0
EOF
