  0
SECTION
  2
HEADER
  9
$ACADVER
  1
AC1015
  9
$ACADMAINTVER
 70
    14
  9
$DWGCODEPAGE
  3
ANSI_932
  9
$INSBASE
 10
0.0
 20
0.0
 30
0.0
  9
$EXTMIN
 10
-87.12908475814788
 20
71.21338884903457
 30
-0.0000000000000058
  9
$EXTMAX
 10
711.8546465143176
 20
708.4370029936649
 30
0.0000000000000104
  9
$LIMMIN
 10
0.0
 20
0.0
  9
$LIMMAX
 10
12.0
 20
9.0
  9
$ORTHOMODE
 70
     0
  9
$REGENMODE
 70
     1
  9
$FILLMODE
 70
     1
  9
$QTEXTMODE
 70
     0
  9
$MIRRTEXT
 70
     1
  9
$LTSCALE
 40
1.0
  9
$ATTMODE
 70
     1
  9
$TEXTSIZE
 40
0.2
  9
$TRACEWID
 40
0.05
  9
$TEXTSTYLE
  7
STANDARD
  9
$CLAYER
  8
0
  9
$CELTYPE
  6
CONTINUOUS
  9
$CECOLOR
 62
   256
  9
$CELTSCALE
 40
1.0
  9
$DISPSILH
 70
     0
  9
$DIMSCALE
 40
1.0
  9
$DIMASZ
 40
0.18
  9
$DIMEXO
 40
0.0625
  9
$DIMDLI
 40
0.38
  9
$DIMRND
 40
0.0
  9
$DIMDLE
 40
0.0
  9
$DIMEXE
 40
0.18
  9
$DIMTP
 40
0.0
  9
$DIMTM
 40
0.0
  9
$DIMTXT
 40
0.18
  9
$DIMCEN
 40
0.09
  9
$DIMTSZ
 40
0.0
  9
$DIMTOL
 70
     0
  9
$DIMLIM
 70
     0
  9
$DIMTIH
 70
     1
  9
$DIMTOH
 70
     1
  9
$DIMSE1
 70
     0
  9
$DIMSE2
 70
     0
  9
$DIMTAD
 70
     0
  9
$DIMZIN
 70
     0
  9
$DIMBLK
  1

  9
$DIMASO
 70
     1
  9
$DIMSHO
 70
     0
  9
$DIMPOST
  1

  9
$DIMAPOST
  1

  9
$DIMALT
 70
     0
  9
$DIMALTD
 70
     2
  9
$DIMALTF
 40
25.4
  9
$DIMLFAC
 40
1.0
  9
$DIMTOFL
 70
     0
  9
$DIMTVP
 40
0.0
  9
$DIMTIX
 70
     0
  9
$DIMSOXD
 70
     0
  9
$DIMSAH
 70
     0
  9
$DIMBLK1
  1

  9
$DIMBLK2
  1

  9
$DIMSTYLE
  2
Standard
  9
$DIMCLRD
 70
     0
  9
$DIMCLRE
 70
     0
  9
$DIMCLRT
 70
     0
  9
$DIMTFAC
 40
1.0
  9
$DIMGAP
 40
0.09
  9
$DIMJUST
 70
     0
  9
$DIMSD1
 70
     0
  9
$DIMSD2
 70
     0
  9
$DIMTOLJ
 70
     1
  9
$DIMTZIN
 70
     0
  9
$DIMALTZ
 70
     0
  9
$DIMALTTZ
 70
     0
  9
$DIMUPT
 70
     0
  9
$DIMDEC
 70
     4
  9
$DIMTDEC
 70
     4
  9
$DIMALTU
 70
     2
  9
$DIMALTTD
 70
     2
  9
$DIMTXSTY
  7
STANDARD
  9
$DIMAUNIT
 70
     0
  9
$DIMADEC
 70
     0
  9
$DIMALTRND
 40
0.0
  9
$DIMAZIN
 70
     0
  9
$DIMDSEP
 70
    46
  9
$DIMATFIT
 70
     3
  9
$DIMFRAC
 70
     0
  9
$DIMLDRBLK
  1

  9
$DIMLUNIT
 70
     2
  9
$DIMLWD
 70
    -2
  9
$DIMLWE
 70
    -2
  9
$DIMTMOVE
 70
     0
  9
$LUNITS
 70
     2
  9
$LUPREC
 70
     4
  9
$SKETCHINC
 40
0.1
  9
$FILLETRAD
 40
0.0
  9
$AUNITS
 70
     0
  9
$AUPREC
 70
     0
  9
$MENU
  1
.
  9
$ELEVATION
 40
0.0
  9
$PELEVATION
 40
0.0
  9
$THICKNESS
 40
0.0
  9
$LIMCHECK
 70
     0
  9
$CHAMFERA
 40
0.0
  9
$CHAMFERB
 40
0.0
  9
$CHAMFERC
 40
0.0
  9
$CHAMFERD
 40
0.0
  9
$SKPOLY
 70
     0
  9
$TDCREATE
 40
2452488.423138738
  9
$TDUCREATE
 40
2452488.048138738
  9
$TDUPDATE
 40
2456899.667586041
  9
$TDUUPDATE
 40
2456899.292586041
  9
$TDINDWG
 40
0.2385839931
  9
$TDUSRTIMER
 40
0.2385839931
  9
$USRTIMER
 70
     1
  9
$ANGBASE
 50
0.0
  9
$ANGDIR
 70
     0
  9
$PDMODE
 70
     3
  9
$PDSIZE
 40
0.0
  9
$PLINEWID
 40
0.0
  9
$SPLFRAME
 70
     0
  9
$SPLINETYPE
 70
     6
  9
$SPLINESEGS
 70
     8
  9
$HANDSEED
  5
283A
  9
$SURFTAB1
 70
     6
  9
$SURFTAB2
 70
     6
  9
$SURFTYPE
 70
     6
  9
$SURFU
 70
     6
  9
$SURFV
 70
     6
  9
$UCSBASE
  2

  9
$UCSNAME
  2

  9
$UCSORG
 10
0.0
 20
0.0
 30
0.0
  9
$UCSXDIR
 10
1.0
 20
0.0
 30
0.0
  9
$UCSYDIR
 10
0.0
 20
1.0
 30
0.0
  9
$UCSORTHOREF
  2

  9
$UCSORTHOVIEW
 70
     0
  9
$UCSORGTOP
 10
0.0
 20
0.0
 30
0.0
  9
$UCSORGBOTTOM
 10
0.0
 20
0.0
 30
0.0
  9
$UCSORGLEFT
 10
0.0
 20
0.0
 30
0.0
  9
$UCSORGRIGHT
 10
0.0
 20
0.0
 30
0.0
  9
$UCSORGFRONT
 10
0.0
 20
0.0
 30
0.0
  9
$UCSORGBACK
 10
0.0
 20
0.0
 30
0.0
  9
$PUCSBASE
  2

  9
$PUCSNAME
  2

  9
$PUCSORG
 10
0.0
 20
0.0
 30
0.0
  9
$PUCSXDIR
 10
1.0
 20
0.0
 30
0.0
  9
$PUCSYDIR
 10
0.0
 20
1.0
 30
0.0
  9
$PUCSORTHOREF
  2

  9
$PUCSORTHOVIEW
 70
     0
  9
$PUCSORGTOP
 10
0.0
 20
0.0
 30
0.0
  9
$PUCSORGBOTTOM
 10
0.0
 20
0.0
 30
0.0
  9
$PUCSORGLEFT
 10
0.0
 20
0.0
 30
0.0
  9
$PUCSORGRIGHT
 10
0.0
 20
0.0
 30
0.0
  9
$PUCSORGFRONT
 10
0.0
 20
0.0
 30
0.0
  9
$PUCSORGBACK
 10
0.0
 20
0.0
 30
0.0
  9
$USERI1
 70
     0
  9
$USERI2
 70
     0
  9
$USERI3
 70
     0
  9
$USERI4
 70
     0
  9
$USERI5
 70
     0
  9
$USERR1
 40
0.0
  9
$USERR2
 40
0.0
  9
$USERR3
 40
0.0
  9
$USERR4
 40
0.0
  9
$USERR5
 40
0.0
  9
$WORLDVIEW
 70
     1
  9
$SHADEDGE
 70
     3
  9
$SHADEDIF
 70
    70
  9
$TILEMODE
 70
     1
  9
$MAXACTVP
 70
    48
  9
$PINSBASE
 10
0.0
 20
0.0
 30
0.0
  9
$PLIMCHECK
 70
     0
  9
$PEXTMIN
 10
1.000000000000000E+20
 20
1.000000000000000E+20
 30
1.000000000000000E+20
  9
$PEXTMAX
 10
-1.000000000000000E+20
 20
-1.000000000000000E+20
 30
-1.000000000000000E+20
  9
$PLIMMIN
 10
0.0
 20
0.0
  9
$PLIMMAX
 10
12.0
 20
9.0
  9
$UNITMODE
 70
     0
  9
$VISRETAIN
 70
     1
  9
$PLINEGEN
 70
     0
  9
$PSLTSCALE
 70
     1
  9
$TREEDEPTH
 70
  3020
  9
$CMLSTYLE
  2
Standard
  9
$CMLJUST
 70
     0
  9
$CMLSCALE
 40
1.0
  9
$PROXYGRAPHICS
 70
     1
  9
$MEASUREMENT
 70
     0
  9
$CELWEIGHT
370
    -1
  9
$ENDCAPS
280
     0
  9
$JOINSTYLE
280
     0
  9
$LWDISPLAY
290
     0
  9
$INSUNITS
 70
     0
  9
$HYPERLINKBASE
  1

  9
$STYLESHEET
  1

  9
$XEDIT
290
     1
  9
$CEPSNTYPE
380
     0
  9
$PSTYLEMODE
290
     1
  9
$FINGERPRINTGUID
  2
{F129CF68-A5CE-4849-9A3A-1256E2AAFE1E}
  9
$VERSIONGUID
  2
{E70204D4-F493-4DB4-8DBC-CF4131AE6B35}
  9
$EXTNAMES
290
     1
  9
$PSVPSCALE
 40
0.0
  9
$OLESTARTUP
290
     0
  0
ENDSEC
  0
SECTION
  2
CLASSES
  0
CLASS
  1
ACDBDICTIONARYWDFLT
  2
AcDbDictionaryWithDefault
  3
AutoCAD 2000
 90
        0
280
     0
281
     0
  0
CLASS
  1
ACDBPLACEHOLDER
  2
AcDbPlaceHolder
  3
AutoCAD 2000
 90
        0
280
     0
281
     0
  0
CLASS
  1
LAYOUT
  2
AcDbLayout
  3
AutoCAD 2000
 90
        0
280
     0
281
     0
  0
CLASS
  1
DICTIONARYVAR
  2
AcDbDictionaryVar
  3
AutoCAD 2000
 90
        0
280
     0
281
     0
  0
CLASS
  1
LONG_TRANSACTION
  2
AcDbLongTransaction
  3
AutoCAD 2000
 90
    32768
280
     0
281
     0
  0
CLASS
  1
LWPOLYLINE
  2
AcDbPolyline
  3
AutoCAD 2000
 90
    32768
280
     0
281
     1
  0
CLASS
  1
HATCH
  2
AcDbHatch
  3
AutoCAD 2000
 90
    32768
280
     0
281
     1
  0
CLASS
  1
XRECORD
  2
AcDbXrecord
  3
AutoCAD 2000
 90
    32768
280
     0
281
     0
  0
CLASS
  1
MATERIAL
  2
AcDbMaterial
  3
ObjectDBX Classes
 90
     1153
280
     0
281
     0
  0
CLASS
  1
VISUALSTYLE
  2
AcDbVisualStyle
  3
ObjectDBX Classes
 90
     4095
280
     0
281
     0
  0
CLASS
  1
TABLESTYLE
  2
AcDbTableStyle
  3
ObjectDBX Classes
 90
     4095
280
     0
281
     0
  0
CLASS
  1
SCALE
  2
AcDbScale
  3
ObjectDBX Classes
 90
     1153
280
     0
281
     0
  0
CLASS
  1
MLEADERSTYLE
  2
AcDbMLeaderStyle
  3
ACDB_MLEADERSTYLE_CLASS
 90
     4095
280
     0
281
     0
  0
CLASS
  1
ACME_DOCUMENT
  2
AcMeDbDoc
  3
AcMeServices
 90
    33792
280
     0
281
     0
  0
CLASS
  1
AMGSETTINGSOBJ
  2
AmgSettingsObj
  3
"AcadM|Product Description: AutoCAD Mechanical|Company: Autodesk, Inc."
 90
    33792
280
     0
281
     0
  0
CLASS
  1
ACMESCOPE
  2
AcMeScope
  3
AcMeServices
 90
    33792
280
     0
281
     0
  0
CLASS
  1
ACMECOMMANDHISTORY
  2
AcMeCommandHistory
  3
AcMeServices
 90
    33792
280
     0
281
     0
  0
CLASS
  1
ACIMSYSVARMAN
  2
AcImSysVarManager
  3
AcMeServices
 90
     1024
280
     0
281
     0
  0
CLASS
  1
ACIMINTSYSVAR
  2
AcImIntSysVar
  3
AcMeServices
 90
    33792
280
     0
281
     0
  0
CLASS
  1
ACMEDRAWINGMAN
  2
AcMeDrawingMan
  3
AcMeServices
 90
    33792
280
     0
281
     0
  0
CLASS
  1
ACMEVIEW
  2
AcMeView
  3
AcMeServices
 90
    33792
280
     0
281
     0
  0
CLASS
  1
ACDBENTITYCACHE
  2
AcMeEntityCache
  3
AcMeServices
 90
    33792
280
     0
281
     0
  0
CLASS
  1
GSMANAGER
  2
AcMeGSManager
  3
AcMeServices
 90
    33792
280
     0
281
     0
  0
CLASS
  1
AMDTINTERNALREACTOR
  2
AmdtInternalReactor
  3
AcMeServices
 90
    33792
280
     0
281
     0
  0
CLASS
  1
ACMESTATEMGR
  2
AcMeStateMgr
  3
AcMeServices
 90
    33792
280
     0
281
     0
  0
CLASS
  1
ACGREFMASTER
  2
AcGrefMaster
  3
AcAttribServices
 90
    33792
280
     0
281
     0
  0
CLASS
  1
AM_DRAWING_MGR
  2
AcDmDwgMgr
  3
AcMechDwgViewMgmt
 90
    33792
280
     0
281
     0
  0
CLASS
  1
AM_DWG_DOCUMENT
  2
AcDmDwgDocument
  3
AcMechDwgViewMgmt
 90
    33792
280
     0
281
     0
  0
CLASS
  1
AM_DWG_SHEET
  2
AcDmSheet
  3
AcMechDwgViewMgmt
 90
    33792
280
     0
281
     0
  0
CLASS
  1
AM_VIEWDIMPARMAP
  2
AcDmViewDimParMap
  3
AcMechDwgViewMgmt
 90
    33792
280
     0
281
     0
  0
CLASS
  1
ACIMREALSYSVAR
  2
AcImRealSysVar
  3
AcMeServices
 90
    33792
280
     0
281
     0
  0
CLASS
  1
AM_DWGMGR_NAME
  2
AcDmDwgMgrName
  3
AcMechDwgViewMgmt
 90
    33792
280
     0
281
     0
  0
CLASS
  1
ACME_DATABASE
  2
AcMeDbDatabase
  3
AcMeServices
 90
    33792
280
     0
281
     0
  0
CLASS
  1
ACRFINSADJUSTERMGR
  2
AcRfInsAdjusterMgr
  3
AcMeServices
 90
    33792
280
     0
281
     0
  0
CLASS
  1
ACGREFACADMASTER
  2
AcGrefacadMaster
  3
AcGrefServices
 90
    33792
280
     0
281
     0
  0
CLASS
  1
AMDTMENUSTATEMGR
  2
AmdtMenuStateMgr
  3
McadcomServices
 90
    33792
280
     0
281
     0
  0
CLASS
  1
AMDTMCOMMENUSTATE
  2
AmdtMcomMenuState
  3
McadcomServices
 90
    33792
280
     0
281
     0
  0
CLASS
  1
AMIMASTER
  2
AmiMaster
  3
AmiServices
 90
    33792
280
     0
281
     0
  0
CLASS
  1
MAPIAMMOUDLE
  2
MApiAmModule
  3
MApiAmServices
 90
    33792
280
     0
281
     0
  0
CLASS
  1
ACIMSTRSYSVAR
  2
AcImStrSysVar
  3
AcMeServices
 90
    33792
280
     0
281
     0
  0
CLASS
  1
AMDTADMENUSTATE
  2
AmdtAdMenuState
  3
DesignerServices
 90
    33792
280
     0
281
     0
  0
CLASS
  1
ADAPPL
  2
AcAdAppl
  3
DesignerServices
 90
    33792
280
     0
281
     0
  0
CLASS
  1
DEPMGR
  2
AcAdDepMgr
  3
DesignerServices
 90
    33792
280
     0
281
     0
  0
CLASS
  1
PARAMMGR
  2
AcAdParamMgr
  3
DesignerServices
 90
    33792
280
     0
281
     0
  0
CLASS
  1
PARAMSCOPE
  2
AcAdParamScope
  3
DesignerServices
 90
    33792
280
     0
281
     0
  0
CLASS
  1
NAMEDAPPL
  2
AcAdNamedAppl
  3
DesignerServices
 90
    33792
280
     0
281
     0
  0
CLASS
  1
AMDTDMMENUSTATE
  2
AmdtDmMenuState
  3
AcMechDwgViewMgmt
 90
    33792
280
     0
281
     0
  0
CLASS
  1
AMDTAMMENUSTATE
  2
AmdtAmMenuState
  3
DesignerAssemblies
 90
    33792
280
     0
281
     0
  0
CLASS
  1
ACAMPROJECT
  2
AcAmProject
  3
DesignerAssemblies
 90
    33792
280
     0
281
     0
  0
CLASS
  1
ACAMGRCOMPDEF
  2
AcAmGrCompDef
  3
DesignerAssemblies
 90
    33792
280
     0
281
     0
  0
CLASS
  1
ACCMCONTEXT
  2
AcCmContext
  3
DesignerAssemblies
 90
    33792
280
     0
281
     0
  0
CLASS
  1
ACAMCOMPDEF
  2
AcAmCompDef
  3
DesignerAssemblies
 90
    33792
280
     0
281
     0
  0
CLASS
  1
ACAMCOMPDEFMGR
  2
AcAmCompDefMgr
  3
DesignerAssemblies
 90
    33792
280
     0
281
     0
  0
CLASS
  1
AMCONTEXTMGR
  2
AcAmContextMgr
  3
DesignerAssemblies
 90
    33792
280
     0
281
     0
  0
CLASS
  1
ACAMCONTEXTMODELER
  2
AcAmContextModeler
  3
DesignerAssemblies
 90
    33792
280
     0
281
     0
  0
CLASS
  1
ACMDATADICTIONARY
  2
AcmDataDictionary
  3
"AcmSymBB|Product Description: AutoCAD Mechanical|Company: Autodesk, Inc."
 90
    33792
280
     0
281
     0
  0
CLASS
  1
CATALOGSTATE
  2
AcAmCatalogState
  3
DesignerAssemblies
 90
    33792
280
     0
281
     0
  0
CLASS
  1
ACAMGRCOMPDEFSET
  2
AcAmGrCompDefSet
  3
DesignerAssemblies
 90
    33792
280
     0
281
     0
  0
CLASS
  1
AMDTBROWSERDBTAB
  2
AmdtBrowserDbTab
  3
McadcomServices
 90
    33792
280
     0
281
     0
  0
CLASS
  1
CBROWSERAPPOBJECT
  2
CBrowserAppObject
  3
McadcomServices
 90
    33792
280
     0
281
     0
  0
CLASS
  1
DM_PLACEHOLDER
  2
AcDmSelsetPlaceholder
  3
AcMechDwgViewMgmt
 90
    33792
280
     0
281
     0
  0
CLASS
  1
EXACXREFPANELOBJECT
  2
ExAcXREFPanelObject
  3
EXAC_ESW
 90
    33793
280
     0
281
     0
  0
CLASS
  1
NPOCOLLECTION
  2
AcDbImpNonPersistentObjectsCollection
  3
ObjectDBX Classes
 90
    33921
280
     0
281
     0
  0
CLASS
  1
ACMSTANDARDANSI
  2
AcmStandardANSI
  3
"Amdt_StdImp|Product Description: AutoCAD Mechanical|Company: Autodesk, Inc."
 90
    33792
280
     0
281
     0
  0
CLASS
  1
ACMSURFSTANDARDANSI
  2
AcmSurfTextStdANSI
  3
"Amdt_StdImp|Product Description: AutoCAD Mechanical|Company: Autodesk, Inc."
 90
    33792
280
     0
281
     0
  0
CLASS
  1
ACMFCFSTANDARDANSI
  2
AcmFCFStdANSI
  3
"Amdt_StdImp|Product Description: AutoCAD Mechanical|Company: Autodesk, Inc."
 90
    33792
280
     0
281
     0
  0
CLASS
  1
ACMWELDSTANDARDANSI
  2
AcmWeldingStdANSI
  3
"Amdt_StdImp|Product Description: AutoCAD Mechanical|Company: Autodesk, Inc."
 90
    33792
280
     0
281
     0
  0
CLASS
  1
ACMIDSTANDARDANSI
  2
AcmIdStdANSI
  3
"Amdt_StdImp|Product Description: AutoCAD Mechanical|Company: Autodesk, Inc."
 90
    33792
280
     0
281
     0
  0
CLASS
  1
ACMDATUMSTANDARDANSI
  2
AcmDatumStdANSI
  3
"Amdt_StdImp|Product Description: AutoCAD Mechanical|Company: Autodesk, Inc."
 90
    33792
280
     0
281
     0
  0
CLASS
  1
ACMBOMSTANDARDANSI
  2
AcmBOMStdANSI
  3
"Amdt_StdImp|Product Description: AutoCAD Mechanical|Company: Autodesk, Inc."
 90
    33792
280
     0
281
     0
  0
CLASS
  1
ACMDETAILSTANDARDANSI
  2
AmdtDetailSymStdANSI
  3
"Amdt_StdImp|Product Description: AutoCAD Mechanical|Company: Autodesk, Inc."
 90
    33792
280
     0
281
     0
  0
CLASS
  1
ACMSECTIONSTANDARDANSI
  2
AmdtSectionSymStdANSI
  3
"Amdt_StdImp|Product Description: AutoCAD Mechanical|Company: Autodesk, Inc."
 90
    33792
280
     0
281
     0
  0
CLASS
  1
ACMCENTERLINESTANDARDANSI
  2
AmdtCenterLineStdANSI
  3
"Amdt_StdImp|Product Description: AutoCAD Mechanical|Company: Autodesk, Inc."
 90
    33792
280
     0
281
     0
  0
CLASS
  1
ACMTHREADLINESTANDARDANSI
  2
AmdtThreadLineStdANSI
  3
"Amdt_StdImp|Product Description: AutoCAD Mechanical|Company: Autodesk, Inc."
 90
    33792
280
     0
281
     0
  0
CLASS
  1
ACMNOTESTANDARDANSI
  2
AmdtNoteStdANSI
  3
"Amdt_StdImp|Product Description: AutoCAD Mechanical|Company: Autodesk, Inc."
 90
    33792
280
     0
281
     0
  0
CLASS
  1
ACMTAPERSTANDARDANSI
  2
AcmTaperStdANSI
  3
"Amdt_StdImp|Product Description: AutoCAD Mechanical|Company: Autodesk, Inc."
 90
    33792
280
     0
281
     0
  0
CLASS
  1
ACMANOOTATIONVIEWSTANDARDANSI
  2
AmdtAnViewStdANSI
  3
"Amdt_StdImp|Product Description: AutoCAD Mechanical|Company: Autodesk, Inc."
 90
    33792
280
     0
281
     0
  0
CLASS
  1
ACAMGLAYSTD
  2
AcAmgLayStd
  3
"AmgLay|Product Description: AutoCAD Mechanical|Company: Autodesk, Inc."
 90
    33792
280
     0
281
     0
  0
CLASS
  1
ACAMGDIMSTD
  2
AcAmgDimStd
  3
"AmgDim|Product Description: AutoCAD Mechanical|Company: Autodesk, Inc."
 90
    33792
280
     0
281
     0
  0
CLASS
  1
AMGOBJPROPCFG
  2
AmgObjPropCfg
  3
"AmgLay|Product Description: AutoCAD Mechanical|Company: Autodesk, Inc."
 90
    33793
280
     0
281
     0
  0
CLASS
  1
ACAMGHOLECHARTSTDANSI
  2
AcAmgHoleChartStdANSI
  3
AmgDim|Product Description: AutoCAD Mechanical|Company: Autodesk, Inc.
 90
    33792
280
     0
281
     0
  0
CLASS
  1
ACAMGTITLESTD
  2
AcAmgTitleStd
  3
"AmgTitle|Product Description: AutoCAD Mechanical|Company: Autodesk, Inc."
 90
    36863
280
     0
281
     0
  0
CLASS
  1
AMDTNOTETEMPLATEDB
  2
AmdtNoteTemplateDB
  3
AcmSymBB|Product Description: AutoCAD Mechanical|Company: Autodesk, Inc.
 90
    33792
280
     0
281
     0
  0
CLASS
  1
ACAMGFILTERDAT
  2
AcAmgFilterDat
  3
"AcadM|Product Description: AutoCAD Mechanical|Company: Autodesk, Inc."
 90
    33792
280
     0
281
     0
  0
CLASS
  1
SORTENTSTABLE
  2
AcDbSortentsTable
  3
AutoCAD 2000
 90
        0
280
     0
281
     0
  0
CLASS
  1
ACMSTANDARDJIS
  2
AcmStandardJIS
  3
"Amdt_StdImp|Product Description: AutoCAD Mechanical|Company: Autodesk, Inc."
 90
    33792
280
     0
281
     0
  0
CLASS
  1
ACMSURFSTANDARDJIS
  2
AcmSurfTextStdJIS
  3
"Amdt_StdImp|Product Description: AutoCAD Mechanical|Company: Autodesk, Inc."
 90
    33792
280
     0
281
     0
  0
CLASS
  1
ACMFCFSTANDARDJIS98
  2
AcmFCFStdJIS98
  3
"Amdt_StdImp|Product Description: AutoCAD Mechanical|Company: Autodesk, Inc."
 90
    33792
280
     0
281
     0
  0
CLASS
  1
ACMWELDSTANDARDJIS
  2
AcmWeldingStdJIS
  3
"Amdt_StdImp|Product Description: AutoCAD Mechanical|Company: Autodesk, Inc."
 90
    33792
280
     0
281
     0
  0
CLASS
  1
ACMIDSTANDARDJIS
  2
AcmIdStdJIS
  3
"Amdt_StdImp|Product Description: AutoCAD Mechanical|Company: Autodesk, Inc."
 90
    33792
280
     0
281
     0
  0
CLASS
  1
ACMDATUMSTANDARDJIS
  2
AcmDatumStdJIS
  3
"Amdt_StdImp|Product Description: AutoCAD Mechanical|Company: Autodesk, Inc."
 90
    33792
280
     0
281
     0
  0
CLASS
  1
ACMBOMSTANDARDJIS
  2
AcmBOMStdJIS
  3
"Amdt_StdImp|Product Description: AutoCAD Mechanical|Company: Autodesk, Inc."
 90
    33792
280
     0
281
     0
  0
CLASS
  1
ACMDETAILSTANDARDJIS
  2
AmdtDetailSymStdJIS
  3
"Amdt_StdImp|Product Description: AutoCAD Mechanical|Company: Autodesk, Inc."
 90
    33792
280
     0
281
     0
  0
CLASS
  1
ACMSECTIONSTANDARDJIS
  2
AmdtSectionSymStdJIS
  3
"Amdt_StdImp|Product Description: AutoCAD Mechanical|Company: Autodesk, Inc."
 90
    33792
280
     0
281
     0
  0
CLASS
  1
ACMCENTERLINESTANDARDJIS
  2
AmdtCenterLineStdJIS
  3
"Amdt_StdImp|Product Description: AutoCAD Mechanical|Company: Autodesk, Inc."
 90
    33792
280
     0
281
     0
  0
CLASS
  1
ACMNOTESTANDARDJIS
  2
AmdtNoteStdJIS
  3
"Amdt_StdImp|Product Description: AutoCAD Mechanical|Company: Autodesk, Inc."
 90
    33792
280
     0
281
     0
  0
CLASS
  1
ACAMGHOLECHARTSTDJIS
  2
AcAmgHoleChartStdJIS
  3
AmgDim|Product Description: AutoCAD Mechanical|Company: Autodesk, Inc.
 90
    33792
280
     0
281
     0
  0
CLASS
  1
ACMTHREADLINESTANDARDJIS
  2
AmdtThreadLineStdJIS
  3
"Amdt_StdImp|Product Description: AutoCAD Mechanical|Company: Autodesk, Inc."
 90
    33792
280
     0
281
     0
  0
CLASS
  1
ACMTAPERSTANDARDJIS
  2
AcmTaperStdJIS
  3
"Amdt_StdImp|Product Description: AutoCAD Mechanical|Company: Autodesk, Inc."
 90
    33792
280
     0
281
     0
  0
CLASS
  1
ACMANOOTATIONVIEWSTANDARDJIS
  2
AmdtAnViewStdJIS
  3
"Amdt_StdImp|Product Description: AutoCAD Mechanical|Company: Autodesk, Inc."
 90
    33792
280
     0
281
     0
  0
CLASS
  1
AMDTEDGESTANDARDJIS
  2
AmdtEdgeStdJIS
  3
"Amdt_StdImp|Product Description: AutoCAD Mechanical|Company: Autodesk, Inc."
 90
    33792
280
     0
281
     0
  0
CLASS
  1
ACMDATAENTRYBLOCK
  2
AcmDataEntryBlock
  3
AcmSymBB|Product Description: AutoCAD Mechanical|Company: Autodesk, Inc.
 90
    33792
280
     0
281
     0
  0
CLASS
  1
CELLSTYLEMAP
  2
AcDbCellStyleMap
  3
ObjectDBX Classes
 90
     1152
280
     0
281
     0
  0
CLASS
  1
ACAD_PROXY_OBJECT_WRAPPER
  2
AcDbProxyObjectWrapper
  3
AutoCAD 2000
 90
    32768
280
     0
281
     0
  0
CLASS
  1
LONG_TRANSACTION
  2
AcDbLongTransaction
  3
AutoCAD 2000
 90
    32768
280
     0
281
     0
  0
CLASS
  1
LWPOLYLINE
  2
AcDbPolyline
  3
AutoCAD 2000
 90
    32768
280
     0
281
     1
  0
CLASS
  1
HATCH
  2
AcDbHatch
  3
AutoCAD 2000
 90
    32768
280
     0
281
     1
  0
CLASS
  1
XRECORD
  2
AcDbXrecord
  3
AutoCAD 2000
 90
    32768
280
     0
281
     0
  0
ENDSEC
  0
SECTION
  2
TABLES
  0
TABLE
  2
VPORT
  5
20C8
102
{ACAD_XDICTIONARY
360
2574
102
}
330
0
100
AcDbSymbolTable
 70
     2
  0
VPORT
  5
2839
330
20C8
100
AcDbSymbolTableRecord
100
AcDbViewportTableRecord
  2
*Active
 70
     0
 10
0.0
 20
0.0
 11
1.0
 21
1.0
 12
312.362780878085
 22
389.8251959213498
 13
0.0
 23
0.0
 14
1.0
 24
1.0
 15
0.0
 25
0.0
 16
0.0
 26
0.0
 36
1.0
 17
0.0
 27
0.0
 37
0.0
 40
641.2694783614218
 41
1.592161016949152
 42
50.0
 43
0.0
 44
0.0
 50
0.0
 51
0.0
 71
     0
 72
   100
 73
     1
 74
     3
 75
     0
 76
     0
 77
     0
 78
     0
281
     0
 65
     1
110
0.0
120
0.0
130
0.0
111
1.0
121
0.0
131
0.0
112
0.0
122
1.0
132
0.0
 79
     0
146
0.0
  0
ENDTAB
  0
TABLE
  2
LTYPE
  5
20C5
330
0
100
AcDbSymbolTable
 70
     2
  0
LTYPE
  5
20D3
330
20C5
100
AcDbSymbolTableRecord
100
AcDbLinetypeTableRecord
  2
ByBlock
 70
     0
  3

 72
    65
 73
     0
 40
0.0
  0
LTYPE
  5
20D4
330
20C5
100
AcDbSymbolTableRecord
100
AcDbLinetypeTableRecord
  2
ByLayer
 70
     0
  3

 72
    65
 73
     0
 40
0.0
  0
LTYPE
  5
20D5
330
20C5
100
AcDbSymbolTableRecord
100
AcDbLinetypeTableRecord
  2
CONTINUOUS
 70
     0
  3
Solid line
 72
    65
 73
     0
 40
0.0
  0
LTYPE
  5
281D
330
20C5
100
AcDbSymbolTableRecord
100
AcDbLinetypeTableRecord
  2
CENTER
 70
     0
  3
__ . __
 72
    65
 73
     4
 40
7.0
 49
4.0
 74
     0
 49
-1.0
 74
     0
 49
1.0
 74
     0
 49
-1.0
 74
     0
  0
ENDTAB
  0
TABLE
  2
LAYER
  5
20C2
102
{ACAD_XDICTIONARY
360
281E
102
}
330
0
100
AcDbSymbolTable
 70
     1
  0
LAYER
  5
20D0
102
{ACAD_XDICTIONARY
360
2569
102
}
330
20C2
100
AcDbSymbolTableRecord
100
AcDbLayerTableRecord
  2
0
 70
     0
 62
     7
  6
CONTINUOUS
370
    -3
390
20CF
  0
ENDTAB
  0
TABLE
  2
STYLE
  5
20C3
330
0
100
AcDbSymbolTable
 70
     1
  0
STYLE
  5
20D1
330
20C3
100
AcDbSymbolTableRecord
100
AcDbTextStyleTableRecord
  2
STANDARD
 70
     0
 40
0.0
 41
1.0
 50
0.0
 71
     0
 42
0.2
  3
txt
  4
BIGFONT
  0
ENDTAB
  0
TABLE
  2
VIEW
  5
20C6
330
0
100
AcDbSymbolTable
 70
     1
  0
VIEW
  5
20F1
102
{ACAD_XDICTIONARY
360
27C2
102
}
330
20C6
100
AcDbSymbolTableRecord
100
AcDbViewTableRecord
  2
OLE1
 70
     0
 40
3692.141019219747
 10
1914.591370701856
 20
1272.206200738182
 41
4595.022665841169
 11
0.0
 21
0.0
 31
1.0
 12
0.0
 22
0.0
 32
0.0
 42
50.0
 43
0.0
 44
0.0
 50
0.0
 71
     0
281
     0
 72
     1
110
0.0
120
0.0
130
0.0
111
1.0
121
0.0
131
0.0
112
0.0
122
1.0
132
0.0
 79
     0
146
0.0
  0
ENDTAB
  0
TABLE
  2
UCS
  5
20C7
330
0
100
AcDbSymbolTable
 70
     0
  0
ENDTAB
  0
TABLE
  2
APPID
  5
20C9
330
0
100
AcDbSymbolTable
 70
    26
  0
APPID
  5
20D2
330
20C9
100
AcDbSymbolTableRecord
100
AcDbRegAppTableRecord
  2
ACAD
 70
     0
  0
APPID
  5
20F2
330
20C9
100
AcDbSymbolTableRecord
100
AcDbRegAppTableRecord
  2
MCAD_NO_VIS
 70
     0
  0
APPID
  5
20F3
330
20C9
100
AcDbSymbolTableRecord
100
AcDbRegAppTableRecord
  2
ACAD_TEMP_GRAPHIC
 70
     0
  0
APPID
  5
20F4
330
20C9
100
AcDbSymbolTableRecord
100
AcDbRegAppTableRecord
  2
ACATTRIBSERVICES
 70
     0
  0
APPID
  5
21A0
330
20C9
100
AcDbSymbolTableRecord
100
AcDbRegAppTableRecord
  2
ACAD_MLEADERVER
 70
     0
  0
APPID
  5
21DB
330
20C9
100
AcDbSymbolTableRecord
100
AcDbRegAppTableRecord
  2
AD_DRAW
 70
     0
  0
APPID
  5
21FE
330
20C9
100
AcDbSymbolTableRecord
100
AcDbRegAppTableRecord
  2
DESIGNERASSEMBLIES
 70
     0
  0
APPID
  5
2204
330
20C9
100
AcDbSymbolTableRecord
100
AcDbRegAppTableRecord
  2
ACADM_DIM_EDIT
 70
     0
  0
APPID
  5
2205
330
20C9
100
AcDbSymbolTableRecord
100
AcDbRegAppTableRecord
  2
AMDT_DM_ADJ
 70
     0
  0
APPID
  5
2264
330
20C9
100
AcDbSymbolTableRecord
100
AcDbRegAppTableRecord
  2
ACAD_DSTYLE_DIMJOGGED_JOGANGLE_SYMBOL
 70
     0
  0
APPID
  5
2265
330
20C9
100
AcDbSymbolTableRecord
100
AcDbRegAppTableRecord
  2
ACAD_DSTYLE_DIMJAG
 70
     0
  0
APPID
  5
2266
330
20C9
100
AcDbSymbolTableRecord
100
AcDbRegAppTableRecord
  2
ACAD_DSTYLE_DIMTALN
 70
     0
  0
APPID
  5
2267
330
20C9
100
AcDbSymbolTableRecord
100
AcDbRegAppTableRecord
  2
ACAD_PSEXT
 70
     0
  0
APPID
  5
2580
330
20C9
100
AcDbSymbolTableRecord
100
AcDbRegAppTableRecord
  2
ACAD_DSTYLE_DIMARC_LENGTH_SYMBOL
 70
     0
  0
APPID
  5
2581
330
20C9
100
AcDbSymbolTableRecord
100
AcDbRegAppTableRecord
  2
ACAD_DSTYLE_DIM_LINETYPE
 70
     0
  0
APPID
  5
2582
330
20C9
100
AcDbSymbolTableRecord
100
AcDbRegAppTableRecord
  2
ACAD_DSTYLE_DIM_EXT1_LINETYPE
 70
     0
  0
APPID
  5
2583
330
20C9
100
AcDbSymbolTableRecord
100
AcDbRegAppTableRecord
  2
ACAD_DSTYLE_DIM_EXT2_LINETYPE
 70
     0
  0
APPID
  5
2715
330
20C9
100
AcDbSymbolTableRecord
100
AcDbRegAppTableRecord
  2
ACAD_EXEMPT_FROM_CAD_STANDARDS
 70
     0
  0
APPID
  5
27AA
330
20C9
100
AcDbSymbolTableRecord
100
AcDbRegAppTableRecord
  2
AcadAnnotative
 70
     0
  0
APPID
  5
27AB
330
20C9
100
AcDbSymbolTableRecord
100
AcDbRegAppTableRecord
  2
GENIUS_GENODEF_13
 70
     0
  0
APPID
  5
27AC
330
20C9
100
AcDbSymbolTableRecord
100
AcDbRegAppTableRecord
  2
GENIUS_GENOBJ-N-FIL_13
 70
     0
  0
APPID
  5
27AD
330
20C9
100
AcDbSymbolTableRecord
100
AcDbRegAppTableRecord
  2
GENIUS_GENOBJ-N-CEN_13
 70
     0
  0
APPID
  5
27AE
330
20C9
100
AcDbSymbolTableRecord
100
AcDbRegAppTableRecord
  2
GENIUS_GENCEN_19
 70
     0
  0
APPID
  5
27AF
330
20C9
100
AcDbSymbolTableRecord
100
AcDbRegAppTableRecord
  2
GENIUS_GENSCREG_15
 70
     0
  0
APPID
  5
27B0
330
20C9
100
AcDbSymbolTableRecord
100
AcDbRegAppTableRecord
  2
GENIUS_GENOBJ-N-SDF_13
 70
     0
  0
APPID
  5
27B1
330
20C9
100
AcDbSymbolTableRecord
100
AcDbRegAppTableRecord
  2
AcAecLayerStandard
 70
     0
  0
ENDTAB
  0
TABLE
  2
DIMSTYLE
  5
20CA
330
0
100
AcDbSymbolTable
 70
     1
100
AcDbDimStyleTable
 71
     1
340
27A8
  0
DIMSTYLE
105
27A8
330
20CA
100
AcDbSymbolTableRecord
100
AcDbDimStyleTableRecord
  2
Standard
 70
     0
340
20D1
  0
ENDTAB
  0
TABLE
  2
BLOCK_RECORD
  5
20C1
330
0
100
AcDbSymbolTable
 70
     0
  0
BLOCK_RECORD
  5
20DE
102
{ACAD_XDICTIONARY
360
210A
102
}
330
20C1
100
AcDbSymbolTableRecord
100
AcDbBlockTableRecord
  2
*Model_Space
340
20E1
  0
BLOCK_RECORD
  5
20DA
102
{ACAD_XDICTIONARY
360
210C
102
}
330
20C1
100
AcDbSymbolTableRecord
100
AcDbBlockTableRecord
  2
*Paper_Space
340
20DD
  0
ENDTAB
  0
ENDSEC
  0
SECTION
  2
BLOCKS
  0
BLOCK
  5
20DF
330
20DE
100
AcDbEntity
  8
0
100
AcDbBlockBegin
  2
*Model_Space
 70
     0
 10
0.0
 20
0.0
 30
0.0
  3
*Model_Space
  1

  0
ENDBLK
  5
20E0
330
20DE
100
AcDbEntity
  8
0
100
AcDbBlockEnd
  0
BLOCK
  5
20DB
330
20DA
100
AcDbEntity
 67
     1
  8
0
100
AcDbBlockBegin
  2
*Paper_Space
 70
     0
 10
0.0
 20
0.0
 30
0.0
  3
*Paper_Space
  1

  0
ENDBLK
  5
20DC
330
20DA
100
AcDbEntity
 67
     1
  8
0
100
AcDbBlockEnd
  0
ENDSEC
  0
SECTION
  2
ENTITIES
  0
TEXT
  5
F6E
330
20DE
100
AcDbEntity
  8
0
  6
Continuous
100
AcDbText
 10
-87.09252320671748
 20
660.4045671978927
 30
0.0
 40
48.000002
  1
BVP__T20J10 1S
 41
1.32095
100
AcDbText
  0
LINE
  5
F8F
330
20DE
100
AcDbEntity
  8
0
  6
Continuous
100
AcDbLine
 10
440.0
 20
198.0864757101679
 30
0.0
 11
440.0
 21
149.0864657101681
 31
0.0
  0
LINE
  5
F90
330
20DE
100
AcDbEntity
  8
0
  6
Continuous
100
AcDbLine
 10
360.0
 20
149.0864657101681
 30
0.0
 11
440.0
 21
149.0864657101681
 31
0.0
  0
LINE
  5
F91
330
20DE
100
AcDbEntity
  8
0
  6
Continuous
100
AcDbLine
 10
360.0
 20
198.0864757101679
 30
0.0
 11
360.0
 21
149.0864657101681
 31
0.0
  0
LINE
  5
F92
330
20DE
100
AcDbEntity
  8
0
  6
Continuous
100
AcDbLine
 10
360.0
 20
198.0864757101679
 30
0.0
 11
440.0
 21
198.0864757101679
 31
0.0
  0
LINE
  5
F93
330
20DE
100
AcDbEntity
  8
0
  6
Continuous
100
AcDbLine
 10
413.0000309999999
 20
153.5864677101681
 30
0.0
 11
413.0000309999999
 21
193.586467710168
 31
0.0
  0
LINE
  5
F94
330
20DE
100
AcDbEntity
  8
0
  6
Continuous
100
AcDbLine
 10
386.9999689999999
 20
153.5864677101681
 30
0.0
 11
386.9999689999999
 21
193.586467710168
 31
0.0
  0
LINE
  5
F95
330
20DE
100
AcDbEntity
  8
0
  6
Continuous
100
AcDbLine
 10
364.4999689999999
 20
193.586467710168
 30
0.0
 11
435.500031
 21
193.586467710168
 31
0.0
  0
LINE
  5
F96
330
20DE
100
AcDbEntity
  8
0
  6
Continuous
100
AcDbLine
 10
364.4999689999999
 20
193.586467710168
 30
0.0
 11
364.4999689999999
 21
153.5864677101681
 31
0.0
  0
LINE
  5
F97
330
20DE
100
AcDbEntity
  8
0
  6
Continuous
100
AcDbLine
 10
364.4999689999999
 20
153.5864677101681
 30
0.0
 11
435.500031
 21
153.5864677101681
 31
0.0
  0
LINE
  5
F98
330
20DE
100
AcDbEntity
  8
0
  6
Continuous
100
AcDbLine
 10
435.500031
 20
193.586467710168
 30
0.0
 11
435.500031
 21
153.5864677101681
 31
0.0
  0
ARC
  5
F99
330
20DE
100
AcDbEntity
  8
0
  6
Continuous
100
AcDbCircle
 10
400.0
 20
119.086467710168
 30
0.0
 40
37.0
100
AcDbArc
 50
125.8247800000005
 51
54.17521299999626
  0
LINE
  5
FF1
330
20DE
100
AcDbEntity
  8
0
  6
Continuous
100
AcDbLine
 10
215.999985
 20
82.08645971016812
 30
0.0
 11
184.0000149999999
 21
82.08645971016812
 31
0.0
  0
LINE
  5
FF2
330
20DE
100
AcDbEntity
  8
0
  6
Continuous
100
AcDbLine
 10
184.0000149999999
 20
82.08645971016812
 30
0.0
 11
184.0000149999999
 21
149.0864677101681
 31
0.0
  0
LINE
  5
FF3
330
20DE
100
AcDbEntity
  8
0
  6
Continuous
100
AcDbLine
 10
215.999985
 20
82.08645971016812
 30
0.0
 11
215.999985
 21
149.0864677101681
 31
0.0
  0
LINE
  5
FF4
330
20DE
100
AcDbEntity
  8
0
  6
Continuous
100
AcDbLine
 10
218.908081
 20
149.0864677101681
 30
0.0
 11
181.0919189999999
 21
149.0864677101681
 31
0.0
  0
LINE
  5
FF5
330
20DE
100
AcDbEntity
  8
0
  6
Continuous
100
AcDbLine
 10
167.999992
 20
198.086482710168
 30
0.0
 11
167.999992
 21
185.0561637101681
 31
0.0
  0
LINE
  5
FF6
330
20DE
100
AcDbEntity
  8
0
  6
Continuous
100
AcDbLine
 10
168.0000079999998
 20
185.0562087101679
 30
0.0
 11
181.0919229999998
 21
149.0864687101681
 31
0.0
  0
LINE
  5
FF7
330
20DE
100
AcDbEntity
  8
0
  6
Continuous
100
AcDbLine
 10
232.0000159999999
 20
185.0562167101682
 30
0.0
 11
218.9081019999999
 21
149.0864797101679
 31
0.0
  0
LINE
  5
FF8
330
20DE
100
AcDbEntity
  8
0
  6
Continuous
100
AcDbLine
 10
232.0000079999998
 20
198.086482710168
 30
0.0
 11
232.0000079999998
 21
185.0561637101681
 31
0.0
  0
LINE
  5
FFB
330
20DE
100
AcDbEntity
  8
0
  6
Continuous
100
AcDbLine
 10
231.500004
 20
198.086482710168
 30
0.0
 11
168.499996
 21
198.086482710168
 31
0.0
  0
LINE
  5
15EB
330
20DE
100
AcDbEntity
  8
0
  6
Continuous
100
AcDbLine
 10
168.5
 20
198.086482710168
 30
0.0
 11
231.4999999999999
 21
198.086482710168
 31
0.0
  0
LINE
  5
160B
330
20DE
100
AcDbEntity
  8
0
  6
Continuous
100
AcDbLine
 10
368.5000000000001
 20
198.0864757101679
 30
0.0
 11
431.5000000000002
 21
198.0864757101679
 31
0.0
  0
LINE
  5
1D03
330
20DE
100
AcDbEntity
  8
0
  6
Continuous
100
AcDbLine
 10
240.0
 20
93.8364677101681
 30
0.0
 11
237.1500000999998
 21
93.8364677101681
 31
0.0
  0
LINE
  5
1D04
330
20DE
100
AcDbEntity
  8
0
  6
Continuous
100
AcDbLine
 10
237.1500002999999
 20
93.8364677101681
 30
0.0
 11
232.5821734999999
 21
106.3864677101679
 31
0.0
  0
LINE
  5
1D05
330
20DE
100
AcDbEntity
  8
0
  6
Continuous
100
AcDbLine
 10
232.5821733
 20
106.3864677101679
 30
0.0
 11
215.999985
 21
106.3864677101679
 31
0.0
  0
LINE
  5
1D06
330
20DE
100
AcDbEntity
  8
0
  6
Continuous
100
AcDbLine
 10
240.0
 20
144.3364677101681
 30
0.0
 11
240.0
 21
93.8364677101681
 31
0.0
  0
LINE
  5
1D07
330
20DE
100
AcDbEntity
  8
0
  6
Continuous
100
AcDbLine
 10
232.5821733
 20
131.7864677101681
 30
0.0
 11
215.999985
 21
131.7864677101681
 31
0.0
  0
LINE
  5
1D08
330
20DE
100
AcDbEntity
  8
0
  6
Continuous
100
AcDbLine
 10
237.1500002999999
 20
144.3364677101681
 30
0.0
 11
232.5821734999999
 21
131.7864677101681
 31
0.0
  0
LINE
  5
1D09
330
20DE
100
AcDbEntity
  8
0
  6
Continuous
100
AcDbLine
 10
240.0
 20
144.3364677101681
 30
0.0
 11
237.1500000999998
 21
144.3364677101681
 31
0.0
  0
LINE
  5
1D0B
330
20DE
100
AcDbEntity
  8
0
  6
Continuous
100
AcDbLine
 10
232.5821733
 20
106.3864677101679
 30
0.0
 11
232.5821733
 21
131.7864677101681
 31
0.0
  0
LINE
  5
1D0E
330
20DE
100
AcDbEntity
  8
0
  6
Continuous
100
AcDbLine
 10
160.0
 20
144.3364677101681
 30
0.0
 11
162.8499998999998
 21
144.3364677101681
 31
0.0
  0
LINE
  5
1D0F
330
20DE
100
AcDbEntity
  8
0
  6
Continuous
100
AcDbLine
 10
162.8499997
 20
144.3364677101681
 30
0.0
 11
167.4178264999999
 21
131.7864677101681
 31
0.0
  0
LINE
  5
1D10
330
20DE
100
AcDbEntity
  8
0
  6
Continuous
100
AcDbLine
 10
167.4178266999998
 20
131.7864677101681
 30
0.0
 11
184.0000149999999
 21
131.7864677101681
 31
0.0
  0
LINE
  5
1D11
330
20DE
100
AcDbEntity
  8
0
  6
Continuous
100
AcDbLine
 10
160.0
 20
93.8364677101681
 30
0.0
 11
160.0
 21
144.3364677101681
 31
0.0
  0
LINE
  5
1D12
330
20DE
100
AcDbEntity
  8
0
  6
Continuous
100
AcDbLine
 10
167.4178266999998
 20
106.3864677101679
 30
0.0
 11
184.0000149999999
 21
106.3864677101679
 31
0.0
  0
LINE
  5
1D13
330
20DE
100
AcDbEntity
  8
0
  6
Continuous
100
AcDbLine
 10
162.8499997
 20
93.8364677101681
 30
0.0
 11
167.4178264999999
 21
106.3864677101679
 31
0.0
  0
LINE
  5
1D14
330
20DE
100
AcDbEntity
  8
0
  6
Continuous
100
AcDbLine
 10
160.0
 20
93.8364677101681
 30
0.0
 11
162.8499998999998
 21
93.8364677101681
 31
0.0
  0
LINE
  5
1D16
330
20DE
100
AcDbEntity
  8
0
  6
Continuous
100
AcDbLine
 10
167.4178266999998
 20
131.7864677101681
 30
0.0
 11
167.4178266999998
 21
106.3864677101679
 31
0.0
  0
CIRCLE
  5
1D5A
330
20DE
100
AcDbEntity
  8
0
  6
Continuous
100
AcDbCircle
 10
400.0
 20
119.086467710168
 30
0.0
 40
25.25
  0
CIRCLE
  5
1D5B
330
20DE
100
AcDbEntity
  8
0
  6
Continuous
100
AcDbCircle
 10
400.0
 20
119.086467710168
 30
0.0
 40
12.6999994505047
  0
LINE
  5
23DF
330
20DE
100
AcDbEntity
  8
0
  6
Continuous
100
AcDbLine
 10
126.0
 20
198.086482710168
 30
0.0
 11
256.0
 21
198.086482710168
 31
0.0
  0
LINE
  5
23E0
330
20DE
100
AcDbEntity
  8
0
  6
Continuous
100
AcDbLine
 10
126.0
 20
276.086482710168
 30
0.0
 11
256.0
 21
276.086482710168
 31
0.0
  0
LINE
  5
23E1
330
20DE
100
AcDbEntity
  8
0
  6
Continuous
100
AcDbLine
 10
252.4999999999999
 20
276.086482710168
 30
0.0
 11
252.4999999999999
 21
198.086482710168
 31
0.0
  0
LINE
  5
23E2
330
20DE
100
AcDbEntity
  8
0
  6
Continuous
100
AcDbLine
 10
129.4999999999999
 20
276.086482710168
 30
0.0
 11
129.4999999999999
 21
198.086482710168
 31
0.0
  0
LINE
  5
23E3
330
20DE
100
AcDbEntity
  8
0
  6
Continuous
100
AcDbLine
 10
125.0
 20
275.086482710168
 30
0.0
 11
125.0
 21
199.086482710168
 31
0.0
  0
LINE
  5
23E4
330
20DE
100
AcDbEntity
  8
0
  6
Continuous
100
AcDbLine
 10
257.0
 20
275.086482710168
 30
0.0
 11
257.0
 21
199.086482710168
 31
0.0
  0
LINE
  5
23E5
330
20DE
100
AcDbEntity
  8
0
  6
Continuous
100
AcDbLine
 10
118.3999023437499
 20
243.586482710168
 30
0.0
 11
118.3999023437499
 21
230.5863301222774
 31
0.0
  0
LINE
  5
23E6
330
20DE
100
AcDbEntity
  8
0
  6
Continuous
100
AcDbLine
 10
118.97998046875
 20
244.591853803918
 30
0.0
 11
122.8193359375
 21
244.591853803918
 31
0.0
  0
LINE
  5
23E7
330
20DE
100
AcDbEntity
  8
0
  6
Continuous
100
AcDbLine
 10
118.98046875
 20
240.839412397668
 30
0.0
 11
122.8191059621867
 21
240.839412397668
 31
0.0
  0
LINE
  5
23E8
330
20DE
100
AcDbEntity
  8
0
  6
Continuous
100
AcDbLine
 10
118.3995654235377
 20
243.5864398395841
 30
0.0
 11
118.9801318297877
 21
244.592010334329
 31
0.0
  0
LINE
  5
23E9
330
20DE
100
AcDbEntity
  8
0
  6
Continuous
100
AcDbLine
 10
122.8193359375
 20
229.5809590285274
 30
0.0
 11
118.97998046875
 21
229.5809590285274
 31
0.0
  0
LINE
  5
23EA
330
20DE
100
AcDbEntity
  8
0
  6
Continuous
100
AcDbLine
 10
122.8191268467107
 20
233.3336445754024
 30
0.0
 11
118.98046875
 21
233.3336445754024
 31
0.0
  0
ARC
  5
23EB
330
20DE
100
AcDbEntity
  8
0
  6
Continuous
100
AcDbCircle
 10
121.72265625
 20
231.4572102492305
 30
0.0
 40
3.322566986083984
100
AcDbArc
 50
145.6156973218508
 51
180.0
  0
ARC
  5
23EC
330
20DE
100
AcDbEntity
  8
0
  6
Continuous
100
AcDbCircle
 10
130.8193359374999
 20
237.086482710168
 30
0.0
 40
12.41944122314453
100
AcDbArc
 50
162.4120613966366
 51
197.5879727543064
  0
LINE
  5
23ED
330
20DE
100
AcDbEntity
  8
0
  6
Continuous
100
AcDbLine
 10
118.3999023437499
 20
241.086482710168
 30
0.0
 11
112.9995193481445
 21
241.086482710168
 31
0.0
  0
LINE
  5
23EE
330
20DE
100
AcDbEntity
  8
0
  6
Continuous
100
AcDbLine
 10
118.3999023437499
 20
240.286678022668
 30
0.0
 11
112.9995193481445
 21
240.286678022668
 31
0.0
  0
LINE
  5
23EF
330
20DE
100
AcDbEntity
  8
0
  6
Continuous
100
AcDbLine
 10
118.3999023437499
 20
233.8864094679805
 30
0.0
 11
112.9995193481445
 21
233.8864094679805
 31
0.0
  0
LINE
  5
23F0
330
20DE
100
AcDbEntity
  8
0
  6
Continuous
100
AcDbLine
 10
118.3999023437499
 20
233.0863606398555
 30
0.0
 11
112.9995193481445
 21
233.0863606398555
 31
0.0
  0
LINE
  5
23F1
330
20DE
100
AcDbEntity
  8
0
  6
Continuous
100
AcDbLine
 10
125.0
 20
245.086482710168
 30
0.0
 11
123.39990234375
 21
245.086482710168
 31
0.0
  0
LINE
  5
23F2
330
20DE
100
AcDbEntity
  8
0
  6
Continuous
100
AcDbLine
 10
125.0
 20
229.0863606398555
 30
0.0
 11
123.39990234375
 21
229.0863606398555
 31
0.0
  0
LINE
  5
23F3
330
20DE
100
AcDbEntity
  8
0
  6
Continuous
100
AcDbLine
 10
118.3994687751983
 20
230.5862991741677
 30
0.0
 11
118.9800351814483
 21
229.5807286794232
 31
0.0
  0
ARC
  5
23F4
330
20DE
100
AcDbEntity
  8
0
  6
Continuous
100
AcDbCircle
 10
121.72265625
 20
242.715877241418
 30
0.0
 40
3.322566986083984
100
AcDbArc
 50
180.0
 51
214.3843026781491
  0
LINE
  5
23F5
330
20DE
100
AcDbEntity
  8
0
  6
Continuous
100
AcDbLine
 10
123.3994140625
 20
229.0863606398555
 30
0.0
 11
123.3994140625
 21
245.086482710168
 31
0.0
  0
LINE
  5
23F6
330
20DE
100
AcDbEntity
  8
0
  6
Continuous
100
AcDbLine
 10
123.3998486026257
 20
243.5865196407025
 30
0.0
 11
122.8192974551657
 21
244.592063706449
 31
0.0
  0
ARC
  5
23F7
330
20DE
100
AcDbEntity
  8
0
  6
Continuous
100
AcDbCircle
 10
120.0771484374999
 20
231.4572102492305
 30
0.0
 40
3.322566986083984
100
AcDbArc
 50
359.9999813306712
 51
34.38523817737053
  0
LINE
  5
23F8
330
20DE
100
AcDbEntity
  8
0
  6
Continuous
100
AcDbLine
 10
123.3998812227619
 20
230.5862915784154
 30
0.0
 11
122.8193148165119
 21
229.5807210836709
 31
0.0
  0
ARC
  5
23F9
330
20DE
100
AcDbEntity
  8
0
  6
Continuous
100
AcDbCircle
 10
120.0771484374999
 20
242.715877241418
 30
0.0
 40
3.322566986083984
100
AcDbArc
 50
325.6141241315667
 51
0.0000359721845887
  0
LINE
  5
23FA
330
20DE
100
AcDbEntity
  8
0
  6
Continuous
100
AcDbLine
 10
112.9995193481445
 20
229.5809590285274
 30
0.0
 11
112.9995193481445
 21
244.591853803918
 31
0.0
  0
LINE
  5
23FB
330
20DE
100
AcDbEntity
  8
0
  6
Continuous
100
AcDbLine
 10
112.9995193481445
 20
229.5809590285274
 30
0.0
 11
108.5800857543945
 21
229.5809590285274
 31
0.0
  0
LINE
  5
23FC
330
20DE
100
AcDbEntity
  8
0
  6
Continuous
100
AcDbLine
 10
107.9995740608437
 20
230.5862991741672
 30
0.0
 11
108.5801404670937
 21
229.5807286794232
 31
0.0
  0
ARC
  5
23FD
330
20DE
100
AcDbEntity
  8
0
  6
Continuous
100
AcDbCircle
 10
111.3227615356445
 20
231.4572102492305
 30
0.0
 40
3.322566986083984
100
AcDbArc
 50
145.6156973218508
 51
180.0
  0
LINE
  5
23FE
330
20DE
100
AcDbEntity
  8
0
  6
Continuous
100
AcDbLine
 10
112.9995193481445
 20
233.3336445754024
 30
0.0
 11
108.5805740356445
 21
233.3336445754024
 31
0.0
  0
LINE
  5
23FF
330
20DE
100
AcDbEntity
  8
0
  6
Continuous
100
AcDbLine
 10
108.5805740356445
 20
240.839412397668
 30
0.0
 11
112.9995193481445
 21
240.839412397668
 31
0.0
  0
LINE
  5
2400
330
20DE
100
AcDbEntity
  8
0
  6
Continuous
100
AcDbLine
 10
108.5800857543945
 20
244.591853803918
 30
0.0
 11
112.9995193481445
 21
244.591853803918
 31
0.0
  0
LINE
  5
2401
330
20DE
100
AcDbEntity
  8
0
  6
Continuous
100
AcDbLine
 10
107.9996707091831
 20
243.586439839585
 30
0.0
 11
108.5802371154331
 21
244.592010334329
 31
0.0
  0
ARC
  5
2402
330
20DE
100
AcDbEntity
  8
0
  6
Continuous
100
AcDbCircle
 10
111.3227615356445
 20
242.715877241418
 30
0.0
 40
3.322566986083984
100
AcDbArc
 50
180.0
 51
214.3843026781491
  0
LINE
  5
2403
330
20DE
100
AcDbEntity
  8
0
  6
Continuous
100
AcDbLine
 10
108.0000076293945
 20
243.586482710168
 30
0.0
 11
108.0000076293945
 21
230.5863301222774
 31
0.0
  0
ARC
  5
2404
330
20DE
100
AcDbEntity
  8
0
  6
Continuous
100
AcDbCircle
 10
120.4194412231445
 20
237.086482710168
 30
0.0
 40
12.41944122314453
100
AcDbArc
 50
162.4120613966366
 51
197.5879727543064
  0
LINE
  5
2405
330
20DE
100
AcDbEntity
  8
0
  6
Continuous
100
AcDbLine
 10
257.0
 20
253.7105616320212
 30
0.0
 11
125.0
 21
253.7105616320212
 31
0.0
  0
LINE
  5
2406
330
20DE
100
AcDbEntity
  8
0
  6
Continuous
100
AcDbLine
 10
257.0
 20
220.4624037883148
 30
0.0
 11
125.0
 21
220.4624037883148
 31
0.0
  0
LINE
  5
2408
330
20DE
100
AcDbEntity
  8
0
  6
Continuous
100
AcDbLine
 10
430.8000000000001
 20
274.0864757101679
 30
0.0
 11
430.8000000000001
 21
253.7105546320212
 31
0.0
  0
LINE
  5
2409
330
20DE
100
AcDbEntity
  8
0
  6
Continuous
100
AcDbLine
 10
369.1999999999998
 20
274.0864757101679
 30
0.0
 11
369.1999999999998
 21
253.7105546320212
 31
0.0
  0
LINE
  5
240A
330
20DE
100
AcDbEntity
  8
0
  6
Continuous
100
AcDbLine
 10
369.1999999999998
 20
200.0864757101679
 30
0.0
 11
369.1999999999998
 21
220.4623967883148
 31
0.0
  0
LINE
  5
240B
330
20DE
100
AcDbEntity
  8
0
  6
Continuous
100
AcDbLine
 10
430.8000000000001
 20
200.0864757101679
 30
0.0
 11
430.8000000000001
 21
220.4623967883148
 31
0.0
  0
ARC
  5
240C
330
20DE
100
AcDbEntity
  8
0
  6
Continuous
100
AcDbCircle
 10
400.0
 20
237.086475710168
 30
0.0
 40
35.0
100
AcDbArc
 50
151.6423634236744
 51
208.3576365763255
  0
ARC
  5
240D
330
20DE
100
AcDbEntity
  8
0
  6
Continuous
100
AcDbCircle
 10
400.0
 20
237.086475710168
 30
0.0
 40
35.0
100
AcDbArc
 50
331.6423634236744
 51
28.35763657632552
  0
LINE
  5
240E
330
20DE
100
AcDbEntity
  8
0
  6
Continuous
100
AcDbLine
 10
418.0
 20
276.0864757101679
 30
0.0
 11
428.8000000000002
 21
276.0864757101679
 31
0.0
  0
LINE
  5
240F
330
20DE
100
AcDbEntity
  8
0
  6
Continuous
100
AcDbLine
 10
418.0
 20
198.0864757101679
 30
0.0
 11
428.8000000000002
 21
198.0864757101679
 31
0.0
  0
ARC
  5
2410
330
20DE
100
AcDbEntity
  8
0
  6
Continuous
100
AcDbCircle
 10
428.8000000000002
 20
274.0864757101679
 30
0.0
 40
2.0
100
AcDbArc
 50
0.0
 51
90.0
  0
ARC
  5
2411
330
20DE
100
AcDbEntity
  8
0
  6
Continuous
100
AcDbCircle
 10
371.1999999999998
 20
274.0864757101679
 30
0.0
 40
2.0
100
AcDbArc
 50
90.0
 51
180.0
  0
ARC
  5
2412
330
20DE
100
AcDbEntity
  8
0
  6
Continuous
100
AcDbCircle
 10
371.1999999999998
 20
200.0864757101679
 30
0.0
 40
2.0
100
AcDbArc
 50
180.0
 51
270.0
  0
ARC
  5
2413
330
20DE
100
AcDbEntity
  8
0
  6
Continuous
100
AcDbCircle
 10
428.8000000000002
 20
200.0864757101679
 30
0.0
 40
2.0
100
AcDbArc
 50
270.0
 51
0.0
  0
LINE
  5
2414
330
20DE
100
AcDbEntity
  8
0
  6
Continuous
100
AcDbLine
 10
384.0
 20
274.0864757101679
 30
0.0
 11
416.0
 21
274.0864757101679
 31
0.0
  0
LINE
  5
2415
330
20DE
100
AcDbEntity
  8
0
  6
Continuous
100
AcDbLine
 10
384.0
 20
200.0864757101679
 30
0.0
 11
416.0
 21
200.0864757101679
 31
0.0
  0
LINE
  5
2416
330
20DE
100
AcDbEntity
  8
0
  6
Continuous
100
AcDbLine
 10
382.0
 20
198.0864757101679
 30
0.0
 11
384.0
 21
200.0864757101679
 31
0.0
  0
LINE
  5
2417
330
20DE
100
AcDbEntity
  8
0
  6
Continuous
100
AcDbLine
 10
416.0
 20
274.0864757101679
 30
0.0
 11
418.0
 21
276.0864757101679
 31
0.0
  0
LINE
  5
2418
330
20DE
100
AcDbEntity
  8
0
  6
Continuous
100
AcDbLine
 10
382.0
 20
276.0864757101679
 30
0.0
 11
384.0
 21
274.0864757101679
 31
0.0
  0
LINE
  5
2419
330
20DE
100
AcDbEntity
  8
0
  6
Continuous
100
AcDbLine
 10
416.0
 20
200.0864757101679
 30
0.0
 11
418.0
 21
198.0864757101679
 31
0.0
  0
LINE
  5
241A
330
20DE
100
AcDbEntity
  8
0
  6
Continuous
100
AcDbLine
 10
371.1999999999998
 20
198.0864757101679
 30
0.0
 11
382.0
 21
198.0864757101679
 31
0.0
  0
LINE
  5
241B
330
20DE
100
AcDbEntity
  8
0
  6
Continuous
100
AcDbLine
 10
371.1999999999998
 20
276.0864757101679
 30
0.0
 11
382.0
 21
276.0864757101679
 31
0.0
  0
LINE
  5
241C
330
20DE
100
AcDbEntity
  8
0
  6
Continuous
100
AcDbLine
 10
384.5
 20
276.0864757101679
 30
0.0
 11
415.5
 21
276.0864757101679
 31
0.0
  0
LINE
  5
241D
330
20DE
100
AcDbEntity
  8
0
  6
Continuous
100
AcDbLine
 10
384.5
 20
198.0864757101679
 30
0.0
 11
415.5
 21
198.0864757101679
 31
0.0
  0
LINE
  5
241E
330
20DE
100
AcDbEntity
  8
0
  6
Continuous
100
AcDbLine
 10
415.5
 20
200.0864757101679
 30
0.0
 11
415.5
 21
198.0864757101679
 31
0.0
  0
LINE
  5
241F
330
20DE
100
AcDbEntity
  8
0
  6
Continuous
100
AcDbLine
 10
384.5
 20
200.0864757101679
 30
0.0
 11
384.5
 21
198.0864757101679
 31
0.0
  0
LINE
  5
2420
330
20DE
100
AcDbEntity
  8
0
  6
Continuous
100
AcDbLine
 10
384.5
 20
276.0864757101679
 30
0.0
 11
384.5
 21
274.0864757101679
 31
0.0
  0
LINE
  5
2421
330
20DE
100
AcDbEntity
  8
0
  6
Continuous
100
AcDbLine
 10
415.5
 20
276.0864757101679
 30
0.0
 11
415.5
 21
274.0864757101679
 31
0.0
  0
ARC
  5
2422
330
20DE
100
AcDbEntity
  8
0
  6
Continuous
100
AcDbCircle
 10
126.0
 20
275.086482710168
 30
0.0
 40
1.0
100
AcDbArc
 50
90.0
 51
180.0
  0
ARC
  5
2423
330
20DE
100
AcDbEntity
  8
0
  6
Continuous
100
AcDbCircle
 10
256.0
 20
275.086482710168
 30
0.0
 40
1.0
100
AcDbArc
 50
0.0
 51
90.0
  0
ARC
  5
2424
330
20DE
100
AcDbEntity
  8
0
  6
Continuous
100
AcDbCircle
 10
256.0
 20
199.086482710168
 30
0.0
 40
1.0
100
AcDbArc
 50
270.0
 51
0.0
  0
ARC
  5
2425
330
20DE
100
AcDbEntity
  8
0
  6
Continuous
100
AcDbCircle
 10
126.0
 20
199.086482710168
 30
0.0
 40
1.0
100
AcDbArc
 50
180.0
 51
270.0
  0
ARC
  5
2426
330
20DE
100
AcDbEntity
  8
0
  6
Continuous
100
AcDbCircle
 10
110.9802596592107
 20
237.0865742629019
 30
0.0
 40
12.41944122314453
100
AcDbArc
 50
342.4120613966366
 51
17.58797275430641
  0
LINE
  5
2427
330
20DE
100
AcDbEntity
  8
0
  6
Continuous
100
AcDbLine
 10
381.0
 20
208.9732270561161
 30
0.0
 11
381.0
 21
203.1997243642198
 31
0.0
  0
LINE
  5
2428
330
20DE
100
AcDbEntity
  8
0
  6
Continuous
100
AcDbLine
 10
371.0
 20
208.9732270561161
 30
0.0
 11
371.0
 21
203.1997243642198
 31
0.0
  0
LINE
  5
2429
330
20DE
100
AcDbEntity
  8
0
  6
Continuous
100
AcDbLine
 10
376.0
 20
200.3129730182717
 30
0.0
 11
381.0
 21
203.1997243642198
 31
0.0
  0
LINE
  5
242A
330
20DE
100
AcDbEntity
  8
0
  6
Continuous
100
AcDbLine
 10
371.0
 20
208.9732270561161
 30
0.0
 11
376.0
 21
211.8599784020642
 31
0.0
  0
LINE
  5
242B
330
20DE
100
AcDbEntity
  8
0
  6
Continuous
100
AcDbLine
 10
376.0
 20
211.8599784020642
 30
0.0
 11
381.0
 21
208.9732270561161
 31
0.0
  0
LINE
  5
242C
330
20DE
100
AcDbEntity
  8
0
  6
Continuous
100
AcDbLine
 10
371.0
 20
203.1997243642198
 30
0.0
 11
376.0
 21
200.3129730182717
 31
0.0
  0
LINE
  5
242D
330
20DE
100
AcDbEntity
  8
0
  6
Continuous
100
AcDbLine
 10
381.0
 20
270.9732270561161
 30
0.0
 11
381.0
 21
265.1997243642198
 31
0.0
  0
LINE
  5
242E
330
20DE
100
AcDbEntity
  8
0
  6
Continuous
100
AcDbLine
 10
371.0
 20
270.9732270561161
 30
0.0
 11
371.0
 21
265.1997243642198
 31
0.0
  0
LINE
  5
242F
330
20DE
100
AcDbEntity
  8
0
  6
Continuous
100
AcDbLine
 10
376.0
 20
262.3129730182717
 30
0.0
 11
381.0
 21
265.1997243642198
 31
0.0
  0
LINE
  5
2430
330
20DE
100
AcDbEntity
  8
0
  6
Continuous
100
AcDbLine
 10
371.0
 20
270.9732270561161
 30
0.0
 11
376.0
 21
273.8599784020642
 31
0.0
  0
LINE
  5
2431
330
20DE
100
AcDbEntity
  8
0
  6
Continuous
100
AcDbLine
 10
376.0
 20
273.8599784020642
 30
0.0
 11
381.0
 21
270.9732270561161
 31
0.0
  0
LINE
  5
2432
330
20DE
100
AcDbEntity
  8
0
  6
Continuous
100
AcDbLine
 10
371.0
 20
265.1997243642198
 30
0.0
 11
376.0
 21
262.3129730182717
 31
0.0
  0
LINE
  5
2433
330
20DE
100
AcDbEntity
  8
0
  6
Continuous
100
AcDbLine
 10
429.0
 20
270.9732270561161
 30
0.0
 11
429.0
 21
265.1997243642198
 31
0.0
  0
LINE
  5
2434
330
20DE
100
AcDbEntity
  8
0
  6
Continuous
100
AcDbLine
 10
419.0
 20
270.9732270561161
 30
0.0
 11
419.0
 21
265.1997243642198
 31
0.0
  0
LINE
  5
2435
330
20DE
100
AcDbEntity
  8
0
  6
Continuous
100
AcDbLine
 10
424.0
 20
262.3129730182717
 30
0.0
 11
429.0
 21
265.1997243642198
 31
0.0
  0
LINE
  5
2436
330
20DE
100
AcDbEntity
  8
0
  6
Continuous
100
AcDbLine
 10
419.0
 20
270.9732270561161
 30
0.0
 11
424.0
 21
273.8599784020642
 31
0.0
  0
LINE
  5
2437
330
20DE
100
AcDbEntity
  8
0
  6
Continuous
100
AcDbLine
 10
424.0
 20
273.8599784020642
 30
0.0
 11
429.0
 21
270.9732270561161
 31
0.0
  0
LINE
  5
2438
330
20DE
100
AcDbEntity
  8
0
  6
Continuous
100
AcDbLine
 10
419.0
 20
265.1997243642198
 30
0.0
 11
424.0
 21
262.3129730182717
 31
0.0
  0
LINE
  5
2439
330
20DE
100
AcDbEntity
  8
0
  6
Continuous
100
AcDbLine
 10
429.0
 20
208.9732270561161
 30
0.0
 11
429.0
 21
203.1997243642198
 31
0.0
  0
LINE
  5
243A
330
20DE
100
AcDbEntity
  8
0
  6
Continuous
100
AcDbLine
 10
419.0
 20
208.9732270561161
 30
0.0
 11
419.0
 21
203.1997243642198
 31
0.0
  0
LINE
  5
243B
330
20DE
100
AcDbEntity
  8
0
  6
Continuous
100
AcDbLine
 10
424.0
 20
200.3129730182717
 30
0.0
 11
429.0
 21
203.1997243642198
 31
0.0
  0
LINE
  5
243C
330
20DE
100
AcDbEntity
  8
0
  6
Continuous
100
AcDbLine
 10
419.0
 20
208.9732270561161
 30
0.0
 11
424.0
 21
211.8599784020642
 31
0.0
  0
LINE
  5
243D
330
20DE
100
AcDbEntity
  8
0
  6
Continuous
100
AcDbLine
 10
424.0
 20
211.8599784020642
 30
0.0
 11
429.0
 21
208.9732270561161
 31
0.0
  0
LINE
  5
243E
330
20DE
100
AcDbEntity
  8
0
  6
Continuous
100
AcDbLine
 10
419.0
 20
203.1997243642198
 30
0.0
 11
424.0
 21
200.3129730182717
 31
0.0
  0
LINE
  5
243F
330
20DE
100
AcDbEntity
  8
0
  6
Continuous
100
AcDbLine
 10
121.8999999999996
 20
212.086482710168
 30
0.0
 11
121.8999999999996
 21
200.086482710168
 31
0.0
  0
LINE
  5
2440
330
20DE
100
AcDbEntity
  8
0
  6
Continuous
100
AcDbLine
 10
117.8999999999996
 20
211.086482710168
 30
0.0
 11
117.8999999999996
 21
201.086482710168
 31
0.0
  0
LINE
  5
2441
330
20DE
100
AcDbEntity
  8
0
  6
Continuous
100
AcDbLine
 10
121.8999999999996
 20
211.836482710168
 30
0.0
 11
118.3330127018925
 21
211.836482710168
 31
0.0
  0
LINE
  5
2442
330
20DE
100
AcDbEntity
  8
0
  6
Continuous
100
AcDbLine
 10
121.8999999999996
 20
200.336482710168
 30
0.0
 11
118.3330127018925
 21
200.336482710168
 31
0.0
  0
LINE
  5
2443
330
20DE
100
AcDbEntity
  8
0
  6
Continuous
100
AcDbLine
 10
118.3330127018925
 20
200.336482710168
 30
0.0
 11
117.8999999999996
 21
201.086482710168
 31
0.0
  0
LINE
  5
2444
330
20DE
100
AcDbEntity
  8
0
  6
Continuous
100
AcDbLine
 10
118.3330127018925
 20
211.836482710168
 30
0.0
 11
117.8999999999996
 21
211.086482710168
 31
0.0
  0
LINE
  5
2445
330
20DE
100
AcDbEntity
  8
0
  6
Continuous
100
AcDbLine
 10
121.8999999999996
 20
208.961482710168
 30
0.0
 11
118.3330127018925
 21
208.961482710168
 31
0.0
  0
LINE
  5
2446
330
20DE
100
AcDbEntity
  8
0
  6
Continuous
100
AcDbLine
 10
121.8999999999996
 20
203.211482710168
 30
0.0
 11
118.3330127018925
 21
203.211482710168
 31
0.0
  0
ARC
  5
2447
330
20DE
100
AcDbEntity
  8
0
  6
Continuous
100
AcDbCircle
 10
127.6608279884858
 20
206.086482710168
 30
0.0
 40
9.760827988486084
100
AcDbArc
 50
162.869763324969
 51
197.1302366750309
  0
ARC
  5
2448
330
20DE
100
AcDbEntity
  8
0
  6
Continuous
100
AcDbCircle
 10
120.5025867603308
 20
210.398982710168
 30
0.0
 40
2.602586760331064
100
AcDbArc
 50
146.4726419507348
 51
213.5273580492651
  0
ARC
  5
2449
330
20DE
100
AcDbEntity
  8
0
  6
Continuous
100
AcDbCircle
 10
120.5025867603308
 20
201.773982710168
 30
0.0
 40
2.602586760331064
100
AcDbArc
 50
146.4726419507348
 51
213.5273580492651
  0
LINE
  5
244A
330
20DE
100
AcDbEntity
  8
0
  6
Continuous
100
AcDbLine
 10
125.0
 20
212.086482710168
 30
0.0
 11
121.8999999999996
 21
212.086482710168
 31
0.0
  0
LINE
  5
244B
330
20DE
100
AcDbEntity
  8
0
  6
Continuous
100
AcDbLine
 10
125.0
 20
200.086482710168
 30
0.0
 11
121.8999999999996
 21
200.086482710168
 31
0.0
  0
LINE
  5
244C
330
20DE
100
AcDbEntity
  8
0
  6
Continuous
100
AcDbLine
 10
121.8999999999996
 20
274.086482710168
 30
0.0
 11
121.8999999999996
 21
262.086482710168
 31
0.0
  0
LINE
  5
244D
330
20DE
100
AcDbEntity
  8
0
  6
Continuous
100
AcDbLine
 10
117.8999999999996
 20
273.086482710168
 30
0.0
 11
117.8999999999996
 21
263.086482710168
 31
0.0
  0
LINE
  5
244E
330
20DE
100
AcDbEntity
  8
0
  6
Continuous
100
AcDbLine
 10
121.8999999999996
 20
273.836482710168
 30
0.0
 11
118.3330127018925
 21
273.836482710168
 31
0.0
  0
LINE
  5
244F
330
20DE
100
AcDbEntity
  8
0
  6
Continuous
100
AcDbLine
 10
121.8999999999996
 20
262.336482710168
 30
0.0
 11
118.3330127018925
 21
262.336482710168
 31
0.0
  0
LINE
  5
2450
330
20DE
100
AcDbEntity
  8
0
  6
Continuous
100
AcDbLine
 10
118.3330127018925
 20
262.336482710168
 30
0.0
 11
117.8999999999996
 21
263.086482710168
 31
0.0
  0
LINE
  5
2451
330
20DE
100
AcDbEntity
  8
0
  6
Continuous
100
AcDbLine
 10
118.3330127018925
 20
273.836482710168
 30
0.0
 11
117.8999999999996
 21
273.086482710168
 31
0.0
  0
LINE
  5
2452
330
20DE
100
AcDbEntity
  8
0
  6
Continuous
100
AcDbLine
 10
121.8999999999996
 20
270.961482710168
 30
0.0
 11
118.3330127018925
 21
270.961482710168
 31
0.0
  0
LINE
  5
2453
330
20DE
100
AcDbEntity
  8
0
  6
Continuous
100
AcDbLine
 10
121.8999999999996
 20
265.211482710168
 30
0.0
 11
118.3330127018925
 21
265.211482710168
 31
0.0
  0
ARC
  5
2454
330
20DE
100
AcDbEntity
  8
0
  6
Continuous
100
AcDbCircle
 10
127.6608279884858
 20
268.086482710168
 30
0.0
 40
9.760827988486084
100
AcDbArc
 50
162.869763324969
 51
197.1302366750309
  0
ARC
  5
2455
330
20DE
100
AcDbEntity
  8
0
  6
Continuous
100
AcDbCircle
 10
120.5025867603308
 20
272.398982710168
 30
0.0
 40
2.602586760331064
100
AcDbArc
 50
146.4726419507348
 51
213.5273580492651
  0
ARC
  5
2456
330
20DE
100
AcDbEntity
  8
0
  6
Continuous
100
AcDbCircle
 10
120.5025867603308
 20
263.773982710168
 30
0.0
 40
2.602586760331064
100
AcDbArc
 50
146.4726419507348
 51
213.5273580492651
  0
LINE
  5
2457
330
20DE
100
AcDbEntity
  8
0
  6
Continuous
100
AcDbLine
 10
125.0
 20
274.086482710168
 30
0.0
 11
121.8999999999996
 21
274.086482710168
 31
0.0
  0
LINE
  5
2458
330
20DE
100
AcDbEntity
  8
0
  6
Continuous
100
AcDbLine
 10
125.0
 20
262.086482710168
 30
0.0
 11
121.8999999999996
 21
262.086482710168
 31
0.0
  0
LINE
  5
245B
330
20DE
100
AcDbEntity
  8
0
  6
Continuous
100
AcDbLine
 10
156.7876392907096
 20
467.9370779863486
 30
0.0
 11
125.0
 21
467.9370779863486
 31
0.0
  0
LINE
  5
245C
330
20DE
100
AcDbEntity
  8
0
  6
Continuous
100
AcDbLine
 10
257.0
 20
529.5370779863478
 30
0.0
 11
240.499992
 21
529.5370779863478
 31
0.0
  0
LINE
  5
245D
330
20DE
100
AcDbEntity
  8
0
  6
Continuous
100
AcDbLine
 10
256.0
 20
463.7370779863481
 30
0.0
 11
236.3687324682482
 21
463.7370779863481
 31
0.0
  0
LINE
  5
245E
330
20DE
100
AcDbEntity
  8
0
  6
Continuous
100
AcDbLine
 10
163.6312675317517
 20
463.7370779863481
 30
0.0
 11
126.0
 21
463.7370779863481
 31
0.0
  0
LINE
  5
245F
330
20DE
100
AcDbEntity
  8
0
  6
Continuous
100
AcDbLine
 10
256.0
 20
533.7370779863481
 30
0.0
 11
240.499992
 21
533.7370779863481
 31
0.0
  0
LINE
  5
2460
330
20DE
100
AcDbEntity
  8
0
  6
Continuous
100
AcDbLine
 10
257.0
 20
482.737077986348
 30
0.0
 11
245.0
 21
482.7370779863483
 31
0.0
  0
LINE
  5
2461
330
20DE
100
AcDbEntity
  8
0
  6
Continuous
100
AcDbLine
 10
155.0
 20
482.7370779863485
 30
0.0
 11
125.0
 21
482.7370779863483
 31
0.0
  0
LINE
  5
2462
330
20DE
100
AcDbEntity
  8
0
  6
Continuous
100
AcDbLine
 10
257.0
 20
514.7370779863481
 30
0.0
 11
245.0
 21
514.7370779863483
 31
0.0
  0
LINE
  5
2463
330
20DE
100
AcDbEntity
  8
0
  6
Continuous
100
AcDbLine
 10
155.0
 20
514.7370779863486
 30
0.0
 11
125.0
 21
514.7370779863483
 31
0.0
  0
LINE
  5
2464
330
20DE
100
AcDbEntity
  8
0
  6
Continuous
100
AcDbLine
 10
257.0
 20
480.7370779863481
 30
0.0
 11
245.0
 21
480.7370779863482
 31
0.0
  0
LINE
  5
2465
330
20DE
100
AcDbEntity
  8
0
  6
Continuous
100
AcDbLine
 10
155.0
 20
480.7370779863485
 30
0.0
 11
125.0
 21
480.7370779863482
 31
0.0
  0
LINE
  5
2466
330
20DE
100
AcDbEntity
  8
0
  6
Continuous
100
AcDbLine
 10
257.0
 20
516.7370779863481
 30
0.0
 11
245.0
 21
516.7370779863484
 31
0.0
  0
LINE
  5
2467
330
20DE
100
AcDbEntity
  8
0
  6
Continuous
100
AcDbLine
 10
155.0
 20
516.7370779863485
 30
0.0
 11
125.0
 21
516.7370779863484
 31
0.0
  0
LINE
  5
2468
330
20DE
100
AcDbEntity
  8
0
  6
Continuous
100
AcDbLine
 10
129.4999999999999
 20
533.7370779863481
 30
0.0
 11
129.4999999999999
 21
463.7370779863481
 31
0.0
  0
LINE
  5
2469
330
20DE
100
AcDbEntity
  8
0
  6
Continuous
100
AcDbLine
 10
252.4999999999999
 20
533.7370779863481
 30
0.0
 11
252.4999999999999
 21
463.7370779863481
 31
0.0
  0
LINE
  5
246A
330
20DE
100
AcDbEntity
  8
0
  6
Continuous
100
AcDbLine
 10
425.5055534994653
 20
237.0864757101684
 30
0.0
 11
421.7527767497331
 21
230.586475710168
 31
0.0
  0
LINE
  5
246B
330
20DE
100
AcDbEntity
  8
0
  6
Continuous
100
AcDbLine
 10
421.7527767497322
 20
230.586475710168
 30
0.0
 11
414.2472232502668
 21
230.586475710168
 31
0.0
  0
LINE
  5
246C
330
20DE
100
AcDbEntity
  8
0
  6
Continuous
100
AcDbLine
 10
414.2472232502668
 20
230.5864757101684
 30
0.0
 11
410.4944465005346
 21
237.0864757101684
 31
0.0
  0
LINE
  5
246D
330
20DE
100
AcDbEntity
  8
0
  6
Continuous
100
AcDbLine
 10
414.2472232502678
 20
243.586475710168
 30
0.0
 11
410.4944465005355
 21
237.086475710168
 31
0.0
  0
LINE
  5
246E
330
20DE
100
AcDbEntity
  8
0
  6
Continuous
100
AcDbLine
 10
421.7527767497322
 20
243.586475710168
 30
0.0
 11
414.2472232502678
 21
243.586475710168
 31
0.0
  0
LINE
  5
246F
330
20DE
100
AcDbEntity
  8
0
  6
Continuous
100
AcDbLine
 10
425.5055534994653
 20
237.0864757101688
 30
0.0
 11
421.7527767497331
 21
243.5864757101684
 31
0.0
  0
LINE
  5
2470
330
20DE
100
AcDbEntity
  8
0
  6
Continuous
100
AcDbLine
 10
117.8999999999996
 20
520.2370779863488
 30
0.0
 11
113.0
 21
520.2370779863488
 31
0.0
  0
LINE
  5
2471
330
20DE
100
AcDbEntity
  8
0
  6
Continuous
100
AcDbLine
 10
117.8999999999996
 20
519.4372732988488
 30
0.0
 11
113.0
 21
519.4372732988488
 31
0.0
  0
LINE
  5
2472
330
20DE
100
AcDbEntity
  8
0
  6
Continuous
100
AcDbLine
 10
118.3999023437499
 20
513.0370047441613
 30
0.0
 11
113.0
 21
513.0370047441613
 31
0.0
  0
LINE
  5
2473
330
20DE
100
AcDbEntity
  8
0
  6
Continuous
100
AcDbLine
 10
118.3999023437499
 20
512.2369559160363
 30
0.0
 11
113.0
 21
512.2369559160363
 31
0.0
  0
LINE
  5
2474
330
20DE
100
AcDbEntity
  8
0
  6
Continuous
100
AcDbLine
 10
125.0
 20
508.2369559160362
 30
0.0
 11
123.39990234375
 21
508.2369559160362
 31
0.0
  0
LINE
  5
2475
330
20DE
100
AcDbEntity
  8
0
  6
Continuous
100
AcDbLine
 10
123.3994140625
 20
508.2369559160362
 30
0.0
 11
123.3999999999996
 21
528.4870779863483
 31
0.0
  0
LINE
  5
2476
330
20DE
100
AcDbEntity
  8
0
  6
Continuous
100
AcDbLine
 10
125.0
 20
464.7370779863483
 30
0.0
 11
125.0
 21
532.7370779863484
 31
0.0
  0
ARC
  5
2477
330
20DE
100
AcDbEntity
  8
0
  6
Continuous
100
AcDbCircle
 10
126.0
 20
464.737077986348
 30
0.0
 40
1.0
100
AcDbArc
 50
180.0
 51
270.0
  0
ARC
  5
2478
330
20DE
100
AcDbEntity
  8
0
  6
Continuous
100
AcDbCircle
 10
126.0
 20
532.7370779863481
 30
0.0
 40
1.0
100
AcDbArc
 50
90.0
 51
180.0
  0
LINE
  5
2479
330
20DE
100
AcDbEntity
  8
0
  6
Continuous
100
AcDbLine
 10
125.0
 20
468.9870779863483
 30
0.0
 11
121.8999999999996
 21
468.9870779863483
 31
0.0
  0
LINE
  5
247A
330
20DE
100
AcDbEntity
  8
0
  6
Continuous
100
AcDbLine
 10
125.0
 20
480.4870779863483
 30
0.0
 11
121.8999999999996
 21
480.4870779863483
 31
0.0
  0
LINE
  5
247B
330
20DE
100
AcDbEntity
  8
0
  6
Continuous
100
AcDbLine
 10
118.48
 20
474.7370779863483
 30
0.0
 11
121.8999999999996
 21
474.7370779863483
 31
0.0
  0
LINE
  5
247C
330
20DE
100
AcDbEntity
  8
0
  6
Continuous
100
AcDbLine
 10
123.3999999999996
 20
480.4870779863483
 30
0.0
 11
123.3999999999996
 21
468.9870779863483
 31
0.0
  0
LINE
  5
247D
330
20DE
100
AcDbEntity
  8
0
  6
Continuous
100
AcDbLine
 10
108.5799999999999
 20
516.2370779863488
 30
0.0
 11
113.0
 21
516.2370779863488
 31
0.0
  0
LINE
  5
247E
330
20DE
100
AcDbEntity
  8
0
  6
Continuous
100
AcDbLine
 10
118.9794140624999
 20
516.2370779863488
 30
0.0
 11
122.8194140625
 21
516.2370779863488
 31
0.0
  0
LINE
  5
247F
330
20DE
100
AcDbEntity
  8
0
  6
Continuous
100
AcDbLine
 10
121.8999999999996
 20
469.7370779863483
 30
0.0
 11
117.8999999999996
 21
469.7370779863483
 31
0.0
  0
LINE
  5
2480
330
20DE
100
AcDbEntity
  8
0
  6
Continuous
100
AcDbLine
 10
121.8999999999996
 20
479.7370779863483
 30
0.0
 11
117.8999999999996
 21
479.7370779863483
 31
0.0
  0
LINE
  5
2481
330
20DE
100
AcDbEntity
  8
0
  6
Continuous
100
AcDbLine
 10
121.8999999999996
 20
480.4870779863483
 30
0.0
 11
121.8999999999996
 21
468.9870779863483
 31
0.0
  0
LINE
  5
2482
330
20DE
100
AcDbEntity
  8
0
  6
Continuous
100
AcDbLine
 10
117.8999999999996
 20
479.7370779863483
 30
0.0
 11
117.8999999999996
 21
469.7370779863483
 31
0.0
  0
ARC
  5
2483
330
20DE
100
AcDbEntity
  8
0
  6
Continuous
100
AcDbCircle
 10
123.5779310344824
 20
472.2370779863482
 30
0.0
 40
5.677931034482412
100
AcDbArc
 50
153.8768978333543
 51
206.1231021666456
  0
ARC
  5
2484
330
20DE
100
AcDbEntity
  8
0
  6
Continuous
100
AcDbCircle
 10
123.5779310344824
 20
477.2370779863483
 30
0.0
 40
5.677931034482412
100
AcDbArc
 50
153.8768978333543
 51
206.1231021666456
  0
LINE
  5
2485
330
20DE
100
AcDbEntity
  8
0
  6
Continuous
100
AcDbLine
 10
113.0
 20
522.7370779863488
 30
0.0
 11
113.0
 21
509.7370779863488
 31
0.0
  0
LINE
  5
2486
330
20DE
100
AcDbEntity
  8
0
  6
Continuous
100
AcDbLine
 10
113.0
 20
509.7370779863488
 30
0.0
 11
108.0
 21
509.7370779863488
 31
0.0
  0
LINE
  5
2487
330
20DE
100
AcDbEntity
  8
0
  6
Continuous
100
AcDbLine
 10
113.0
 20
522.7370779863488
 30
0.0
 11
108.0
 21
522.7370779863488
 31
0.0
  0
LINE
  5
2488
330
20DE
100
AcDbEntity
  8
0
  6
Continuous
100
AcDbLine
 10
108.0
 20
522.7370779863488
 30
0.0
 11
108.0
 21
509.7370779863488
 31
0.0
  0
ARC
  5
2489
330
20DE
100
AcDbEntity
  8
0
  6
Continuous
100
AcDbCircle
 10
117.3956034482753
 20
512.9870779863487
 30
0.0
 40
9.39560344827521
100
AcDbArc
 50
159.762860263083
 51
200.2371397369169
  0
ARC
  5
248A
330
20DE
100
AcDbEntity
  8
0
  6
Continuous
100
AcDbCircle
 10
117.3956034482753
 20
519.4870779863488
 30
0.0
 40
9.39560344827521
100
AcDbArc
 50
159.762860263083
 51
200.2371397369169
  0
ARC
  5
248B
330
20DE
100
AcDbEntity
  8
0
  6
Continuous
100
AcDbCircle
 10
127.7950175107753
 20
519.4870779863485
 30
0.0
 40
9.39560344827521
100
AcDbArc
 50
190.7344462291634
 51
200.2371397369169
  0
ARC
  5
248C
330
20DE
100
AcDbEntity
  8
0
  6
Continuous
100
AcDbCircle
 10
127.7950175107753
 20
512.9870779863486
 30
0.0
 40
9.39560344827521
100
AcDbArc
 50
159.762860263083
 51
200.2371397369169
  0
LINE
  5
248D
330
20DE
100
AcDbEntity
  8
0
  6
Continuous
100
AcDbLine
 10
118.3994140625
 20
517.7370779863483
 30
0.0
 11
118.3994140625
 21
509.7370779863488
 31
0.0
  0
LINE
  5
248E
330
20DE
100
AcDbEntity
  8
0
  6
Continuous
100
AcDbLine
 10
123.3994140625
 20
509.7370779863488
 30
0.0
 11
118.3994140625
 21
509.7370779863488
 31
0.0
  0
ARC
  5
248F
330
20DE
100
AcDbEntity
  8
0
  6
Continuous
100
AcDbCircle
 10
114.0038106142246
 20
519.4870779863488
 30
0.0
 40
9.39560344827521
100
AcDbArc
 50
339.762860263083
 51
344.5687507287753
  0
ARC
  5
2490
330
20DE
100
AcDbEntity
  8
0
  6
Continuous
100
AcDbCircle
 10
114.0038106142246
 20
512.9870779863487
 30
0.0
 40
9.39560344827521
100
AcDbArc
 50
339.762860263083
 51
20.23713973691696
  0
LINE
  5
2491
330
20DE
100
AcDbEntity
  8
0
  6
Continuous
100
AcDbLine
 10
125.0
 20
528.4870779863483
 30
0.0
 11
121.8999999999996
 21
528.4870779863483
 31
0.0
  0
LINE
  5
2492
330
20DE
100
AcDbEntity
  8
0
  6
Continuous
100
AcDbLine
 10
125.0
 20
516.9870779863483
 30
0.0
 11
121.8999999999996
 21
516.9870779863483
 31
0.0
  0
LINE
  5
2493
330
20DE
100
AcDbEntity
  8
0
  6
Continuous
100
AcDbLine
 10
118.48
 20
522.7370779863483
 30
0.0
 11
121.8999999999996
 21
522.7370779863483
 31
0.0
  0
LINE
  5
2494
330
20DE
100
AcDbEntity
  8
0
  6
Continuous
100
AcDbLine
 10
121.8999999999996
 20
527.7370779863483
 30
0.0
 11
117.8999999999996
 21
527.7370779863483
 31
0.0
  0
LINE
  5
2495
330
20DE
100
AcDbEntity
  8
0
  6
Continuous
100
AcDbLine
 10
121.8999999999996
 20
517.7370779863483
 30
0.0
 11
117.8999999999996
 21
517.7370779863483
 31
0.0
  0
LINE
  5
2496
330
20DE
100
AcDbEntity
  8
0
  6
Continuous
100
AcDbLine
 10
121.8999999999996
 20
516.9870779863483
 30
0.0
 11
121.8999999999996
 21
528.4870779863483
 31
0.0
  0
LINE
  5
2497
330
20DE
100
AcDbEntity
  8
0
  6
Continuous
100
AcDbLine
 10
117.8999999999996
 20
517.7370779863483
 30
0.0
 11
117.8999999999996
 21
527.7370779863483
 31
0.0
  0
ARC
  5
2498
330
20DE
100
AcDbEntity
  8
0
  6
Continuous
100
AcDbCircle
 10
123.5779310344824
 20
525.2370779863483
 30
0.0
 40
5.677931034482412
100
AcDbArc
 50
153.8768978333543
 51
206.1231021666456
  0
ARC
  5
2499
330
20DE
100
AcDbEntity
  8
0
  6
Continuous
100
AcDbCircle
 10
123.5779310344824
 20
520.2370779863484
 30
0.0
 40
5.677931034482412
100
AcDbArc
 50
153.8768978333543
 51
206.1231021666456
  0
LINE
  5
249A
330
20DE
100
AcDbEntity
  8
0
  6
Continuous
100
AcDbLine
 10
264.0999999999994
 20
520.2370779863485
 30
0.0
 11
269.0
 21
520.2370779863485
 31
0.0
  0
LINE
  5
249B
330
20DE
100
AcDbEntity
  8
0
  6
Continuous
100
AcDbLine
 10
264.0999999999994
 20
519.4372732988486
 30
0.0
 11
269.0
 21
519.4372732988486
 31
0.0
  0
LINE
  5
249C
330
20DE
100
AcDbEntity
  8
0
  6
Continuous
100
AcDbLine
 10
263.6000976562499
 20
513.037004744161
 30
0.0
 11
269.0
 21
513.037004744161
 31
0.0
  0
LINE
  5
249D
330
20DE
100
AcDbEntity
  8
0
  6
Continuous
100
AcDbLine
 10
263.6000976562499
 20
512.236955916036
 30
0.0
 11
269.0
 21
512.236955916036
 31
0.0
  0
LINE
  5
249E
330
20DE
100
AcDbEntity
  8
0
  6
Continuous
100
AcDbLine
 10
257.0
 20
508.236955916036
 30
0.0
 11
258.60009765625
 21
508.236955916036
 31
0.0
  0
LINE
  5
249F
330
20DE
100
AcDbEntity
  8
0
  6
Continuous
100
AcDbLine
 10
258.6005859375
 20
508.236955916036
 30
0.0
 11
258.5999999999994
 21
528.4870779863481
 31
0.0
  0
LINE
  5
24A0
330
20DE
100
AcDbEntity
  8
0
  6
Continuous
100
AcDbLine
 10
257.0
 20
464.737077986348
 30
0.0
 11
257.0
 21
532.7370779863481
 31
0.0
  0
ARC
  5
24A1
330
20DE
100
AcDbEntity
  8
0
  6
Continuous
100
AcDbCircle
 10
256.0
 20
464.737077986348
 30
0.0
 40
1.0
100
AcDbArc
 50
270.0
 51
0.0
  0
ARC
  5
24A2
330
20DE
100
AcDbEntity
  8
0
  6
Continuous
100
AcDbCircle
 10
256.0
 20
532.7370779863481
 30
0.0
 40
1.0
100
AcDbArc
 50
0.0
 51
90.0
  0
LINE
  5
24A3
330
20DE
100
AcDbEntity
  8
0
  6
Continuous
100
AcDbLine
 10
257.0
 20
468.9870779863481
 30
0.0
 11
260.0999999999994
 21
468.9870779863481
 31
0.0
  0
LINE
  5
24A4
330
20DE
100
AcDbEntity
  8
0
  6
Continuous
100
AcDbLine
 10
257.0
 20
480.487077986348
 30
0.0
 11
260.0999999999994
 21
480.487077986348
 31
0.0
  0
LINE
  5
24A5
330
20DE
100
AcDbEntity
  8
0
  6
Continuous
100
AcDbLine
 10
263.5199999999999
 20
474.737077986348
 30
0.0
 11
260.0999999999994
 21
474.737077986348
 31
0.0
  0
LINE
  5
24A6
330
20DE
100
AcDbEntity
  8
0
  6
Continuous
100
AcDbLine
 10
258.5999999999994
 20
480.487077986348
 30
0.0
 11
258.5999999999994
 21
468.9870779863481
 31
0.0
  0
LINE
  5
24A7
330
20DE
100
AcDbEntity
  8
0
  6
Continuous
100
AcDbLine
 10
273.42
 20
516.2370779863485
 30
0.0
 11
269.0
 21
516.2370779863485
 31
0.0
  0
LINE
  5
24A8
330
20DE
100
AcDbEntity
  8
0
  6
Continuous
100
AcDbLine
 10
263.0205859375005
 20
516.2370779863485
 30
0.0
 11
259.1805859374999
 21
516.2370779863485
 31
0.0
  0
LINE
  5
24A9
330
20DE
100
AcDbEntity
  8
0
  6
Continuous
100
AcDbLine
 10
260.0999999999994
 20
469.737077986348
 30
0.0
 11
264.0999999999994
 21
469.737077986348
 31
0.0
  0
LINE
  5
24AA
330
20DE
100
AcDbEntity
  8
0
  6
Continuous
100
AcDbLine
 10
260.0999999999994
 20
479.7370779863481
 30
0.0
 11
264.0999999999994
 21
479.7370779863481
 31
0.0
  0
LINE
  5
24AB
330
20DE
100
AcDbEntity
  8
0
  6
Continuous
100
AcDbLine
 10
260.0999999999994
 20
480.487077986348
 30
0.0
 11
260.0999999999994
 21
468.9870779863481
 31
0.0
  0
LINE
  5
24AC
330
20DE
100
AcDbEntity
  8
0
  6
Continuous
100
AcDbLine
 10
264.0999999999994
 20
479.7370779863481
 30
0.0
 11
264.0999999999994
 21
469.737077986348
 31
0.0
  0
ARC
  5
24AD
330
20DE
100
AcDbEntity
  8
0
  6
Continuous
100
AcDbCircle
 10
258.4220689655176
 20
472.2370779863481
 30
0.0
 40
5.677931034482412
100
AcDbArc
 50
333.8768978333543
 51
26.12310216664568
  0
ARC
  5
24AE
330
20DE
100
AcDbEntity
  8
0
  6
Continuous
100
AcDbCircle
 10
258.4220689655176
 20
477.237077986348
 30
0.0
 40
5.677931034482412
100
AcDbArc
 50
333.8768978333543
 51
26.12310216664568
  0
LINE
  5
24AF
330
20DE
100
AcDbEntity
  8
0
  6
Continuous
100
AcDbLine
 10
269.0
 20
522.7370779863486
 30
0.0
 11
269.0
 21
509.7370779863485
 31
0.0
  0
LINE
  5
24B0
330
20DE
100
AcDbEntity
  8
0
  6
Continuous
100
AcDbLine
 10
269.0
 20
509.7370779863485
 30
0.0
 11
274.0
 21
509.7370779863485
 31
0.0
  0
LINE
  5
24B1
330
20DE
100
AcDbEntity
  8
0
  6
Continuous
100
AcDbLine
 10
269.0
 20
522.7370779863486
 30
0.0
 11
274.0
 21
522.7370779863486
 31
0.0
  0
LINE
  5
24B2
330
20DE
100
AcDbEntity
  8
0
  6
Continuous
100
AcDbLine
 10
274.0
 20
522.7370779863486
 30
0.0
 11
274.0
 21
509.7370779863485
 31
0.0
  0
ARC
  5
24B3
330
20DE
100
AcDbEntity
  8
0
  6
Continuous
100
AcDbCircle
 10
264.6043965517246
 20
512.9870779863486
 30
0.0
 40
9.39560344827521
100
AcDbArc
 50
339.762860263083
 51
20.23713973691696
  0
ARC
  5
24B4
330
20DE
100
AcDbEntity
  8
0
  6
Continuous
100
AcDbCircle
 10
264.6043965517246
 20
519.4870779863485
 30
0.0
 40
9.39560344827521
100
AcDbArc
 50
339.762860263083
 51
20.23713973691696
  0
ARC
  5
24B5
330
20DE
100
AcDbEntity
  8
0
  6
Continuous
100
AcDbCircle
 10
254.2049824892246
 20
519.4870779863485
 30
0.0
 40
9.39560344827521
100
AcDbArc
 50
339.762860263083
 51
349.2655537708365
  0
LINE
  5
24B6
330
20DE
100
AcDbEntity
  8
0
  6
Continuous
100
AcDbLine
 10
263.6005859374999
 20
517.7370779863481
 30
0.0
 11
263.6005859374999
 21
509.7370779863485
 31
0.0
  0
ARC
  5
24B7
330
20DE
100
AcDbEntity
  8
0
  6
Continuous
100
AcDbCircle
 10
254.2049824892246
 20
512.9870779863486
 30
0.0
 40
9.39560344827521
100
AcDbArc
 50
339.762860263083
 51
20.23713973691696
  0
LINE
  5
24B8
330
20DE
100
AcDbEntity
  8
0
  6
Continuous
100
AcDbLine
 10
258.6005859375
 20
509.7370779863485
 30
0.0
 11
263.6005859374999
 21
509.7370779863485
 31
0.0
  0
ARC
  5
24B9
330
20DE
100
AcDbEntity
  8
0
  6
Continuous
100
AcDbCircle
 10
267.9961893857753
 20
512.9870779863486
 30
0.0
 40
9.39560344827521
100
AcDbArc
 50
159.762860263083
 51
200.2371397369169
  0
ARC
  5
24BA
330
20DE
100
AcDbEntity
  8
0
  6
Continuous
100
AcDbCircle
 10
267.9961893857753
 20
519.4870779863485
 30
0.0
 40
9.39560344827521
100
AcDbArc
 50
195.4312492712246
 51
200.2371397369169
  0
LINE
  5
24BB
330
20DE
100
AcDbEntity
  8
0
  6
Continuous
100
AcDbLine
 10
257.0
 20
528.4870779863481
 30
0.0
 11
260.0999999999994
 21
528.4870779863481
 31
0.0
  0
LINE
  5
24BC
330
20DE
100
AcDbEntity
  8
0
  6
Continuous
100
AcDbLine
 10
257.0
 20
516.9870779863481
 30
0.0
 11
260.0999999999994
 21
516.9870779863481
 31
0.0
  0
LINE
  5
24BD
330
20DE
100
AcDbEntity
  8
0
  6
Continuous
100
AcDbLine
 10
263.5199999999999
 20
522.7370779863481
 30
0.0
 11
260.0999999999994
 21
522.7370779863481
 31
0.0
  0
LINE
  5
24BE
330
20DE
100
AcDbEntity
  8
0
  6
Continuous
100
AcDbLine
 10
260.0999999999994
 20
527.7370779863481
 30
0.0
 11
264.0999999999994
 21
527.7370779863481
 31
0.0
  0
LINE
  5
24BF
330
20DE
100
AcDbEntity
  8
0
  6
Continuous
100
AcDbLine
 10
260.0999999999994
 20
517.7370779863481
 30
0.0
 11
264.0999999999994
 21
517.7370779863481
 31
0.0
  0
LINE
  5
24C0
330
20DE
100
AcDbEntity
  8
0
  6
Continuous
100
AcDbLine
 10
260.0999999999994
 20
516.9870779863481
 30
0.0
 11
260.0999999999994
 21
528.4870779863481
 31
0.0
  0
LINE
  5
24C1
330
20DE
100
AcDbEntity
  8
0
  6
Continuous
100
AcDbLine
 10
264.0999999999994
 20
517.7370779863481
 30
0.0
 11
264.0999999999994
 21
527.7370779863481
 31
0.0
  0
ARC
  5
24C2
330
20DE
100
AcDbEntity
  8
0
  6
Continuous
100
AcDbCircle
 10
258.4220689655176
 20
525.2370779863481
 30
0.0
 40
5.677931034482412
100
AcDbArc
 50
333.8768978333543
 51
26.12310216664568
  0
ARC
  5
24C3
330
20DE
100
AcDbEntity
  8
0
  6
Continuous
100
AcDbCircle
 10
258.4220689655176
 20
520.2370779863481
 30
0.0
 40
5.677931034482412
100
AcDbArc
 50
333.8768978333543
 51
26.12310216664568
  0
LINE
  5
24C4
330
20DE
100
AcDbEntity
  8
0
  6
Continuous
100
AcDbLine
 10
123.3999999999996
 20
212.086482710168
 30
0.0
 11
123.3999999999996
 21
200.086482710168
 31
0.0
  0
LINE
  5
24C5
330
20DE
100
AcDbEntity
  8
0
  6
Continuous
100
AcDbLine
 10
123.3999999999996
 20
274.086482710168
 30
0.0
 11
123.3999999999996
 21
262.086482710168
 31
0.0
  0
LINE
  5
24C6
330
20DE
100
AcDbEntity
  8
0
  6
Continuous
100
AcDbLine
 10
263.6000976562499
 20
243.586482710168
 30
0.0
 11
263.6000976562499
 21
230.5863301222774
 31
0.0
  0
LINE
  5
24C7
330
20DE
100
AcDbEntity
  8
0
  6
Continuous
100
AcDbLine
 10
263.02001953125
 20
244.591853803918
 30
0.0
 11
259.1806640625
 21
244.591853803918
 31
0.0
  0
LINE
  5
24C8
330
20DE
100
AcDbEntity
  8
0
  6
Continuous
100
AcDbLine
 10
263.01953125
 20
240.839412397668
 30
0.0
 11
259.1808940378132
 21
240.839412397668
 31
0.0
  0
LINE
  5
24C9
330
20DE
100
AcDbEntity
  8
0
  6
Continuous
100
AcDbLine
 10
263.6004345764622
 20
243.5864398395841
 30
0.0
 11
263.0198681702122
 21
244.592010334329
 31
0.0
  0
LINE
  5
24CA
330
20DE
100
AcDbEntity
  8
0
  6
Continuous
100
AcDbLine
 10
259.1806640625
 20
229.5809590285274
 30
0.0
 11
263.02001953125
 21
229.5809590285274
 31
0.0
  0
LINE
  5
24CB
330
20DE
100
AcDbEntity
  8
0
  6
Continuous
100
AcDbLine
 10
259.1808731532892
 20
233.3336445754024
 30
0.0
 11
263.01953125
 21
233.3336445754024
 31
0.0
  0
ARC
  5
24CC
330
20DE
100
AcDbEntity
  8
0
  6
Continuous
100
AcDbCircle
 10
260.27734375
 20
231.4572102492305
 30
0.0
 40
3.322566986083984
100
AcDbArc
 50
0.0
 51
34.38430267814913
  0
ARC
  5
24CD
330
20DE
100
AcDbEntity
  8
0
  6
Continuous
100
AcDbCircle
 10
251.1806640625
 20
237.086482710168
 30
0.0
 40
12.41944122314453
100
AcDbArc
 50
342.4120272456935
 51
17.58793860336339
  0
LINE
  5
24CE
330
20DE
100
AcDbEntity
  8
0
  6
Continuous
100
AcDbLine
 10
263.6000976562499
 20
241.086482710168
 30
0.0
 11
269.0004806518554
 21
241.086482710168
 31
0.0
  0
LINE
  5
24CF
330
20DE
100
AcDbEntity
  8
0
  6
Continuous
100
AcDbLine
 10
263.6000976562499
 20
240.286678022668
 30
0.0
 11
269.0004806518554
 21
240.286678022668
 31
0.0
  0
LINE
  5
24D0
330
20DE
100
AcDbEntity
  8
0
  6
Continuous
100
AcDbLine
 10
263.6000976562499
 20
233.8864094679805
 30
0.0
 11
269.0004806518554
 21
233.8864094679805
 31
0.0
  0
LINE
  5
24D1
330
20DE
100
AcDbEntity
  8
0
  6
Continuous
100
AcDbLine
 10
263.6000976562499
 20
233.0863606398555
 30
0.0
 11
269.0004806518554
 21
233.0863606398555
 31
0.0
  0
LINE
  5
24D2
330
20DE
100
AcDbEntity
  8
0
  6
Continuous
100
AcDbLine
 10
257.0
 20
245.086482710168
 30
0.0
 11
258.60009765625
 21
245.086482710168
 31
0.0
  0
LINE
  5
24D3
330
20DE
100
AcDbEntity
  8
0
  6
Continuous
100
AcDbLine
 10
257.0
 20
229.0863606398555
 30
0.0
 11
258.60009765625
 21
229.0863606398555
 31
0.0
  0
LINE
  5
24D4
330
20DE
100
AcDbEntity
  8
0
  6
Continuous
100
AcDbLine
 10
263.6005312248016
 20
230.5862991741677
 30
0.0
 11
263.0199648185516
 21
229.5807286794232
 31
0.0
  0
ARC
  5
24D5
330
20DE
100
AcDbEntity
  8
0
  6
Continuous
100
AcDbCircle
 10
260.27734375
 20
242.715877241418
 30
0.0
 40
3.322566986083984
100
AcDbArc
 50
325.6156973218508
 51
0.0
  0
LINE
  5
24D6
330
20DE
100
AcDbEntity
  8
0
  6
Continuous
100
AcDbLine
 10
258.6005859375
 20
229.0863606398555
 30
0.0
 11
258.6005859375
 21
245.086482710168
 31
0.0
  0
LINE
  5
24D7
330
20DE
100
AcDbEntity
  8
0
  6
Continuous
100
AcDbLine
 10
258.6001513973742
 20
243.5865196407025
 30
0.0
 11
259.1807025448342
 21
244.592063706449
 31
0.0
  0
ARC
  5
24D8
330
20DE
100
AcDbEntity
  8
0
  6
Continuous
100
AcDbCircle
 10
261.9228515625
 20
231.4572102492305
 30
0.0
 40
3.322566986083984
100
AcDbArc
 50
145.6147618226294
 51
180.0
  0
LINE
  5
24D9
330
20DE
100
AcDbEntity
  8
0
  6
Continuous
100
AcDbLine
 10
258.6001187772381
 20
230.5862915784154
 30
0.0
 11
259.180685183488
 21
229.5807210836709
 31
0.0
  0
ARC
  5
24DA
330
20DE
100
AcDbEntity
  8
0
  6
Continuous
100
AcDbCircle
 10
261.9228515625
 20
242.715877241418
 30
0.0
 40
3.322566986083984
100
AcDbArc
 50
179.9999640278154
 51
214.3858758684332
  0
LINE
  5
24DB
330
20DE
100
AcDbEntity
  8
0
  6
Continuous
100
AcDbLine
 10
269.0004806518554
 20
229.5809590285274
 30
0.0
 11
269.0004806518554
 21
244.591853803918
 31
0.0
  0
LINE
  5
24DC
330
20DE
100
AcDbEntity
  8
0
  6
Continuous
100
AcDbLine
 10
269.0004806518554
 20
229.5809590285274
 30
0.0
 11
273.4199142456054
 21
229.5809590285274
 31
0.0
  0
LINE
  5
24DD
330
20DE
100
AcDbEntity
  8
0
  6
Continuous
100
AcDbLine
 10
274.0004259391562
 20
230.5862991741672
 30
0.0
 11
273.4198595329062
 21
229.5807286794232
 31
0.0
  0
ARC
  5
24DE
330
20DE
100
AcDbEntity
  8
0
  6
Continuous
100
AcDbCircle
 10
270.6772384643554
 20
231.4572102492305
 30
0.0
 40
3.322566986083984
100
AcDbArc
 50
0.0
 51
34.38430267814913
  0
LINE
  5
24DF
330
20DE
100
AcDbEntity
  8
0
  6
Continuous
100
AcDbLine
 10
269.0004806518554
 20
233.3336445754024
 30
0.0
 11
273.4194259643554
 21
233.3336445754024
 31
0.0
  0
LINE
  5
24E0
330
20DE
100
AcDbEntity
  8
0
  6
Continuous
100
AcDbLine
 10
273.4194259643554
 20
240.839412397668
 30
0.0
 11
269.0004806518554
 21
240.839412397668
 31
0.0
  0
LINE
  5
24E1
330
20DE
100
AcDbEntity
  8
0
  6
Continuous
100
AcDbLine
 10
273.4199142456054
 20
244.591853803918
 30
0.0
 11
269.0004806518554
 21
244.591853803918
 31
0.0
  0
LINE
  5
24E2
330
20DE
100
AcDbEntity
  8
0
  6
Continuous
100
AcDbLine
 10
274.0003292908168
 20
243.586439839585
 30
0.0
 11
273.4197628845667
 21
244.592010334329
 31
0.0
  0
ARC
  5
24E3
330
20DE
100
AcDbEntity
  8
0
  6
Continuous
100
AcDbCircle
 10
270.6772384643554
 20
242.715877241418
 30
0.0
 40
3.322566986083984
100
AcDbArc
 50
325.6156973218508
 51
0.0
  0
LINE
  5
24E4
330
20DE
100
AcDbEntity
  8
0
  6
Continuous
100
AcDbLine
 10
273.9999923706054
 20
243.586482710168
 30
0.0
 11
273.9999923706054
 21
230.5863301222774
 31
0.0
  0
ARC
  5
24E5
330
20DE
100
AcDbEntity
  8
0
  6
Continuous
100
AcDbCircle
 10
261.5805587768554
 20
237.086482710168
 30
0.0
 40
12.41944122314453
100
AcDbArc
 50
342.4120272456935
 51
17.58793860336339
  0
ARC
  5
24E6
330
20DE
100
AcDbEntity
  8
0
  6
Continuous
100
AcDbCircle
 10
271.0197403407892
 20
237.0865742629019
 30
0.0
 40
12.41944122314453
100
AcDbArc
 50
162.4120272456935
 51
197.5879386033634
  0
LINE
  5
24E7
330
20DE
100
AcDbEntity
  8
0
  6
Continuous
100
AcDbLine
 10
260.1000000000003
 20
212.086482710168
 30
0.0
 11
260.1000000000003
 21
200.086482710168
 31
0.0
  0
LINE
  5
24E8
330
20DE
100
AcDbEntity
  8
0
  6
Continuous
100
AcDbLine
 10
264.1000000000003
 20
211.086482710168
 30
0.0
 11
264.1000000000003
 21
201.086482710168
 31
0.0
  0
LINE
  5
24E9
330
20DE
100
AcDbEntity
  8
0
  6
Continuous
100
AcDbLine
 10
260.1000000000003
 20
211.836482710168
 30
0.0
 11
263.6669872981074
 21
211.836482710168
 31
0.0
  0
LINE
  5
24EA
330
20DE
100
AcDbEntity
  8
0
  6
Continuous
100
AcDbLine
 10
260.1000000000003
 20
200.336482710168
 30
0.0
 11
263.6669872981074
 21
200.336482710168
 31
0.0
  0
LINE
  5
24EB
330
20DE
100
AcDbEntity
  8
0
  6
Continuous
100
AcDbLine
 10
263.6669872981074
 20
200.336482710168
 30
0.0
 11
264.1000000000003
 21
201.086482710168
 31
0.0
  0
LINE
  5
24EC
330
20DE
100
AcDbEntity
  8
0
  6
Continuous
100
AcDbLine
 10
263.6669872981074
 20
211.836482710168
 30
0.0
 11
264.1000000000003
 21
211.086482710168
 31
0.0
  0
LINE
  5
24ED
330
20DE
100
AcDbEntity
  8
0
  6
Continuous
100
AcDbLine
 10
260.1000000000003
 20
208.961482710168
 30
0.0
 11
263.6669872981074
 21
208.961482710168
 31
0.0
  0
LINE
  5
24EE
330
20DE
100
AcDbEntity
  8
0
  6
Continuous
100
AcDbLine
 10
260.1000000000003
 20
203.211482710168
 30
0.0
 11
263.6669872981074
 21
203.211482710168
 31
0.0
  0
ARC
  5
24EF
330
20DE
100
AcDbEntity
  8
0
  6
Continuous
100
AcDbCircle
 10
254.3391720115141
 20
206.086482710168
 30
0.0
 40
9.760827988486084
100
AcDbArc
 50
342.869763324969
 51
17.13023667503095
  0
ARC
  5
24F0
330
20DE
100
AcDbEntity
  8
0
  6
Continuous
100
AcDbCircle
 10
261.4974132396691
 20
210.398982710168
 30
0.0
 40
2.602586760331064
100
AcDbArc
 50
326.4726419507348
 51
33.52735804926517
  0
ARC
  5
24F1
330
20DE
100
AcDbEntity
  8
0
  6
Continuous
100
AcDbCircle
 10
261.4974132396691
 20
201.773982710168
 30
0.0
 40
2.602586760331064
100
AcDbArc
 50
326.4726419507348
 51
33.52735804926517
  0
LINE
  5
24F2
330
20DE
100
AcDbEntity
  8
0
  6
Continuous
100
AcDbLine
 10
257.0
 20
212.086482710168
 30
0.0
 11
260.1000000000003
 21
212.086482710168
 31
0.0
  0
LINE
  5
24F3
330
20DE
100
AcDbEntity
  8
0
  6
Continuous
100
AcDbLine
 10
257.0
 20
200.086482710168
 30
0.0
 11
260.1000000000003
 21
200.086482710168
 31
0.0
  0
LINE
  5
24F4
330
20DE
100
AcDbEntity
  8
0
  6
Continuous
100
AcDbLine
 10
260.1000000000003
 20
274.086482710168
 30
0.0
 11
260.1000000000003
 21
262.086482710168
 31
0.0
  0
LINE
  5
24F5
330
20DE
100
AcDbEntity
  8
0
  6
Continuous
100
AcDbLine
 10
264.1000000000003
 20
273.086482710168
 30
0.0
 11
264.1000000000003
 21
263.086482710168
 31
0.0
  0
LINE
  5
24F6
330
20DE
100
AcDbEntity
  8
0
  6
Continuous
100
AcDbLine
 10
260.1000000000003
 20
273.836482710168
 30
0.0
 11
263.6669872981074
 21
273.836482710168
 31
0.0
  0
LINE
  5
24F7
330
20DE
100
AcDbEntity
  8
0
  6
Continuous
100
AcDbLine
 10
260.1000000000003
 20
262.336482710168
 30
0.0
 11
263.6669872981074
 21
262.336482710168
 31
0.0
  0
LINE
  5
24F8
330
20DE
100
AcDbEntity
  8
0
  6
Continuous
100
AcDbLine
 10
263.6669872981074
 20
262.336482710168
 30
0.0
 11
264.1000000000003
 21
263.086482710168
 31
0.0
  0
LINE
  5
24F9
330
20DE
100
AcDbEntity
  8
0
  6
Continuous
100
AcDbLine
 10
263.6669872981074
 20
273.836482710168
 30
0.0
 11
264.1000000000003
 21
273.086482710168
 31
0.0
  0
LINE
  5
24FA
330
20DE
100
AcDbEntity
  8
0
  6
Continuous
100
AcDbLine
 10
260.1000000000003
 20
270.961482710168
 30
0.0
 11
263.6669872981074
 21
270.961482710168
 31
0.0
  0
LINE
  5
24FB
330
20DE
100
AcDbEntity
  8
0
  6
Continuous
100
AcDbLine
 10
260.1000000000003
 20
265.211482710168
 30
0.0
 11
263.6669872981074
 21
265.211482710168
 31
0.0
  0
ARC
  5
24FC
330
20DE
100
AcDbEntity
  8
0
  6
Continuous
100
AcDbCircle
 10
254.3391720115141
 20
268.086482710168
 30
0.0
 40
9.760827988486084
100
AcDbArc
 50
342.869763324969
 51
17.13023667503095
  0
ARC
  5
24FD
330
20DE
100
AcDbEntity
  8
0
  6
Continuous
100
AcDbCircle
 10
261.4974132396691
 20
272.398982710168
 30
0.0
 40
2.602586760331064
100
AcDbArc
 50
326.4726419507348
 51
33.52735804926517
  0
ARC
  5
24FE
330
20DE
100
AcDbEntity
  8
0
  6
Continuous
100
AcDbCircle
 10
261.4974132396691
 20
263.773982710168
 30
0.0
 40
2.602586760331064
100
AcDbArc
 50
326.4726419507348
 51
33.52735804926517
  0
LINE
  5
24FF
330
20DE
100
AcDbEntity
  8
0
  6
Continuous
100
AcDbLine
 10
257.0
 20
274.086482710168
 30
0.0
 11
260.1000000000003
 21
274.086482710168
 31
0.0
  0
LINE
  5
2500
330
20DE
100
AcDbEntity
  8
0
  6
Continuous
100
AcDbLine
 10
257.0
 20
262.086482710168
 30
0.0
 11
260.1000000000003
 21
262.086482710168
 31
0.0
  0
LINE
  5
2501
330
20DE
100
AcDbEntity
  8
0
  6
Continuous
100
AcDbLine
 10
258.6000000000003
 20
212.086482710168
 30
0.0
 11
258.6000000000003
 21
200.086482710168
 31
0.0
  0
LINE
  5
2502
330
20DE
100
AcDbEntity
  8
0
  6
Continuous
100
AcDbLine
 10
258.6000000000003
 20
274.086482710168
 30
0.0
 11
258.6000000000003
 21
262.086482710168
 31
0.0
  0
CIRCLE
  5
2503
330
20DE
100
AcDbEntity
  8
0
  6
Continuous
100
AcDbCircle
 10
382.0
 20
237.086475710168
 30
0.0
 40
4.25
  0
CIRCLE
  5
2504
330
20DE
100
AcDbEntity
  8
0
  6
Continuous
100
AcDbCircle
 10
382.0
 20
237.086475710168
 30
0.0
 40
3.399999999999999
  0
CIRCLE
  5
2505
330
20DE
100
AcDbEntity
  8
0
  6
Continuous
100
AcDbCircle
 10
376.0
 20
206.086475710168
 30
0.0
 40
5.0
  0
CIRCLE
  5
2506
330
20DE
100
AcDbEntity
  8
0
  6
Continuous
100
AcDbCircle
 10
376.0
 20
206.086475710168
 30
0.0
 40
5.75
  0
CIRCLE
  5
2507
330
20DE
100
AcDbEntity
  8
0
  6
Continuous
100
AcDbCircle
 10
376.0
 20
268.0864757101679
 30
0.0
 40
5.0
  0
CIRCLE
  5
2508
330
20DE
100
AcDbEntity
  8
0
  6
Continuous
100
AcDbCircle
 10
376.0
 20
268.0864757101679
 30
0.0
 40
5.75
  0
CIRCLE
  5
2509
330
20DE
100
AcDbEntity
  8
0
  6
Continuous
100
AcDbCircle
 10
424.0
 20
268.0864757101679
 30
0.0
 40
5.0
  0
CIRCLE
  5
250A
330
20DE
100
AcDbEntity
  8
0
  6
Continuous
100
AcDbCircle
 10
424.0
 20
268.0864757101679
 30
0.0
 40
5.75
  0
CIRCLE
  5
250B
330
20DE
100
AcDbEntity
  8
0
  6
Continuous
100
AcDbCircle
 10
424.0
 20
206.086475710168
 30
0.0
 40
5.0
  0
CIRCLE
  5
250C
330
20DE
100
AcDbEntity
  8
0
  6
Continuous
100
AcDbCircle
 10
424.0
 20
206.086475710168
 30
0.0
 40
5.75
  0
CIRCLE
  5
250D
330
20DE
100
AcDbEntity
  8
0
  6
Continuous
100
AcDbCircle
 10
418.0
 20
237.086475710168
 30
0.0
 40
6.5
  0
CIRCLE
  5
250E
330
20DE
100
AcDbEntity
  8
0
  6
Continuous
100
AcDbCircle
 10
418.0
 20
237.086475710168
 30
0.0
 40
8.0
  0
LINE
  5
250F
330
20DE
100
AcDbEntity
  8
0
  6
Continuous
100
AcDbLine
 10
245.0
 20
276.086482710168
 30
0.0
 11
155.0
 21
276.086482710168
 31
0.0
  0
LINE
  5
2510
330
20DE
100
AcDbEntity
  8
0
  6
Continuous
100
AcDbLine
 10
215.0
 20
310.0864977101681
 30
0.0
 11
215.0
 21
280.5864522101682
 31
0.0
  0
LINE
  5
2511
330
20DE
100
AcDbEntity
  8
0
  6
Continuous
100
AcDbLine
 10
185.0
 20
310.0864977101681
 30
0.0
 11
185.0
 21
280.5864522101682
 31
0.0
  0
LINE
  5
2512
330
20DE
100
AcDbEntity
  8
0
  6
Continuous
100
AcDbLine
 10
215.0
 20
310.0864977101681
 30
0.0
 11
185.0
 21
310.0864977101681
 31
0.0
  0
LINE
  5
2513
330
20DE
100
AcDbEntity
  8
0
  6
Continuous
100
AcDbLine
 10
155.0
 20
316.086482710168
 30
0.0
 11
155.0
 21
276.086482710168
 31
0.0
  0
LINE
  5
2514
330
20DE
100
AcDbEntity
  8
0
  6
Continuous
100
AcDbLine
 10
245.0
 20
316.086482710168
 30
0.0
 11
245.0
 21
276.086482710168
 31
0.0
  0
LINE
  5
2515
330
20DE
100
AcDbEntity
  8
0
  6
Continuous
100
AcDbLine
 10
235.0
 20
326.086482710168
 30
0.0
 11
165.0
 21
326.086482710168
 31
0.0
  0
LINE
  5
2516
330
20DE
100
AcDbEntity
  8
0
  6
Continuous
100
AcDbLine
 10
155.0
 20
280.5864522101682
 30
0.0
 11
245.0
 21
280.5864522101682
 31
0.0
  0
ARC
  5
2517
330
20DE
100
AcDbEntity
  8
0
  6
Continuous
100
AcDbCircle
 10
235.0
 20
316.086482710168
 30
0.0
 40
10.0
100
AcDbArc
 50
0.0
 51
90.00000299998466
  0
CIRCLE
  5
2518
330
20DE
100
AcDbEntity
  8
0
  6
Continuous
100
AcDbCircle
 10
231.5000149999996
 20
311.086482710168
 30
0.0
 40
9.000030499999997
  0
ARC
  5
2519
330
20DE
100
AcDbEntity
  8
0
  6
Continuous
100
AcDbCircle
 10
165.0
 20
316.086482710168
 30
0.0
 40
10.0
100
AcDbArc
 50
90.00000299998466
 51
180.000010000001
  0
LINE
  5
251A
330
20DE
100
AcDbEntity
  8
0
  6
Continuous
100
AcDbLine
 10
168.499996
 20
276.086482710168
 30
0.0
 11
231.4999809999999
 21
276.086482710168
 31
0.0
  0
LINE
  5
251B
330
20DE
100
AcDbEntity
  8
0
  6
Continuous
100
AcDbLine
 10
222.5251798516429
 20
515.637071986349
 30
0.0
 11
240.5252098516431
 21
515.637071986349
 31
0.0
  0
LINE
  5
251C
330
20DE
100
AcDbEntity
  8
0
  6
Continuous
100
AcDbLine
 10
222.5251798516429
 20
515.637071986349
 30
0.0
 11
222.5251798516429
 21
522.2370779863491
 31
0.0
  0
LINE
  5
251D
330
20DE
100
AcDbEntity
  8
0
  6
Continuous
100
AcDbLine
 10
240.5252098516431
 20
515.637071986349
 30
0.0
 11
240.5252098516431
 21
522.2370779863491
 31
0.0
  0
LINE
  5
251E
330
20DE
100
AcDbEntity
  8
0
  6
Continuous
100
AcDbLine
 10
222.5251798516429
 20
526.7370779863491
 30
0.0
 11
222.5251798516429
 21
556.8370539863491
 31
0.0
  0
LINE
  5
251F
330
20DE
100
AcDbEntity
  8
0
  6
Continuous
100
AcDbLine
 10
240.5252098516431
 20
526.7370779863491
 30
0.0
 11
240.5252098516431
 21
556.8370539863491
 31
0.0
  0
LINE
  5
2520
330
20DE
100
AcDbEntity
  8
0
  6
Continuous
100
AcDbLine
 10
222.5251798516429
 20
556.8370539863491
 30
0.0
 11
240.5252098516431
 21
556.8370539863491
 31
0.0
  0
LINE
  5
2521
330
20DE
100
AcDbEntity
  8
0
  6
Continuous
100
AcDbLine
 10
155.0252178516431
 20
526.7370779863491
 30
0.0
 11
245.0252178516431
 21
526.7370779863491
 31
0.0
  0
LINE
  5
2522
330
20DE
100
AcDbEntity
  8
0
  6
Continuous
100
AcDbLine
 10
245.0252178516431
 20
473.7370779863491
 30
0.0
 11
245.0252178516431
 21
526.7370779863491
 31
0.0
  0
LINE
  5
2523
330
20DE
100
AcDbEntity
  8
0
  6
Continuous
100
AcDbLine
 10
155.0252178516431
 20
473.7370779863491
 30
0.0
 11
155.0252178516431
 21
526.7370779863491
 31
0.0
  0
LINE
  5
2524
330
20DE
100
AcDbEntity
  8
0
  6
Continuous
100
AcDbLine
 10
235.0252178516431
 20
463.737077986349
 30
0.0
 11
165.0252178516431
 21
463.737077986349
 31
0.0
  0
LINE
  5
2525
330
20DE
100
AcDbEntity
  8
0
  6
Continuous
100
AcDbLine
 10
155.0252178516431
 20
522.2370779863491
 30
0.0
 11
245.0252178516431
 21
522.2370779863491
 31
0.0
  0
CIRCLE
  5
2526
330
20DE
100
AcDbEntity
  8
0
  6
Continuous
100
AcDbCircle
 10
200.0252178516431
 20
498.7370779863491
 30
0.0
 40
15.0
  0
ARC
  5
2527
330
20DE
100
AcDbEntity
  8
0
  6
Continuous
100
AcDbCircle
 10
165.0252178516431
 20
473.7370779863491
 30
0.0
 40
10.0
100
AcDbArc
 50
180.000010000001
 51
270.0
  0
ARC
  5
2528
330
20DE
100
AcDbEntity
  8
0
  6
Continuous
100
AcDbCircle
 10
235.0252178516431
 20
473.7370779863491
 30
0.0
 40
10.0
100
AcDbArc
 50
269.999989999999
 51
0.0000006832429909
  0
LINE
  5
2529
330
20DE
100
AcDbEntity
  8
0
  6
Continuous
100
AcDbLine
 10
423.4999850000003
 20
326.0864377101678
 30
0.0
 11
428.000031
 21
326.0864377101678
 31
0.0
  0
LINE
  5
252A
330
20DE
100
AcDbEntity
  8
0
  6
Continuous
100
AcDbLine
 10
428.000031
 20
326.0864377101678
 30
0.0
 11
428.000031
 21
276.0864757101679
 31
0.0
  0
LINE
  5
252B
330
20DE
100
AcDbEntity
  8
0
  6
Continuous
100
AcDbLine
 10
428.000031
 20
276.0864757101679
 30
0.0
 11
365.0
 21
276.0864757101679
 31
0.0
  0
LINE
  5
252C
330
20DE
100
AcDbEntity
  8
0
  6
Continuous
100
AcDbLine
 10
365.0
 20
280.5864833101681
 30
0.0
 11
365.0
 21
276.0864757101679
 31
0.0
  0
LINE
  5
252D
330
20DE
100
AcDbEntity
  8
0
  6
Continuous
100
AcDbLine
 10
415.0
 20
310.086490710168
 30
0.0
 11
415.0
 21
280.5864833101681
 31
0.0
  0
LINE
  5
252E
330
20DE
100
AcDbEntity
  8
0
  6
Continuous
100
AcDbLine
 10
385.0
 20
310.086490710168
 30
0.0
 11
385.0
 21
280.5864833101681
 31
0.0
  0
LINE
  5
252F
330
20DE
100
AcDbEntity
  8
0
  6
Continuous
100
AcDbLine
 10
415.0
 20
310.086490710168
 30
0.0
 11
385.0
 21
310.086490710168
 31
0.0
  0
LINE
  5
2530
330
20DE
100
AcDbEntity
  8
0
  6
Continuous
100
AcDbLine
 10
416.900024
 20
319.0864677101679
 30
0.0
 11
416.900024
 21
301.0864377101678
 31
0.0
  0
LINE
  5
2531
330
20DE
100
AcDbEntity
  8
0
  6
Continuous
100
AcDbLine
 10
416.900024
 20
319.0864677101679
 30
0.0
 11
423.4999850000003
 21
319.0864677101679
 31
0.0
  0
LINE
  5
2532
330
20DE
100
AcDbEntity
  8
0
  6
Continuous
100
AcDbLine
 10
416.900024
 20
301.0864377101678
 30
0.0
 11
423.4999850000003
 21
301.0864377101678
 31
0.0
  0
LINE
  5
2533
330
20DE
100
AcDbEntity
  8
0
  6
Continuous
100
AcDbLine
 10
428.000031
 20
319.0864677101679
 30
0.0
 11
458.0999760000004
 21
319.0864677101679
 31
0.0
  0
LINE
  5
2534
330
20DE
100
AcDbEntity
  8
0
  6
Continuous
100
AcDbLine
 10
428.000031
 20
301.0864377101678
 30
0.0
 11
458.0999760000004
 21
301.0864377101678
 31
0.0
  0
LINE
  5
2535
330
20DE
100
AcDbEntity
  8
0
  6
Continuous
100
AcDbLine
 10
458.0999760000004
 20
319.0864677101679
 30
0.0
 11
458.0999760000004
 21
301.0864377101678
 31
0.0
  0
LINE
  5
2536
330
20DE
100
AcDbEntity
  8
0
  6
Continuous
100
AcDbLine
 10
365.0
 20
280.5864833101681
 30
0.0
 11
423.4999850000003
 21
280.5864833101681
 31
0.0
  0
LINE
  5
2537
330
20DE
100
AcDbEntity
  8
0
  6
Continuous
100
AcDbLine
 10
423.4999850000003
 20
326.0864377101678
 30
0.0
 11
423.4999850000003
 21
280.5864833101681
 31
0.0
  0
LINE
  5
2538
330
20DE
100
AcDbEntity
  8
0
  6
Continuous
100
AcDbLine
 10
160.0
 20
486.0370779863489
 30
0.0
 11
160.0
 21
511.4370779863491
 31
0.0
  0
LINE
  5
2539
330
20DE
100
AcDbEntity
  8
0
  6
Continuous
100
AcDbLine
 10
240.0000000000002
 20
486.0370779863489
 30
0.0
 11
240.0000000000002
 21
511.4370779863491
 31
0.0
  0
LINE
  5
254E
330
20DE
100
AcDbEntity
  8
0
  6
Continuous
100
AcDbLine
 10
215.999985
 20
461.737069986349
 30
0.0
 11
184.0000149999999
 21
461.737069986349
 31
0.0
  0
LINE
  5
254F
330
20DE
100
AcDbEntity
  8
0
  6
Continuous
100
AcDbLine
 10
184.0000149999999
 20
461.737069986349
 30
0.0
 11
184.0000149999999
 21
463.6429636827592
 31
0.0
  0
LINE
  5
2550
330
20DE
100
AcDbEntity
  8
0
  6
Continuous
100
AcDbLine
 10
215.999985
 20
461.737069986349
 30
0.0
 11
215.999985
 21
463.6429636827592
 31
0.0
  0
LINE
  5
2562
330
20DE
100
AcDbEntity
  8
0
  6
Continuous
100
AcDbLine
 10
215.999985
 20
535.7370859863485
 30
0.0
 11
184.0000149999999
 21
535.7370859863494
 31
0.0
  0
LINE
  5
2565
330
20DE
100
AcDbEntity
  8
0
  6
Continuous
100
AcDbLine
 10
184.0000149999999
 20
533.7370779863481
 30
0.0
 11
184.0000149999999
 21
535.7370859863494
 31
0.0
  0
LINE
  5
2567
330
20DE
100
AcDbEntity
  8
0
  6
Continuous
100
AcDbLine
 10
215.9999850000001
 20
533.7370779863481
 30
0.0
 11
215.999985
 21
535.7370859863485
 31
0.0
  0
LINE
  5
25EF
330
20DE
100
AcDbEntity
  8
0
  6
Continuous
100
AcDbLine
 10
222.4999619999998
 20
533.7370779863481
 30
0.0
 11
126.0
 21
533.7370779863481
 31
0.0
  0
LINE
  5
25F0
330
20DE
100
AcDbEntity
  8
0
  6
Continuous
100
AcDbLine
 10
222.4999619999998
 20
529.5370779863479
 30
0.0
 11
125.0
 21
529.5370779863481
 31
0.0
  0
LINE
  5
2826
330
20DE
100
AcDbEntity
  8
0
  6
CENTER
100
AcDbLine
 10
400.0
 20
71.26666785372595
 30
0.0
 11
400.0
 21
324.6496445626987
 31
0.0
  0
LINE
  5
2827
330
20DE
100
AcDbEntity
  8
0
  6
CENTER
100
AcDbLine
 10
354.1631711005889
 20
119.086467710168
 30
0.0
 11
445.8368288994111
 21
119.086467710168
 31
0.0
  0
LINE
  5
2829
330
20DE
100
AcDbEntity
  8
0
  6
CENTER
100
AcDbLine
 10
199.9999999999999
 20
71.26666785372598
 30
0.0
 11
199.9999999999999
 21
324.6496445626987
 31
0.0
  0
LINE
  5
282A
330
20DE
100
AcDbEntity
  8
0
  6
CENTER
100
AcDbLine
 10
154.1631711005888
 20
119.0864677101681
 30
0.0
 11
245.836828899411
 21
119.0864677101681
 31
0.0
  0
LINE
  5
282B
330
20DE
100
AcDbEntity
  8
0
  6
CENTER
100
AcDbLine
 10
200.0252178516431
 20
450.0316353501951
 30
0.0
 11
200.0252178516431
 21
547.4425206225031
 31
0.0
  0
LINE
  5
282C
330
20DE
100
AcDbEntity
  8
0
  6
CENTER
100
AcDbLine
 10
111.3691300299519
 20
498.7370779863491
 30
0.0
 11
274.2727708470765
 21
498.7370779863491
 31
0.0
  0
ENDSEC
  0
SECTION
  2
OBJECTS
  0
DICTIONARY
  5
20CC
330
0
100
AcDbDictionary
281
     1
  3
ACAD_2007HEADERVARS_RT
350
27B8
  3
ACAD_COLOR
350
2179
  3
ACAD_GROUP
350
20CD
  3
ACAD_LAYOUT
350
20D9
  3
ACAD_MATERIAL
350
214F
  3
ACAD_MLEADERSTYLE
350
219E
  3
ACAD_MLINESTYLE
350
20D6
  3
ACAD_PLOTSETTINGS
350
20D8
  3
ACAD_PLOTSTYLENAME
350
20CE
  3
ACAD_SCALELIST
350
217C
  3
ACAD_TABLESTYLE
350
217A
  3
ACAD_VISUALSTYLE
350
2168
  3
ACDB_RECOMPOSE_DATA
350
256D
  3
AcDbVariableDictionary
350
214C
  3
AcmDictionary
350
21FF
  3
AcmSystemVariableManager
350
27C8
  3
AMG
350
21A8
  3
AMGSNAPSETTINGS
350
2235
  3
DWGPROPS
350
27B7
  0
DICTIONARY
  5
2574
330
20C8
100
AcDbDictionary
280
     1
281
     1
  3
ACAD_XREC_ROUNDTRIP
360
27BD
  0
DICTIONARY
  5
281E
330
20C2
100
AcDbDictionary
280
     1
281
     1
  3
ACAD_LAYERSTATES
360
281F
  0
DICTIONARY
  5
2569
330
20D0
100
AcDbDictionary
280
     1
281
     1
  3
ADSK_XREC_LAYER_RECONCILED
360
256A
  0
DICTIONARY
  5
27C2
330
20F1
100
AcDbDictionary
280
     1
281
     1
  3
ACAD_XREC_ROUNDTRIP
360
27C3
  0
DICTIONARY
  5
210A
330
20DE
100
AcDbDictionary
280
     1
281
     1
  3
ACAD_LAYOUTSELFREF
360
280A
  3
ACAD_SORTENTS
360
2566
  0
DICTIONARY
  5
210C
330
20DA
100
AcDbDictionary
280
     1
281
     1
  3
ACAD_LAYOUTSELFREF
360
2809
  0
DICTIONARY
  5
27B8
102
{ACAD_REACTORS
330
20CC
102
}
330
20CC
100
AcDbDictionary
281
     1
  3
DIMARCSYM
350
27B9
  3
DIMLTEX1
350
27BB
  3
DIMLTEX2
350
27BC
  3
DIMLTYPE
350
27BA
  0
DICTIONARY
  5
2179
102
{ACAD_REACTORS
330
20CC
102
}
330
20CC
100
AcDbDictionary
281
     1
  0
DICTIONARY
  5
20CD
102
{ACAD_REACTORS
330
20CC
102
}
330
20CC
100
AcDbDictionary
281
     1
  0
DICTIONARY
  5
20D9
102
{ACAD_REACTORS
330
20CC
102
}
330
20CC
100
AcDbDictionary
281
     1
  3
Model
350
20E1
  3
ﾚｲｱｳﾄ1
350
20DD
  0
DICTIONARY
  5
214F
102
{ACAD_REACTORS
330
20CC
102
}
330
20CC
100
AcDbDictionary
281
     1
  3
ByBlock
350
2158
  3
ByLayer
350
2150
  3
Global
350
2160
  0
DICTIONARY
  5
219E
102
{ACAD_REACTORS
330
20CC
102
}
330
20CC
100
AcDbDictionary
281
     1
  3
Standard
350
219F
  0
DICTIONARY
  5
20D6
102
{ACAD_REACTORS
330
20CC
102
}
330
20CC
100
AcDbDictionary
281
     1
  3
Standard
350
20D7
  0
DICTIONARY
  5
20D8
102
{ACAD_REACTORS
330
20CC
102
}
330
20CC
100
AcDbDictionary
281
     1
  0
ACDBDICTIONARYWDFLT
  5
20CE
102
{ACAD_REACTORS
330
20CC
102
}
330
20CC
100
AcDbDictionary
281
     1
  3
Normal
350
20CF
100
AcDbDictionaryWithDefault
340
20CF
  0
DICTIONARY
  5
217C
102
{ACAD_REACTORS
330
20CC
102
}
330
20CC
100
AcDbDictionary
281
     1
  3
A0
350
217D
  3
A1
350
217E
  3
A2
350
217F
  3
A3
350
2180
  3
A4
350
2181
  3
A5
350
2182
  3
A6
350
2183
  3
A7
350
2184
  3
A8
350
2185
  3
A9
350
2186
  3
B0
350
2187
  3
B1
350
2188
  3
B2
350
2189
  3
B3
350
218A
  3
B4
350
218B
  3
B5
350
218C
  3
B6
350
218D
  3
B7
350
218E
  3
B8
350
218F
  3
B9
350
2190
  3
C0
350
2191
  3
C1
350
2192
  3
C2
350
2193
  3
C3
350
2194
  3
C4
350
2195
  3
C5
350
2196
  3
C6
350
2197
  3
C7
350
2198
  3
C8
350
2199
  3
C9
350
219A
  3
D0
350
219B
  3
D1
350
219C
  3
D2
350
219D
  0
DICTIONARY
  5
217A
102
{ACAD_REACTORS
330
20CC
102
}
330
20CC
100
AcDbDictionary
281
     1
  3
Standard
350
217B
  0
DICTIONARY
  5
2168
102
{ACAD_REACTORS
330
20CC
102
}
330
20CC
100
AcDbDictionary
281
     1
  3
2dWireframe
350
216E
  3
3D Hidden
350
2170
  3
3dWireframe
350
216F
  3
Basic
350
216D
  3
Brighten
350
2174
  3
ColorChange
350
2178
  3
Conceptual
350
2171
  3
Dim
350
2173
  3
Facepattern
350
2177
  3
Flat
350
2169
  3
FlatWithEdges
350
216A
  3
Gouraud
350
216B
  3
GouraudWithEdges
350
216C
  3
Linepattern
350
2176
  3
Realistic
350
2172
  3
Thicken
350
2175
  0
XRECORD
  5
256D
102
{ACAD_REACTORS
330
20CC
102
}
330
20CC
100
AcDbXrecord
280
     1
 90
        1
330
217B
  0
DICTIONARY
  5
214C
102
{ACAD_REACTORS
330
20CC
102
}
330
20CC
100
AcDbDictionary
281
     1
  3
CANNOSCALE
350
2588
  3
CMLEADERSTYLE
350
2587
  3
CTABLESTYLE
350
2586
  3
DIMASSOC
350
214D
  3
INDEXCTL
350
258A
  3
SORTENTS
350
2589
  0
DICTIONARY
  5
21FF
102
{ACAD_REACTORS
330
20CC
102
}
330
20CC
100
AcDbDictionary
281
     1
  3
AcmStdDictionary
350
220C
  0
ACAD_PROXY_OBJECT
  5
27C8
102
{ACAD_REACTORS
330
20CC
102
}
330
20CC
100
AcDbProxyObject
 90
      499
 91
      517
 95
   917527
 70
     0
 93
       32
310
90142200E1
330
0
 94
        0
  0
DICTIONARY
  5
21A8
102
{ACAD_REACTORS
330
20CC
102
}
330
20CC
100
AcDbDictionary
281
     1
  0
DICTIONARY
  5
2235
102
{ACAD_REACTORS
330
20CC
102
}
330
20CC
100
AcDbDictionary
281
     1
  0
XRECORD
  5
27B7
102
{ACAD_REACTORS
330
20CC
102
}
330
20CC
100
AcDbXrecord
280
     1
  1
DWGPROPS COOKIE
  2

  3

  4

  6

  7

  8
m
  9

300
=
301
=
302
=
303
=
304
=
305
=
306
=
307
=
308
=
309
=
 40
0.2353417592592593
 41
2452488.423138738
 42
2454750.480668761
  1

 90
        0
  0
XRECORD
  5
27BD
102
{ACAD_REACTORS
330
2574
102
}
330
2574
100
AcDbXrecord
280
     1
102
VTR_0.000_0.000_1.000_1.000_VISUALSTYLE
340
216E
102
VTR_0.000_0.000_1.000_1.000_GRIDDISPLAY
 70
     3
102
VTR_0.000_0.000_1.000_1.000_GRIDMAJOR
 70
     5
102
VTR_0.000_0.000_1.000_1.000_DEFAULTLIGHTING
280
     1
102
VTR_0.000_0.000_1.000_1.000_DEFAULTLIGHTINGTYPE
 70
     1
102
VTR_0.000_0.000_1.000_1.000_BRIGHTNESS
141
0.0
102
VTR_0.000_0.000_1.000_1.000_CONTRAST
142
0.0
  0
DICTIONARY
  5
281F
102
{ACAD_REACTORS
330
281E
102
}
330
281E
100
AcDbDictionary
281
     1
  0
XRECORD
  5
256A
102
{ACAD_REACTORS
330
2569
102
}
330
2569
100
AcDbXrecord
280
     1
290
     1
  0
XRECORD
  5
27C3
102
{ACAD_REACTORS
330
27C2
102
}
330
27C2
100
AcDbXrecord
280
     1
102
CAMERAPLOTTABLE
 70
     0
102
VISUALSTYLE
340
216E
  0
XRECORD
  5
280A
102
{ACAD_REACTORS
330
210A
102
}
330
210A
100
AcDbXrecord
280
     1
340
20DE
  0
SORTENTSTABLE
  5
2566
102
{ACAD_REACTORS
330
210A
102
}
330
210A
100
AcDbSortentsTable
330
20DE
331
2470
  5
2473
331
23FA
  5
23FA
331
2431
  5
2431
331
24AF
  5
24B2
331
2478
  5
247B
331
2439
  5
2439
331
2402
  5
2402
331
24EE
  5
24F1
331
2480
  5
2483
331
2441
  5
2441
331
240A
  5
240A
331
24B7
  5
24BA
331
24F6
  5
24F9
331
24FE
  5
2501
331
24BF
  5
24C2
331
2449
  5
2449
331
2527
  5
252A
331
24C7
  5
24CA
331
252F
  5
2532
331
2537
  5
254E
331
FF7
  5
FF7
331
2451
  5
2451
331
2412
  5
2412
331
2488
  5
248B
331
24CF
  5
24D2
331
2490
  5
2493
331
23E3
  5
23E3
331
241A
  5
241A
331
2498
  5
249B
331
2461
  5
2464
331
2422
  5
2422
331
23EB
  5
23EB
331
24D7
  5
24DA
331
2500
  5
2503
331
254F
  5
2553
331
24DF
  5
24E2
331
24A0
  5
24A3
331
2469
  5
246C
331
23F3
  5
23F3
331
242A
  5
242A
331
2508
  5
250B
331
24E7
  5
24EA
331
2510
  5
2513
331
2567
  5
25F0
331
2518
  5
251B
331
1D07
  5
1D07
331
F90
  5
F90
331
1D0F
  5
1D0F
331
F98
  5
F98
331
24A8
  5
24AB
331
2471
  5
2474
331
23FB
  5
23FB
331
2432
  5
2432
331
24B0
  5
24B3
331
2479
  5
247C
331
2403
  5
2403
331
243A
  5
243A
331
24EF
  5
24F2
331
24B8
  5
24BB
331
2481
  5
2484
331
240B
  5
240B
331
2442
  5
2442
331
24F7
  5
24FA
331
2520
  5
2523
331
24FF
  5
2502
331
24C0
  5
24C3
331
244A
  5
244A
331
2528
  5
252B
331
2530
  5
2533
331
2538
  5
254F
331
FF8
  5
FF8
331
24C8
  5
24CB
331
2452
  5
2452
331
2413
  5
2413
331
2489
  5
248C
331
24D0
  5
24D3
331
2491
  5
2494
331
23E4
  5
23E4
331
241B
  5
241B
331
24D8
  5
24DB
331
2499
  5
249C
331
2462
  5
2465
331
2423
  5
2423
331
23EC
  5
23EC
331
2501
  5
2504
331
2550
  5
25EF
331
24E0
  5
24E3
331
24A1
  5
24A4
331
246A
  5
246D
331
242B
  5
242B
331
23F4
  5
23F4
331
2509
  5
250C
331
25EF
  5
2461
331
2511
  5
2514
331
2519
  5
251C
331
1D08
  5
1D08
331
1D10
  5
1D10
331
F91
  5
F91
331
F99
  5
F99
331
24E8
  5
24EB
331
24A9
  5
24AC
331
2472
  5
2475
331
23FC
  5
23FC
331
2433
  5
2433
331
24F0
  5
24F3
331
24B1
  5
24B4
331
247A
  5
247D
331
243B
  5
243B
331
2404
  5
2404
331
2521
  5
2524
331
24F8
  5
24FB
331
24B9
  5
24BC
331
2482
  5
2485
331
240C
  5
240C
331
2443
  5
2443
331
2529
  5
252C
331
24C1
  5
24C4
331
244B
  5
244B
331
2531
  5
2534
331
FF1
  5
FF1
331
2539
  5
2550
331
24C9
  5
24CC
331
2453
  5
2453
331
2414
  5
2414
331
248A
  5
248D
331
24D1
  5
24D4
331
245B
  5
245B
331
23E5
  5
23E5
331
241C
  5
241C
331
2492
  5
2495
331
2502
  5
2505
331
24D9
  5
24DC
331
249A
  5
249D
331
2463
  5
2466
331
23ED
  5
23ED
331
2424
  5
2424
331
250A
  5
250D
331
25F0
  5
245D
331
24E1
  5
24E4
331
24A2
  5
24A5
331
246B
  5
246E
331
23F5
  5
23F5
331
242C
  5
242C
331
2512
  5
2515
331
251A
  5
251D
331
1D09
  5
1D09
331
F92
  5
F92
331
1D11
  5
1D11
331
24E9
  5
24EC
331
24AA
  5
24AD
331
2473
  5
2476
331
23FD
  5
23FD
331
2434
  5
2434
331
24F1
  5
24F4
331
24B2
  5
24B5
331
247B
  5
247E
331
2405
  5
2405
331
243C
  5
243C
331
2522
  5
2525
331
24F9
  5
24FC
331
24BA
  5
24BD
331
2483
  5
2486
331
240D
  5
240D
331
2444
  5
2444
331
252A
  5
252D
331
24C2
  5
24C5
331
244C
  5
244C
331
2532
  5
2535
331
FF2
  5
FF2
331
24CA
  5
24CD
331
2454
  5
2454
331
2415
  5
2415
331
248B
  5
248E
331
24D2
  5
24D5
331
245C
  5
245C
331
23E6
  5
23E6
331
241D
  5
241D
331
2493
  5
2496
331
2503
  5
2506
331
24DA
  5
24DD
331
249B
  5
249E
331
2464
  5
2467
331
2425
  5
2425
331
23EE
  5
23EE
331
250B
  5
250E
331
24E2
  5
24E5
331
24A3
  5
24A6
331
246C
  5
246F
331
242D
  5
242D
331
23F6
  5
23F6
331
2562
  5
269C
331
2513
  5
2516
331
251B
  5
251E
331
1D12
  5
1D12
331
F93
  5
F93
331
1D5A
  5
1D5A
331
24EA
  5
24ED
331
24AB
  5
24AE
331
2474
  5
2477
331
23FE
  5
23FE
331
2435
  5
2435
331
24F2
  5
24F5
331
24B3
  5
24B6
331
247C
  5
247F
331
243D
  5
243D
331
2406
  5
2406
331
2523
  5
2526
331
24FA
  5
24FD
331
24BB
  5
24BE
331
2484
  5
2487
331
240E
  5
240E
331
2445
  5
2445
331
252B
  5
252E
331
24C3
  5
24C6
331
244D
  5
244D
331
2533
  5
2536
331
FF3
  5
FF3
331
FFB
  5
FFB
331
15EB
  5
15EB
331
160B
  5
160B
331
24CB
  5
24CE
331
2455
  5
2455
331
23DF
  5
23DF
331
2416
  5
2416
331
248C
  5
248F
331
24D3
  5
24D6
331
245D
  5
245E
331
23E7
  5
23E7
331
241E
  5
241E
331
2494
  5
2497
331
2504
  5
2507
331
24DB
  5
24DE
331
249C
  5
249F
331
2465
  5
2468
331
23EF
  5
23EF
331
2426
  5
2426
331
250C
  5
250F
331
24E3
  5
24E6
331
24A4
  5
24A7
331
246D
  5
2470
331
242E
  5
242E
331
23F7
  5
23F7
331
2514
  5
2517
331
1D03
  5
1D03
331
251C
  5
251F
331
1D0B
  5
1D0B
331
1D13
  5
1D13
331
F94
  5
F94
331
1D5B
  5
1D5B
331
24EB
  5
24EE
331
24AC
  5
24AF
331
2475
  5
2478
331
2436
  5
2436
331
23FF
  5
23FF
331
24F3
  5
24F6
331
24B4
  5
24B7
331
247D
  5
2480
331
243E
  5
243E
331
2524
  5
2527
331
24FB
  5
24FE
331
24BC
  5
24BF
331
2485
  5
2488
331
240F
  5
240F
331
2446
  5
2446
331
252C
  5
252F
331
24C4
  5
24C7
331
244E
  5
244E
331
2534
  5
2537
331
FF4
  5
FF4
331
24CC
  5
24CF
331
2456
  5
2456
331
23E0
  5
23E0
331
2417
  5
2417
331
248D
  5
2490
331
24D4
  5
24D7
331
245E
  5
245F
331
23E8
  5
23E8
331
241F
  5
241F
331
2495
  5
2498
331
2505
  5
2508
331
24DC
  5
24DF
331
249D
  5
24A0
331
2466
  5
2469
331
2427
  5
2427
331
23F0
  5
23F0
331
250D
  5
2510
331
24A5
  5
24A8
331
246E
  5
2471
331
242F
  5
242F
331
24E4
  5
24E7
331
2515
  5
2518
331
1D04
  5
1D04
331
251D
  5
2520
331
1D14
  5
1D14
331
F95
  5
F95
331
23F8
  5
23F8
331
24AD
  5
24B0
331
2476
  5
2479
331
2400
  5
2400
331
2437
  5
2437
331
24EC
  5
24EF
331
24B5
  5
24B8
331
247E
  5
2481
331
2408
  5
2408
331
243F
  5
243F
331
24F4
  5
24F7
331
2525
  5
2528
331
24FC
  5
24FF
331
24BD
  5
24C0
331
2486
  5
2489
331
2447
  5
2447
331
252D
  5
2530
331
24C5
  5
24C8
331
244F
  5
244F
331
2535
  5
2538
331
FF5
  5
FF5
331
2410
  5
2410
331
24CD
  5
24D0
331
2457
  5
2457
331
23E1
  5
23E1
331
2418
  5
2418
331
248E
  5
2491
331
24D5
  5
24D8
331
2420
  5
2420
331
23E9
  5
23E9
331
245F
  5
2460
331
2496
  5
2499
331
2506
  5
2509
331
24DD
  5
24E0
331
249E
  5
24A1
331
2467
  5
246A
331
23F1
  5
23F1
331
2428
  5
2428
331
250E
  5
2511
331
24A6
  5
24A9
331
246F
  5
2472
331
24E5
  5
24E8
331
2565
  5
2567
331
2516
  5
2519
331
1D05
  5
1D05
331
251E
  5
2521
331
F6E
  5
F6E
331
F96
  5
F96
331
2430
  5
2430
331
23F9
  5
23F9
331
24AE
  5
24B1
331
2477
  5
247A
331
2438
  5
2438
331
2401
  5
2401
331
24ED
  5
24F0
331
24B6
  5
24B9
331
2409
  5
2409
331
2440
  5
2440
331
247F
  5
2482
331
24F5
  5
24F8
331
2526
  5
2529
331
24FD
  5
2500
331
24BE
  5
24C1
331
2487
  5
248A
331
2448
  5
2448
331
252E
  5
2531
331
24C6
  5
24C9
331
2536
  5
2539
331
FF6
  5
FF6
331
2450
  5
2450
331
2411
  5
2411
331
24CE
  5
24D1
331
2458
  5
2458
331
23E2
  5
23E2
331
2419
  5
2419
331
248F
  5
2492
331
24D6
  5
24D9
331
2460
  5
2463
331
2421
  5
2421
331
23EA
  5
23EA
331
2497
  5
249A
331
254E
  5
2552
331
2507
  5
250A
331
24DE
  5
24E1
331
249F
  5
24A2
331
2468
  5
246B
331
2429
  5
2429
331
23F2
  5
23F2
331
250F
  5
2512
331
24A7
  5
24AA
331
24E6
  5
24E9
331
2517
  5
251A
331
251F
  5
2522
331
1D06
  5
1D06
331
1D0E
  5
1D0E
331
F8F
  5
F8F
331
1D16
  5
1D16
331
F97
  5
F97
  0
XRECORD
  5
2809
102
{ACAD_REACTORS
330
210C
102
}
330
210C
100
AcDbXrecord
280
     1
340
20DA
  0
XRECORD
  5
27B9
102
{ACAD_REACTORS
330
27B8
102
}
330
27B8
100
AcDbXrecord
280
     1
 70
     1
  0
XRECORD
  5
27BB
102
{ACAD_REACTORS
330
27B8
102
}
330
27B8
100
AcDbXrecord
280
     1
340
20D3
  0
XRECORD
  5
27BC
102
{ACAD_REACTORS
330
27B8
102
}
330
27B8
100
AcDbXrecord
280
     1
340
20D3
  0
XRECORD
  5
27BA
102
{ACAD_REACTORS
330
27B8
102
}
330
27B8
100
AcDbXrecord
280
     1
340
20D3
  0
LAYOUT
  5
20E1
102
{ACAD_XDICTIONARY
360
27C0
102
}
102
{ACAD_REACTORS
330
20D9
102
}
330
20D9
100
AcDbPlotSettings
  1

  2
SII LP-2150 (D-SCAN C2)
  4

  6

 40
0.0
 41
0.0
 42
0.0
 43
0.0
 44
0.0
 45
0.0
 46
0.0
 47
0.0
 48
0.0
 49
0.0
140
0.0
141
0.0
142
1.0
143
1.0
 70
  1712
 72
     0
 73
     0
 74
     0
  7

 75
     0
147
1.0
148
0.0
149
0.0
100
AcDbLayout
  1
Model
 70
     1
 71
     0
 10
0.0
 20
0.0
 11
12.0
 21
9.0
 12
0.0
 22
0.0
 32
0.0
 14
0.0
 24
0.0
 34
0.0
 15
0.0
 25
0.0
 35
0.0
146
0.0
 13
0.0
 23
0.0
 33
0.0
 16
1.0
 26
0.0
 36
0.0
 17
0.0
 27
1.0
 37
0.0
 76
     0
330
20DE
  0
LAYOUT
  5
20DD
102
{ACAD_XDICTIONARY
360
27BE
102
}
102
{ACAD_REACTORS
330
20D9
102
}
330
20D9
100
AcDbPlotSettings
  1

  2
SII LP-2150 (D-SCAN C2)
  4

  6

 40
0.0
 41
0.0
 42
0.0
 43
0.0
 44
0.0
 45
0.0
 46
0.0
 47
0.0
 48
0.0
 49
0.0
140
0.0
141
0.0
142
1.0
143
1.0
 70
   688
 72
     0
 73
     0
 74
     5
  7

 75
    16
147
1.0
148
0.0
149
0.0
100
AcDbLayout
  1
ﾚｲｱｳﾄ1
 70
     1
 71
     1
 10
0.0
 20
0.0
 11
12.0
 21
9.0
 12
0.0
 22
0.0
 32
0.0
 14
1.000000000000000E+20
 24
1.000000000000000E+20
 34
1.000000000000000E+20
 15
-1.000000000000000E+20
 25
-1.000000000000000E+20
 35
-1.000000000000000E+20
146
0.0
 13
0.0
 23
0.0
 33
0.0
 16
1.0
 26
0.0
 36
0.0
 17
0.0
 27
1.0
 37
0.0
 76
     0
330
20DA
  0
ACAD_PROXY_OBJECT
  5
2158
102
{ACAD_XDICTIONARY
360
2159
102
}
102
{ACAD_REACTORS
330
214F
102
}
330
214F
100
AcDbProxyObject
 90
      499
 91
      508
 95
   917527
 70
     0
 93
     1340
310
42109E509B1BD8DAC02004014080404555555555555953FAA155555555555654FEA9AA400014080404555555555555953FAA155555555555654FEA9AA400000000000000E03F4080404555555555555953FAA155555555555654FEA9AA4014080404555555555555953FAA155555555555654FEA9AA4010201011555555555
310
55654FEA8555555555555953FAA6A9005020101155555555555654FEA8555555555555953FAA6A9000
 94
        0
  0
ACAD_PROXY_OBJECT
  5
2150
102
{ACAD_XDICTIONARY
360
2151
102
}
102
{ACAD_REACTORS
330
214F
102
}
330
214F
100
AcDbProxyObject
 90
      499
 91
      508
 95
   917527
 70
     0
 93
     1340
310
42109E53185E595C802004014080404555555555555953FAA155555555555654FEA9AA400014080404555555555555953FAA155555555555654FEA9AA400000000000000E03F4080404555555555555953FAA155555555555654FEA9AA4014080404555555555555953FAA155555555555654FEA9AA4010201011555555555
310
55654FEA8555555555555953FAA6A9005020101155555555555654FEA8555555555555953FAA6A9000
 94
        0
  0
ACAD_PROXY_OBJECT
  5
2160
102
{ACAD_XDICTIONARY
360
2161
102
}
102
{ACAD_REACTORS
330
214F
102
}
330
214F
100
AcDbProxyObject
 90
      499
 91
      508
 95
   917527
 70
     0
 93
     1332
310
41D1DB1BD8985B002004014080404555555555555953FAA155555555555654FEA9AA400014080404555555555555953FAA155555555555654FEA9AA400000000000000E03F4080404555555555555953FAA155555555555654FEA9AA4014080404555555555555953FAA155555555555654FEA9AA401020101155555555555
310
654FEA8555555555555953FAA6A9005020101155555555555654FEA8555555555555953FAA6A9000
 94
        0
  0
ACAD_PROXY_OBJECT
  5
219F
102
{ACAD_REACTORS
330
219E
102
}
330
219E
100
AcDbProxyObject
 90
      499
 91
      512
 95
   917527
 70
     0
 93
      618
310
40901902A4063FBFFFFFE056BD1B81E855B9FC0AD7A3703D0AD73F4254DD185B99185C990000AD7A3703D0AC73F90141901A02B5E8DC0F42B1CFC02B5E8DC0F42B1CFE5764000000000000300FC6
340
20D3
340
0
340
20D1
340
0
 94
        0
1001
ACAD_MLEADERVER
1070
     2
  0
MLINESTYLE
  5
20D7
102
{ACAD_REACTORS
330
20D6
102
}
330
20D6
100
AcDbMlineStyle
  2
STANDARD
 70
     0
  3

 62
   256
 51
90.0
 52
90.0
 71
     2
 49
0.5
 62
   256
  6
BYLAYER
 49
-0.5
 62
   256
  6
BYLAYER
  0
ACDBPLACEHOLDER
  5
20CF
102
{ACAD_REACTORS
330
20CE
102
}
330
20CE
  0
ACAD_PROXY_OBJECT
  5
217D
102
{ACAD_REACTORS
330
217C
102
}
330
217C
100
AcDbProxyObject
 90
      499
 91
      511
 95
   917527
 70
     0
 93
       49
310
904313A3100588
 94
        0
  0
ACAD_PROXY_OBJECT
  5
217E
102
{ACAD_REACTORS
330
217C
102
}
330
217C
100
AcDbProxyObject
 90
      499
 91
      511
 95
   917527
 70
     0
 93
      113
310
904313A3200400000000000000406B
 94
        0
  0
ACAD_PROXY_OBJECT
  5
217F
102
{ACAD_REACTORS
330
217C
102
}
330
217C
100
AcDbProxyObject
 90
      499
 91
      511
 95
   917527
 70
     0
 93
      113
310
904313A34004000000000000104040
 94
        0
  0
ACAD_PROXY_OBJECT
  5
2180
102
{ACAD_REACTORS
330
217C
102
}
330
217C
100
AcDbProxyObject
 90
      499
 91
      511
 95
   917527
 70
     0
 93
      113
310
904313A3500400000000000014406B
 94
        0
  0
ACAD_PROXY_OBJECT
  5
2181
102
{ACAD_REACTORS
330
217C
102
}
330
217C
100
AcDbProxyObject
 90
      499
 91
      511
 95
   917527
 70
     0
 93
      113
310
904313A38004000000000000204040
 94
        0
  0
ACAD_PROXY_OBJECT
  5
2182
102
{ACAD_REACTORS
330
217C
102
}
330
217C
100
AcDbProxyObject
 90
      499
 91
      511
 95
   917527
 70
     0
 93
      121
310
905313A3130004000000000000244051
 94
        0
  0
ACAD_PROXY_OBJECT
  5
2183
102
{ACAD_REACTORS
330
217C
102
}
330
217C
100
AcDbProxyObject
 90
      499
 91
      511
 95
   917527
 70
     0
 93
      121
310
905313A3136004000000000000304009
 94
        0
  0
ACAD_PROXY_OBJECT
  5
2184
102
{ACAD_REACTORS
330
217C
102
}
330
217C
100
AcDbProxyObject
 90
      499
 91
      511
 95
   917527
 70
     0
 93
      121
310
905313A3230004000000000000344051
 94
        0
  0
ACAD_PROXY_OBJECT
  5
2185
102
{ACAD_REACTORS
330
217C
102
}
330
217C
100
AcDbProxyObject
 90
      499
 91
      511
 95
   917527
 70
     0
 93
      121
310
905313A33300040000000000003E4009
 94
        0
  0
ACAD_PROXY_OBJECT
  5
2186
102
{ACAD_REACTORS
330
217C
102
}
330
217C
100
AcDbProxyObject
 90
      499
 91
      511
 95
   917527
 70
     0
 93
      121
310
905313A3430004000000000000444051
 94
        0
  0
ACAD_PROXY_OBJECT
  5
2187
102
{ACAD_REACTORS
330
217C
102
}
330
217C
100
AcDbProxyObject
 90
      499
 91
      511
 95
   917527
 70
     0
 93
      121
310
905313A3530004000000000000494009
 94
        0
  0
ACAD_PROXY_OBJECT
  5
2188
102
{ACAD_REACTORS
330
217C
102
}
330
217C
100
AcDbProxyObject
 90
      499
 91
      511
 95
   917527
 70
     0
 93
      129
310
906313A313030004000000000000594038
 94
        0
  0
ACAD_PROXY_OBJECT
  5
2189
102
{ACAD_REACTORS
330
217C
102
}
330
217C
100
AcDbProxyObject
 90
      499
 91
      511
 95
   917527
 70
     0
 93
      113
310
904323A31000000000000000010140
 94
        0
  0
ACAD_PROXY_OBJECT
  5
218A
102
{ACAD_REACTORS
330
217C
102
}
330
217C
100
AcDbProxyObject
 90
      499
 91
      511
 95
   917527
 70
     0
 93
      113
310
904343A31000000000000000410159
 94
        0
  0
ACAD_PROXY_OBJECT
  5
218B
102
{ACAD_REACTORS
330
217C
102
}
330
217C
100
AcDbProxyObject
 90
      499
 91
      511
 95
   917527
 70
     0
 93
      113
310
904383A31000000000000000810140
 94
        0
  0
ACAD_PROXY_OBJECT
  5
218C
102
{ACAD_REACTORS
330
217C
102
}
330
217C
100
AcDbProxyObject
 90
      499
 91
      511
 95
   917527
 70
     0
 93
      121
310
90531303A31000000000000000910140
 94
        0
  0
ACAD_PROXY_OBJECT
  5
218D
102
{ACAD_REACTORS
330
217C
102
}
330
217C
100
AcDbProxyObject
 90
      499
 91
      511
 95
   917527
 70
     0
 93
      129
310
9063130303A31000000000000001650102
 94
        0
  0
ACAD_PROXY_OBJECT
  5
218E
102
{ACAD_REACTORS
330
217C
102
}
330
217C
100
AcDbProxyObject
 90
      499
 91
      511
 95
   917527
 70
     0
 93
      265
310
90F312F31323822203D2031272D302200000000000000200FC00000000000028402B
 94
        0
  0
ACAD_PROXY_OBJECT
  5
218F
102
{ACAD_REACTORS
330
217C
102
}
330
217C
100
AcDbProxyObject
 90
      499
 91
      511
 95
   917527
 70
     0
 93
      257
310
90E312F363422203D2031272D302200000000000000240FC000000000000284000
 94
        0
  0
ACAD_PROXY_OBJECT
  5
2190
102
{ACAD_REACTORS
330
217C
102
}
330
217C
100
AcDbProxyObject
 90
      499
 91
      511
 95
   917527
 70
     0
 93
      257
310
90E312F333222203D2031272D302200000000000000280FC000000000000284040
 94
        0
  0
ACAD_PROXY_OBJECT
  5
2191
102
{ACAD_REACTORS
330
217C
102
}
330
217C
100
AcDbProxyObject
 90
      499
 91
      511
 95
   917527
 70
     0
 93
      257
310
90E312F313622203D2031272D3022000000000000002C0FC000000000000284000
 94
        0
  0
ACAD_PROXY_OBJECT
  5
2192
102
{ACAD_REACTORS
330
217C
102
}
330
217C
100
AcDbProxyObject
 90
      499
 91
      511
 95
   917527
 70
     0
 93
      257
310
90E332F333222203D2031272D3022000000000000002E0FC000000000000284040
 94
        0
  0
ACAD_PROXY_OBJECT
  5
2193
102
{ACAD_REACTORS
330
217C
102
}
330
217C
100
AcDbProxyObject
 90
      499
 91
      511
 95
   917527
 70
     0
 93
      249
310
90D312F3822203D2031272D302200000000000000300FC000000000000284040
 94
        0
  0
ACAD_PROXY_OBJECT
  5
2194
102
{ACAD_REACTORS
330
217C
102
}
330
217C
100
AcDbProxyObject
 90
      499
 91
      511
 95
   917527
 70
     0
 93
      257
310
90E332F313622203D2031272D302200000000000000320FC000000000000284040
 94
        0
  0
ACAD_PROXY_OBJECT
  5
2195
102
{ACAD_REACTORS
330
217C
102
}
330
217C
100
AcDbProxyObject
 90
      499
 91
      511
 95
   917527
 70
     0
 93
      249
310
90D312F3422203D2031272D302200000000000000340FC000000000000284040
 94
        0
  0
ACAD_PROXY_OBJECT
  5
2196
102
{ACAD_REACTORS
330
217C
102
}
330
217C
100
AcDbProxyObject
 90
      499
 91
      511
 95
   917527
 70
     0
 93
      249
310
90D332F3822203D2031272D302200000000000000360FC000000000000284040
 94
        0
  0
ACAD_PROXY_OBJECT
  5
2197
102
{ACAD_REACTORS
330
217C
102
}
330
217C
100
AcDbProxyObject
 90
      499
 91
      511
 95
   917527
 70
     0
 93
      249
310
90D312F3222203D2031272D302200000000000000380FC000000000000284040
 94
        0
  0
ACAD_PROXY_OBJECT
  5
2198
102
{ACAD_REACTORS
330
217C
102
}
330
217C
100
AcDbProxyObject
 90
      499
 91
      511
 95
   917527
 70
     0
 93
      249
310
90D332F3422203D2031272D3022000000000000003A0FC000000000000284040
 94
        0
  0
ACAD_PROXY_OBJECT
  5
2199
102
{ACAD_REACTORS
330
217C
102
}
330
217C
100
AcDbProxyObject
 90
      499
 91
      511
 95
   917527
 70
     0
 93
      169
310
90B3122203D2031272D3022004000000000000284000
 94
        0
  0
ACAD_PROXY_OBJECT
  5
219A
102
{ACAD_REACTORS
330
217C
102
}
330
217C
100
AcDbProxyObject
 90
      499
 91
      511
 95
   917527
 70
     0
 93
      265
310
90F312D312F3222203D2031272D3022000000000000003E0FC00000000000028402B
 94
        0
  0
ACAD_PROXY_OBJECT
  5
219B
102
{ACAD_REACTORS
330
217C
102
}
330
217C
100
AcDbProxyObject
 90
      499
 91
      511
 95
   917527
 70
     0
 93
      233
310
90B3322203D2031272D30220000000000000002100000000000000284028
 94
        0
  0
ACAD_PROXY_OBJECT
  5
219C
102
{ACAD_REACTORS
330
217C
102
}
330
217C
100
AcDbProxyObject
 90
      499
 91
      511
 95
   917527
 70
     0
 93
      233
310
90B3622203D2031272D30220000000000000006100000000000000284000
 94
        0
  0
ACAD_PROXY_OBJECT
  5
219D
102
{ACAD_REACTORS
330
217C
102
}
330
217C
100
AcDbProxyObject
 90
      499
 91
      511
 95
   917527
 70
     0
 93
      257
310
90E31272D3022203D2031272D3022000000000000000A100000000000000284000
 94
        0
  0
ACAD_PROXY_OBJECT
  5
217B
102
{ACAD_XDICTIONARY
360
256B
102
}
102
{ACAD_REACTORS
330
217A
102
}
330
217A
100
AcDbProxyObject
 90
      499
 91
      510
 95
   917527
 70
     0
 93
     1849
310
4254DD185B99185C990028B81E85EB51B8AE3F2E07A17AD46E2B8FC02B5E8DC0F42B1CFD028000000C1008070000C3001FDFF8000000C1003FBFF000000182007F7FE00000030400FEFFC00000060801FDFF8000000C1003FBFF00000018200000000000000681FA0B0000001820100E000186003FBFF000000182007F7FE0
310
0000030400FEFFC00000060801FDFF8000000C1003FBFF000000182007F7FE000000304000AD7A3703D0AC73F4160000003040201C00030C007F7FE00000030400FEFFC00000060801FDFF8000000C1003FBFF000000182007F7FE00000030400FEFFC000000608000
340
20D1
340
20D1
340
20D1
 94
        0
  0
ACAD_PROXY_OBJECT
  5
216E
102
{ACAD_REACTORS
330
2168
102
}
330
2168
100
AcDbProxyObject
 90
      499
 91
      509
 95
   917527
 70
     0
 93
      444
310
430C9915DA5C99599C985B59401049028333333333333E3BF0000000000000FB0107901411070040501600405405064090741402480A0340
 94
        0
1001
ACAD
1000
AcDbSavedByObjectVersion
1070
     0
  0
ACAD_PROXY_OBJECT
  5
2170
102
{ACAD_REACTORS
330
2168
102
}
330
2168
100
AcDbProxyObject
 90
      499
 91
      509
 95
   917527
 70
     0
 93
      508
310
428CD108121A5919195B8010640502408333333333333E3BF0000000000000FB01079024090700405020000000000001110200405405064090740C02480A0340
 94
        0
1001
ACAD
1000
AcDbSavedByObjectVersion
1070
     0
  0
ACAD_PROXY_OBJECT
  5
216F
102
{ACAD_REACTORS
330
2168
102
}
330
2168
100
AcDbProxyObject
 90
      499
 91
      509
 95
   917527
 70
     0
 93
      444
310
430CD915DA5C99599C985B59401059028333333333333E3BF0000000000000FB0107901411070040501600405405064090741402480A0345
 94
        0
1001
ACAD
1000
AcDbSavedByObjectVersion
1070
     0
  0
ACAD_PROXY_OBJECT
  5
216D
102
{ACAD_REACTORS
330
2168
102
}
330
2168
100
AcDbProxyObject
 90
      499
 91
      509
 95
   917527
 70
     0
 93
      396
310
4190985CDA58C0107406404333333333333E3BF0000000000000FB0107A41107004050150841D405064090741402480A0358
 94
        0
1001
ACAD
1000
AcDbSavedByObjectVersion
1070
     0
  0
ACAD_PROXY_OBJECT
  5
2174
102
{ACAD_REACTORS
330
2168
102
}
330
2168
100
AcDbProxyObject
 90
      499
 91
      509
 95
   917527
 70
     0
 93
      436
310
42509C9A59DA1D195B8010C409028333333333333E3BF0000000000000FB010790141107004050150841D405064090741402480A029956
 94
        0
1001
ACAD
1000
AcDbSavedByObjectVersion
1070
     0
  0
ACAD_PROXY_OBJECT
  5
2178
102
{ACAD_REACTORS
330
2168
102
}
330
2168
100
AcDbProxyObject
 90
      499
 91
      509
 95
   917527
 70
     0
 93
      460
310
4310DBDB1BDC90DA185B99D9401104090240C333333333333E3BF0000000000000FB0108901411070040501508421405064090741402480A0354
 94
        0
1001
ACAD
1000
AcDbSavedByObjectVersion
1070
     0
  0
ACAD_PROXY_OBJECT
  5
2171
102
{ACAD_REACTORS
330
2168
102
}
330
2168
100
AcDbProxyObject
 90
      499
 91
      509
 95
   917527
 70
     0
 93
      508
310
42D0DBDB98D95C1D1D585B0010940D028333333333333E3BF0000000000000FB0107902409070040501000000000000111010841D405064090740C02480A0340
 94
        0
1001
ACAD
1000
AcDbSavedByObjectVersion
1070
     0
  0
ACAD_PROXY_OBJECT
  5
2173
102
{ACAD_REACTORS
330
2168
102
}
330
2168
100
AcDbProxyObject
 90
      499
 91
      509
 95
   917527
 70
     0
 93
      420
310
41111A5B4010B409028333333333333E3BF0000000000000FB010790141107004050150841D405064090741402480A02677FFFFFD4
 94
        0
1001
ACAD
1000
AcDbSavedByObjectVersion
1070
     0
  0
ACAD_PROXY_OBJECT
  5
2177
102
{ACAD_REACTORS
330
2168
102
}
330
2168
100
AcDbProxyObject
 90
      499
 91
      509
 95
   917527
 70
     0
 93
      452
310
43119858D95C185D1D195C9B8010F409028333333333333E3BF0000000000000FB010790141107004050150841D405064090741402480A0350
 94
        0
1001
ACAD
1000
AcDbSavedByObjectVersion
1070
     0
  0
ACAD_PROXY_OBJECT
  5
2169
102
{ACAD_REACTORS
330
2168
102
}
330
2168
100
AcDbProxyObject
 90
      499
 91
      509
 95
   917527
 70
     0
 93
      396
310
41519B185D00240901404333333333333E3BF0000000000000F9010740A41107004050150841D405064090741402480A1B5A
 94
        0
1001
ACAD
1000
AcDbSavedByObjectVersion
1070
     0
  0
ACAD_PROXY_OBJECT
  5
216A
102
{ACAD_REACTORS
330
2168
102
}
330
2168
100
AcDbProxyObject
 90
      499
 91
      509
 95
   917527
 70
     0
 93
      484
310
43919B185D15DA5D1A115919D95CC010140901404333333333333E3BF0000000000000F9010740901411070040501600405405064090741402480A1B50
 94
        0
1001
ACAD
1000
AcDbSavedByObjectVersion
1070
     0
  0
ACAD_PROXY_OBJECT
  5
216B
102
{ACAD_REACTORS
330
2168
102
}
330
2168
100
AcDbProxyObject
 90
      499
 91
      509
 95
   917527
 70
     0
 93
      420
310
4211DBDD5C985D590010240902404333333333333E3BF0000000000000F9010740A411070040501641D405064090741402480A1B55
 94
        0
1001
ACAD
1000
AcDbSavedByObjectVersion
1070
     0
  0
ACAD_PROXY_OBJECT
  5
216C
102
{ACAD_REACTORS
330
2168
102
}
330
2168
100
AcDbProxyObject
 90
      499
 91
      509
 95
   917527
 70
     0
 93
      508
310
4451DBDD5C985D5915DA5D1A115919D95CC010340902404333333333333E3BF0000000000000F9010740901411070040501600405405064090741402480A1B50
 94
        0
1001
ACAD
1000
AcDbSavedByObjectVersion
1070
     0
  0
ACAD_PROXY_OBJECT
  5
2176
102
{ACAD_REACTORS
330
2168
102
}
330
2168
100
AcDbProxyObject
 90
      499
 91
      509
 95
   917527
 70
     0
 93
      452
310
43131A5B995C185D1D195C9B8010E409028333333333333E3BF0000000000000FB010790141107004050750841D405064090741402483A0350
 94
        0
1001
ACAD
1000
AcDbSavedByObjectVersion
1070
     0
  0
ACAD_PROXY_OBJECT
  5
2172
102
{ACAD_REACTORS
330
2168
102
}
330
2168
100
AcDbProxyObject
 90
      499
 91
      509
 95
   917527
 70
     0
 93
      428
310
429499585B1A5CDD1A58C0108409028333333333333E3BF0000000000000FB01079019070040501508421405064090741402480A1B45
 94
        0
1001
ACAD
1000
AcDbSavedByObjectVersion
1070
     0
  0
ACAD_PROXY_OBJECT
  5
2175
102
{ACAD_REACTORS
330
2168
102
}
330
2168
100
AcDbProxyObject
 90
      499
 91
      509
 95
   917527
 70
     0
 93
      420
310
42151A1A58DAD95B8010D409028333333333333E3BF0000000000000FB010790141107004050150C41D405064090741402480A0354
 94
        0
1001
ACAD
1000
AcDbSavedByObjectVersion
1070
     0
  0
DICTIONARYVAR
  5
2588
102
{ACAD_REACTORS
330
214C
102
}
330
214C
100
DictionaryVariables
280
     0
  1
1:1
  0
DICTIONARYVAR
  5
2587
102
{ACAD_REACTORS
330
214C
102
}
330
214C
100
DictionaryVariables
280
     0
  1
STANDARD
  0
DICTIONARYVAR
  5
2586
102
{ACAD_REACTORS
330
214C
102
}
330
214C
100
DictionaryVariables
280
     0
  1
STANDARD
  0
DICTIONARYVAR
  5
214D
102
{ACAD_REACTORS
330
214C
102
}
330
214C
100
DictionaryVariables
280
     0
  1
1
  0
DICTIONARYVAR
  5
258A
102
{ACAD_REACTORS
330
214C
102
}
330
214C
100
DictionaryVariables
280
     0
  1
0
  0
DICTIONARYVAR
  5
2589
102
{ACAD_REACTORS
330
214C
102
}
330
214C
100
DictionaryVariables
280
     0
  1
127
  0
DICTIONARY
  5
220C
102
{ACAD_REACTORS
330
21FF
102
}
330
21FF
100
AcDbDictionary
281
     1
  0
DICTIONARY
  5
27C0
330
20E1
100
AcDbDictionary
280
     1
281
     1
  3
ACAD_XREC_ROUNDTRIP
360
27C1
  0
DICTIONARY
  5
27BE
330
20DD
100
AcDbDictionary
280
     1
281
     1
  3
ACAD_XREC_ROUNDTRIP
360
27BF
  0
DICTIONARY
  5
2159
330
2158
100
AcDbDictionary
280
     1
281
     1
  3
ACAD_XREC_ROUNDTRIP
360
27C5
  3
BUMPTILE
360
215B
  3
DIFFUSETILE
360
215A
  3
OPACITYTILE
360
215E
  3
REFLECTIONTILE
360
215D
  3
REFRACTIONTILE
360
215F
  3
SPECULARTILE
360
215C
  0
DICTIONARY
  5
2151
330
2150
100
AcDbDictionary
280
     1
281
     1
  3
ACAD_XREC_ROUNDTRIP
360
27C4
  3
BUMPTILE
360
2153
  3
DIFFUSETILE
360
2152
  3
OPACITYTILE
360
2156
  3
REFLECTIONTILE
360
2155
  3
REFRACTIONTILE
360
2157
  3
SPECULARTILE
360
2154
  0
DICTIONARY
  5
2161
330
2160
100
AcDbDictionary
280
     1
281
     1
  3
ACAD_XREC_ROUNDTRIP
360
27C6
  3
BUMPTILE
360
2163
  3
DIFFUSETILE
360
2162
  3
OPACITYTILE
360
2166
  3
REFLECTIONTILE
360
2165
  3
REFRACTIONTILE
360
2167
  3
SPECULARTILE
360
2164
  0
DICTIONARY
  5
256B
330
217B
100
AcDbDictionary
280
     1
281
     1
  3
ACAD_ROUNDTRIP_2008_TABLESTYLE_CELLSTYLEMAP
360
27B6
  3
ACAD_XREC_ROUNDTRIP
360
27C7
  0
XRECORD
  5
27C1
102
{ACAD_REACTORS
330
27C0
102
}
330
27C0
100
AcDbXrecord
280
     1
102
SHADEPLOT
 70
     0
102
SHADEPLOTRESLEVEL
 70
     2
102
SHADEPLOTCUSTOMDPI
 70
   300
  0
XRECORD
  5
27BF
102
{ACAD_REACTORS
330
27BE
102
}
330
27BE
100
AcDbXrecord
280
     1
102
SHADEPLOT
 70
     0
102
SHADEPLOTRESLEVEL
 70
     2
102
SHADEPLOTCUSTOMDPI
 70
   300
  0
XRECORD
  5
27C5
102
{ACAD_REACTORS
330
2159
102
}
330
2159
100
AcDbXrecord
280
     1
102
MATERIAL
148
0.0
149
0.0
149
0.0
 93
        0
 94
      127
282
     0
 72
     0
 77
     0
171
     0
175
     0
179
     0
273
     0
  0
XRECORD
  5
215B
102
{ACAD_REACTORS
330
2159
102
}
330
2159
100
AcDbXrecord
280
     1
270
     1
271
     1
  0
XRECORD
  5
215A
102
{ACAD_REACTORS
330
2159
102
}
330
2159
100
AcDbXrecord
280
     1
270
     1
271
     1
  0
XRECORD
  5
215E
102
{ACAD_REACTORS
330
2159
102
}
330
2159
100
AcDbXrecord
280
     1
270
     1
271
     1
  0
XRECORD
  5
215D
102
{ACAD_REACTORS
330
2159
102
}
330
2159
100
AcDbXrecord
280
     1
270
     1
271
     1
  0
XRECORD
  5
215F
102
{ACAD_REACTORS
330
2159
102
}
330
2159
100
AcDbXrecord
280
     1
270
     1
271
     1
  0
XRECORD
  5
215C
102
{ACAD_REACTORS
330
2159
102
}
330
2159
100
AcDbXrecord
280
     1
270
     1
271
     1
  0
XRECORD
  5
27C4
102
{ACAD_REACTORS
330
2151
102
}
330
2151
100
AcDbXrecord
280
     1
102
MATERIAL
148
0.0
149
0.0
149
0.0
 93
        0
 94
      127
282
     0
 72
     0
 77
     0
171
     0
175
     0
179
     0
273
     0
  0
XRECORD
  5
2153
102
{ACAD_REACTORS
330
2151
102
}
330
2151
100
AcDbXrecord
280
     1
270
     1
271
     1
  0
XRECORD
  5
2152
102
{ACAD_REACTORS
330
2151
102
}
330
2151
100
AcDbXrecord
280
     1
270
     1
271
     1
  0
XRECORD
  5
2156
102
{ACAD_REACTORS
330
2151
102
}
330
2151
100
AcDbXrecord
280
     1
270
     1
271
     1
  0
XRECORD
  5
2155
102
{ACAD_REACTORS
330
2151
102
}
330
2151
100
AcDbXrecord
280
     1
270
     1
271
     1
  0
XRECORD
  5
2157
102
{ACAD_REACTORS
330
2151
102
}
330
2151
100
AcDbXrecord
280
     1
270
     1
271
     1
  0
XRECORD
  5
2154
102
{ACAD_REACTORS
330
2151
102
}
330
2151
100
AcDbXrecord
280
     1
270
     1
271
     1
  0
XRECORD
  5
27C6
102
{ACAD_REACTORS
330
2161
102
}
330
2161
100
AcDbXrecord
280
     1
102
MATERIAL
148
0.0
149
0.0
149
0.0
 93
        0
 94
      127
282
     0
 72
     0
 77
     0
171
     0
175
     0
179
     0
273
     0
  0
XRECORD
  5
2163
102
{ACAD_REACTORS
330
2161
102
}
330
2161
100
AcDbXrecord
280
     1
270
     1
271
     1
  0
XRECORD
  5
2162
102
{ACAD_REACTORS
330
2161
102
}
330
2161
100
AcDbXrecord
280
     1
270
     1
271
     1
  0
XRECORD
  5
2166
102
{ACAD_REACTORS
330
2161
102
}
330
2161
100
AcDbXrecord
280
     1
270
     1
271
     1
  0
XRECORD
  5
2165
102
{ACAD_REACTORS
330
2161
102
}
330
2161
100
AcDbXrecord
280
     1
270
     1
271
     1
  0
XRECORD
  5
2167
102
{ACAD_REACTORS
330
2161
102
}
330
2161
100
AcDbXrecord
280
     1
270
     1
271
     1
  0
XRECORD
  5
2164
102
{ACAD_REACTORS
330
2161
102
}
330
2161
100
AcDbXrecord
280
     1
270
     1
271
     1
  0
ACAD_PROXY_OBJECT
  5
27B6
102
{ACAD_REACTORS
330
256B
102
}
330
256B
100
AcDbProxyObject
 90
      499
 91
      602
 95
   917527
 70
     0
 93
     1044
310
40D054060020000020000003200101A000080002A5058000000C100000000000000340FE901405075F5449544C450041501A8000000C800406800020000A9416000000304000AD7A3703D0AC73FA409014217D2115051115480105406A0000003200101A000080002A5028000000C10002B5E8DC0F42B1CFE903409065F444
310
15441005
340
20D1
340
20D1
340
20D1
 94
        0
  0
XRECORD
  5
27C7
102
{ACAD_REACTORS
330
256B
102
}
330
256B
100
AcDbXrecord
280
     1
102
ACAD_ROUNDTRIP_PRE2007_TABLESTYLE
 90
      512
 91
        0
  1

 92
      512
 93
        0
  2

 94
      512
 95
        0
  3

  0
ENDSEC
  0
EOF
