  0
SECTION
  2
HEADER
  9
$ACADVER
  1
AC1015
  9
$ACADMAINTVER
 70
    14
  9
$DWGCODEPAGE
  3
ANSI_932
  9
$INSBASE
 10
0.0
 20
0.0
 30
0.0
  9
$EXTMIN
 10
-3.724141746504983
 20
-4.714076665581842
 30
-0.0000000000112498
  9
$EXTMAX
 10
791.2781861961309
 20
674.0106232625801
 30
0.0000000000002956
  9
$LIMMIN
 10
-44.912933
 20
-21.841471
  9
$LIMMAX
 10
153.5627299999999
 20
105.04179
  9
$ORTHOMODE
 70
     0
  9
$REGENMODE
 70
     1
  9
$FILLMODE
 70
     1
  9
$QTEXTMODE
 70
     0
  9
$MIRRTEXT
 70
     1
  9
$LTSCALE
 40
1.0
  9
$ATTMODE
 70
     1
  9
$TEXTSIZE
 40
0.2
  9
$TRACEWID
 40
0.05
  9
$TEXTSTYLE
  7
STANDARD
  9
$CLAYER
  8
0
  9
$CELTYPE
  6
CONTINUOUS
  9
$CECOLOR
 62
   256
  9
$CELTSCALE
 40
1.0
  9
$DISPSILH
 70
     0
  9
$DIMSCALE
 40
1.0
  9
$DIMASZ
 40
1.0
  9
$DIMEXO
 40
2.54
  9
$DIMDLI
 40
0.38
  9
$DIMRND
 40
0.0
  9
$DIMDLE
 40
0.0
  9
$DIMEXE
 40
2.54
  9
$DIMTP
 40
0.0
  9
$DIMTM
 40
0.0
  9
$DIMTXT
 40
3.2
  9
$DIMCEN
 40
0.09
  9
$DIMTSZ
 40
0.0
  9
$DIMTOL
 70
     0
  9
$DIMLIM
 70
     0
  9
$DIMTIH
 70
     0
  9
$DIMTOH
 70
     0
  9
$DIMSE1
 70
     0
  9
$DIMSE2
 70
     0
  9
$DIMTAD
 70
     1
  9
$DIMZIN
 70
     0
  9
$DIMBLK
  1

  9
$DIMASO
 70
     1
  9
$DIMSHO
 70
     0
  9
$DIMPOST
  1

  9
$DIMAPOST
  1

  9
$DIMALT
 70
     0
  9
$DIMALTD
 70
     2
  9
$DIMALTF
 40
25.4
  9
$DIMLFAC
 40
1.0
  9
$DIMTOFL
 70
     0
  9
$DIMTVP
 40
1.0
  9
$DIMTIX
 70
     0
  9
$DIMSOXD
 70
     0
  9
$DIMSAH
 70
     1
  9
$DIMBLK1
  1

  9
$DIMBLK2
  1

  9
$DIMSTYLE
  2
STANDARD
  9
$DIMCLRD
 70
     0
  9
$DIMCLRE
 70
     0
  9
$DIMCLRT
 70
     0
  9
$DIMTFAC
 40
1.0
  9
$DIMGAP
 40
1.6
  9
$DIMJUST
 70
     0
  9
$DIMSD1
 70
     0
  9
$DIMSD2
 70
     0
  9
$DIMTOLJ
 70
     1
  9
$DIMTZIN
 70
     0
  9
$DIMALTZ
 70
     0
  9
$DIMALTTZ
 70
     0
  9
$DIMUPT
 70
     0
  9
$DIMDEC
 70
     4
  9
$DIMTDEC
 70
     4
  9
$DIMALTU
 70
     2
  9
$DIMALTTD
 70
     2
  9
$DIMTXSTY
  7
STANDARD
  9
$DIMAUNIT
 70
     0
  9
$DIMADEC
 70
     0
  9
$DIMALTRND
 40
0.0
  9
$DIMAZIN
 70
     0
  9
$DIMDSEP
 70
    46
  9
$DIMATFIT
 70
     3
  9
$DIMFRAC
 70
     0
  9
$DIMLDRBLK
  1

  9
$DIMLUNIT
 70
     2
  9
$DIMLWD
 70
    -2
  9
$DIMLWE
 70
    -2
  9
$DIMTMOVE
 70
     0
  9
$LUNITS
 70
     2
  9
$LUPREC
 70
     4
  9
$SKETCHINC
 40
0.1
  9
$FILLETRAD
 40
0.0
  9
$AUNITS
 70
     0
  9
$AUPREC
 70
     0
  9
$MENU
  1
.
  9
$ELEVATION
 40
0.0
  9
$PELEVATION
 40
0.0
  9
$THICKNESS
 40
0.0
  9
$LIMCHECK
 70
     0
  9
$CHAMFERA
 40
0.0
  9
$CHAMFERB
 40
0.0
  9
$CHAMFERC
 40
0.0
  9
$CHAMFERD
 40
0.0
  9
$SKPOLY
 70
     0
  9
$TDCREATE
 40
2452488.423151215
  9
$TDUCREATE
 40
2452488.048151215
  9
$TDUPDATE
 40
2456899.667177117
  9
$TDUUPDATE
 40
2456899.292177117
  9
$TDINDWG
 40
0.1223925694
  9
$TDUSRTIMER
 40
0.1223922106
  9
$USRTIMER
 70
     1
  9
$ANGBASE
 50
0.0
  9
$ANGDIR
 70
     0
  9
$PDMODE
 70
     0
  9
$PDSIZE
 40
0.0
  9
$PLINEWID
 40
0.0
  9
$SPLFRAME
 70
     0
  9
$SPLINETYPE
 70
     6
  9
$SPLINESEGS
 70
     8
  9
$HANDSEED
  5
212D
  9
$SURFTAB1
 70
     6
  9
$SURFTAB2
 70
     6
  9
$SURFTYPE
 70
     6
  9
$SURFU
 70
     6
  9
$SURFV
 70
     6
  9
$UCSBASE
  2

  9
$UCSNAME
  2

  9
$UCSORG
 10
0.0
 20
0.0
 30
0.0
  9
$UCSXDIR
 10
1.0
 20
0.0
 30
0.0
  9
$UCSYDIR
 10
0.0
 20
1.0
 30
0.0
  9
$UCSORTHOREF
  2

  9
$UCSORTHOVIEW
 70
     0
  9
$UCSORGTOP
 10
0.0
 20
0.0
 30
0.0
  9
$UCSORGBOTTOM
 10
0.0
 20
0.0
 30
0.0
  9
$UCSORGLEFT
 10
0.0
 20
0.0
 30
0.0
  9
$UCSORGRIGHT
 10
0.0
 20
0.0
 30
0.0
  9
$UCSORGFRONT
 10
0.0
 20
0.0
 30
0.0
  9
$UCSORGBACK
 10
0.0
 20
0.0
 30
0.0
  9
$PUCSBASE
  2

  9
$PUCSNAME
  2

  9
$PUCSORG
 10
0.0
 20
0.0
 30
0.0
  9
$PUCSXDIR
 10
1.0
 20
0.0
 30
0.0
  9
$PUCSYDIR
 10
0.0
 20
1.0
 30
0.0
  9
$PUCSORTHOREF
  2

  9
$PUCSORTHOVIEW
 70
     0
  9
$PUCSORGTOP
 10
0.0
 20
0.0
 30
0.0
  9
$PUCSORGBOTTOM
 10
0.0
 20
0.0
 30
0.0
  9
$PUCSORGLEFT
 10
0.0
 20
0.0
 30
0.0
  9
$PUCSORGRIGHT
 10
0.0
 20
0.0
 30
0.0
  9
$PUCSORGFRONT
 10
0.0
 20
0.0
 30
0.0
  9
$PUCSORGBACK
 10
0.0
 20
0.0
 30
0.0
  9
$USERI1
 70
     0
  9
$USERI2
 70
     0
  9
$USERI3
 70
     0
  9
$USERI4
 70
     0
  9
$USERI5
 70
     0
  9
$USERR1
 40
0.0
  9
$USERR2
 40
0.0
  9
$USERR3
 40
0.0
  9
$USERR4
 40
0.0
  9
$USERR5
 40
0.0
  9
$WORLDVIEW
 70
     1
  9
$SHADEDGE
 70
     3
  9
$SHADEDIF
 70
    70
  9
$TILEMODE
 70
     1
  9
$MAXACTVP
 70
    48
  9
$PINSBASE
 10
0.0
 20
0.0
 30
0.0
  9
$PLIMCHECK
 70
     0
  9
$PEXTMIN
 10
-44.912933
 20
-21.841471
 30
0.0
  9
$PEXTMAX
 10
153.5627299999999
 20
105.04179
 30
0.0
  9
$PLIMMIN
 10
-44.912933
 20
-21.841471
  9
$PLIMMAX
 10
153.5627299999999
 20
105.04179
  9
$UNITMODE
 70
     0
  9
$VISRETAIN
 70
     1
  9
$PLINEGEN
 70
     0
  9
$PSLTSCALE
 70
     1
  9
$TREEDEPTH
 70
  3020
  9
$CMLSTYLE
  2
Standard
  9
$CMLJUST
 70
     0
  9
$CMLSCALE
 40
1.0
  9
$PROXYGRAPHICS
 70
     1
  9
$MEASUREMENT
 70
     0
  9
$CELWEIGHT
370
    -1
  9
$ENDCAPS
280
     0
  9
$JOINSTYLE
280
     0
  9
$LWDISPLAY
290
     0
  9
$INSUNITS
 70
     0
  9
$HYPERLINKBASE
  1

  9
$STYLESHEET
  1

  9
$XEDIT
290
     1
  9
$CEPSNTYPE
380
     0
  9
$PSTYLEMODE
290
     1
  9
$FINGERPRINTGUID
  2
{A878C53E-53F6-42C7-96F4-9745BFBE8D0C}
  9
$VERSIONGUID
  2
{7AF058D9-2D18-435F-8279-016DF52715B7}
  9
$EXTNAMES
290
     1
  9
$PSVPSCALE
 40
0.0
  9
$OLESTARTUP
290
     0
  0
ENDSEC
  0
SECTION
  2
CLASSES
  0
CLASS
  1
ACDBDICTIONARYWDFLT
  2
AcDbDictionaryWithDefault
  3
AutoCAD 2000
 90
        0
280
     0
281
     0
  0
CLASS
  1
ACDBPLACEHOLDER
  2
AcDbPlaceHolder
  3
AutoCAD 2000
 90
        0
280
     0
281
     0
  0
CLASS
  1
LAYOUT
  2
AcDbLayout
  3
AutoCAD 2000
 90
        0
280
     0
281
     0
  0
CLASS
  1
DICTIONARYVAR
  2
AcDbDictionaryVar
  3
AutoCAD 2000
 90
        0
280
     0
281
     0
  0
CLASS
  1
LONG_TRANSACTION
  2
AcDbLongTransaction
  3
AutoCAD 2000
 90
    32768
280
     0
281
     0
  0
CLASS
  1
LWPOLYLINE
  2
AcDbPolyline
  3
AutoCAD 2000
 90
    32768
280
     0
281
     1
  0
CLASS
  1
HATCH
  2
AcDbHatch
  3
AutoCAD 2000
 90
    32768
280
     0
281
     1
  0
CLASS
  1
XRECORD
  2
AcDbXrecord
  3
AutoCAD 2000
 90
    32768
280
     0
281
     0
  0
ENDSEC
  0
SECTION
  2
TABLES
  0
TABLE
  2
VPORT
  5
1FFF
330
0
100
AcDbSymbolTable
 70
     2
  0
VPORT
  5
212C
330
1FFF
100
AcDbSymbolTableRecord
100
AcDbViewportTableRecord
  2
*Active
 70
     0
 10
0.0
 20
0.0
 11
1.0
 21
1.0
 12
393.777022224813
 22
334.6482732984991
 13
0.0
 23
0.0
 14
1.0
 24
1.0
 15
0.0
 25
0.0
 16
0.0
 26
0.0
 36
1.0
 17
0.0
 27
0.0
 37
0.0
 40
683.0340631023091
 41
1.592161016949152
 42
50.0
 43
0.0
 44
0.0
 50
0.0
 51
0.0
 71
     0
 72
   100
 73
     1
 74
     3
 75
     0
 76
     0
 77
     0
 78
     0
281
     0
 65
     1
110
0.0
120
0.0
130
0.0
111
1.0
121
0.0
131
0.0
112
0.0
122
1.0
132
0.0
 79
     0
146
0.0
  0
ENDTAB
  0
TABLE
  2
LTYPE
  5
1FFC
330
0
100
AcDbSymbolTable
 70
     2
  0
LTYPE
  5
200A
330
1FFC
100
AcDbSymbolTableRecord
100
AcDbLinetypeTableRecord
  2
ByBlock
 70
     0
  3

 72
    65
 73
     0
 40
0.0
  0
LTYPE
  5
200B
330
1FFC
100
AcDbSymbolTableRecord
100
AcDbLinetypeTableRecord
  2
ByLayer
 70
     0
  3

 72
    65
 73
     0
 40
0.0
  0
LTYPE
  5
200C
330
1FFC
100
AcDbSymbolTableRecord
100
AcDbLinetypeTableRecord
  2
CONTINUOUS
 70
     0
  3
Solid line
 72
    65
 73
     0
 40
0.0
  0
LTYPE
  5
20DF
330
1FFC
100
AcDbSymbolTableRecord
100
AcDbLinetypeTableRecord
  2
CENTER
 70
     0
  3
__ . __
 72
    65
 73
     4
 40
7.0
 49
4.0
 74
     0
 49
-1.0
 74
     0
 49
1.0
 74
     0
 49
-1.0
 74
     0
  0
ENDTAB
  0
TABLE
  2
LAYER
  5
1FF9
102
{ACAD_XDICTIONARY
360
206B
102
}
330
0
100
AcDbSymbolTable
 70
     1
  0
LAYER
  5
2007
330
1FF9
100
AcDbSymbolTableRecord
100
AcDbLayerTableRecord
  2
0
 70
     0
 62
     7
  6
CONTINUOUS
370
    -3
390
2006
  0
ENDTAB
  0
TABLE
  2
STYLE
  5
1FFA
330
0
100
AcDbSymbolTable
 70
     1
  0
STYLE
  5
2008
330
1FFA
100
AcDbSymbolTableRecord
100
AcDbTextStyleTableRecord
  2
STANDARD
 70
     0
 40
0.0
 41
1.0
 50
0.0
 71
     0
 42
0.2
  3
txt
  4

  0
ENDTAB
  0
TABLE
  2
VIEW
  5
1FFD
330
0
100
AcDbSymbolTable
 70
     0
  0
ENDTAB
  0
TABLE
  2
UCS
  5
1FFE
330
0
100
AcDbSymbolTable
 70
     0
  0
ENDTAB
  0
TABLE
  2
APPID
  5
2000
330
0
100
AcDbSymbolTable
 70
    10
  0
APPID
  5
2009
330
2000
100
AcDbSymbolTableRecord
100
AcDbRegAppTableRecord
  2
ACAD
 70
     0
  0
APPID
  5
201A
330
2000
100
AcDbSymbolTableRecord
100
AcDbRegAppTableRecord
  2
MCAD_NO_VIS
 70
     0
  0
APPID
  5
201B
330
2000
100
AcDbSymbolTableRecord
100
AcDbRegAppTableRecord
  2
ACAD_TEMP_GRAPHIC
 70
     0
  0
APPID
  5
201C
330
2000
100
AcDbSymbolTableRecord
100
AcDbRegAppTableRecord
  2
ACATTRIBSERVICES
 70
     0
  0
APPID
  5
2065
330
2000
100
AcDbSymbolTableRecord
100
AcDbRegAppTableRecord
  2
ACAD_DSTYLE_DIMARC_LENGTH_SYMBOL
 70
     0
  0
APPID
  5
2066
330
2000
100
AcDbSymbolTableRecord
100
AcDbRegAppTableRecord
  2
ACAD_DSTYLE_DIMJOGGED_JOGANGLE_SYMBOL
 70
     0
  0
APPID
  5
2067
330
2000
100
AcDbSymbolTableRecord
100
AcDbRegAppTableRecord
  2
AcAecLayerStandard
 70
     0
  0
APPID
  5
2068
330
2000
100
AcDbSymbolTableRecord
100
AcDbRegAppTableRecord
  2
ACAD_DSTYLE_DIMEXT_LENGTH
 70
     0
  0
APPID
  5
2069
330
2000
100
AcDbSymbolTableRecord
100
AcDbRegAppTableRecord
  2
ACAD_DSTYLE_DIMEXT_ENABLED
 70
     0
  0
APPID
  5
206A
330
2000
100
AcDbSymbolTableRecord
100
AcDbRegAppTableRecord
  2
ACAD_PSEXT
 70
     0
  0
ENDTAB
  0
TABLE
  2
DIMSTYLE
  5
2001
330
0
100
AcDbSymbolTable
 70
     1
100
AcDbDimStyleTable
 71
     0
  0
DIMSTYLE
105
201D
330
2001
100
AcDbSymbolTableRecord
100
AcDbDimStyleTableRecord
  2
STANDARD
 70
     0
279
     2
340
2008
  0
ENDTAB
  0
TABLE
  2
BLOCK_RECORD
  5
1FF8
330
0
100
AcDbSymbolTable
 70
     0
  0
BLOCK_RECORD
  5
2015
102
{ACAD_XDICTIONARY
360
2025
102
}
330
1FF8
100
AcDbSymbolTableRecord
100
AcDbBlockTableRecord
  2
*Model_Space
340
2018
  0
BLOCK_RECORD
  5
2011
102
{ACAD_XDICTIONARY
360
2027
102
}
330
1FF8
100
AcDbSymbolTableRecord
100
AcDbBlockTableRecord
  2
*Paper_Space
340
2014
  0
ENDTAB
  0
ENDSEC
  0
SECTION
  2
BLOCKS
  0
BLOCK
  5
2016
330
2015
100
AcDbEntity
  8
0
100
AcDbBlockBegin
  2
*Model_Space
 70
     0
 10
0.0
 20
0.0
 30
0.0
  3
*Model_Space
  1

  0
ENDBLK
  5
2017
330
2015
100
AcDbEntity
  8
0
100
AcDbBlockEnd
  0
BLOCK
  5
2012
330
2011
100
AcDbEntity
 67
     1
  8
0
100
AcDbBlockBegin
  2
*Paper_Space
 70
     0
 10
0.0
 20
0.0
 30
0.0
  3
*Paper_Space
  1

  0
ENDBLK
  5
2013
330
2011
100
AcDbEntity
 67
     1
  8
0
100
AcDbBlockEnd
  0
ENDSEC
  0
SECTION
  2
ENTITIES
  0
LINE
  5
153B
330
2015
100
AcDbEntity
  8
0
100
AcDbLine
 10
326.0594603641229
 20
173.3000029999998
 30
0.0
 11
326.0594603641229
 21
171.3000029999998
 31
0.0
  0
LINE
  5
153D
330
2015
100
AcDbEntity
  8
0
100
AcDbLine
 10
326.0594603641229
 20
16.0
 30
0.0
 11
366.059460364124
 21
16.0
 31
0.0
  0
LINE
  5
153E
330
2015
100
AcDbEntity
  8
0
100
AcDbLine
 10
366.059460364124
 20
16.0
 30
0.0
 11
366.059460364124
 21
173.3000029999998
 31
0.0
  0
LINE
  5
153F
330
2015
100
AcDbEntity
  8
0
100
AcDbLine
 10
326.0594603641229
 20
16.0
 30
0.0
 11
326.0594603641229
 21
173.3000029999998
 31
0.0
  0
LINE
  5
1540
330
2015
100
AcDbEntity
  8
0
100
AcDbLine
 10
326.0594603641229
 20
173.3000029999998
 30
0.0
 11
366.059460364124
 21
173.3000029999998
 31
0.0
  0
LINE
  5
1546
330
2015
100
AcDbEntity
  8
0
100
AcDbLine
 10
317.974013364124
 20
217.75544
 30
0.0
 11
366.1983677514557
 21
226.2586887699459
 31
0.0
  0
LINE
  5
1548
330
2015
100
AcDbEntity
  8
0
100
AcDbLine
 10
304.9955643641232
 20
199.220305
 30
0.0
 11
317.974015364124
 21
217.7554499999998
 31
0.0
  0
LINE
  5
1549
330
2015
100
AcDbEntity
  8
0
100
AcDbLine
 10
304.9955623641232
 20
199.220305
 30
0.0
 11
307.7023673641219
 21
193.4155429999997
 31
0.0
  0
LINE
  5
154A
330
2015
100
AcDbEntity
  8
0
100
AcDbLine
 10
317.662243364123
 20
197.565325
 30
0.0
 11
320.161606364122
 21
201.89435
 31
0.0
  0
LINE
  5
154B
330
2015
100
AcDbEntity
  8
0
100
AcDbLine
 10
320.161582364124
 20
201.8943399999999
 30
0.0
 11
328.8257753641213
 21
203.4220799999999
 31
0.0
  0
LINE
  5
1551
330
2015
100
AcDbEntity
  8
0
100
AcDbLine
 10
365.0594603641228
 20
205.3500199999998
 30
0.0
 11
365.0594603641228
 21
198.2999879999997
 31
0.0
  0
LINE
  5
1552
330
2015
100
AcDbEntity
  8
0
100
AcDbLine
 10
327.059460364122
 20
202.60297
 30
0.0
 11
327.059460364122
 21
198.2999879999997
 31
0.0
  0
LINE
  5
1553
330
2015
100
AcDbEntity
  8
0
100
AcDbLine
 10
365.0594603641228
 20
205.3500099999999
 30
0.0
 11
363.2931643641239
 21
205.3500099999999
 31
0.0
  0
LINE
  5
1554
330
2015
100
AcDbEntity
  8
0
100
AcDbLine
 10
363.293133364122
 20
225.7464399999999
 30
0.0
 11
363.293133364122
 21
205.3500199999998
 31
0.0
  0
LINE
  5
1555
330
2015
100
AcDbEntity
  8
0
100
AcDbLine
 10
328.825756364124
 20
219.6689099999999
 30
0.0
 11
328.825756364124
 21
202.9144099999996
 31
0.0
  0
LINE
  5
1556
330
2015
100
AcDbEntity
  8
0
100
AcDbLine
 10
328.8257683641229
 20
202.91439
 30
0.0
 11
327.0594673641241
 21
202.6029499999997
 31
0.0
  0
LINE
  5
1557
330
2015
100
AcDbEntity
  8
0
100
AcDbLine
 10
358.904705364122
 20
224.9726399999999
 30
0.0
 11
358.904705364122
 21
205.3500199999998
 31
0.0
  0
LINE
  5
1558
330
2015
100
AcDbEntity
  8
0
100
AcDbLine
 10
333.214215364124
 20
220.44272
 30
0.0
 11
333.214215364124
 21
205.3500099999999
 31
0.0
  0
LINE
  5
1559
330
2015
100
AcDbEntity
  8
0
100
AcDbLine
 10
358.904705364122
 20
205.3500099999999
 30
0.0
 11
333.214215364124
 21
205.3500099999999
 31
0.0
  0
LINE
  5
155A
330
2015
100
AcDbEntity
  8
0
100
AcDbLine
 10
326.059521364122
 20
198.2999879999997
 30
0.0
 11
351.0594603641228
 21
198.2999879999997
 31
0.0
  0
LINE
  5
155B
330
2015
100
AcDbEntity
  8
0
100
AcDbLine
 10
356.0594603641228
 20
203.2999899999999
 30
0.0
 11
356.0594603641228
 21
173.5
 31
0.0
  0
LINE
  5
155C
330
2015
100
AcDbEntity
  8
0
100
AcDbLine
 10
351.0594603641228
 20
203.2999899999999
 30
0.0
 11
351.0594603641228
 21
193.2999879999999
 31
0.0
  0
LINE
  5
155D
330
2015
100
AcDbEntity
  8
0
100
AcDbLine
 10
307.7562373641232
 20
193.2999879999999
 30
0.0
 11
356.0594603641228
 21
193.2999879999999
 31
0.0
  0
LINE
  5
155E
330
2015
100
AcDbEntity
  8
0
100
AcDbLine
 10
313.565151364124
 20
197.2068679999997
 30
0.0
 11
311.3095063641242
 21
193.299975
 31
0.0
  0
LINE
  5
155F
330
2015
100
AcDbEntity
  8
0
100
AcDbLine
 10
313.565122364124
 20
197.2069159999998
 30
0.0
 11
326.0594793641229
 21
198.3000309999999
 31
0.0
  0
LINE
  5
1560
330
2015
100
AcDbEntity
  8
0
100
AcDbLine
 10
332.559460364124
 20
193.2999879999999
 30
0.0
 11
332.559460364124
 21
176.2999879999999
 31
0.0
  0
LINE
  5
1561
330
2015
100
AcDbEntity
  8
0
100
AcDbLine
 10
351.0594603641228
 20
203.2999899999999
 30
0.0
 11
356.0594603641228
 21
203.2999899999999
 31
0.0
  0
LINE
  5
1562
330
2015
100
AcDbEntity
  8
0
100
AcDbLine
 10
323.5594603641219
 20
171.3000029999998
 30
0.0
 11
326.0594603641229
 21
171.3000029999998
 31
0.0
  0
LINE
  5
1563
330
2015
100
AcDbEntity
  8
0
100
AcDbLine
 10
323.5594603641219
 20
176.2999879999999
 30
0.0
 11
356.0594603641228
 21
176.2999879999999
 31
0.0
  0
LINE
  5
1564
330
2015
100
AcDbEntity
  8
0
100
AcDbLine
 10
326.0594603641229
 20
173.3000029999998
 30
0.0
 11
326.0594603641229
 21
171.3000029999998
 31
0.0
  0
LINE
  5
1565
330
2015
100
AcDbEntity
  8
0
100
AcDbLine
 10
323.5594603641219
 20
176.2999879999999
 30
0.0
 11
323.5594603641219
 21
171.3000029999998
 31
0.0
  0
LINE
  5
1566
330
2015
100
AcDbEntity
  8
0
100
AcDbLine
 10
356.0594603641228
 20
198.2999879999997
 30
0.0
 11
365.0594603641228
 21
198.2999879999997
 31
0.0
  0
LINE
  5
1567
330
2015
100
AcDbEntity
  8
0
100
AcDbLine
 10
363.2931463641228
 20
209.4996
 30
0.0
 11
367.0384311763488
 21
210.1599932664798
 31
0.0
  0
CIRCLE
  5
156E
330
2015
100
AcDbEntity
  8
0
100
AcDbCircle
 10
339.059460364124
 20
213.3500199999998
 30
0.0
 40
4.150000099999997
  0
CIRCLE
  5
1570
330
2015
100
AcDbEntity
  8
0
100
AcDbCircle
 10
339.059460364124
 20
213.3500199999998
 30
0.0
 40
4.150000099999997
  0
LINE
  5
1576
330
2015
100
AcDbEntity
  8
0
100
AcDbLine
 10
55.03374136412297
 20
173.3000029999998
 30
0.0
 11
137.0851793641228
 21
173.3000029999998
 31
0.0
  0
LINE
  5
1577
330
2015
100
AcDbEntity
  8
0
100
AcDbLine
 10
82.55946036412408
 20
193.3000029999998
 30
0.0
 11
82.55946036412408
 21
176.3000029999998
 31
0.0
  0
LINE
  5
1578
330
2015
100
AcDbEntity
  8
0
100
AcDbLine
 10
109.5594603641241
 20
193.3000029999998
 30
0.0
 11
109.5594603641241
 21
176.3000029999998
 31
0.0
  0
LINE
  5
1579
330
2015
100
AcDbEntity
  8
0
100
AcDbLine
 10
66.05946036412409
 20
176.3000029999998
 30
0.0
 11
126.0594603641229
 21
176.3000029999998
 31
0.0
  0
LINE
  5
157A
330
2015
100
AcDbEntity
  8
0
100
AcDbLine
 10
126.0594603641229
 20
176.3000029999998
 30
0.0
 11
126.0594603641229
 21
173.3000029999998
 31
0.0
  0
LINE
  5
157B
330
2015
100
AcDbEntity
  8
0
100
AcDbLine
 10
66.05946036412409
 20
176.3000029999998
 30
0.0
 11
66.05946036412409
 21
173.3000029999998
 31
0.0
  0
LINE
  5
157C
330
2015
100
AcDbEntity
  8
0
100
AcDbLine
 10
51.05946036412297
 20
193.3000029999998
 30
0.0
 11
141.0594603641241
 21
193.3000029999998
 31
0.0
  0
LINE
  5
157D
330
2015
100
AcDbEntity
  8
0
100
AcDbLine
 10
63.5651413641242
 20
197.2069709999997
 30
0.0
 11
61.30944736412198
 21
193.2999959999997
 31
0.0
  0
LINE
  5
157E
330
2015
100
AcDbEntity
  8
0
100
AcDbLine
 10
63.56515936412302
 20
197.206981
 30
0.0
 11
76.05945536412332
 21
198.3000899999998
 31
0.0
  0
LINE
  5
157F
330
2015
100
AcDbEntity
  8
0
100
AcDbLine
 10
61.05952136412406
 20
203.2999999999999
 30
0.0
 11
51.05946036412297
 21
203.2999999999999
 31
0.0
  0
LINE
  5
1580
330
2015
100
AcDbEntity
  8
0
100
AcDbLine
 10
51.05946036412297
 20
203.2999999999999
 30
0.0
 11
51.05946036412297
 21
193.3000029999998
 31
0.0
  0
LINE
  5
1581
330
2015
100
AcDbEntity
  8
0
100
AcDbLine
 10
61.0595033641241
 20
203.2999899999999
 30
0.0
 11
70.553909364123
 21
197.818389
 31
0.0
  0
LINE
  5
1582
330
2015
100
AcDbEntity
  8
0
100
AcDbLine
 10
116.060131364124
 20
198.3000029999998
 30
0.0
 11
99.05946036412295
 21
198.3000029999998
 31
0.0
  0
LINE
  5
1583
330
2015
100
AcDbEntity
  8
0
100
AcDbLine
 10
128.553804364122
 20
197.2069589999999
 30
0.0
 11
130.8094823641218
 21
193.3000099999999
 31
0.0
  0
LINE
  5
1584
330
2015
100
AcDbEntity
  8
0
100
AcDbLine
 10
128.5538133641241
 20
197.2069529999995
 30
0.0
 11
116.0601553641226
 21
198.3000069999999
 31
0.0
  0
LINE
  5
1585
330
2015
100
AcDbEntity
  8
0
100
AcDbLine
 10
131.0594603641229
 20
203.2999999999999
 30
0.0
 11
141.0594603641241
 21
203.2999999999999
 31
0.0
  0
LINE
  5
1586
330
2015
100
AcDbEntity
  8
0
100
AcDbLine
 10
141.0594603641241
 20
203.2999999999999
 30
0.0
 11
141.0594603641241
 21
193.3000029999998
 31
0.0
  0
LINE
  5
1587
330
2015
100
AcDbEntity
  8
0
100
AcDbLine
 10
131.059476364122
 20
203.29998
 30
0.0
 11
121.5650433641233
 21
197.8183639999998
 31
0.0
  0
LINE
  5
1588
330
2015
100
AcDbEntity
  8
0
100
AcDbLine
 10
93.05946036412409
 20
220.2205199999997
 30
0.0
 11
93.05946036412409
 21
196.3000029999998
 31
0.0
  0
LINE
  5
1589
330
2015
100
AcDbEntity
  8
0
100
AcDbLine
 10
99.05946036412295
 20
220.2205199999997
 30
0.0
 11
99.05946036412295
 21
196.3000029999998
 31
0.0
  0
LINE
  5
158A
330
2015
100
AcDbEntity
  8
0
100
AcDbLine
 10
104.0594603641229
 20
225.7433299999999
 30
0.0
 11
104.0594603641229
 21
205.3500199999998
 31
0.0
  0
LINE
  5
158B
330
2015
100
AcDbEntity
  8
0
100
AcDbLine
 10
110.0594603641229
 20
224.7876999999999
 30
0.0
 11
104.0594603641229
 21
224.7876999999999
 31
0.0
  0
LINE
  5
158C
330
2015
100
AcDbEntity
  8
0
100
AcDbLine
 10
115.0594603641229
 20
205.3500199999998
 30
0.0
 11
115.0594603641229
 21
198.3000029999998
 31
0.0
  0
LINE
  5
158D
330
2015
100
AcDbEntity
  8
0
100
AcDbLine
 10
88.05946036412297
 20
225.7433299999999
 30
0.0
 11
88.05946036412297
 21
205.3500199999998
 31
0.0
  0
LINE
  5
158E
330
2015
100
AcDbEntity
  8
0
100
AcDbLine
 10
82.05946036412409
 20
224.7876999999999
 30
0.0
 11
82.05946036412409
 21
205.3500199999998
 31
0.0
  0
LINE
  5
158F
330
2015
100
AcDbEntity
  8
0
100
AcDbLine
 10
82.05946036412409
 20
224.7876999999999
 30
0.0
 11
88.05946036412297
 21
224.7876999999999
 31
0.0
  0
LINE
  5
1590
330
2015
100
AcDbEntity
  8
0
100
AcDbLine
 10
77.05946036412409
 20
205.3500199999998
 30
0.0
 11
77.05946036412409
 21
198.3000029999998
 31
0.0
  0
LINE
  5
1591
330
2015
100
AcDbEntity
  8
0
100
AcDbLine
 10
115.0594603641229
 20
205.3500199999998
 30
0.0
 11
110.0594603641229
 21
205.3500199999998
 31
0.0
  0
LINE
  5
1592
330
2015
100
AcDbEntity
  8
0
100
AcDbLine
 10
110.0594603641229
 20
224.7876999999999
 30
0.0
 11
110.0594603641229
 21
205.3500199999998
 31
0.0
  0
LINE
  5
1597
330
2015
100
AcDbEntity
  8
0
100
AcDbLine
 10
88.05946036412297
 20
220.2205199999997
 30
0.0
 11
93.05946036412409
 21
220.2205199999997
 31
0.0
  0
LINE
  5
1598
330
2015
100
AcDbEntity
  8
0
100
AcDbLine
 10
99.05946036412295
 20
220.2205199999997
 30
0.0
 11
104.0594603641229
 21
220.2205199999997
 31
0.0
  0
LINE
  5
1599
330
2015
100
AcDbEntity
  8
0
100
AcDbLine
 10
93.05946036412409
 20
205.3500199999998
 30
0.0
 11
88.05946036412297
 21
205.3500199999998
 31
0.0
  0
LINE
  5
159A
330
2015
100
AcDbEntity
  8
0
100
AcDbLine
 10
93.05946036412409
 20
198.3000029999998
 30
0.0
 11
76.05946036412297
 21
198.3000029999998
 31
0.0
  0
LINE
  5
159B
330
2015
100
AcDbEntity
  8
0
100
AcDbLine
 10
82.05946036412409
 20
205.3500199999998
 30
0.0
 11
77.05946036412409
 21
205.3500199999998
 31
0.0
  0
LINE
  5
159C
330
2015
100
AcDbEntity
  8
0
100
AcDbLine
 10
104.0594603641229
 20
205.3500199999998
 30
0.0
 11
99.05946036412295
 21
205.3500199999998
 31
0.0
  0
CIRCLE
  5
159D
330
2015
100
AcDbEntity
  8
0
100
AcDbCircle
 10
96.05946036412412
 20
100.0
 30
0.0
 40
50.799999
  0
ARC
  5
159E
330
2015
100
AcDbEntity
  8
0
100
AcDbCircle
 10
96.05946036412412
 20
100.0
 30
0.0
 40
84.0
100
AcDbArc
 50
119.2355600000041
 51
60.7644359999998
  0
CIRCLE
  5
159F
330
2015
100
AcDbEntity
  8
0
100
AcDbCircle
 10
56.05946036412297
 20
198.3000029999998
 30
0.0
 40
2.6500001
  0
CIRCLE
  5
15A0
330
2015
100
AcDbEntity
  8
0
100
AcDbCircle
 10
136.0594603641219
 20
198.3000029999998
 30
0.0
 40
2.6500001
  0
ARC
  5
15A1
330
2015
100
AcDbEntity
  8
0
100
AcDbCircle
 10
96.05946036412412
 20
196.3000029999998
 30
0.0
 40
3.0
100
AcDbArc
 50
179.9999899999988
 51
0.0
  0
LINE
  5
15AA
330
2015
100
AcDbEntity
  8
0
100
AcDbLine
 10
732.5184431528308
 20
173.3000029999998
 30
0.0
 11
650.467005152831
 21
173.3000029999998
 31
0.0
  0
LINE
  5
15AB
330
2015
100
AcDbEntity
  8
0
100
AcDbLine
 10
677.9927241528312
 20
193.3000029999998
 30
0.0
 11
677.9927241528312
 21
176.3000029999998
 31
0.0
  0
LINE
  5
15AC
330
2015
100
AcDbEntity
  8
0
100
AcDbLine
 10
704.9927241528312
 20
193.3000029999998
 30
0.0
 11
704.9927241528312
 21
176.3000029999998
 31
0.0
  0
LINE
  5
15AD
330
2015
100
AcDbEntity
  8
0
100
AcDbLine
 10
661.4927241528312
 20
176.3000029999998
 30
0.0
 11
677.9927241528312
 21
176.3000029999998
 31
0.0
  0
LINE
  5
15AE
330
2015
100
AcDbEntity
  8
0
100
AcDbLine
 10
721.4927241528312
 20
176.3000029999998
 30
0.0
 11
721.4927241528312
 21
173.3000029999998
 31
0.0
  0
LINE
  5
15AF
330
2015
100
AcDbEntity
  8
0
100
AcDbLine
 10
661.4927241528312
 20
176.3000029999998
 30
0.0
 11
661.4927241528312
 21
173.3000029999998
 31
0.0
  0
LINE
  5
15B0
330
2015
100
AcDbEntity
  8
0
100
AcDbLine
 10
646.4927241528312
 20
193.3000029999998
 30
0.0
 11
677.9927241528312
 21
193.3000029999998
 31
0.0
  0
LINE
  5
15B1
330
2015
100
AcDbEntity
  8
0
100
AcDbLine
 10
665.9871711528312
 20
197.8184089999998
 30
0.0
 11
671.492718152831
 21
198.3000819999998
 31
0.0
  0
LINE
  5
15B2
330
2015
100
AcDbEntity
  8
0
100
AcDbLine
 10
656.4927741528313
 20
203.2999999999999
 30
0.0
 11
646.4927241528312
 21
203.2999999999999
 31
0.0
  0
LINE
  5
15B3
330
2015
100
AcDbEntity
  8
0
100
AcDbLine
 10
646.4927241528312
 20
203.2999999999999
 30
0.0
 11
646.4927241528312
 21
193.3000029999998
 31
0.0
  0
LINE
  5
15B4
330
2015
100
AcDbEntity
  8
0
100
AcDbLine
 10
656.4927631528312
 20
203.29998
 30
0.0
 11
665.9871691528301
 21
197.818383
 31
0.0
  0
LINE
  5
15B5
330
2015
100
AcDbEntity
  8
0
100
AcDbLine
 10
716.9982961528312
 20
197.818392
 30
0.0
 11
711.493395152831
 21
198.3000089999999
 31
0.0
  0
LINE
  5
15B6
330
2015
100
AcDbEntity
  8
0
100
AcDbLine
 10
726.4927321528309
 20
203.2999999999999
 30
0.0
 11
736.4927241528312
 21
203.2999999999999
 31
0.0
  0
LINE
  5
15B7
330
2015
100
AcDbEntity
  8
0
100
AcDbLine
 10
736.4927241528312
 20
203.2999999999999
 30
0.0
 11
736.4927241528312
 21
193.3000029999998
 31
0.0
  0
LINE
  5
15B8
330
2015
100
AcDbEntity
  8
0
100
AcDbLine
 10
726.4927311528314
 20
203.3000099999999
 30
0.0
 11
716.9982921528312
 21
197.81839
 31
0.0
  0
LINE
  5
15B9
330
2015
100
AcDbEntity
  8
0
100
AcDbLine
 10
699.4927241528312
 20
224.7876999999999
 30
0.0
 11
699.4927241528312
 21
205.3500199999998
 31
0.0
  0
LINE
  5
15BA
330
2015
100
AcDbEntity
  8
0
100
AcDbLine
 10
705.4927241528312
 20
224.7876999999999
 30
0.0
 11
699.4927241528312
 21
224.7876999999999
 31
0.0
  0
LINE
  5
15BB
330
2015
100
AcDbEntity
  8
0
100
AcDbLine
 10
710.4927241528312
 20
205.3500199999998
 30
0.0
 11
710.4927241528312
 21
198.3000029999998
 31
0.0
  0
LINE
  5
15BC
330
2015
100
AcDbEntity
  8
0
100
AcDbLine
 10
683.4927241528312
 20
224.7876999999999
 30
0.0
 11
683.4927241528312
 21
205.3500199999998
 31
0.0
  0
LINE
  5
15BD
330
2015
100
AcDbEntity
  8
0
100
AcDbLine
 10
677.4927241528311
 20
224.7876999999999
 30
0.0
 11
677.4927241528311
 21
205.3500199999998
 31
0.0
  0
LINE
  5
15BE
330
2015
100
AcDbEntity
  8
0
100
AcDbLine
 10
677.4927241528311
 20
224.7876999999999
 30
0.0
 11
683.4927241528312
 21
224.7876999999999
 31
0.0
  0
LINE
  5
15BF
330
2015
100
AcDbEntity
  8
0
100
AcDbLine
 10
672.4927241528312
 20
205.3500199999998
 30
0.0
 11
672.4927241528312
 21
198.3000029999998
 31
0.0
  0
LINE
  5
15C0
330
2015
100
AcDbEntity
  8
0
100
AcDbLine
 10
705.4927241528312
 20
224.7876999999999
 30
0.0
 11
705.4927241528312
 21
205.3500199999998
 31
0.0
  0
LINE
  5
15C4
330
2015
100
AcDbEntity
  8
0
100
AcDbLine
 10
710.4927241528312
 20
205.3500199999998
 30
0.0
 11
705.4927241528312
 21
205.3500199999998
 31
0.0
  0
LINE
  5
15C5
330
2015
100
AcDbEntity
  8
0
100
AcDbLine
 10
711.4933931528312
 20
198.3000029999998
 30
0.0
 11
671.4927241528312
 21
198.3000029999998
 31
0.0
  0
LINE
  5
15C6
330
2015
100
AcDbEntity
  8
0
100
AcDbLine
 10
704.9927241528312
 20
193.3000029999998
 30
0.0
 11
736.4927241528312
 21
193.3000029999998
 31
0.0
  0
LINE
  5
15C7
330
2015
100
AcDbEntity
  8
0
100
AcDbLine
 10
680.4927241528312
 20
198.3000029999998
 30
0.0
 11
680.4927241528312
 21
173.3000029999998
 31
0.0
  0
LINE
  5
15C8
330
2015
100
AcDbEntity
  8
0
100
AcDbLine
 10
702.4927241528311
 20
198.3000029999998
 30
0.0
 11
702.4927241528311
 21
173.3000029999998
 31
0.0
  0
LINE
  5
15C9
330
2015
100
AcDbEntity
  8
0
100
AcDbLine
 10
704.9927241528312
 20
176.3000029999998
 30
0.0
 11
721.4927241528312
 21
176.3000029999998
 31
0.0
  0
LINE
  5
15CA
330
2015
100
AcDbEntity
  8
0
100
AcDbLine
 10
677.4927241528311
 20
205.3500199999998
 30
0.0
 11
672.4927241528312
 21
205.3500199999998
 31
0.0
  0
LINE
  5
15CB
330
2015
100
AcDbEntity
  8
0
100
AcDbLine
 10
699.4927241528312
 20
205.3500199999998
 30
0.0
 11
683.4927241528312
 21
205.3500199999998
 31
0.0
  0
CIRCLE
  5
15CC
330
2015
100
AcDbEntity
  8
0
100
AcDbCircle
 10
691.4927241528312
 20
100.0
 30
0.0
 40
50.799999
  0
ARC
  5
15CD
330
2015
100
AcDbEntity
  8
0
100
AcDbCircle
 10
691.4927241528312
 20
100.0
 30
0.0
 40
84.0
100
AcDbArc
 50
119.2355699999957
 51
60.76443300000928
  0
CIRCLE
  5
15CE
330
2015
100
AcDbEntity
  8
0
100
AcDbCircle
 10
651.4927241528312
 20
198.3000029999998
 30
0.0
 40
2.6500001
  0
CIRCLE
  5
15CF
330
2015
100
AcDbEntity
  8
0
100
AcDbCircle
 10
731.4927241528311
 20
198.3000029999998
 30
0.0
 40
2.6500001
  0
LINE
  5
160B
330
2015
100
AcDbEntity
  8
0
100
AcDbLine
 10
326.0594603641229
 20
361.0167135319672
 30
0.0
 11
366.059460364124
 21
361.0167135319672
 31
0.0
  0
LINE
  5
160C
330
2015
100
AcDbEntity
  8
0
100
AcDbLine
 10
366.059460364124
 20
361.0167135319672
 30
0.0
 11
366.059460364124
 21
438.0167135319672
 31
0.0
  0
LINE
  5
160D
330
2015
100
AcDbEntity
  8
0
100
AcDbLine
 10
326.0594603641229
 20
361.0167135319672
 30
0.0
 11
326.0594603641229
 21
417.2127125319672
 31
0.0
  0
LINE
  5
1612
330
2015
100
AcDbEntity
  8
0
100
AcDbLine
 10
326.0594603641229
 20
529.016713531968
 30
0.0
 11
366.059460364124
 21
529.016713531968
 31
0.0
  0
LINE
  5
1613
330
2015
100
AcDbEntity
  8
0
100
AcDbLine
 10
326.0594603641229
 20
472.8207145319679
 30
0.0
 11
326.0594603641229
 21
529.016713531968
 31
0.0
  0
LINE
  5
1614
330
2015
100
AcDbEntity
  8
0
100
AcDbLine
 10
356.0594603641228
 20
490.0167135319679
 30
0.0
 11
356.0594603641228
 21
462.3372095319679
 31
0.0
  0
LINE
  5
1615
330
2015
100
AcDbEntity
  8
0
100
AcDbLine
 10
351.0594603641228
 20
490.0167135319679
 30
0.0
 11
351.0594603641228
 21
471.5222065319668
 31
0.0
  0
LINE
  5
1616
330
2015
100
AcDbEntity
  8
0
100
AcDbLine
 10
351.0594603641228
 20
400.0166825319669
 30
0.0
 11
356.0594603641228
 21
400.0166825319669
 31
0.0
  0
LINE
  5
1617
330
2015
100
AcDbEntity
  8
0
100
AcDbLine
 10
351.0594603641228
 20
490.0167135319679
 30
0.0
 11
356.0594603641228
 21
490.0167135319679
 31
0.0
  0
LINE
  5
1618
330
2015
100
AcDbEntity
  8
0
100
AcDbLine
 10
351.0594603641228
 20
410.0167135319678
 30
0.0
 11
356.0594603641228
 21
410.0167135319678
 31
0.0
  0
LINE
  5
1619
330
2015
100
AcDbEntity
  8
0
100
AcDbLine
 10
351.0594603641228
 20
400.0166825319669
 30
0.0
 11
351.0594603641228
 21
418.511250531968
 31
0.0
  0
LINE
  5
161A
330
2015
100
AcDbEntity
  8
0
100
AcDbLine
 10
351.0594603641228
 20
480.0167135319679
 30
0.0
 11
356.0594603641228
 21
480.0167135319679
 31
0.0
  0
LINE
  5
161B
330
2015
100
AcDbEntity
  8
0
100
AcDbLine
 10
358.904675364123
 20
431.0167135319679
 30
0.0
 11
333.214215364124
 21
431.0167135319679
 31
0.0
  0
LINE
  5
161C
330
2015
100
AcDbEntity
  8
0
100
AcDbLine
 10
358.904675364123
 20
459.016713531968
 30
0.0
 11
333.214215364124
 21
459.016713531968
 31
0.0
  0
LINE
  5
161D
330
2015
100
AcDbEntity
  8
0
100
AcDbLine
 10
356.0594603641228
 20
427.6962175319679
 30
0.0
 11
356.0594603641228
 21
400.0166825319669
 31
0.0
  0
LINE
  5
161F
330
2015
100
AcDbEntity
  8
0
100
AcDbLine
 10
363.293148303738
 20
437.0167135319673
 30
0.0
 11
328.825756364124
 21
437.0167135319673
 31
0.0
  0
LINE
  5
1620
330
2015
100
AcDbEntity
  8
0
100
AcDbLine
 10
363.2931483037381
 20
453.0167135319673
 30
0.0
 11
328.825756364124
 21
453.0167135319673
 31
0.0
  0
LINE
  5
1621
330
2015
100
AcDbEntity
  8
0
100
AcDbLine
 10
327.2978023641242
 20
448.0167135319679
 30
0.0
 11
308.7470823641219
 21
448.0167135319679
 31
0.0
  0
LINE
  5
1622
330
2015
100
AcDbEntity
  8
0
100
AcDbLine
 10
327.2978023641242
 20
442.016713531968
 30
0.0
 11
308.7470823641219
 21
442.016713531968
 31
0.0
  0
LINE
  5
1626
330
2015
100
AcDbEntity
  8
0
100
AcDbLine
 10
366.059460364124
 20
452.0167135319679
 30
0.0
 11
366.059460364124
 21
529.016713531968
 31
0.0
  0
ARC
  5
162E
330
2015
100
AcDbEntity
  8
0
100
AcDbCircle
 10
346.059460364124
 20
445.0167135319673
 30
0.0
 40
32.494358
100
AcDbArc
 50
184.469639999997
 51
184.5303500000061
  0
ARC
  5
162F
330
2015
100
AcDbEntity
  8
0
100
AcDbCircle
 10
346.059460364124
 20
445.0167135319673
 30
0.0
 40
32.494358
100
AcDbArc
 50
175.4696499999937
 51
175.5303600000029
  0
ARC
  5
1630
330
2015
100
AcDbEntity
  8
0
100
AcDbCircle
 10
346.059460364124
 20
445.0167135319673
 30
0.0
 40
34.25
100
AcDbArc
 50
81.60565199999401
 51
174.97495
  0
ARC
  5
1631
330
2015
100
AcDbEntity
  8
0
100
AcDbCircle
 10
308.7470823641219
 20
445.0167135319673
 30
0.0
 40
3.0
100
AcDbArc
 50
90.00000299999769
 51
270.0
  0
ARC
  5
1632
330
2015
100
AcDbEntity
  8
0
100
AcDbCircle
 10
346.059460364124
 20
445.0167135319673
 30
0.0
 40
19.0
100
AcDbArc
 50
24.90106237036675
 51
170.9152799999938
  0
ARC
  5
1634
330
2015
100
AcDbEntity
  8
0
100
AcDbCircle
 10
346.059460364124
 20
445.0167135319673
 30
0.0
 40
34.25
100
AcDbArc
 50
185.0250499999999
 51
278.3943500000052
  0
ARC
  5
1635
330
2015
100
AcDbEntity
  8
0
100
AcDbCircle
 10
346.059460364124
 20
445.0167135319673
 30
0.0
 40
19.0
100
AcDbArc
 50
189.084720000006
 51
335.0989376296328
  0
TEXT
  5
1675
330
2015
100
AcDbEntity
  8
0
100
AcDbText
 10
137.877977856152
 20
626.0
 30
0.0
 40
48.000002
  1
BVL__ 4S
 41
1.1021
100
AcDbText
  0
LINE
  5
187D
330
2015
100
AcDbEntity
  8
0
100
AcDbLine
 10
283.559460364124
 20
159.499998
 30
0.0
 11
286.409459364124
 21
159.499998
 31
0.0
  0
LINE
  5
187E
330
2015
100
AcDbEntity
  8
0
100
AcDbLine
 10
286.409459064124
 20
159.4999989999998
 30
0.0
 11
289.5760001641219
 21
150.7999989999998
 31
0.0
  0
LINE
  5
187F
330
2015
100
AcDbEntity
  8
0
100
AcDbLine
 10
289.576000864122
 20
150.7999969999998
 30
0.0
 11
326.0594603641229
 21
150.7999969999998
 31
0.0
  0
LINE
  5
1880
330
2015
100
AcDbEntity
  8
0
100
AcDbLine
 10
283.559460364124
 20
40.49999800000001
 30
0.0
 11
283.559460364124
 21
159.499998
 31
0.0
  0
LINE
  5
1881
330
2015
100
AcDbEntity
  8
0
100
AcDbLine
 10
289.576000864122
 20
49.19999900000004
 30
0.0
 11
326.0594603641229
 21
49.19999900000004
 31
0.0
  0
LINE
  5
1882
330
2015
100
AcDbEntity
  8
0
100
AcDbLine
 10
286.409459064124
 20
40.49999699999999
 30
0.0
 11
289.5760001641219
 21
49.19999700000005
 31
0.0
  0
LINE
  5
1883
330
2015
100
AcDbEntity
  8
0
100
AcDbLine
 10
283.559460364124
 20
40.49999800000001
 30
0.0
 11
286.409459364124
 21
40.49999800000001
 31
0.0
  0
LINE
  5
1885
330
2015
100
AcDbEntity
  8
0
100
AcDbLine
 10
289.576000864122
 20
150.7999969999998
 30
0.0
 11
289.576000864122
 21
49.19999900000004
 31
0.0
  0
LINE
  5
1889
330
2015
100
AcDbEntity
  8
0
100
AcDbLine
 10
408.559460364124
 20
40.49999600000001
 30
0.0
 11
405.7094613641241
 21
40.49999600000001
 31
0.0
  0
LINE
  5
188A
330
2015
100
AcDbEntity
  8
0
100
AcDbLine
 10
405.7094616641241
 20
40.49999500000001
 30
0.0
 11
402.542920564124
 21
49.19999499999983
 31
0.0
  0
LINE
  5
188B
330
2015
100
AcDbEntity
  8
0
100
AcDbLine
 10
402.5429198641241
 20
49.19999700000005
 30
0.0
 11
366.059460364124
 21
49.19999700000005
 31
0.0
  0
LINE
  5
188C
330
2015
100
AcDbEntity
  8
0
100
AcDbLine
 10
408.559460364124
 20
159.499996
 30
0.0
 11
408.559460364124
 21
40.49999600000001
 31
0.0
  0
LINE
  5
188D
330
2015
100
AcDbEntity
  8
0
100
AcDbLine
 10
402.5429198641241
 20
150.7999949999998
 30
0.0
 11
366.059460364124
 21
150.7999949999998
 31
0.0
  0
LINE
  5
188E
330
2015
100
AcDbEntity
  8
0
100
AcDbLine
 10
405.7094616641241
 20
159.499997
 30
0.0
 11
402.542920564124
 21
150.7999969999998
 31
0.0
  0
LINE
  5
188F
330
2015
100
AcDbEntity
  8
0
100
AcDbLine
 10
408.559460364124
 20
159.499996
 30
0.0
 11
405.7094613641241
 21
159.499996
 31
0.0
  0
LINE
  5
1891
330
2015
100
AcDbEntity
  8
0
100
AcDbLine
 10
402.5429198641241
 20
49.19999700000005
 30
0.0
 11
402.5429198641241
 21
150.7999949999998
 31
0.0
  0
LINE
  5
1947
330
2015
100
AcDbEntity
  8
0
100
AcDbLine
 10
402.5429198641241
 20
394.216714531967
 30
0.0
 11
402.5429198641241
 21
438.0167135319672
 31
0.0
  0
LINE
  5
1948
330
2015
100
AcDbEntity
  8
0
100
AcDbLine
 10
408.559460364124
 20
504.516713531968
 30
0.0
 11
408.5594603641228
 21
452.0167135319679
 31
0.0
  0
LINE
  5
1949
330
2015
100
AcDbEntity
  8
0
100
AcDbLine
 10
405.7094616641241
 20
385.5167125319678
 30
0.0
 11
402.542920564124
 21
394.216712531967
 31
0.0
  0
LINE
  5
194A
330
2015
100
AcDbEntity
  8
0
100
AcDbLine
 10
408.559460364124
 20
385.5167135319679
 30
0.0
 11
405.7094613641241
 21
385.5167135319679
 31
0.0
  0
LINE
  5
194B
330
2015
100
AcDbEntity
  8
0
100
AcDbLine
 10
408.559460364124
 20
504.516713531968
 30
0.0
 11
405.7094613641241
 21
504.516713531968
 31
0.0
  0
LINE
  5
194C
330
2015
100
AcDbEntity
  8
0
100
AcDbLine
 10
405.7094616641241
 20
504.5167145319668
 30
0.0
 11
402.542920564124
 21
495.8167145319666
 31
0.0
  0
LINE
  5
194D
330
2015
100
AcDbEntity
  8
0
100
AcDbLine
 10
402.5429198641241
 20
394.216714531967
 30
0.0
 11
366.059460364124
 21
394.216714531967
 31
0.0
  0
LINE
  5
194E
330
2015
100
AcDbEntity
  8
0
100
AcDbLine
 10
402.5429198641241
 20
495.8167125319658
 30
0.0
 11
366.059460364124
 21
495.8167125319658
 31
0.0
  0
LINE
  5
194F
330
2015
100
AcDbEntity
  8
0
100
AcDbLine
 10
289.576000864122
 20
495.8167145319666
 30
0.0
 11
289.576000864122
 21
394.2167165319678
 31
0.0
  0
LINE
  5
1950
330
2015
100
AcDbEntity
  8
0
100
AcDbLine
 10
283.559460364124
 20
385.516715531968
 30
0.0
 11
283.559460364124
 21
504.5167155319679
 31
0.0
  0
LINE
  5
1951
330
2015
100
AcDbEntity
  8
0
100
AcDbLine
 10
289.576000864122
 20
394.2167165319678
 30
0.0
 11
326.0594603641229
 21
394.2167165319678
 31
0.0
  0
LINE
  5
1952
330
2015
100
AcDbEntity
  8
0
100
AcDbLine
 10
286.409459064124
 20
385.516714531966
 30
0.0
 11
289.5760001641219
 21
394.216714531967
 31
0.0
  0
LINE
  5
1953
330
2015
100
AcDbEntity
  8
0
100
AcDbLine
 10
283.559460364124
 20
385.516715531968
 30
0.0
 11
286.409459364124
 21
385.516715531968
 31
0.0
  0
LINE
  5
1954
330
2015
100
AcDbEntity
  8
0
100
AcDbLine
 10
289.576000864122
 20
495.8167145319666
 30
0.0
 11
326.0594603641229
 21
495.8167145319666
 31
0.0
  0
LINE
  5
1955
330
2015
100
AcDbEntity
  8
0
100
AcDbLine
 10
286.409459064124
 20
504.5167165319667
 30
0.0
 11
289.5760001641219
 21
495.8167165319657
 31
0.0
  0
LINE
  5
1956
330
2015
100
AcDbEntity
  8
0
100
AcDbLine
 10
283.559460364124
 20
504.5167155319679
 30
0.0
 11
286.409459364124
 21
504.5167155319679
 31
0.0
  0
LINE
  5
1957
330
2015
100
AcDbEntity
  8
0
100
AcDbLine
 10
402.5429198641241
 20
452.0167135319679
 30
0.0
 11
402.5429198641241
 21
495.8167125319658
 31
0.0
  0
LINE
  5
1958
330
2015
100
AcDbEntity
  8
0
100
AcDbLine
 10
408.5594603641228
 20
438.0167135319672
 30
0.0
 11
408.559460364124
 21
385.5167135319679
 31
0.0
  0
CIRCLE
  5
1963
330
2015
100
AcDbEntity
  8
0
  6
Continuous
100
AcDbCircle
 10
691.4927241528312
 20
100.0
 30
0.0
 40
59.5
  0
CIRCLE
  5
1964
330
2015
100
AcDbEntity
  8
0
  6
Continuous
100
AcDbCircle
 10
96.05946036412412
 20
100.0
 30
0.0
 40
59.5
  0
LINE
  5
20E8
330
2015
100
AcDbEntity
  8
0
  6
CENTER
100
AcDbLine
 10
691.4927241528312
 20
-4.710932925057932
 30
0.0
 11
691.4927241528313
 21
259.9132820992441
 31
0.0
  0
LINE
  5
20E9
330
2015
100
AcDbEntity
  8
0
  6
CENTER
100
AcDbLine
 10
591.7101105653495
 20
100.0
 30
0.0
 11
791.2753377403129
 21
100.0
 31
0.0
  0
LINE
  5
20EA
330
2015
100
AcDbEntity
  8
0
  6
CENTER
100
AcDbLine
 10
246.2768467766418
 20
99.99999600000002
 30
0.0
 11
445.8420739516052
 21
99.99999600000002
 31
0.0
  0
LINE
  5
20EB
330
2015
100
AcDbEntity
  8
0
  6
CENTER
100
AcDbLine
 10
346.0594603641234
 20
0.7456767376002063
 30
0.0
 11
346.0594603641235
 21
241.6297353669642
 31
0.0
  0
ARC
  5
20EC
330
2015
100
AcDbEntity
  8
0
100
AcDbCircle
 10
584.7057413003208
 20
259.9132820992441
 30
0.0
 40
15.0
100
AcDbArc
 50
249.9999970332835
 51
129.9999770332818
  0
LINE
  5
20ED
330
2015
100
AcDbEntity
  8
0
100
AcDbLine
 10
398.6030755331002
 20
219.9904183698796
 30
0.0
 11
565.6784189998716
 21
249.4502702474739
 31
0.0
  0
LINE
  5
20EE
330
2015
100
AcDbEntity
  8
0
100
AcDbLine
 10
570.8351013821238
 20
248.9991180222792
 30
0.0
 11
579.5754357769761
 21
245.8178949892163
 31
0.0
  0
ARC
  5
20EF
330
2015
100
AcDbEntity
  8
0
100
AcDbCircle
 10
567.4148985478036
 20
239.6021923243657
 30
0.0
 40
10.0
100
AcDbArc
 50
69.99999145730973
 51
99.9999870332815
  0
LINE
  5
20F0
330
2015
100
AcDbEntity
  8
0
100
AcDbLine
 10
396.1715708625085
 20
233.7776510592362
 30
0.0
 11
563.2473646901412
 21
263.2375823474968
 31
0.0
  0
LINE
  5
20F1
330
2015
100
AcDbEntity
  8
0
100
AcDbLine
 10
567.9387589139325
 20
265.4252138883899
 30
0.0
 11
575.0639316754822
 21
271.4039400392958
 31
0.0
  0
ARC
  5
20F2
330
2015
100
AcDbEntity
  8
0
100
AcDbCircle
 10
561.5108851422092
 20
273.085660270605
 30
0.0
 40
10.0
100
AcDbArc
 50
279.9999870332815
 51
309.9999826092586
  0
LINE
  5
20F3
330
2015
100
AcDbEntity
  8
0
  6
CENTER
100
AcDbLine
 10
358.4391115943817
 20
220.0164232470276
 30
0.0
 11
584.7057413003208
 21
259.9132820992441
 31
0.0
  0
LINE
  5
20F4
330
2015
100
AcDbEntity
  8
0
100
AcDbLine
 10
366.1983677514557
 20
226.2586887699459
 30
0.0
 11
396.1715708625085
 21
233.7776510592362
 31
0.0
  0
LINE
  5
20F5
330
2015
100
AcDbEntity
  8
0
100
AcDbLine
 10
367.0384499783238
 20
216.7187255168208
 30
0.0
 11
398.6030755331002
 21
219.9904183698796
 31
0.0
  0
LINE
  5
20F6
330
2015
100
AcDbEntity
  8
0
100
AcDbLine
 10
367.0384311763488
 20
210.1599932664798
 30
0.0
 11
367.0384499783238
 21
216.7187255168208
 31
0.0
  0
LINE
  5
20F9
330
2015
100
AcDbEntity
  8
0
  6
CENTER
100
AcDbLine
 10
-3.723153223357599
 20
100.0
 30
0.0
 11
195.8420739516058
 21
100.0
 31
0.0
  0
LINE
  5
20FA
330
2015
100
AcDbEntity
  8
0
  6
CENTER
100
AcDbLine
 10
96.05946036412412
 20
-4.710932925057932
 30
0.0
 11
96.05946036412422
 21
259.9132820992441
 31
0.0
  0
ARC
  5
20FB
330
2015
100
AcDbEntity
  8
0
100
AcDbCircle
 10
96.05946036412422
 20
259.9132820992441
 30
0.0
 40
15.0
100
AcDbArc
 50
295.6792886194533
 51
244.3207113805464
  0
LINE
  5
20FD
330
2015
100
AcDbEntity
  8
0
100
AcDbLine
 10
102.5594803641229
 20
226.24333
 30
0.0
 11
102.5594803641229
 21
254.4310663736398
 31
0.0
  0
LINE
  5
20FE
330
2015
100
AcDbEntity
  8
0
100
AcDbLine
 10
89.55948036412303
 20
226.24333
 30
0.0
 11
89.55948036412292
 21
254.4310663736398
 31
0.0
  0
LINE
  5
20FF
330
2015
100
AcDbEntity
  8
0
100
AcDbLine
 10
96.55948036412292
 20
226.2581192028776
 30
0.0
 11
102.5594803641229
 21
230.2727603444374
 31
0.0
  0
LINE
  5
2100
330
2015
100
AcDbEntity
  8
0
100
AcDbLine
 10
89.55948036412292
 20
230.2727603444374
 30
0.0
 11
95.55948036412292
 21
226.2581192028776
 31
0.0
  0
LINE
  5
2102
330
2015
100
AcDbEntity
  8
0
100
AcDbLine
 10
88.05946036412297
 20
225.7433299999999
 30
0.0
 11
89.05948036412292
 21
225.7433299999999
 31
0.0
  0
ARC
  5
2103
330
2015
100
AcDbEntity
  8
0
100
AcDbCircle
 10
89.05948036412302
 20
226.24333
 30
0.0
 40
0.5
100
AcDbArc
 50
270.0
 51
0.0
  0
ARC
  5
2107
330
2015
100
AcDbEntity
  8
0
100
AcDbCircle
 10
103.0594803641229
 20
226.24333
 30
0.0
 40
0.5
100
AcDbArc
 50
180.0
 51
269.9999999999934
  0
LINE
  5
2108
330
2015
100
AcDbEntity
  8
0
100
AcDbLine
 10
103.0594803641229
 20
225.7433299999999
 30
0.0
 11
104.0594603641229
 21
225.7433299999999
 31
0.0
  0
LINE
  5
210A
330
2015
100
AcDbEntity
  8
0
  6
Continuous
100
AcDbLine
 10
697.9927441528312
 20
218.03848
 30
0.0
 11
697.9927441528312
 21
246.3947858811139
 31
0.0
  0
LINE
  5
210C
330
2015
100
AcDbEntity
  8
0
  6
Continuous
100
AcDbLine
 10
684.9927441528314
 20
218.03848
 30
0.0
 11
684.9927441528312
 21
246.3947666482192
 31
0.0
  0
ARC
  5
210E
330
2015
100
AcDbEntity
  8
0
  6
Continuous
100
AcDbCircle
 10
691.4927241528313
 20
218.03848
 30
0.0
 40
6.499979999999936
100
AcDbArc
 50
180.0
 51
0.0
  0
CIRCLE
  5
210F
330
2015
100
AcDbEntity
  8
0
  6
Continuous
100
AcDbCircle
 10
691.4927241528313
 20
259.9132820992441
 30
0.0
 40
15.0
  0
LINE
  5
2111
330
2015
100
AcDbEntity
  8
0
  6
CENTER
100
AcDbLine
 10
246.2768467766422
 20
445.0167135319673
 30
0.0
 11
584.7057413003208
 21
445.0167135319673
 31
0.0
  0
LINE
  5
2112
330
2015
100
AcDbEntity
  8
0
  6
CENTER
100
AcDbLine
 10
346.0594603641239
 20
346.8973480268624
 30
0.0
 11
346.059460364124
 21
543.1360790370721
 31
0.0
  0
LINE
  5
2113
330
2015
100
AcDbEntity
  8
0
100
AcDbLine
 10
364.0594718145573
 20
438.0167135319672
 30
0.0
 11
564.1506023577689
 21
438.0167135319672
 31
0.0
  0
LINE
  5
2114
330
2015
100
AcDbEntity
  8
0
100
AcDbLine
 10
364.0594718145573
 20
452.0167135319673
 30
0.0
 11
564.1506227435034
 21
452.0167135319673
 31
0.0
  0
LINE
  5
2115
330
2015
100
AcDbEntity
  8
0
100
AcDbLine
 10
367.8484196525444
 20
446.3758676320074
 30
0.0
 11
381.9649820663419
 21
449.4474265103974
 31
0.0
  0
ARC
  5
2116
330
2015
100
AcDbEntity
  8
0
100
AcDbCircle
 10
364.0594718145573
 20
437.0167135319673
 30
0.0
 40
1.0
100
AcDbArc
 50
90.0
 51
180.0
  0
LINE
  5
2117
330
2015
100
AcDbEntity
  8
0
100
AcDbLine
 10
367.8398287165252
 20
443.6594286948036
 30
0.0
 11
381.9649821175414
 21
440.5860005425745
 31
0.0
  0
LINE
  5
2118
330
2015
100
AcDbEntity
  8
0
100
AcDbLine
 10
382.7556145443909
 20
439.6081635319672
 30
0.0
 11
382.7556145443909
 21
438.0167135319672
 31
0.0
  0
ARC
  5
2119
330
2015
100
AcDbEntity
  8
0
100
AcDbCircle
 10
387.209734544391
 20
444.0167135319673
 30
0.0
 40
6.0
100
AcDbArc
 50
227.7108799999985
 51
248.2388499999988
  0
ARC
  5
211A
330
2015
100
AcDbEntity
  8
0
100
AcDbCircle
 10
381.7556145443909
 20
439.6081635319672
 30
0.0
 40
1.0
100
AcDbArc
 50
0.0
 51
77.91470699999658
  0
ARC
  5
211B
330
2015
100
AcDbEntity
  8
0
100
AcDbCircle
 10
364.0594718145573
 20
453.0167135319673
 30
0.0
 40
1.0
100
AcDbArc
 50
180.0
 51
270.0
  0
LINE
  5
211C
330
2015
100
AcDbEntity
  8
0
100
AcDbLine
 10
382.7556145443909
 20
452.0167135319673
 30
0.0
 11
382.7556145443909
 21
450.4252635319674
 31
0.0
  0
ARC
  5
211D
330
2015
100
AcDbEntity
  8
0
100
AcDbCircle
 10
387.209734544391
 20
446.0167135319673
 30
0.0
 40
6.0
100
AcDbArc
 50
109.8411499999985
 51
132.4629100000062
  0
ARC
  5
211E
330
2015
100
AcDbEntity
  8
0
100
AcDbCircle
 10
381.7556145443909
 20
450.4252635319674
 30
0.0
 40
1.0
100
AcDbArc
 50
282.0852900000028
 51
0.0
  0
ARC
  5
211F
330
2015
100
AcDbEntity
  8
0
100
AcDbCircle
 10
584.7057413003208
 20
445.0167135319673
 30
0.0
 40
15.0
100
AcDbArc
 50
240.0000099999918
 51
119.9999900000081
  0
LINE
  5
2120
330
2015
100
AcDbEntity
  8
0
100
AcDbLine
 10
569.150608325501
 20
436.6769641243374
 30
0.0
 11
577.2057413003208
 21
432.0263235319673
 31
0.0
  0
ARC
  5
2121
330
2015
100
AcDbEntity
  8
0
100
AcDbCircle
 10
564.1506023577689
 20
428.0167135319673
 30
0.0
 40
10.0
100
AcDbArc
 50
59.99996051779225
 51
90.0
  0
LINE
  5
2122
330
2015
100
AcDbEntity
  8
0
100
AcDbLine
 10
569.1506220748122
 20
453.356459108054
 30
0.0
 11
577.2057413003208
 21
458.0070835319673
 31
0.0
  0
ARC
  5
2123
330
2015
100
AcDbEntity
  8
0
100
AcDbCircle
 10
564.1506227435034
 20
462.0167135319673
 30
0.0
 40
10.0
100
AcDbArc
 50
270.0
 51
299.999995575968
  0
ENDSEC
  0
SECTION
  2
OBJECTS
  0
DICTIONARY
  5
2003
330
0
100
AcDbDictionary
281
     1
  3
ACAD_GROUP
350
2004
  3
ACAD_LAYOUT
350
2010
  3
ACAD_MLINESTYLE
350
200D
  3
ACAD_PLOTSETTINGS
350
200F
  3
ACAD_PLOTSTYLENAME
350
2005
  3
AcDbVariableDictionary
350
2057
  0
DICTIONARY
  5
206B
330
1FF9
100
AcDbDictionary
280
     1
281
     1
  3
ACAD_LAYERSTATES
360
206C
  0
DICTIONARY
  5
2025
330
2015
100
AcDbDictionary
280
     1
281
     1
  3
ACAD_LAYOUTSELFREF
360
2054
  0
DICTIONARY
  5
2027
330
2011
100
AcDbDictionary
280
     1
281
     1
  3
ACAD_LAYOUTSELFREF
360
2053
  0
DICTIONARY
  5
2004
102
{ACAD_REACTORS
330
2003
102
}
330
2003
100
AcDbDictionary
281
     1
  0
DICTIONARY
  5
2010
102
{ACAD_REACTORS
330
2003
102
}
330
2003
100
AcDbDictionary
281
     1
  3
Model
350
2018
  3
ﾚｲｱｳﾄ1
350
2014
  0
DICTIONARY
  5
200D
102
{ACAD_REACTORS
330
2003
102
}
330
2003
100
AcDbDictionary
281
     1
  3
Standard
350
200E
  0
DICTIONARY
  5
200F
102
{ACAD_REACTORS
330
2003
102
}
330
2003
100
AcDbDictionary
281
     1
  0
ACDBDICTIONARYWDFLT
  5
2005
102
{ACAD_REACTORS
330
2003
102
}
330
2003
100
AcDbDictionary
281
     1
  3
Normal
350
2006
100
AcDbDictionaryWithDefault
340
2006
  0
DICTIONARY
  5
2057
102
{ACAD_REACTORS
330
2003
102
}
330
2003
100
AcDbDictionary
281
     1
  3
DIMASSOC
350
2058
  0
DICTIONARY
  5
206C
102
{ACAD_REACTORS
330
206B
102
}
330
206B
100
AcDbDictionary
281
     1
  0
XRECORD
  5
2054
102
{ACAD_REACTORS
330
2025
102
}
330
2025
100
AcDbXrecord
280
     1
340
2015
  0
XRECORD
  5
2053
102
{ACAD_REACTORS
330
2027
102
}
330
2027
100
AcDbXrecord
280
     1
340
2011
  0
LAYOUT
  5
2018
102
{ACAD_REACTORS
330
2010
102
}
330
2010
100
AcDbPlotSettings
  1

  2
SII LP-2150 (D-SCAN C2)
  4

  6

 40
0.0
 41
0.0
 42
0.0
 43
0.0
 44
0.0
 45
0.0
 46
0.0
 47
0.0
 48
0.0
 49
0.0
140
0.0
141
0.0
142
1.0
143
1.0
 70
  1712
 72
     0
 73
     0
 74
     0
  7

 75
     0
147
1.0
148
0.0
149
0.0
100
AcDbLayout
  1
Model
 70
     1
 71
     0
 10
0.0
 20
0.0
 11
12.0
 21
9.0
 12
0.0
 22
0.0
 32
0.0
 14
0.0
 24
0.0
 34
0.0
 15
0.0
 25
0.0
 35
0.0
146
0.0
 13
0.0
 23
0.0
 33
0.0
 16
1.0
 26
0.0
 36
0.0
 17
0.0
 27
1.0
 37
0.0
 76
     0
330
2015
  0
LAYOUT
  5
2014
102
{ACAD_REACTORS
330
2010
102
}
330
2010
100
AcDbPlotSettings
  1

  2
SII LP-2150 (D-SCAN C2)
  4

  6

 40
0.0
 41
0.0
 42
0.0
 43
0.0
 44
0.0
 45
0.0
 46
0.0
 47
0.0
 48
0.0
 49
0.0
140
0.0
141
0.0
142
1.0
143
1.0
 70
   688
 72
     0
 73
     0
 74
     5
  7

 75
    16
147
1.0
148
0.0
149
0.0
100
AcDbLayout
  1
ﾚｲｱｳﾄ1
 70
     1
 71
     1
 10
-44.912933
 20
-21.841471
 11
153.5627299999999
 21
105.04179
 12
0.0
 22
0.0
 32
0.0
 14
-44.912933
 24
-21.841471
 34
0.0
 15
153.5627299999999
 25
105.04179
 35
0.0
146
0.0
 13
0.0
 23
0.0
 33
0.0
 16
1.0
 26
0.0
 36
0.0
 17
0.0
 27
1.0
 37
0.0
 76
     0
330
2011
  0
MLINESTYLE
  5
200E
102
{ACAD_REACTORS
330
200D
102
}
330
200D
100
AcDbMlineStyle
  2
STANDARD
 70
     0
  3

 62
   256
 51
90.0
 52
90.0
 71
     2
 49
0.5
 62
   256
  6
BYLAYER
 49
-0.5
 62
   256
  6
BYLAYER
  0
ACDBPLACEHOLDER
  5
2006
102
{ACAD_REACTORS
330
2005
102
}
330
2005
  0
DICTIONARYVAR
  5
2058
102
{ACAD_REACTORS
330
2057
102
}
330
2057
100
DictionaryVariables
280
     0
  1
1
  0
ENDSEC
  0
EOF
