  0
SECTION
  2
HEADER
  9
$ACADVER
  1
AC1015
  9
$ACADMAINTVER
 70
    14
  9
$DWGCODEPAGE
  3
ANSI_932
  9
$INSBASE
 10
0.0
 20
0.0
 30
0.0
  9
$EXTMIN
 10
71.26118915080201
 20
19.38956962158795
 30
-0.0000000000112498
  9
$EXTMAX
 10
757.9785047170869
 20
674.0106232625801
 30
0.0000000000002956
  9
$LIMMIN
 10
-44.912933
 20
-21.841471
  9
$LIMMAX
 10
153.5627299999999
 20
105.04179
  9
$ORTHOMODE
 70
     0
  9
$REGENMODE
 70
     1
  9
$FILLMODE
 70
     1
  9
$QTEXTMODE
 70
     0
  9
$MIRRTEXT
 70
     1
  9
$LTSCALE
 40
1.0
  9
$ATTMODE
 70
     1
  9
$TEXTSIZE
 40
0.2
  9
$TRACEWID
 40
0.05
  9
$TEXTSTYLE
  7
STANDARD
  9
$CLAYER
  8
0
  9
$CELTYPE
  6
CONTINUOUS
  9
$CECOLOR
 62
   256
  9
$CELTSCALE
 40
1.0
  9
$DISPSILH
 70
     0
  9
$DIMSCALE
 40
1.0
  9
$DIMASZ
 40
0.18
  9
$DIMEXO
 40
0.0625
  9
$DIMDLI
 40
0.38
  9
$DIMRND
 40
0.0
  9
$DIMDLE
 40
0.0
  9
$DIMEXE
 40
0.18
  9
$DIMTP
 40
0.0
  9
$DIMTM
 40
0.0
  9
$DIMTXT
 40
0.18
  9
$DIMCEN
 40
0.09
  9
$DIMTSZ
 40
0.0
  9
$DIMTOL
 70
     0
  9
$DIMLIM
 70
     0
  9
$DIMTIH
 70
     1
  9
$DIMTOH
 70
     1
  9
$DIMSE1
 70
     0
  9
$DIMSE2
 70
     0
  9
$DIMTAD
 70
     0
  9
$DIMZIN
 70
     0
  9
$DIMBLK
  1

  9
$DIMASO
 70
     1
  9
$DIMSHO
 70
     0
  9
$DIMPOST
  1

  9
$DIMAPOST
  1

  9
$DIMALT
 70
     0
  9
$DIMALTD
 70
     2
  9
$DIMALTF
 40
25.4
  9
$DIMLFAC
 40
1.0
  9
$DIMTOFL
 70
     0
  9
$DIMTVP
 40
0.0
  9
$DIMTIX
 70
     0
  9
$DIMSOXD
 70
     0
  9
$DIMSAH
 70
     0
  9
$DIMBLK1
  1

  9
$DIMBLK2
  1

  9
$DIMSTYLE
  2
STANDARD
  9
$DIMCLRD
 70
     0
  9
$DIMCLRE
 70
     0
  9
$DIMCLRT
 70
     0
  9
$DIMTFAC
 40
1.0
  9
$DIMGAP
 40
0.09
  9
$DIMJUST
 70
     0
  9
$DIMSD1
 70
     0
  9
$DIMSD2
 70
     0
  9
$DIMTOLJ
 70
     1
  9
$DIMTZIN
 70
     0
  9
$DIMALTZ
 70
     0
  9
$DIMALTTZ
 70
     0
  9
$DIMUPT
 70
     0
  9
$DIMDEC
 70
     4
  9
$DIMTDEC
 70
     4
  9
$DIMALTU
 70
     2
  9
$DIMALTTD
 70
     2
  9
$DIMTXSTY
  7
STANDARD
  9
$DIMAUNIT
 70
     0
  9
$DIMADEC
 70
     0
  9
$DIMALTRND
 40
0.0
  9
$DIMAZIN
 70
     0
  9
$DIMDSEP
 70
    46
  9
$DIMATFIT
 70
     3
  9
$DIMFRAC
 70
     0
  9
$DIMLDRBLK
  1

  9
$DIMLUNIT
 70
     2
  9
$DIMLWD
 70
    -2
  9
$DIMLWE
 70
    -2
  9
$DIMTMOVE
 70
     2
  9
$LUNITS
 70
     2
  9
$LUPREC
 70
     4
  9
$SKETCHINC
 40
0.1
  9
$FILLETRAD
 40
0.0
  9
$AUNITS
 70
     0
  9
$AUPREC
 70
     0
  9
$MENU
  1
.
  9
$ELEVATION
 40
0.0
  9
$PELEVATION
 40
0.0
  9
$THICKNESS
 40
0.0
  9
$LIMCHECK
 70
     0
  9
$CHAMFERA
 40
0.0
  9
$CHAMFERB
 40
0.0
  9
$CHAMFERC
 40
0.0
  9
$CHAMFERD
 40
0.0
  9
$SKPOLY
 70
     0
  9
$TDCREATE
 40
2452488.423151215
  9
$TDUCREATE
 40
2452488.048151215
  9
$TDUPDATE
 40
2456899.667152141
  9
$TDUUPDATE
 40
2456899.292152141
  9
$TDINDWG
 40
0.0984452778
  9
$TDUSRTIMER
 40
0.0984447338
  9
$USRTIMER
 70
     1
  9
$ANGBASE
 50
0.0
  9
$ANGDIR
 70
     0
  9
$PDMODE
 70
     0
  9
$PDSIZE
 40
0.0
  9
$PLINEWID
 40
0.0
  9
$SPLFRAME
 70
     0
  9
$SPLINETYPE
 70
     6
  9
$SPLINESEGS
 70
     8
  9
$HANDSEED
  5
2140
  9
$SURFTAB1
 70
     6
  9
$SURFTAB2
 70
     6
  9
$SURFTYPE
 70
     6
  9
$SURFU
 70
     6
  9
$SURFV
 70
     6
  9
$UCSBASE
  2

  9
$UCSNAME
  2

  9
$UCSORG
 10
0.0
 20
0.0
 30
0.0
  9
$UCSXDIR
 10
1.0
 20
0.0
 30
0.0
  9
$UCSYDIR
 10
0.0
 20
1.0
 30
0.0
  9
$UCSORTHOREF
  2

  9
$UCSORTHOVIEW
 70
     0
  9
$UCSORGTOP
 10
0.0
 20
0.0
 30
0.0
  9
$UCSORGBOTTOM
 10
0.0
 20
0.0
 30
0.0
  9
$UCSORGLEFT
 10
0.0
 20
0.0
 30
0.0
  9
$UCSORGRIGHT
 10
0.0
 20
0.0
 30
0.0
  9
$UCSORGFRONT
 10
0.0
 20
0.0
 30
0.0
  9
$UCSORGBACK
 10
0.0
 20
0.0
 30
0.0
  9
$PUCSBASE
  2

  9
$PUCSNAME
  2

  9
$PUCSORG
 10
0.0
 20
0.0
 30
0.0
  9
$PUCSXDIR
 10
1.0
 20
0.0
 30
0.0
  9
$PUCSYDIR
 10
0.0
 20
1.0
 30
0.0
  9
$PUCSORTHOREF
  2

  9
$PUCSORTHOVIEW
 70
     0
  9
$PUCSORGTOP
 10
0.0
 20
0.0
 30
0.0
  9
$PUCSORGBOTTOM
 10
0.0
 20
0.0
 30
0.0
  9
$PUCSORGLEFT
 10
0.0
 20
0.0
 30
0.0
  9
$PUCSORGRIGHT
 10
0.0
 20
0.0
 30
0.0
  9
$PUCSORGFRONT
 10
0.0
 20
0.0
 30
0.0
  9
$PUCSORGBACK
 10
0.0
 20
0.0
 30
0.0
  9
$USERI1
 70
     0
  9
$USERI2
 70
     0
  9
$USERI3
 70
     0
  9
$USERI4
 70
     0
  9
$USERI5
 70
     0
  9
$USERR1
 40
0.0
  9
$USERR2
 40
0.0
  9
$USERR3
 40
0.0
  9
$USERR4
 40
0.0
  9
$USERR5
 40
0.0
  9
$WORLDVIEW
 70
     1
  9
$SHADEDGE
 70
     3
  9
$SHADEDIF
 70
    70
  9
$TILEMODE
 70
     1
  9
$MAXACTVP
 70
    48
  9
$PINSBASE
 10
0.0
 20
0.0
 30
0.0
  9
$PLIMCHECK
 70
     0
  9
$PEXTMIN
 10
-44.912933
 20
-21.841471
 30
0.0
  9
$PEXTMAX
 10
153.5627299999999
 20
105.04179
 30
0.0
  9
$PLIMMIN
 10
-44.912933
 20
-21.841471
  9
$PLIMMAX
 10
153.5627299999999
 20
105.04179
  9
$UNITMODE
 70
     0
  9
$VISRETAIN
 70
     1
  9
$PLINEGEN
 70
     0
  9
$PSLTSCALE
 70
     1
  9
$TREEDEPTH
 70
  3020
  9
$CMLSTYLE
  2
Standard
  9
$CMLJUST
 70
     0
  9
$CMLSCALE
 40
1.0
  9
$PROXYGRAPHICS
 70
     1
  9
$MEASUREMENT
 70
     0
  9
$CELWEIGHT
370
    -1
  9
$ENDCAPS
280
     0
  9
$JOINSTYLE
280
     0
  9
$LWDISPLAY
290
     0
  9
$INSUNITS
 70
     0
  9
$HYPERLINKBASE
  1

  9
$STYLESHEET
  1

  9
$XEDIT
290
     1
  9
$CEPSNTYPE
380
     0
  9
$PSTYLEMODE
290
     1
  9
$FINGERPRINTGUID
  2
{42FDD54C-D132-4B91-815E-219DDF937522}
  9
$VERSIONGUID
  2
{FC8F5EE1-D7DC-4A42-B561-B736C89CC5B3}
  9
$EXTNAMES
290
     1
  9
$PSVPSCALE
 40
0.0
  9
$OLESTARTUP
290
     0
  0
ENDSEC
  0
SECTION
  2
CLASSES
  0
CLASS
  1
ACDBDICTIONARYWDFLT
  2
AcDbDictionaryWithDefault
  3
AutoCAD 2000
 90
        0
280
     0
281
     0
  0
CLASS
  1
ACDBPLACEHOLDER
  2
AcDbPlaceHolder
  3
AutoCAD 2000
 90
        0
280
     0
281
     0
  0
CLASS
  1
LAYOUT
  2
AcDbLayout
  3
AutoCAD 2000
 90
        0
280
     0
281
     0
  0
CLASS
  1
DICTIONARYVAR
  2
AcDbDictionaryVar
  3
AutoCAD 2000
 90
        0
280
     0
281
     0
  0
CLASS
  1
LONG_TRANSACTION
  2
AcDbLongTransaction
  3
AutoCAD 2000
 90
    32768
280
     0
281
     0
  0
CLASS
  1
LWPOLYLINE
  2
AcDbPolyline
  3
AutoCAD 2000
 90
    32768
280
     0
281
     1
  0
CLASS
  1
HATCH
  2
AcDbHatch
  3
AutoCAD 2000
 90
    32768
280
     0
281
     1
  0
CLASS
  1
XRECORD
  2
AcDbXrecord
  3
AutoCAD 2000
 90
    32768
280
     0
281
     0
  0
CLASS
  1
DIMASSOC
  2
AcDbDimAssoc
  3
"AcDbDimAssoc|Product Desc:     AcDim ARX App For Dimension|Company:          Autodesk, Inc.|WEB Address:      www.autodesk.com"
 90
    32768
280
     0
281
     0
  0
ENDSEC
  0
SECTION
  2
TABLES
  0
TABLE
  2
VPORT
  5
1FFF
330
0
100
AcDbSymbolTable
 70
     2
  0
VPORT
  5
213F
330
1FFF
100
AcDbSymbolTableRecord
100
AcDbViewportTableRecord
  2
*Active
 70
     0
 10
0.0
 20
0.0
 11
1.0
 21
1.0
 12
414.6198469339444
 22
346.7000964420839
 13
0.0
 23
0.0
 14
1.0
 24
1.0
 15
0.0
 25
0.0
 16
0.0
 26
0.0
 36
1.0
 17
0.0
 27
0.0
 37
0.0
 40
658.7773777910935
 41
1.592161016949152
 42
50.0
 43
0.0
 44
0.0
 50
0.0
 51
0.0
 71
     0
 72
   100
 73
     1
 74
     3
 75
     0
 76
     0
 77
     0
 78
     0
281
     0
 65
     1
110
0.0
120
0.0
130
0.0
111
1.0
121
0.0
131
0.0
112
0.0
122
1.0
132
0.0
 79
     0
146
0.0
  0
ENDTAB
  0
TABLE
  2
LTYPE
  5
1FFC
330
0
100
AcDbSymbolTable
 70
     2
  0
LTYPE
  5
200A
330
1FFC
100
AcDbSymbolTableRecord
100
AcDbLinetypeTableRecord
  2
ByBlock
 70
     0
  3

 72
    65
 73
     0
 40
0.0
  0
LTYPE
  5
200B
330
1FFC
100
AcDbSymbolTableRecord
100
AcDbLinetypeTableRecord
  2
ByLayer
 70
     0
  3

 72
    65
 73
     0
 40
0.0
  0
LTYPE
  5
200C
330
1FFC
100
AcDbSymbolTableRecord
100
AcDbLinetypeTableRecord
  2
CONTINUOUS
 70
     0
  3
Solid line
 72
    65
 73
     0
 40
0.0
  0
LTYPE
  5
205C
330
1FFC
100
AcDbSymbolTableRecord
100
AcDbLinetypeTableRecord
  2
CENTER
 70
     0
  3
__ . __
 72
    65
 73
     4
 40
7.0
 49
4.0
 74
     0
 49
-1.0
 74
     0
 49
1.0
 74
     0
 49
-1.0
 74
     0
  0
ENDTAB
  0
TABLE
  2
LAYER
  5
1FF9
102
{ACAD_XDICTIONARY
360
205D
102
}
330
0
100
AcDbSymbolTable
 70
     1
  0
LAYER
  5
2007
330
1FF9
100
AcDbSymbolTableRecord
100
AcDbLayerTableRecord
  2
0
 70
     0
 62
     7
  6
CONTINUOUS
370
    -3
390
2006
  0
ENDTAB
  0
TABLE
  2
STYLE
  5
1FFA
330
0
100
AcDbSymbolTable
 70
     1
  0
STYLE
  5
2008
330
1FFA
100
AcDbSymbolTableRecord
100
AcDbTextStyleTableRecord
  2
STANDARD
 70
     0
 40
0.0
 41
1.0
 50
0.0
 71
     0
 42
0.2
  3
txt
  4

  0
ENDTAB
  0
TABLE
  2
VIEW
  5
1FFD
330
0
100
AcDbSymbolTable
 70
     0
  0
ENDTAB
  0
TABLE
  2
UCS
  5
1FFE
330
0
100
AcDbSymbolTable
 70
     0
  0
ENDTAB
  0
TABLE
  2
APPID
  5
2000
330
0
100
AcDbSymbolTable
 70
    10
  0
APPID
  5
2009
330
2000
100
AcDbSymbolTableRecord
100
AcDbRegAppTableRecord
  2
ACAD
 70
     0
  0
APPID
  5
201A
330
2000
100
AcDbSymbolTableRecord
100
AcDbRegAppTableRecord
  2
MCAD_NO_VIS
 70
     0
  0
APPID
  5
201B
330
2000
100
AcDbSymbolTableRecord
100
AcDbRegAppTableRecord
  2
ACAD_TEMP_GRAPHIC
 70
     0
  0
APPID
  5
201C
330
2000
100
AcDbSymbolTableRecord
100
AcDbRegAppTableRecord
  2
ACATTRIBSERVICES
 70
     0
  0
APPID
  5
2080
330
2000
100
AcDbSymbolTableRecord
100
AcDbRegAppTableRecord
  2
ACAD_DSTYLE_DIMARC_LENGTH_SYMBOL
 70
     0
  0
APPID
  5
2081
330
2000
100
AcDbSymbolTableRecord
100
AcDbRegAppTableRecord
  2
ACAD_DSTYLE_DIMJOGGED_JOGANGLE_SYMBOL
 70
     0
  0
APPID
  5
2082
330
2000
100
AcDbSymbolTableRecord
100
AcDbRegAppTableRecord
  2
AcAecLayerStandard
 70
     0
  0
APPID
  5
2083
330
2000
100
AcDbSymbolTableRecord
100
AcDbRegAppTableRecord
  2
ACAD_DSTYLE_DIMEXT_LENGTH
 70
     0
  0
APPID
  5
2084
330
2000
100
AcDbSymbolTableRecord
100
AcDbRegAppTableRecord
  2
ACAD_DSTYLE_DIMEXT_ENABLED
 70
     0
  0
APPID
  5
2085
330
2000
100
AcDbSymbolTableRecord
100
AcDbRegAppTableRecord
  2
ACAD_PSEXT
 70
     0
  0
ENDTAB
  0
TABLE
  2
DIMSTYLE
  5
2001
330
0
100
AcDbSymbolTable
 70
     1
100
AcDbDimStyleTable
 71
     1
340
201D
  0
DIMSTYLE
105
201D
330
2001
100
AcDbSymbolTableRecord
100
AcDbDimStyleTableRecord
  2
STANDARD
 70
     0
279
     2
340
2008
  0
ENDTAB
  0
TABLE
  2
BLOCK_RECORD
  5
1FF8
330
0
100
AcDbSymbolTable
 70
     0
  0
BLOCK_RECORD
  5
2015
102
{ACAD_XDICTIONARY
360
2025
102
}
330
1FF8
100
AcDbSymbolTableRecord
100
AcDbBlockTableRecord
  2
*Model_Space
340
2018
  0
BLOCK_RECORD
  5
2011
102
{ACAD_XDICTIONARY
360
2027
102
}
330
1FF8
100
AcDbSymbolTableRecord
100
AcDbBlockTableRecord
  2
*Paper_Space
340
2014
  0
ENDTAB
  0
ENDSEC
  0
SECTION
  2
BLOCKS
  0
BLOCK
  5
2016
330
2015
100
AcDbEntity
  8
0
100
AcDbBlockBegin
  2
*Model_Space
 70
     0
 10
0.0
 20
0.0
 30
0.0
  3
*Model_Space
  1

  0
ENDBLK
  5
2017
330
2015
100
AcDbEntity
  8
0
100
AcDbBlockEnd
  0
BLOCK
  5
2012
330
2011
100
AcDbEntity
 67
     1
  8
0
100
AcDbBlockBegin
  2
*Paper_Space
 70
     0
 10
0.0
 20
0.0
 30
0.0
  3
*Paper_Space
  1

  0
ENDBLK
  5
2013
330
2011
100
AcDbEntity
 67
     1
  8
0
100
AcDbBlockEnd
  0
ENDSEC
  0
SECTION
  2
ENTITIES
  0
LINE
  5
12EC
330
2015
100
AcDbEntity
  8
0
100
AcDbLine
 10
180.9973222538
 20
161.7499999999998
 30
0.0
 11
119.4201362537999
 21
161.7499999999998
 31
0.0
  0
LINE
  5
12ED
330
2015
100
AcDbEntity
  8
0
100
AcDbLine
 10
136.7087292537999
 20
181.75
 30
0.0
 11
136.7087292537999
 21
164.7499999999998
 31
0.0
  0
LINE
  5
12EE
330
2015
100
AcDbEntity
  8
0
100
AcDbLine
 10
163.7087292537999
 20
181.75
 30
0.0
 11
163.7087292537999
 21
164.7499999999998
 31
0.0
  0
LINE
  5
12EF
330
2015
100
AcDbEntity
  8
0
100
AcDbLine
 10
120.2087292537999
 20
164.7499999999998
 30
0.0
 11
180.2087292538
 21
164.7499999999998
 31
0.0
  0
LINE
  5
12F0
330
2015
100
AcDbEntity
  8
0
100
AcDbLine
 10
180.2087292538
 20
164.7499999999998
 30
0.0
 11
180.2087292538
 21
161.7499999999998
 31
0.0
  0
LINE
  5
12F1
330
2015
100
AcDbEntity
  8
0
100
AcDbLine
 10
120.2087292537999
 20
164.7499999999998
 30
0.0
 11
120.2087292537999
 21
161.7499999999998
 31
0.0
  0
LINE
  5
12F2
330
2015
100
AcDbEntity
  8
0
100
AcDbLine
 10
105.2087292537999
 20
181.75
 30
0.0
 11
195.2087292538
 21
181.75
 31
0.0
  0
LINE
  5
12F3
330
2015
100
AcDbEntity
  8
0
100
AcDbLine
 10
117.7144092537995
 20
185.656967
 30
0.0
 11
115.4587172537999
 21
181.749995
 31
0.0
  0
LINE
  5
12F4
330
2015
100
AcDbEntity
  8
0
100
AcDbLine
 10
117.7144272537999
 20
185.6569789999996
 30
0.0
 11
130.2087242537998
 21
186.750089
 31
0.0
  0
LINE
  5
12F5
330
2015
100
AcDbEntity
  8
0
100
AcDbLine
 10
115.2087902537995
 20
191.75
 30
0.0
 11
105.2087292537999
 21
191.75
 31
0.0
  0
LINE
  5
12F6
330
2015
100
AcDbEntity
  8
0
100
AcDbLine
 10
105.2087292537999
 20
191.75
 30
0.0
 11
105.2087292537999
 21
181.75
 31
0.0
  0
LINE
  5
12F7
330
2015
100
AcDbEntity
  8
0
100
AcDbLine
 10
115.2087732537999
 20
191.749986
 30
0.0
 11
124.7031792537999
 21
186.2683879999997
 31
0.0
  0
LINE
  5
12F8
330
2015
100
AcDbEntity
  8
0
100
AcDbLine
 10
170.2094002537998
 20
186.7499999999998
 30
0.0
 11
153.2087292537999
 21
186.7499999999998
 31
0.0
  0
LINE
  5
12F9
330
2015
100
AcDbEntity
  8
0
100
AcDbLine
 10
182.7030742537996
 20
185.656955
 30
0.0
 11
184.9587502538
 21
181.7500089999997
 31
0.0
  0
LINE
  5
12FA
330
2015
100
AcDbEntity
  8
0
100
AcDbLine
 10
182.7030822538
 20
185.6569519999999
 30
0.0
 11
170.2094252537998
 21
186.7500049999999
 31
0.0
  0
LINE
  5
12FB
330
2015
100
AcDbEntity
  8
0
100
AcDbLine
 10
185.2087292538
 20
191.75
 30
0.0
 11
195.2087292538
 21
191.75
 31
0.0
  0
LINE
  5
12FC
330
2015
100
AcDbEntity
  8
0
100
AcDbLine
 10
195.2087292538
 20
191.75
 30
0.0
 11
195.2087292538
 21
181.75
 31
0.0
  0
LINE
  5
12FD
330
2015
100
AcDbEntity
  8
0
100
AcDbLine
 10
185.2087442537995
 20
191.7499759999998
 30
0.0
 11
175.7143112538
 21
186.268362
 31
0.0
  0
LINE
  5
12FE
330
2015
100
AcDbEntity
  8
0
100
AcDbLine
 10
147.2087292538
 20
208.6705199999999
 30
0.0
 11
147.2087292538
 21
184.75
 31
0.0
  0
LINE
  5
12FF
330
2015
100
AcDbEntity
  8
0
100
AcDbLine
 10
153.2087292537999
 20
208.6705199999999
 30
0.0
 11
153.2087292537999
 21
184.75
 31
0.0
  0
LINE
  5
1300
330
2015
100
AcDbEntity
  8
0
100
AcDbLine
 10
158.2087292537998
 20
214.1933299999998
 30
0.0
 11
158.2087292537998
 21
193.800018
 31
0.0
  0
LINE
  5
1301
330
2015
100
AcDbEntity
  8
0
100
AcDbLine
 10
164.2087292537999
 20
213.2376999999999
 30
0.0
 11
158.2087292537998
 21
213.2376999999999
 31
0.0
  0
LINE
  5
1302
330
2015
100
AcDbEntity
  8
0
100
AcDbLine
 10
169.2087292537999
 20
193.800018
 30
0.0
 11
169.2087292537999
 21
186.7499999999998
 31
0.0
  0
LINE
  5
1303
330
2015
100
AcDbEntity
  8
0
100
AcDbLine
 10
142.2087292537999
 20
214.1933299999998
 30
0.0
 11
142.2087292537999
 21
193.800018
 31
0.0
  0
LINE
  5
1304
330
2015
100
AcDbEntity
  8
0
100
AcDbLine
 10
136.2087292537999
 20
213.2376999999999
 30
0.0
 11
136.2087292537999
 21
193.800018
 31
0.0
  0
LINE
  5
1305
330
2015
100
AcDbEntity
  8
0
100
AcDbLine
 10
136.2087292537999
 20
213.2376999999999
 30
0.0
 11
142.2087292537999
 21
213.2376999999999
 31
0.0
  0
LINE
  5
1306
330
2015
100
AcDbEntity
  8
0
100
AcDbLine
 10
131.2087292537999
 20
193.800018
 30
0.0
 11
131.2087292537999
 21
186.7499999999998
 31
0.0
  0
LINE
  5
1307
330
2015
100
AcDbEntity
  8
0
100
AcDbLine
 10
169.2087292537999
 20
193.800018
 30
0.0
 11
164.2087292537999
 21
193.800018
 31
0.0
  0
LINE
  5
1308
330
2015
100
AcDbEntity
  8
0
100
AcDbLine
 10
164.2087292537999
 20
213.2376999999999
 30
0.0
 11
164.2087292537999
 21
193.800018
 31
0.0
  0
LINE
  5
130D
330
2015
100
AcDbEntity
  8
0
100
AcDbLine
 10
142.2087292537999
 20
208.6705199999999
 30
0.0
 11
147.2087292538
 21
208.6705199999999
 31
0.0
  0
LINE
  5
130E
330
2015
100
AcDbEntity
  8
0
100
AcDbLine
 10
153.2087292537999
 20
208.6705199999999
 30
0.0
 11
158.2087292537998
 21
208.6705199999999
 31
0.0
  0
LINE
  5
130F
330
2015
100
AcDbEntity
  8
0
100
AcDbLine
 10
147.2087292538
 20
193.800018
 30
0.0
 11
142.2087292537999
 21
193.800018
 31
0.0
  0
LINE
  5
1310
330
2015
100
AcDbEntity
  8
0
100
AcDbLine
 10
147.2087292538
 20
186.7499999999998
 30
0.0
 11
130.2087292537999
 21
186.7499999999998
 31
0.0
  0
LINE
  5
1311
330
2015
100
AcDbEntity
  8
0
100
AcDbLine
 10
136.2087292537999
 20
193.800018
 30
0.0
 11
131.2087292537999
 21
193.800018
 31
0.0
  0
LINE
  5
1312
330
2015
100
AcDbEntity
  8
0
100
AcDbLine
 10
158.2087292537998
 20
193.800018
 30
0.0
 11
153.2087292537999
 21
193.800018
 31
0.0
  0
CIRCLE
  5
1313
330
2015
100
AcDbEntity
  8
0
100
AcDbCircle
 10
150.2087292537999
 20
100.0
 30
0.0
 40
38.150002
  0
ARC
  5
1314
330
2015
100
AcDbEntity
  8
0
100
AcDbCircle
 10
150.2087292537999
 20
100.0
 30
0.0
 40
69.0
100
AcDbArc
 50
116.5008699999984
 51
63.49913100000242
  0
CIRCLE
  5
1315
330
2015
100
AcDbEntity
  8
0
100
AcDbCircle
 10
110.2087292537999
 20
186.7499999999998
 30
0.0
 40
2.6500001
  0
CIRCLE
  5
1316
330
2015
100
AcDbEntity
  8
0
100
AcDbCircle
 10
190.2087292538
 20
186.7499999999998
 30
0.0
 40
2.6500001
  0
ARC
  5
1317
330
2015
100
AcDbEntity
  8
0
100
AcDbCircle
 10
150.2087292537999
 20
184.75
 30
0.0
 40
3.0
100
AcDbArc
 50
179.9999899999988
 51
0.0
  0
LINE
  5
1326
330
2015
100
AcDbEntity
  8
0
100
AcDbLine
 10
370.2087292537989
 20
161.7499999999998
 30
0.0
 11
330.2087292537989
 21
161.7499999999998
 31
0.0
  0
LINE
  5
1327
330
2015
100
AcDbEntity
  8
0
100
AcDbLine
 10
330.2087292537989
 20
161.7499999999998
 30
0.0
 11
330.2087292537989
 21
159.75
 31
0.0
  0
LINE
  5
1329
330
2015
100
AcDbEntity
  8
0
100
AcDbLine
 10
370.2087292537989
 20
161.7499999999998
 30
0.0
 11
370.2087292537989
 21
31.0
 31
0.0
  0
LINE
  5
132A
330
2015
100
AcDbEntity
  8
0
100
AcDbLine
 10
330.2087292537989
 20
31.0
 30
0.0
 11
370.2087292537989
 21
31.0
 31
0.0
  0
LINE
  5
132B
330
2015
100
AcDbEntity
  8
0
100
AcDbLine
 10
330.2087292537989
 20
31.0
 30
0.0
 11
330.2087292537989
 21
161.7499999999998
 31
0.0
  0
LINE
  5
1332
330
2015
100
AcDbEntity
  8
0
100
AcDbLine
 10
322.1232822537992
 20
206.2054399999999
 30
0.0
 11
370.34729709495
 21
214.7086292662547
 31
0.0
  0
LINE
  5
1334
330
2015
100
AcDbEntity
  8
0
100
AcDbLine
 10
309.1448302538
 20
187.6703
 30
0.0
 11
322.1232822537992
 21
206.20545
 31
0.0
  0
LINE
  5
1335
330
2015
100
AcDbEntity
  8
0
100
AcDbLine
 10
309.1448312538
 20
187.6703019999999
 30
0.0
 11
311.8516362538
 21
181.86554
 31
0.0
  0
LINE
  5
1336
330
2015
100
AcDbEntity
  8
0
100
AcDbLine
 10
321.8115132538
 20
186.0153229999998
 30
0.0
 11
324.3108722537991
 21
190.34434
 31
0.0
  0
LINE
  5
1337
330
2015
100
AcDbEntity
  8
0
100
AcDbLine
 10
324.3108522537992
 20
190.34434
 30
0.0
 11
332.9750442537999
 21
191.872071
 31
0.0
  0
LINE
  5
1339
330
2015
100
AcDbEntity
  8
0
100
AcDbLine
 10
369.2087292538
 20
193.800018
 30
0.0
 11
369.2087292538
 21
186.7499849999997
 31
0.0
  0
LINE
  5
133A
330
2015
100
AcDbEntity
  8
0
100
AcDbLine
 10
331.2087292538
 20
191.0529629999998
 30
0.0
 11
331.2087292538
 21
186.7499849999997
 31
0.0
  0
LINE
  5
133B
330
2015
100
AcDbEntity
  8
0
100
AcDbLine
 10
369.2087292538
 20
193.8000029999997
 30
0.0
 11
367.4424332538
 21
193.8000029999997
 31
0.0
  0
LINE
  5
133C
330
2015
100
AcDbEntity
  8
0
100
AcDbLine
 10
367.442402253798
 20
214.1964399999999
 30
0.0
 11
367.442402253798
 21
193.800018
 31
0.0
  0
LINE
  5
133D
330
2015
100
AcDbEntity
  8
0
100
AcDbLine
 10
332.9750252538
 20
208.11891
 30
0.0
 11
332.9750252538
 21
191.3644099999999
 31
0.0
  0
LINE
  5
133E
330
2015
100
AcDbEntity
  8
0
100
AcDbLine
 10
332.975037253798
 20
191.3643869999997
 30
0.0
 11
331.2087372538
 21
191.052941
 31
0.0
  0
LINE
  5
133F
330
2015
100
AcDbEntity
  8
0
100
AcDbLine
 10
363.053974253798
 20
213.42264
 30
0.0
 11
363.053974253798
 21
193.800018
 31
0.0
  0
LINE
  5
1340
330
2015
100
AcDbEntity
  8
0
100
AcDbLine
 10
337.3634842538001
 20
208.89272
 30
0.0
 11
337.3634842538001
 21
193.8000029999997
 31
0.0
  0
LINE
  5
1341
330
2015
100
AcDbEntity
  8
0
100
AcDbLine
 10
363.053974253798
 20
193.8000029999997
 30
0.0
 11
337.3634842538001
 21
193.8000029999997
 31
0.0
  0
LINE
  5
1342
330
2015
100
AcDbEntity
  8
0
100
AcDbLine
 10
330.208790253798
 20
186.7499849999997
 30
0.0
 11
355.2087292538
 21
186.7499849999997
 31
0.0
  0
LINE
  5
1343
330
2015
100
AcDbEntity
  8
0
100
AcDbLine
 10
360.2087292538
 20
191.749985
 30
0.0
 11
360.2087292538
 21
161.9499969999997
 31
0.0
  0
LINE
  5
1344
330
2015
100
AcDbEntity
  8
0
100
AcDbLine
 10
355.2087292538
 20
191.749985
 30
0.0
 11
355.2087292538
 21
181.749985
 31
0.0
  0
LINE
  5
1345
330
2015
100
AcDbEntity
  8
0
100
AcDbLine
 10
311.9055062538
 20
181.749985
 30
0.0
 11
360.2087292538
 21
181.749985
 31
0.0
  0
LINE
  5
1346
330
2015
100
AcDbEntity
  8
0
100
AcDbLine
 10
317.7144212537979
 20
185.6568669999998
 30
0.0
 11
315.458774253798
 21
181.7499709999997
 31
0.0
  0
LINE
  5
1347
330
2015
100
AcDbEntity
  8
0
100
AcDbLine
 10
317.7143912538001
 20
185.656915
 30
0.0
 11
330.2087482537992
 21
186.750029
 31
0.0
  0
LINE
  5
1348
330
2015
100
AcDbEntity
  8
0
100
AcDbLine
 10
336.7087292537981
 20
181.749985
 30
0.0
 11
336.7087292537981
 21
164.749985
 31
0.0
  0
LINE
  5
1349
330
2015
100
AcDbEntity
  8
0
100
AcDbLine
 10
355.2087292538
 20
191.749985
 30
0.0
 11
360.2087292538
 21
191.749985
 31
0.0
  0
LINE
  5
134A
330
2015
100
AcDbEntity
  8
0
100
AcDbLine
 10
327.7087292537989
 20
159.75
 30
0.0
 11
330.2087292537989
 21
159.75
 31
0.0
  0
LINE
  5
134B
330
2015
100
AcDbEntity
  8
0
100
AcDbLine
 10
327.7087292537989
 20
164.749985
 30
0.0
 11
360.2087292538
 21
164.749985
 31
0.0
  0
LINE
  5
134C
330
2015
100
AcDbEntity
  8
0
100
AcDbLine
 10
330.2087292537989
 20
161.7499999999998
 30
0.0
 11
330.2087292537989
 21
159.75
 31
0.0
  0
LINE
  5
134D
330
2015
100
AcDbEntity
  8
0
100
AcDbLine
 10
327.7087292537989
 20
164.749985
 30
0.0
 11
327.7087292537989
 21
159.75
 31
0.0
  0
LINE
  5
134E
330
2015
100
AcDbEntity
  8
0
100
AcDbLine
 10
360.2087292538
 20
186.7499849999997
 30
0.0
 11
369.2087292538
 21
186.7499849999997
 31
0.0
  0
LINE
  5
134F
330
2015
100
AcDbEntity
  8
0
100
AcDbLine
 10
367.4424142538
 20
197.949598
 30
0.0
 11
371.1877000659513
 21
198.6099934427741
 31
0.0
  0
CIRCLE
  5
1359
330
2015
100
AcDbEntity
  8
0
100
AcDbCircle
 10
343.2087292537981
 20
201.8000199999999
 30
0.0
 40
4.150000099999997
  0
CIRCLE
  5
135A
330
2015
100
AcDbEntity
  8
0
100
AcDbCircle
 10
343.2087292537981
 20
201.8000199999999
 30
0.0
 40
4.150000099999997
  0
LINE
  5
1363
330
2015
100
AcDbEntity
  8
0
100
AcDbLine
 10
709.8334928557669
 20
161.7499999999998
 30
0.0
 11
648.2563068557668
 21
161.7499999999998
 31
0.0
  0
LINE
  5
1364
330
2015
100
AcDbEntity
  8
0
100
AcDbLine
 10
665.544899855767
 20
181.75
 30
0.0
 11
665.544899855767
 21
164.7499999999998
 31
0.0
  0
LINE
  5
1365
330
2015
100
AcDbEntity
  8
0
100
AcDbLine
 10
692.5448998557668
 20
181.75
 30
0.0
 11
692.5448998557668
 21
164.7499999999998
 31
0.0
  0
LINE
  5
1366
330
2015
100
AcDbEntity
  8
0
100
AcDbLine
 10
649.044899855767
 20
164.7499999999998
 30
0.0
 11
665.544899855767
 21
164.7499999999998
 31
0.0
  0
LINE
  5
1367
330
2015
100
AcDbEntity
  8
0
100
AcDbLine
 10
709.0448998557668
 20
164.7499999999998
 30
0.0
 11
709.0448998557668
 21
161.7499999999998
 31
0.0
  0
LINE
  5
1368
330
2015
100
AcDbEntity
  8
0
100
AcDbLine
 10
649.044899855767
 20
164.7499999999998
 30
0.0
 11
649.044899855767
 21
161.7499999999998
 31
0.0
  0
LINE
  5
1369
330
2015
100
AcDbEntity
  8
0
100
AcDbLine
 10
634.0448998557668
 20
181.75
 30
0.0
 11
665.544899855767
 21
181.75
 31
0.0
  0
LINE
  5
136A
330
2015
100
AcDbEntity
  8
0
100
AcDbLine
 10
653.539345855766
 20
186.2684229999998
 30
0.0
 11
659.044891855767
 21
186.7500959999997
 31
0.0
  0
LINE
  5
136B
330
2015
100
AcDbEntity
  8
0
100
AcDbLine
 10
644.0449498557671
 20
191.75
 30
0.0
 11
634.0448998557668
 21
191.75
 31
0.0
  0
LINE
  5
136C
330
2015
100
AcDbEntity
  8
0
100
AcDbLine
 10
634.0448998557668
 20
191.75
 30
0.0
 11
634.0448998557668
 21
181.75
 31
0.0
  0
LINE
  5
136D
330
2015
100
AcDbEntity
  8
0
100
AcDbLine
 10
644.0449398557672
 20
191.7499789999999
 30
0.0
 11
653.539345855766
 21
186.2683809999998
 31
0.0
  0
LINE
  5
136E
330
2015
100
AcDbEntity
  8
0
100
AcDbLine
 10
704.5504738557671
 20
186.2684060000001
 30
0.0
 11
699.0455718557671
 21
186.750023
 31
0.0
  0
LINE
  5
136F
330
2015
100
AcDbEntity
  8
0
100
AcDbLine
 10
714.0449078557661
 20
191.75
 30
0.0
 11
724.0448998557658
 21
191.75
 31
0.0
  0
LINE
  5
1370
330
2015
100
AcDbEntity
  8
0
100
AcDbLine
 10
724.0448998557658
 20
191.75
 30
0.0
 11
724.0448998557658
 21
181.75
 31
0.0
  0
LINE
  5
1371
330
2015
100
AcDbEntity
  8
0
100
AcDbLine
 10
714.044913855766
 20
191.7499929999999
 30
0.0
 11
704.5504748557671
 21
186.2683759999999
 31
0.0
  0
LINE
  5
1372
330
2015
100
AcDbEntity
  8
0
100
AcDbLine
 10
687.0448998557662
 20
213.2376999999999
 30
0.0
 11
687.0448998557662
 21
193.800018
 31
0.0
  0
LINE
  5
1373
330
2015
100
AcDbEntity
  8
0
  6
Continuous
100
AcDbLine
 10
693.0448998557668
 20
213.2376999999999
 30
0.0
 11
687.0448998557662
 21
213.2376999999999
 31
0.0
  0
LINE
  5
1374
330
2015
100
AcDbEntity
  8
0
100
AcDbLine
 10
698.0448998557659
 20
193.800018
 30
0.0
 11
698.0448998557659
 21
186.7499999999998
 31
0.0
  0
LINE
  5
1375
330
2015
100
AcDbEntity
  8
0
100
AcDbLine
 10
671.0448998557659
 20
213.2376999999999
 30
0.0
 11
671.0448998557659
 21
193.800018
 31
0.0
  0
LINE
  5
1376
330
2015
100
AcDbEntity
  8
0
100
AcDbLine
 10
665.044899855767
 20
213.2376999999999
 30
0.0
 11
665.044899855767
 21
193.800018
 31
0.0
  0
LINE
  5
1377
330
2015
100
AcDbEntity
  8
0
  6
Continuous
100
AcDbLine
 10
665.044899855767
 20
213.2376999999999
 30
0.0
 11
671.0448998557659
 21
213.2376999999999
 31
0.0
  0
LINE
  5
1378
330
2015
100
AcDbEntity
  8
0
100
AcDbLine
 10
660.0448998557668
 20
193.800018
 30
0.0
 11
660.0448998557668
 21
186.7499999999998
 31
0.0
  0
LINE
  5
1379
330
2015
100
AcDbEntity
  8
0
100
AcDbLine
 10
693.0448998557668
 20
213.2376999999999
 30
0.0
 11
693.0448998557668
 21
193.800018
 31
0.0
  0
LINE
  5
137D
330
2015
100
AcDbEntity
  8
0
100
AcDbLine
 10
698.0448998557659
 20
193.800018
 30
0.0
 11
693.0448998557668
 21
193.800018
 31
0.0
  0
LINE
  5
137E
330
2015
100
AcDbEntity
  8
0
100
AcDbLine
 10
699.0455688557671
 20
186.7499999999998
 30
0.0
 11
659.0448998557668
 21
186.7499999999998
 31
0.0
  0
LINE
  5
137F
330
2015
100
AcDbEntity
  8
0
100
AcDbLine
 10
692.5448998557668
 20
181.75
 30
0.0
 11
724.0448998557658
 21
181.75
 31
0.0
  0
LINE
  5
1380
330
2015
100
AcDbEntity
  8
0
100
AcDbLine
 10
668.0448998557668
 20
186.7499999999998
 30
0.0
 11
668.0448998557668
 21
161.7499999999998
 31
0.0
  0
LINE
  5
1381
330
2015
100
AcDbEntity
  8
0
100
AcDbLine
 10
690.0448998557659
 20
186.7499999999998
 30
0.0
 11
690.0448998557659
 21
161.7499999999998
 31
0.0
  0
LINE
  5
1382
330
2015
100
AcDbEntity
  8
0
100
AcDbLine
 10
692.5448998557668
 20
164.7499999999998
 30
0.0
 11
709.0448998557668
 21
164.7499999999998
 31
0.0
  0
LINE
  5
1383
330
2015
100
AcDbEntity
  8
0
100
AcDbLine
 10
665.044899855767
 20
193.800018
 30
0.0
 11
660.0448998557668
 21
193.800018
 31
0.0
  0
LINE
  5
1384
330
2015
100
AcDbEntity
  8
0
100
AcDbLine
 10
687.0448998557662
 20
193.800018
 30
0.0
 11
671.0448998557659
 21
193.800018
 31
0.0
  0
CIRCLE
  5
1385
330
2015
100
AcDbEntity
  8
0
100
AcDbCircle
 10
679.0448998557661
 20
100.0
 30
0.0
 40
38.150002
  0
ARC
  5
1386
330
2015
100
AcDbEntity
  8
0
100
AcDbCircle
 10
679.0448998557661
 20
100.0
 30
0.0
 40
69.0
100
AcDbArc
 50
116.5008700000042
 51
63.4991309999966
  0
CIRCLE
  5
1387
330
2015
100
AcDbEntity
  8
0
100
AcDbCircle
 10
639.0448998557659
 20
186.7499999999998
 30
0.0
 40
2.6500001
  0
CIRCLE
  5
1388
330
2015
100
AcDbEntity
  8
0
100
AcDbCircle
 10
719.0448998557671
 20
186.7499999999998
 30
0.0
 40
2.6500001
  0
TEXT
  5
142A
330
2015
100
AcDbEntity
  8
0
100
AcDbText
 10
137.8779778561535
 20
626.0
 30
0.0
 40
48.000002
  1
BVT__ 3S
 41
1.1021
100
AcDbText
  0
LINE
  5
1466
330
2015
100
AcDbEntity
  8
0
100
AcDbLine
 10
370.2087292537989
 20
489.3147717058419
 30
0.0
 11
370.2087292537989
 21
426.8147717058424
 31
0.0
  0
LINE
  5
1467
330
2015
100
AcDbEntity
  8
0
100
AcDbLine
 10
330.2087292537989
 20
351.3147717058428
 30
0.0
 11
370.2087292537989
 21
351.3147717058428
 31
0.0
  0
LINE
  5
1468
330
2015
100
AcDbEntity
  8
0
100
AcDbLine
 10
330.2087292537989
 20
351.3147717058428
 30
0.0
 11
330.2087292537989
 21
392.510770705843
 31
0.0
  0
LINE
  5
146B
330
2015
100
AcDbEntity
  8
0
100
AcDbLine
 10
330.2087292537989
 20
489.3147717058419
 30
0.0
 11
370.2087292537989
 21
489.3147717058419
 31
0.0
  0
LINE
  5
146C
330
2015
100
AcDbEntity
  8
0
100
AcDbLine
 10
330.2087292537989
 20
448.1187727058428
 30
0.0
 11
330.2087292537989
 21
489.3147717058419
 31
0.0
  0
LINE
  5
1471
330
2015
100
AcDbEntity
  8
0
100
AcDbLine
 10
360.2087292538
 20
465.3147717058421
 30
0.0
 11
360.2087292538
 21
436.4702587058429
 31
0.0
  0
LINE
  5
1472
330
2015
100
AcDbEntity
  8
0
100
AcDbLine
 10
355.2087292538
 20
465.3147717058421
 30
0.0
 11
355.2087292538
 21
446.8202647058431
 31
0.0
  0
LINE
  5
1473
330
2015
100
AcDbEntity
  8
0
100
AcDbLine
 10
355.2087292538
 20
375.314740705842
 30
0.0
 11
360.2087292538
 21
375.314740705842
 31
0.0
  0
LINE
  5
1474
330
2015
100
AcDbEntity
  8
0
100
AcDbLine
 10
355.2087292538
 20
465.3147717058421
 30
0.0
 11
360.2087292538
 21
465.3147717058421
 31
0.0
  0
LINE
  5
1475
330
2015
100
AcDbEntity
  8
0
100
AcDbLine
 10
355.2087292538
 20
385.3147717058428
 30
0.0
 11
360.2087292538
 21
385.3147717058428
 31
0.0
  0
LINE
  5
1476
330
2015
100
AcDbEntity
  8
0
100
AcDbLine
 10
355.2087292538
 20
375.314740705842
 30
0.0
 11
355.2087292538
 21
393.809308705843
 31
0.0
  0
LINE
  5
1477
330
2015
100
AcDbEntity
  8
0
100
AcDbLine
 10
355.2087292538
 20
455.3147717058419
 30
0.0
 11
360.2087292538
 21
455.3147717058419
 31
0.0
  0
LINE
  5
1478
330
2015
100
AcDbEntity
  8
0
100
AcDbLine
 10
363.0539442537989
 20
406.314771705843
 30
0.0
 11
337.3634842538001
 21
406.314771705843
 31
0.0
  0
LINE
  5
1479
330
2015
100
AcDbEntity
  8
0
100
AcDbLine
 10
363.0539442537989
 20
434.3147717058428
 30
0.0
 11
337.3634842538001
 21
434.3147717058428
 31
0.0
  0
LINE
  5
147B
330
2015
100
AcDbEntity
  8
0
100
AcDbLine
 10
360.2087292538
 20
404.159284705843
 30
0.0
 11
360.2087292538
 21
375.314740705842
 31
0.0
  0
LINE
  5
147D
330
2015
100
AcDbEntity
  8
0
100
AcDbLine
 10
367.4424171934129
 20
412.3147717058428
 30
0.0
 11
332.975025253798
 21
412.3147717058428
 31
0.0
  0
LINE
  5
147E
330
2015
100
AcDbEntity
  8
0
100
AcDbLine
 10
367.4424171934128
 20
428.314771705843
 30
0.0
 11
332.975025253798
 21
428.314771705843
 31
0.0
  0
LINE
  5
147F
330
2015
100
AcDbEntity
  8
0
100
AcDbLine
 10
331.4470712538
 20
423.3147717058419
 30
0.0
 11
312.896351253798
 21
423.3147717058419
 31
0.0
  0
LINE
  5
1480
330
2015
100
AcDbEntity
  8
0
100
AcDbLine
 10
331.4470712538
 20
417.3147717058428
 30
0.0
 11
312.896351253798
 21
417.3147717058428
 31
0.0
  0
LINE
  5
1484
330
2015
100
AcDbEntity
  8
0
100
AcDbLine
 10
370.2087292537989
 20
413.8147717058425
 30
0.0
 11
370.2087292537989
 21
351.3147717058428
 31
0.0
  0
ARC
  5
1489
330
2015
100
AcDbEntity
  8
0
100
AcDbCircle
 10
350.2087292537988
 20
420.3147717058429
 30
0.0
 40
34.25
100
AcDbArc
 50
81.60565199999401
 51
174.97495
  0
ARC
  5
148A
330
2015
100
AcDbEntity
  8
0
100
AcDbCircle
 10
312.896351253798
 20
420.3147717058429
 30
0.0
 40
3.0
100
AcDbArc
 50
90.00000299999769
 51
270.0
  0
ARC
  5
148B
330
2015
100
AcDbEntity
  8
0
100
AcDbCircle
 10
350.2087292537988
 20
420.3147717058429
 30
0.0
 40
19.0
100
AcDbArc
 50
24.90106237036737
 51
170.9152799999938
  0
ARC
  5
148D
330
2015
100
AcDbEntity
  8
0
100
AcDbCircle
 10
350.2087292537988
 20
420.3147717058429
 30
0.0
 40
34.25
100
AcDbArc
 50
185.0250499999999
 51
278.3943500000052
  0
ARC
  5
148E
330
2015
100
AcDbEntity
  8
0
100
AcDbCircle
 10
350.2087292537988
 20
420.3147717058429
 30
0.0
 40
19.0
100
AcDbArc
 50
189.084720000006
 51
335.0989376296329
  0
LINE
  5
183A
330
2015
100
AcDbEntity
  8
0
100
AcDbLine
 10
400.2087292537988
 20
54.5000000000001
 30
0.0
 11
397.358730553798
 21
54.5000000000001
 31
0.0
  0
LINE
  5
183B
330
2015
100
AcDbEntity
  8
0
100
AcDbLine
 10
397.3587306537999
 20
54.499999
 30
0.0
 11
394.6835499538
 21
61.84999800000014
 31
0.0
  0
LINE
  5
183C
330
2015
100
AcDbEntity
  8
0
100
AcDbLine
 10
394.683549853798
 20
61.84999800000014
 30
0.0
 11
370.2087292537989
 21
61.84999800000014
 31
0.0
  0
LINE
  5
183D
330
2015
100
AcDbEntity
  8
0
100
AcDbLine
 10
400.2087292537988
 20
145.5000000000001
 30
0.0
 11
400.2087292537988
 21
54.5000000000001
 31
0.0
  0
LINE
  5
183E
330
2015
100
AcDbEntity
  8
0
100
AcDbLine
 10
394.683549853798
 20
138.1500019999996
 30
0.0
 11
370.2087292537989
 21
138.1500019999996
 31
0.0
  0
LINE
  5
183F
330
2015
100
AcDbEntity
  8
0
100
AcDbLine
 10
397.3587306537999
 20
145.500001
 30
0.0
 11
394.6835499538
 21
138.1500019999996
 31
0.0
  0
LINE
  5
1840
330
2015
100
AcDbEntity
  8
0
100
AcDbLine
 10
400.2087292537988
 20
145.5000000000001
 30
0.0
 11
397.358730553798
 21
145.5000000000001
 31
0.0
  0
LINE
  5
1842
330
2015
100
AcDbEntity
  8
0
100
AcDbLine
 10
394.683549853798
 20
61.84999800000014
 30
0.0
 11
394.683549853798
 21
138.1500019999996
 31
0.0
  0
LINE
  5
1845
330
2015
100
AcDbEntity
  8
0
100
AcDbLine
 10
300.208729253798
 20
145.5
 30
0.0
 11
303.0587279538
 21
145.5
 31
0.0
  0
LINE
  5
1846
330
2015
100
AcDbEntity
  8
0
100
AcDbLine
 10
303.0587278537979
 20
145.500001
 30
0.0
 11
305.733908553798
 21
138.1500019999996
 31
0.0
  0
LINE
  5
1847
330
2015
100
AcDbEntity
  8
0
100
AcDbLine
 10
305.7339086537999
 20
138.1500019999996
 30
0.0
 11
330.2087292537989
 21
138.1500019999996
 31
0.0
  0
LINE
  5
1848
330
2015
100
AcDbEntity
  8
0
100
AcDbLine
 10
300.208729253798
 20
54.5
 30
0.0
 11
300.208729253798
 21
145.5
 31
0.0
  0
LINE
  5
1849
330
2015
100
AcDbEntity
  8
0
100
AcDbLine
 10
305.7339086537999
 20
61.84999800000002
 30
0.0
 11
330.2087292537989
 21
61.84999800000002
 31
0.0
  0
LINE
  5
184A
330
2015
100
AcDbEntity
  8
0
100
AcDbLine
 10
303.0587278537979
 20
54.499999
 30
0.0
 11
305.733908553798
 21
61.84999800000002
 31
0.0
  0
LINE
  5
184B
330
2015
100
AcDbEntity
  8
0
100
AcDbLine
 10
300.208729253798
 20
54.5
 30
0.0
 11
303.0587279538
 21
54.5
 31
0.0
  0
LINE
  5
184D
330
2015
100
AcDbEntity
  8
0
100
AcDbLine
 10
305.7339086537999
 20
138.1500019999996
 30
0.0
 11
305.7339086537999
 21
61.84999800000002
 31
0.0
  0
LINE
  5
1935
330
2015
100
AcDbEntity
  8
0
100
AcDbLine
 10
397.3587306537999
 20
465.8147727058429
 30
0.0
 11
394.6835499538
 21
458.4647737058433
 31
0.0
  0
LINE
  5
1936
330
2015
100
AcDbEntity
  8
0
100
AcDbLine
 10
397.3587306537999
 20
374.8147707058431
 30
0.0
 11
394.6835499538
 21
382.1647697058418
 31
0.0
  0
LINE
  5
1937
330
2015
100
AcDbEntity
  8
0
100
AcDbLine
 10
394.683549853798
 20
382.1647697058418
 30
0.0
 11
394.683549853798
 21
413.8147717058425
 31
0.0
  0
LINE
  5
1938
330
2015
100
AcDbEntity
  8
0
100
AcDbLine
 10
394.683549853798
 20
382.1647697058418
 30
0.0
 11
370.2087292537989
 21
382.1647697058418
 31
0.0
  0
LINE
  5
1939
330
2015
100
AcDbEntity
  8
0
100
AcDbLine
 10
394.683549853798
 20
458.4647737058433
 30
0.0
 11
370.2087292537989
 21
458.4647737058433
 31
0.0
  0
LINE
  5
193A
330
2015
100
AcDbEntity
  8
0
100
AcDbLine
 10
400.2087292537988
 20
465.814771705843
 30
0.0
 11
400.2087292537988
 21
426.8147717058424
 31
0.0
  0
LINE
  5
193B
330
2015
100
AcDbEntity
  8
0
100
AcDbLine
 10
400.2087292537988
 20
374.8147717058419
 30
0.0
 11
397.358730553798
 21
374.8147717058419
 31
0.0
  0
LINE
  5
193C
330
2015
100
AcDbEntity
  8
0
100
AcDbLine
 10
400.2087292537988
 20
465.814771705843
 30
0.0
 11
397.358730553798
 21
465.814771705843
 31
0.0
  0
LINE
  5
193D
330
2015
100
AcDbEntity
  8
0
100
AcDbLine
 10
305.7339086537999
 20
458.4647737058433
 30
0.0
 11
305.7339086537999
 21
382.1647697058418
 31
0.0
  0
LINE
  5
193E
330
2015
100
AcDbEntity
  8
0
100
AcDbLine
 10
300.208729253798
 20
374.8147717058419
 30
0.0
 11
300.208729253798
 21
465.814771705843
 31
0.0
  0
LINE
  5
193F
330
2015
100
AcDbEntity
  8
0
100
AcDbLine
 10
300.208729253798
 20
374.8147717058419
 30
0.0
 11
303.0587279538
 21
374.8147717058419
 31
0.0
  0
LINE
  5
1940
330
2015
100
AcDbEntity
  8
0
100
AcDbLine
 10
305.7339086537999
 20
382.1647697058418
 30
0.0
 11
330.2087292537989
 21
382.1647697058418
 31
0.0
  0
LINE
  5
1941
330
2015
100
AcDbEntity
  8
0
100
AcDbLine
 10
303.0587278537979
 20
374.8147707058431
 30
0.0
 11
305.733908553798
 21
382.1647697058418
 31
0.0
  0
LINE
  5
1942
330
2015
100
AcDbEntity
  8
0
100
AcDbLine
 10
300.208729253798
 20
465.814771705843
 30
0.0
 11
303.0587279538
 21
465.814771705843
 31
0.0
  0
LINE
  5
1943
330
2015
100
AcDbEntity
  8
0
100
AcDbLine
 10
305.7339086537999
 20
458.4647737058433
 30
0.0
 11
330.2087292537989
 21
458.4647737058433
 31
0.0
  0
LINE
  5
1944
330
2015
100
AcDbEntity
  8
0
100
AcDbLine
 10
303.0587278537979
 20
465.8147727058429
 30
0.0
 11
305.733908553798
 21
458.4647737058433
 31
0.0
  0
LINE
  5
1945
330
2015
100
AcDbEntity
  8
0
100
AcDbLine
 10
394.683549853798
 20
426.8147717058424
 30
0.0
 11
394.683549853798
 21
458.4647737058433
 31
0.0
  0
LINE
  5
1946
330
2015
100
AcDbEntity
  8
0
100
AcDbLine
 10
400.2087292537988
 20
413.8147717058425
 30
0.0
 11
400.2087292537988
 21
374.8147717058419
 31
0.0
  0
CIRCLE
  5
1962
330
2015
100
AcDbEntity
  8
0
  6
Continuous
100
AcDbCircle
 10
150.2087292537999
 20
100.0
 30
0.0
 40
45.49999999999999
  0
CIRCLE
  5
1965
330
2015
100
AcDbEntity
  8
0
  6
Continuous
100
AcDbCircle
 10
679.0448998557661
 20
100.0
 30
0.0
 40
45.49999999999999
  0
LINE
  5
2065
330
2015
100
AcDbEntity
  8
0
  6
CENTER
100
AcDbLine
 10
600.1508665011697
 20
100.0
 30
0.0
 11
757.9389332103625
 21
100.0
 31
0.0
  0
LINE
  5
2066
330
2015
100
AcDbEntity
  8
0
  6
CENTER
100
AcDbLine
 10
679.0448998557661
 20
19.44162979002885
 30
0.0
 11
679.0448998557662
 21
239.6809383945313
 31
0.0
  0
LINE
  5
20FE
330
2015
100
AcDbEntity
  8
0
  6
CENTER
100
AcDbLine
 10
279.839747677119
 20
100.0000000000001
 30
0.0
 11
420.5777108304788
 21
100.0000000000001
 31
0.0
  0
LINE
  5
20FF
330
2015
100
AcDbEntity
  8
0
  6
CENTER
100
AcDbLine
 10
350.2087292537988
 20
22.33133056408178
 30
0.0
 11
350.2087292537989
 21
207.1695581272894
 31
0.0
  0
ARC
  5
2100
330
2015
100
AcDbEntity
  8
0
100
AcDbCircle
 10
539.6147814201095
 20
239.6809383945313
 30
0.0
 40
15.0
100
AcDbArc
 50
249.9999970332897
 51
129.9999770332868
  0
LINE
  5
2101
330
2015
100
AcDbEntity
  8
0
100
AcDbLine
 10
395.7663743436019
 20
207.7163439479016
 30
0.0
 11
519.6477664241966
 21
229.5599468719343
 31
0.0
  0
LINE
  5
2102
330
2015
100
AcDbEntity
  8
0
100
AcDbLine
 10
393.5085847464192
 20
220.5187806797549
 30
0.0
 11
517.3903600692593
 21
242.3624511796462
 31
0.0
  0
LINE
  5
2103
330
2015
100
AcDbEntity
  8
0
100
AcDbLine
 10
524.804448806449
 20
229.1087946467392
 30
0.0
 11
534.4844758967651
 21
225.5855512845036
 31
0.0
  0
ARC
  5
2104
330
2015
100
AcDbEntity
  8
0
100
AcDbCircle
 10
521.3842459721286
 20
219.7118689488257
 30
0.0
 40
10.0
100
AcDbArc
 50
69.99999145730973
 51
99.99998703327516
  0
LINE
  5
2105
330
2015
100
AcDbEntity
  8
0
100
AcDbLine
 10
522.0817542930505
 20
244.5500827205394
 30
0.0
 11
529.9729717952714
 21
251.1715963345831
 31
0.0
  0
LINE
  5
2106
330
2015
100
AcDbEntity
  8
0
100
AcDbLine
 10
371.1877188679994
 20
205.1687511903772
 30
0.0
 11
395.7663743436019
 21
207.7163439479016
 31
0.0
  0
LINE
  5
2109
330
2015
100
AcDbEntity
  8
0
100
AcDbLine
 10
371.1877000659513
 20
198.6099934427741
 30
0.0
 11
371.1877188679994
 21
205.1687511903772
 31
0.0
  0
LINE
  5
210A
330
2015
100
AcDbEntity
  8
0
100
AcDbLine
 10
370.34729709495
 20
214.7086292662547
 30
0.0
 11
393.5085847464192
 21
220.5187806797549
 31
0.0
  0
ARC
  5
210B
330
2015
100
AcDbEntity
  8
0
100
AcDbCircle
 10
515.6538805213273
 20
252.2105291027545
 30
0.0
 40
10.0
100
AcDbArc
 50
279.9999870332831
 51
309.9999826092576
  0
LINE
  5
210C
330
2015
100
AcDbEntity
  8
0
  6
CENTER
100
AcDbLine
 10
357.4218041961536
 20
207.5554433287487
 30
0.0
 11
539.6147814201095
 21
239.6809383945313
 31
0.0
  0
LINE
  5
210D
330
2015
100
AcDbEntity
  8
0
  6
CENTER
100
AcDbLine
 10
71.31469589920346
 20
100.0
 30
0.0
 11
229.1027626083962
 21
100.0
 31
0.0
  0
LINE
  5
210E
330
2015
100
AcDbEntity
  8
0
  6
CENTER
100
AcDbLine
 10
150.2087292537999
 20
19.44162979002885
 30
0.0
 11
150.2087292538
 21
239.6809383945313
 31
0.0
  0
LINE
  5
2110
330
2015
100
AcDbEntity
  8
0
100
AcDbLine
 10
150.7087492537999
 20
214.7083122556872
 30
0.0
 11
156.7087492537999
 21
218.7229533972469
 31
0.0
  0
ARC
  5
2111
330
2015
100
AcDbEntity
  8
0
100
AcDbCircle
 10
150.2087292538
 20
239.6809383945313
 30
0.0
 40
15.0
100
AcDbArc
 50
295.6792886194599
 51
244.32071138054
  0
LINE
  5
2112
330
2015
100
AcDbEntity
  8
0
100
AcDbLine
 10
143.7087492537999
 20
214.6935230528093
 30
0.0
 11
143.7087492537999
 21
234.9792200421571
 31
0.0
  0
LINE
  5
2113
330
2015
100
AcDbEntity
  8
0
100
AcDbLine
 10
143.7087492537999
 20
218.7229533972469
 30
0.0
 11
149.7087492537999
 21
214.7083122556872
 31
0.0
  0
ARC
  5
2115
330
2015
100
AcDbEntity
  8
0
100
AcDbCircle
 10
143.2087492537999
 20
214.6935230528093
 30
0.0
 40
0.5
100
AcDbArc
 50
270.0
 51
0.0
  0
LINE
  5
2116
330
2015
100
AcDbEntity
  8
0
100
AcDbLine
 10
142.2087292538
 20
214.1935230528096
 30
0.0
 11
143.2087492537999
 21
214.1935230528094
 31
0.0
  0
LINE
  5
2117
330
2015
100
AcDbEntity
  8
0
100
AcDbLine
 10
156.7087492537999
 20
214.6935230528093
 30
0.0
 11
156.7087492537999
 21
234.9792200421571
 31
0.0
  0
ARC
  5
2119
330
2015
100
AcDbEntity
  8
0
100
AcDbCircle
 10
157.2087492537999
 20
214.6935230528093
 30
0.0
 40
0.5
100
AcDbArc
 50
180.0
 51
270.0
  0
LINE
  5
211A
330
2015
100
AcDbEntity
  8
0
100
AcDbLine
 10
157.2087492537999
 20
214.1935230528094
 30
0.0
 11
158.2087292538
 21
214.1935230528094
 31
0.0
  0
LINE
  5
211B
330
2015
100
AcDbEntity
  8
0
  6
Continuous
100
AcDbLine
 10
685.5449198557662
 20
206.4884799999997
 30
0.0
 11
685.5449198557662
 21
226.1624421764012
 31
0.0
  0
LINE
  5
211C
330
2015
100
AcDbEntity
  8
0
  6
Continuous
100
AcDbLine
 10
672.5449198557662
 20
206.4884799999997
 30
0.0
 11
672.5449198557662
 21
226.1624229435064
 31
0.0
  0
ARC
  5
211F
330
2015
100
AcDbEntity
  8
0
  6
Continuous
100
AcDbCircle
 10
679.0448998557662
 20
206.4884799999997
 30
0.0
 40
6.49998000000005
100
AcDbArc
 50
180.0
 51
0.0
  0
CIRCLE
  5
2120
330
2015
100
AcDbEntity
  8
0
  6
Continuous
100
AcDbCircle
 10
679.0448998557662
 20
239.6809383945313
 30
0.0
 40
15.0
  0
LINE
  5
2122
330
2015
100
AcDbEntity
  8
0
  6
CENTER
100
AcDbLine
 10
281.5914357349647
 20
420.3147717058424
 30
0.0
 11
539.6147814201095
 21
420.3147717058424
 31
0.0
  0
ARC
  5
2123
330
2015
100
AcDbEntity
  8
0
100
AcDbCircle
 10
539.6147814201095
 20
420.3147717058424
 30
0.0
 40
15.0
100
AcDbArc
 50
240.0000099999925
 51
119.9999900000075
  0
LINE
  5
2124
330
2015
100
AcDbEntity
  8
0
100
AcDbLine
 10
368.2087446905011
 20
413.8147717058425
 30
0.0
 11
518.1936184519613
 21
413.8147717058425
 31
0.0
  0
LINE
  5
2125
330
2015
100
AcDbEntity
  8
0
100
AcDbLine
 10
368.2087446905011
 20
426.8147717058424
 30
0.0
 11
518.1936373050798
 21
426.8147717058424
 31
0.0
  0
LINE
  5
2126
330
2015
100
AcDbEntity
  8
0
100
AcDbLine
 10
371.9976925284881
 20
421.1739258058825
 30
0.0
 11
386.1142549422856
 21
424.2454846842726
 31
0.0
  0
LINE
  5
2127
330
2015
100
AcDbEntity
  8
0
100
AcDbLine
 10
371.989101592469
 20
419.4574868686788
 30
0.0
 11
386.1142549934852
 21
416.3840587164495
 31
0.0
  0
LINE
  5
2128
330
2015
100
AcDbEntity
  8
0
100
AcDbLine
 10
367.2087446905011
 20
412.8147717058424
 30
0.0
 11
367.2087446905011
 21
412.3147642058424
 31
0.0
  0
ARC
  5
2129
330
2015
100
AcDbEntity
  8
0
100
AcDbCircle
 10
368.2087446905011
 20
412.8147717058424
 30
0.0
 40
1.0
100
AcDbArc
 50
90.0
 51
180.0
  0
ARC
  5
212A
330
2015
100
AcDbEntity
  8
0
100
AcDbCircle
 10
368.2087446905011
 20
427.8147717058424
 30
0.0
 40
1.0
100
AcDbArc
 50
180.0
 51
270.0
  0
LINE
  5
212B
330
2015
100
AcDbEntity
  8
0
100
AcDbLine
 10
367.2087446905011
 20
428.3147642058424
 30
0.0
 11
367.2087446905011
 21
427.8147717058424
 31
0.0
  0
ARC
  5
212C
330
2015
100
AcDbEntity
  8
0
100
AcDbCircle
 10
385.9048874203347
 20
415.4062217058423
 30
0.0
 40
1.0
100
AcDbArc
 50
0.0
 51
77.91470699999684
  0
ARC
  5
212D
330
2015
100
AcDbEntity
  8
0
100
AcDbCircle
 10
391.3590074203348
 20
419.8147717058424
 30
0.0
 40
6.0
100
AcDbArc
 50
227.7108799999929
 51
248.2388499999987
  0
LINE
  5
212E
330
2015
100
AcDbEntity
  8
0
100
AcDbLine
 10
386.9048874203347
 20
415.4062217058423
 30
0.0
 11
386.9048874203347
 21
413.8147717058425
 31
0.0
  0
ARC
  5
212F
330
2015
100
AcDbEntity
  8
0
100
AcDbCircle
 10
391.3590074203348
 20
420.8147717058424
 30
0.0
 40
6.0
100
AcDbArc
 50
109.8411499999924
 51
132.4629100000062
  0
LINE
  5
2130
330
2015
100
AcDbEntity
  8
0
100
AcDbLine
 10
386.9048874203347
 20
426.8147717058424
 30
0.0
 11
386.9048874203347
 21
425.2233217058423
 31
0.0
  0
ARC
  5
2131
330
2015
100
AcDbEntity
  8
0
100
AcDbCircle
 10
385.9048874203347
 20
425.2233217058423
 30
0.0
 40
1.0
100
AcDbArc
 50
282.0852899999963
 51
0.0
  0
LINE
  5
2132
330
2015
100
AcDbEntity
  8
0
100
AcDbLine
 10
523.1936366363884
 20
428.1545172819289
 30
0.0
 11
532.1147814201094
 21
433.3051417058424
 31
0.0
  0
LINE
  5
2133
330
2015
100
AcDbEntity
  8
0
100
AcDbLine
 10
523.1936244196933
 20
412.4750222982122
 30
0.0
 11
532.1147814201094
 21
407.3243817058423
 31
0.0
  0
ARC
  5
2134
330
2015
100
AcDbEntity
  8
0
100
AcDbCircle
 10
518.1936184519613
 20
403.8147717058424
 30
0.0
 40
10.0
100
AcDbArc
 50
59.99996051779769
 51
90.0
  0
ARC
  5
2135
330
2015
100
AcDbEntity
  8
0
100
AcDbCircle
 10
518.1936373050798
 20
436.8147717058424
 30
0.0
 40
10.0
100
AcDbArc
 50
270.0
 51
299.9999955759676
  0
LINE
  5
2136
330
2015
100
AcDbEntity
  8
0
  6
CENTER
100
AcDbLine
 10
350.2087292537988
 20
342.2639339048946
 30
0.0
 11
350.2087292537989
 21
498.3656095067903
 31
0.0
  0
ENDSEC
  0
SECTION
  2
OBJECTS
  0
DICTIONARY
  5
2003
330
0
100
AcDbDictionary
281
     1
  3
ACAD_GROUP
350
2004
  3
ACAD_LAYOUT
350
2010
  3
ACAD_MLINESTYLE
350
200D
  3
ACAD_PLOTSETTINGS
350
200F
  3
ACAD_PLOTSTYLENAME
350
2005
  3
AcDbVariableDictionary
350
2057
  0
DICTIONARY
  5
205D
330
1FF9
100
AcDbDictionary
280
     1
281
     1
  3
ACAD_LAYERSTATES
360
205E
  0
DICTIONARY
  5
2025
330
2015
100
AcDbDictionary
280
     1
281
     1
  3
ACAD_LAYOUTSELFREF
360
2054
  0
DICTIONARY
  5
2027
330
2011
100
AcDbDictionary
280
     1
281
     1
  3
ACAD_LAYOUTSELFREF
360
2053
  0
DICTIONARY
  5
2004
102
{ACAD_REACTORS
330
2003
102
}
330
2003
100
AcDbDictionary
281
     1
  0
DICTIONARY
  5
2010
102
{ACAD_REACTORS
330
2003
102
}
330
2003
100
AcDbDictionary
281
     1
  3
Model
350
2018
  3
ﾚｲｱｳﾄ1
350
2014
  0
DICTIONARY
  5
200D
102
{ACAD_REACTORS
330
2003
102
}
330
2003
100
AcDbDictionary
281
     1
  3
Standard
350
200E
  0
DICTIONARY
  5
200F
102
{ACAD_REACTORS
330
2003
102
}
330
2003
100
AcDbDictionary
281
     1
  0
ACDBDICTIONARYWDFLT
  5
2005
102
{ACAD_REACTORS
330
2003
102
}
330
2003
100
AcDbDictionary
281
     1
  3
Normal
350
2006
100
AcDbDictionaryWithDefault
340
2006
  0
DICTIONARY
  5
2057
102
{ACAD_REACTORS
330
2003
102
}
330
2003
100
AcDbDictionary
281
     1
  3
DIMASSOC
350
2058
  0
DICTIONARY
  5
205E
102
{ACAD_REACTORS
330
205D
102
}
330
205D
100
AcDbDictionary
281
     1
  0
XRECORD
  5
2054
102
{ACAD_REACTORS
330
2025
102
}
330
2025
100
AcDbXrecord
280
     1
340
2015
  0
XRECORD
  5
2053
102
{ACAD_REACTORS
330
2027
102
}
330
2027
100
AcDbXrecord
280
     1
340
2011
  0
LAYOUT
  5
2018
102
{ACAD_REACTORS
330
2010
102
}
330
2010
100
AcDbPlotSettings
  1

  2
SII LP-2150 (D-SCAN C2)
  4

  6

 40
0.0
 41
0.0
 42
0.0
 43
0.0
 44
0.0
 45
0.0
 46
0.0
 47
0.0
 48
0.0
 49
0.0
140
0.0
141
0.0
142
1.0
143
1.0
 70
  1712
 72
     0
 73
     0
 74
     0
  7

 75
     0
147
1.0
148
0.0
149
0.0
100
AcDbLayout
  1
Model
 70
     1
 71
     0
 10
0.0
 20
0.0
 11
12.0
 21
9.0
 12
0.0
 22
0.0
 32
0.0
 14
0.0
 24
0.0
 34
0.0
 15
0.0
 25
0.0
 35
0.0
146
0.0
 13
0.0
 23
0.0
 33
0.0
 16
1.0
 26
0.0
 36
0.0
 17
0.0
 27
1.0
 37
0.0
 76
     0
330
2015
  0
LAYOUT
  5
2014
102
{ACAD_REACTORS
330
2010
102
}
330
2010
100
AcDbPlotSettings
  1

  2
SII LP-2150 (D-SCAN C2)
  4

  6

 40
0.0
 41
0.0
 42
0.0
 43
0.0
 44
0.0
 45
0.0
 46
0.0
 47
0.0
 48
0.0
 49
0.0
140
0.0
141
0.0
142
1.0
143
1.0
 70
   688
 72
     0
 73
     0
 74
     5
  7

 75
    16
147
1.0
148
0.0
149
0.0
100
AcDbLayout
  1
ﾚｲｱｳﾄ1
 70
     1
 71
     1
 10
-44.912933
 20
-21.841471
 11
153.5627299999999
 21
105.04179
 12
0.0
 22
0.0
 32
0.0
 14
-44.912933
 24
-21.841471
 34
0.0
 15
153.5627299999999
 25
105.04179
 35
0.0
146
0.0
 13
0.0
 23
0.0
 33
0.0
 16
1.0
 26
0.0
 36
0.0
 17
0.0
 27
1.0
 37
0.0
 76
     0
330
2011
  0
MLINESTYLE
  5
200E
102
{ACAD_REACTORS
330
200D
102
}
330
200D
100
AcDbMlineStyle
  2
STANDARD
 70
     0
  3

 62
   256
 51
90.0
 52
90.0
 71
     2
 49
0.5
 62
   256
  6
BYLAYER
 49
-0.5
 62
   256
  6
BYLAYER
  0
ACDBPLACEHOLDER
  5
2006
102
{ACAD_REACTORS
330
2005
102
}
330
2005
  0
DICTIONARYVAR
  5
2058
102
{ACAD_REACTORS
330
2057
102
}
330
2057
100
DictionaryVariables
280
     0
  1
1
  0
ENDSEC
  0
EOF
