  0
SECTION
  2
HEADER
  9
$ACADVER
  1
AC1015
  9
$ACADMAINTVER
 70
    14
  9
$DWGCODEPAGE
  3
ANSI_932
  9
$INSBASE
 10
0.0
 20
0.0
 30
0.0
  9
$EXTMIN
 10
124.1465107352555
 20
86.05165001875775
 30
-0.0000000000112498
  9
$EXTMAX
 10
696.5026077929926
 20
548.9173133770557
 30
0.0000000000002956
  9
$LIMMIN
 10
-44.912933
 20
-21.841471
  9
$LIMMAX
 10
153.5627299999999
 20
105.04179
  9
$ORTHOMODE
 70
     0
  9
$REGENMODE
 70
     1
  9
$FILLMODE
 70
     1
  9
$QTEXTMODE
 70
     0
  9
$MIRRTEXT
 70
     1
  9
$LTSCALE
 40
1.0
  9
$ATTMODE
 70
     1
  9
$TEXTSIZE
 40
0.2
  9
$TRACEWID
 40
0.05
  9
$TEXTSTYLE
  7
STANDARD
  9
$CLAYER
  8
0
  9
$CELTYPE
  6
CONTINUOUS
  9
$CECOLOR
 62
   256
  9
$CELTSCALE
 40
1.0
  9
$DISPSILH
 70
     0
  9
$DIMSCALE
 40
1.0
  9
$DIMASZ
 40
0.18
  9
$DIMEXO
 40
0.0625
  9
$DIMDLI
 40
0.38
  9
$DIMRND
 40
0.0
  9
$DIMDLE
 40
0.0
  9
$DIMEXE
 40
0.18
  9
$DIMTP
 40
0.0
  9
$DIMTM
 40
0.0
  9
$DIMTXT
 40
0.18
  9
$DIMCEN
 40
0.09
  9
$DIMTSZ
 40
0.0
  9
$DIMTOL
 70
     0
  9
$DIMLIM
 70
     0
  9
$DIMTIH
 70
     1
  9
$DIMTOH
 70
     1
  9
$DIMSE1
 70
     0
  9
$DIMSE2
 70
     0
  9
$DIMTAD
 70
     0
  9
$DIMZIN
 70
     0
  9
$DIMBLK
  1

  9
$DIMASO
 70
     1
  9
$DIMSHO
 70
     0
  9
$DIMPOST
  1

  9
$DIMAPOST
  1

  9
$DIMALT
 70
     0
  9
$DIMALTD
 70
     2
  9
$DIMALTF
 40
25.4
  9
$DIMLFAC
 40
1.0
  9
$DIMTOFL
 70
     0
  9
$DIMTVP
 40
0.0
  9
$DIMTIX
 70
     0
  9
$DIMSOXD
 70
     0
  9
$DIMSAH
 70
     0
  9
$DIMBLK1
  1

  9
$DIMBLK2
  1

  9
$DIMSTYLE
  2
STANDARD
  9
$DIMCLRD
 70
     0
  9
$DIMCLRE
 70
     0
  9
$DIMCLRT
 70
     0
  9
$DIMTFAC
 40
1.0
  9
$DIMGAP
 40
0.09
  9
$DIMJUST
 70
     0
  9
$DIMSD1
 70
     0
  9
$DIMSD2
 70
     0
  9
$DIMTOLJ
 70
     1
  9
$DIMTZIN
 70
     0
  9
$DIMALTZ
 70
     0
  9
$DIMALTTZ
 70
     0
  9
$DIMUPT
 70
     0
  9
$DIMDEC
 70
     4
  9
$DIMTDEC
 70
     4
  9
$DIMALTU
 70
     2
  9
$DIMALTTD
 70
     2
  9
$DIMTXSTY
  7
STANDARD
  9
$DIMAUNIT
 70
     0
  9
$DIMADEC
 70
     0
  9
$DIMALTRND
 40
0.0
  9
$DIMAZIN
 70
     0
  9
$DIMDSEP
 70
    46
  9
$DIMATFIT
 70
     3
  9
$DIMFRAC
 70
     0
  9
$DIMLDRBLK
  1

  9
$DIMLUNIT
 70
     2
  9
$DIMLWD
 70
    -2
  9
$DIMLWE
 70
    -2
  9
$DIMTMOVE
 70
     2
  9
$LUNITS
 70
     2
  9
$LUPREC
 70
     4
  9
$SKETCHINC
 40
0.1
  9
$FILLETRAD
 40
0.0
  9
$AUNITS
 70
     0
  9
$AUPREC
 70
     0
  9
$MENU
  1
.
  9
$ELEVATION
 40
0.0
  9
$PELEVATION
 40
0.0
  9
$THICKNESS
 40
0.0
  9
$LIMCHECK
 70
     0
  9
$CHAMFERA
 40
0.0
  9
$CHAMFERB
 40
0.0
  9
$CHAMFERC
 40
0.0
  9
$CHAMFERD
 40
0.0
  9
$SKPOLY
 70
     0
  9
$TDCREATE
 40
2452488.423151215
  9
$TDUCREATE
 40
2452488.048151215
  9
$TDUPDATE
 40
2456899.666862593
  9
$TDUUPDATE
 40
2456899.291862592
  9
$TDINDWG
 40
0.0999912037
  9
$TDUSRTIMER
 40
0.0999904745
  9
$USRTIMER
 70
     1
  9
$ANGBASE
 50
0.0
  9
$ANGDIR
 70
     0
  9
$PDMODE
 70
     0
  9
$PDSIZE
 40
0.0
  9
$PLINEWID
 40
0.0
  9
$SPLFRAME
 70
     0
  9
$SPLINETYPE
 70
     6
  9
$SPLINESEGS
 70
     8
  9
$HANDSEED
  5
2BB4
  9
$SURFTAB1
 70
     6
  9
$SURFTAB2
 70
     6
  9
$SURFTYPE
 70
     6
  9
$SURFU
 70
     6
  9
$SURFV
 70
     6
  9
$UCSBASE
  2

  9
$UCSNAME
  2

  9
$UCSORG
 10
0.0
 20
0.0
 30
0.0
  9
$UCSXDIR
 10
1.0
 20
0.0
 30
0.0
  9
$UCSYDIR
 10
0.0
 20
1.0
 30
0.0
  9
$UCSORTHOREF
  2

  9
$UCSORTHOVIEW
 70
     0
  9
$UCSORGTOP
 10
0.0
 20
0.0
 30
0.0
  9
$UCSORGBOTTOM
 10
0.0
 20
0.0
 30
0.0
  9
$UCSORGLEFT
 10
0.0
 20
0.0
 30
0.0
  9
$UCSORGRIGHT
 10
0.0
 20
0.0
 30
0.0
  9
$UCSORGFRONT
 10
0.0
 20
0.0
 30
0.0
  9
$UCSORGBACK
 10
0.0
 20
0.0
 30
0.0
  9
$PUCSBASE
  2

  9
$PUCSNAME
  2

  9
$PUCSORG
 10
0.0
 20
0.0
 30
0.0
  9
$PUCSXDIR
 10
1.0
 20
0.0
 30
0.0
  9
$PUCSYDIR
 10
0.0
 20
1.0
 30
0.0
  9
$PUCSORTHOREF
  2

  9
$PUCSORTHOVIEW
 70
     0
  9
$PUCSORGTOP
 10
0.0
 20
0.0
 30
0.0
  9
$PUCSORGBOTTOM
 10
0.0
 20
0.0
 30
0.0
  9
$PUCSORGLEFT
 10
0.0
 20
0.0
 30
0.0
  9
$PUCSORGRIGHT
 10
0.0
 20
0.0
 30
0.0
  9
$PUCSORGFRONT
 10
0.0
 20
0.0
 30
0.0
  9
$PUCSORGBACK
 10
0.0
 20
0.0
 30
0.0
  9
$USERI1
 70
     0
  9
$USERI2
 70
     0
  9
$USERI3
 70
     0
  9
$USERI4
 70
     0
  9
$USERI5
 70
     0
  9
$USERR1
 40
0.0
  9
$USERR2
 40
0.0
  9
$USERR3
 40
0.0
  9
$USERR4
 40
0.0
  9
$USERR5
 40
0.0
  9
$WORLDVIEW
 70
     1
  9
$SHADEDGE
 70
     3
  9
$SHADEDIF
 70
    70
  9
$TILEMODE
 70
     1
  9
$MAXACTVP
 70
    48
  9
$PINSBASE
 10
0.0
 20
0.0
 30
0.0
  9
$PLIMCHECK
 70
     0
  9
$PEXTMIN
 10
-44.912933
 20
-21.841471
 30
0.0
  9
$PEXTMAX
 10
153.5627299999999
 20
105.04179
 30
0.0
  9
$PLIMMIN
 10
-44.912933
 20
-21.841471
  9
$PLIMMAX
 10
153.5627299999999
 20
105.04179
  9
$UNITMODE
 70
     0
  9
$VISRETAIN
 70
     1
  9
$PLINEGEN
 70
     0
  9
$PSLTSCALE
 70
     1
  9
$TREEDEPTH
 70
  3020
  9
$CMLSTYLE
  2
Standard
  9
$CMLJUST
 70
     0
  9
$CMLSCALE
 40
1.0
  9
$PROXYGRAPHICS
 70
     1
  9
$MEASUREMENT
 70
     0
  9
$CELWEIGHT
370
    -1
  9
$ENDCAPS
280
     0
  9
$JOINSTYLE
280
     0
  9
$LWDISPLAY
290
     0
  9
$INSUNITS
 70
     0
  9
$HYPERLINKBASE
  1

  9
$STYLESHEET
  1

  9
$XEDIT
290
     1
  9
$CEPSNTYPE
380
     0
  9
$PSTYLEMODE
290
     1
  9
$FINGERPRINTGUID
  2
{B816B3D3-85A0-42A9-B65F-AE9D516CDD36}
  9
$VERSIONGUID
  2
{C3DB6C2B-89C4-485D-A79C-7C5B00DB36AB}
  9
$EXTNAMES
290
     1
  9
$PSVPSCALE
 40
0.0
  9
$OLESTARTUP
290
     0
  0
ENDSEC
  0
SECTION
  2
CLASSES
  0
CLASS
  1
ACDBDICTIONARYWDFLT
  2
AcDbDictionaryWithDefault
  3
AutoCAD 2000
 90
        0
280
     0
281
     0
  0
CLASS
  1
ACDBPLACEHOLDER
  2
AcDbPlaceHolder
  3
AutoCAD 2000
 90
        0
280
     0
281
     0
  0
CLASS
  1
LAYOUT
  2
AcDbLayout
  3
AutoCAD 2000
 90
        0
280
     0
281
     0
  0
CLASS
  1
DICTIONARYVAR
  2
AcDbDictionaryVar
  3
AutoCAD 2000
 90
        0
280
     0
281
     0
  0
CLASS
  1
LONG_TRANSACTION
  2
AcDbLongTransaction
  3
AutoCAD 2000
 90
    32768
280
     0
281
     0
  0
CLASS
  1
LWPOLYLINE
  2
AcDbPolyline
  3
AutoCAD 2000
 90
    32768
280
     0
281
     1
  0
CLASS
  1
HATCH
  2
AcDbHatch
  3
AutoCAD 2000
 90
    32768
280
     0
281
     1
  0
CLASS
  1
XRECORD
  2
AcDbXrecord
  3
AutoCAD 2000
 90
    32768
280
     0
281
     0
  0
ENDSEC
  0
SECTION
  2
TABLES
  0
TABLE
  2
VPORT
  5
2B10
330
0
100
AcDbSymbolTable
 70
     2
  0
VPORT
  5
2BB3
330
2B10
100
AcDbSymbolTableRecord
100
AcDbViewportTableRecord
  2
*Active
 70
     0
 10
0.0
 20
0.0
 11
1.0
 21
1.0
 12
410.324559264124
 22
317.4844816979067
 13
0.0
 23
0.0
 14
1.0
 24
1.0
 15
0.0
 25
0.0
 16
0.0
 26
0.0
 36
1.0
 17
0.0
 27
0.0
 37
0.0
 40
465.8044929669221
 41
1.592161016949152
 42
50.0
 43
0.0
 44
0.0
 50
0.0
 51
0.0
 71
     0
 72
   100
 73
     1
 74
     3
 75
     0
 76
     0
 77
     0
 78
     0
281
     0
 65
     1
110
0.0
120
0.0
130
0.0
111
1.0
121
0.0
131
0.0
112
0.0
122
1.0
132
0.0
 79
     0
146
0.0
  0
ENDTAB
  0
TABLE
  2
LTYPE
  5
2B0D
330
0
100
AcDbSymbolTable
 70
     2
  0
LTYPE
  5
2B1B
330
2B0D
100
AcDbSymbolTableRecord
100
AcDbLinetypeTableRecord
  2
ByBlock
 70
     0
  3

 72
    65
 73
     0
 40
0.0
  0
LTYPE
  5
2B1C
330
2B0D
100
AcDbSymbolTableRecord
100
AcDbLinetypeTableRecord
  2
ByLayer
 70
     0
  3

 72
    65
 73
     0
 40
0.0
  0
LTYPE
  5
2B1D
330
2B0D
100
AcDbSymbolTableRecord
100
AcDbLinetypeTableRecord
  2
CONTINUOUS
 70
     0
  3
Solid line
 72
    65
 73
     0
 40
0.0
  0
LTYPE
  5
2B2D
330
2B0D
100
AcDbSymbolTableRecord
100
AcDbLinetypeTableRecord
  2
CENTER
 70
     0
  3
Center ____ _ ____ _ ____ _ ____ _ ____ _ ____
 72
    65
 73
     4
 40
2.0
 49
1.25
 74
     0
 49
-0.25
 74
     0
 49
0.25
 74
     0
 49
-0.25
 74
     0
  0
ENDTAB
  0
TABLE
  2
LAYER
  5
2B0A
102
{ACAD_XDICTIONARY
360
2B90
102
}
330
0
100
AcDbSymbolTable
 70
     2
  0
LAYER
  5
2B18
330
2B0A
100
AcDbSymbolTableRecord
100
AcDbLayerTableRecord
  2
0
 70
     0
 62
     7
  6
CONTINUOUS
370
    -3
390
2B17
  0
LAYER
  5
2B34
330
2B0A
100
AcDbSymbolTableRecord
100
AcDbLayerTableRecord
  2
AM_0N
 70
     0
 62
     7
  6
CONTINUOUS
370
    -3
390
2B17
  0
ENDTAB
  0
TABLE
  2
STYLE
  5
2B0B
330
0
100
AcDbSymbolTable
 70
     1
  0
STYLE
  5
2B19
330
2B0B
100
AcDbSymbolTableRecord
100
AcDbTextStyleTableRecord
  2
STANDARD
 70
     0
 40
0.0
 41
1.0
 50
0.0
 71
     0
 42
0.2
  3
txt
  4

  0
ENDTAB
  0
TABLE
  2
VIEW
  5
2B0E
330
0
100
AcDbSymbolTable
 70
     0
  0
ENDTAB
  0
TABLE
  2
UCS
  5
2B0F
330
0
100
AcDbSymbolTable
 70
     0
  0
ENDTAB
  0
TABLE
  2
APPID
  5
2B11
330
0
100
AcDbSymbolTable
 70
     4
  0
APPID
  5
2B1A
330
2B11
100
AcDbSymbolTableRecord
100
AcDbRegAppTableRecord
  2
ACAD
 70
     0
  0
APPID
  5
2B37
330
2B11
100
AcDbSymbolTableRecord
100
AcDbRegAppTableRecord
  2
MCAD_NO_VIS
 70
     0
  0
APPID
  5
2B38
330
2B11
100
AcDbSymbolTableRecord
100
AcDbRegAppTableRecord
  2
ACAD_TEMP_GRAPHIC
 70
     0
  0
APPID
  5
2B39
330
2B11
100
AcDbSymbolTableRecord
100
AcDbRegAppTableRecord
  2
ACATTRIBSERVICES
 70
     0
  0
ENDTAB
  0
TABLE
  2
DIMSTYLE
  5
2B12
330
0
100
AcDbSymbolTable
 70
     1
100
AcDbDimStyleTable
 71
     1
340
2B3A
  0
DIMSTYLE
105
2B3A
330
2B12
100
AcDbSymbolTableRecord
100
AcDbDimStyleTableRecord
  2
STANDARD
 70
     0
279
     2
340
2B19
  0
ENDTAB
  0
TABLE
  2
BLOCK_RECORD
  5
2B09
330
0
100
AcDbSymbolTable
 70
     0
  0
BLOCK_RECORD
  5
2B26
102
{ACAD_XDICTIONARY
360
2B4B
102
}
330
2B09
100
AcDbSymbolTableRecord
100
AcDbBlockTableRecord
  2
*Model_Space
340
2B29
  0
BLOCK_RECORD
  5
2B22
102
{ACAD_XDICTIONARY
360
2B4D
102
}
330
2B09
100
AcDbSymbolTableRecord
100
AcDbBlockTableRecord
  2
*Paper_Space
340
2B25
  0
ENDTAB
  0
ENDSEC
  0
SECTION
  2
BLOCKS
  0
BLOCK
  5
2B27
330
2B26
100
AcDbEntity
  8
0
100
AcDbBlockBegin
  2
*Model_Space
 70
     0
 10
0.0
 20
0.0
 30
0.0
  3
*Model_Space
  1

  0
ENDBLK
  5
2B28
330
2B26
100
AcDbEntity
  8
0
100
AcDbBlockEnd
  0
BLOCK
  5
2B23
330
2B22
100
AcDbEntity
 67
     1
  8
0
100
AcDbBlockBegin
  2
*Paper_Space
 70
     0
 10
0.0
 20
0.0
 30
0.0
  3
*Paper_Space
  1

  0
ENDBLK
  5
2B24
330
2B22
100
AcDbEntity
 67
     1
  8
0
100
AcDbBlockEnd
  0
ENDSEC
  0
SECTION
  2
ENTITIES
  0
TEXT
  5
14F8
330
2B26
100
AcDbEntity
  8
0
100
AcDbText
 10
124.2019072192274
 20
500.9085994985276
 30
0.0
 40
48.000002
  1
BVH__ 10A
 41
1.40267
100
AcDbText
  0
CIRCLE
  5
20A8
330
2B26
100
AcDbEntity
  8
0
100
AcDbCircle
 10
222.9729682363395
 20
127.9517566129369
 30
0.0
 40
17.0
  0
ARC
  5
20A9
330
2B26
100
AcDbEntity
  8
0
100
AcDbCircle
 10
208.7229682363392
 20
167.980973612937
 30
0.0
 40
3.0
100
AcDbArc
 50
104.4775099999998
 51
180.0000100000009
  0
ARC
  5
20AA
330
2B26
100
AcDbEntity
  8
0
100
AcDbCircle
 10
222.9729682363395
 20
127.9517566129369
 30
0.0
 40
32.0
100
AcDbArc
 50
122.4617399999994
 51
57.53826100000032
  0
LINE
  5
20AB
330
2B26
100
AcDbEntity
  8
0
100
AcDbLine
 10
240.2229682363392
 20
159.951756612937
 30
0.0
 11
205.7229682363395
 21
159.951756612937
 31
0.0
  0
LINE
  5
20AC
330
2B26
100
AcDbEntity
  8
0
100
AcDbLine
 10
240.2229682363392
 20
154.951756612937
 30
0.0
 11
205.7229682363395
 21
154.951756612937
 31
0.0
  0
LINE
  5
20AD
330
2B26
100
AcDbEntity
  8
0
100
AcDbLine
 10
205.7229682363395
 20
167.980973612937
 30
0.0
 11
205.7229682363395
 21
159.951756612937
 31
0.0
  0
LINE
  5
20AE
330
2B26
100
AcDbEntity
  8
0
100
AcDbLine
 10
205.7229682363395
 20
159.951756612937
 30
0.0
 11
205.7229682363395
 21
154.951756612937
 31
0.0
  0
LINE
  5
20B0
330
2B26
100
AcDbEntity
  8
0
100
AcDbLine
 10
212.9729682363395
 20
210.7533110869391
 30
0.0
 11
212.9729682363395
 21
173.618584612936
 31
0.0
  0
LINE
  5
20B1
330
2B26
100
AcDbEntity
  8
0
100
AcDbLine
 10
232.9729682363395
 20
210.7533114129371
 30
0.0
 11
232.9729682363395
 21
173.618584612936
 31
0.0
  0
ARC
  5
20B2
330
2B26
100
AcDbEntity
  8
0
100
AcDbCircle
 10
222.9729682363395
 20
112.7909596129369
 30
0.0
 40
60.0
100
AcDbArc
 50
75.52248800000066
 51
104.4775099999998
  0
ARC
  5
20B3
330
2B26
100
AcDbEntity
  8
0
100
AcDbCircle
 10
234.9729682363395
 20
173.618584612936
 30
0.0
 40
2.0
100
AcDbArc
 50
179.9999899999988
 51
258.8400699999998
  0
ARC
  5
20B4
330
2B26
100
AcDbEntity
  8
0
100
AcDbCircle
 10
210.9729682363392
 20
173.618584612936
 30
0.0
 40
2.0
100
AcDbArc
 50
281.1599400000019
 51
0.0
  0
LINE
  5
20B5
330
2B26
100
AcDbEntity
  8
0
100
AcDbLine
 10
234.6225042363396
 20
154.951756612937
 30
0.0
 11
234.6225042363396
 21
149.451756612937
 31
0.0
  0
LINE
  5
20B6
330
2B26
100
AcDbEntity
  8
0
100
AcDbLine
 10
211.3234322363396
 20
154.951756612937
 30
0.0
 11
211.3234322363396
 21
149.451756612937
 31
0.0
  0
LINE
  5
20B7
330
2B26
100
AcDbEntity
  8
0
100
AcDbLine
 10
234.6225042363396
 20
149.451756612937
 30
0.0
 11
211.3234322363396
 21
149.451756612937
 31
0.0
  0
ARC
  5
20B8
330
2B26
100
AcDbEntity
  8
0
100
AcDbCircle
 10
237.2229682363395
 20
167.980973612937
 30
0.0
 40
3.0
100
AcDbArc
 50
0.0
 51
75.52248800000066
  0
LINE
  5
20B9
330
2B26
100
AcDbEntity
  8
0
100
AcDbLine
 10
240.2229682363392
 20
167.980973612937
 30
0.0
 11
240.2229682363392
 21
159.951756612937
 31
0.0
  0
LINE
  5
20BA
330
2B26
100
AcDbEntity
  8
0
100
AcDbLine
 10
240.2229682363392
 20
159.951756612937
 30
0.0
 11
240.2229682363392
 21
154.951756612937
 31
0.0
  0
POLYLINE
  5
20BB
330
2B26
100
AcDbEntity
  8
0
100
AcDb3dPolyline
 66
     1
 10
0.0
 20
0.0
 30
0.0
 70
     8
  0
VERTEX
  5
20BC
330
20BB
100
AcDbEntity
  8
0
100
AcDbVertex
100
AcDb3dPolylineVertex
 10
232.9729682363395
 20
210.7517566129369
 30
0.0
 70
    32
  0
VERTEX
  5
20BD
330
20BB
100
AcDbEntity
  8
0
100
AcDbVertex
100
AcDb3dPolylineVertex
 10
232.9699682363396
 20
210.9217566129371
 30
0.0
 70
    32
  0
VERTEX
  5
20BE
330
20BB
100
AcDbEntity
  8
0
100
AcDbVertex
100
AcDb3dPolylineVertex
 10
232.9609682363395
 20
211.101756612937
 30
0.0
 70
    32
  0
VERTEX
  5
20BF
330
20BB
100
AcDbEntity
  8
0
100
AcDbVertex
100
AcDb3dPolylineVertex
 10
232.9459682363395
 20
211.2717566129361
 30
0.0
 70
    32
  0
VERTEX
  5
20C0
330
20BB
100
AcDbEntity
  8
0
100
AcDbVertex
100
AcDb3dPolylineVertex
 10
232.9249682363395
 20
211.441756612937
 30
0.0
 70
    32
  0
VERTEX
  5
20C1
330
20BB
100
AcDbEntity
  8
0
100
AcDbVertex
100
AcDb3dPolylineVertex
 10
232.8979682363395
 20
211.611756612937
 30
0.0
 70
    32
  0
VERTEX
  5
20C2
330
20BB
100
AcDbEntity
  8
0
100
AcDbVertex
100
AcDb3dPolylineVertex
 10
232.8649682363396
 20
211.7817566129369
 30
0.0
 70
    32
  0
VERTEX
  5
20C3
330
20BB
100
AcDbEntity
  8
0
100
AcDbVertex
100
AcDb3dPolylineVertex
 10
232.8259682363394
 20
211.951756612937
 30
0.0
 70
    32
  0
VERTEX
  5
20C4
330
20BB
100
AcDbEntity
  8
0
100
AcDbVertex
100
AcDb3dPolylineVertex
 10
232.7809682363394
 20
212.1217566129356
 30
0.0
 70
    32
  0
VERTEX
  5
20C5
330
20BB
100
AcDbEntity
  8
0
100
AcDbVertex
100
AcDb3dPolylineVertex
 10
232.7299682363394
 20
212.291756612936
 30
0.0
 70
    32
  0
VERTEX
  5
20C6
330
20BB
100
AcDbEntity
  8
0
100
AcDbVertex
100
AcDb3dPolylineVertex
 10
232.6729682363394
 20
212.4617566129363
 30
0.0
 70
    32
  0
VERTEX
  5
20C7
330
20BB
100
AcDbEntity
  8
0
100
AcDbVertex
100
AcDb3dPolylineVertex
 10
232.6109682363396
 20
212.6317566129371
 30
0.0
 70
    32
  0
VERTEX
  5
20C8
330
20BB
100
AcDbEntity
  8
0
100
AcDbVertex
100
AcDb3dPolylineVertex
 10
232.5419682363396
 20
212.7917566129359
 30
0.0
 70
    32
  0
VERTEX
  5
20C9
330
20BB
100
AcDbEntity
  8
0
100
AcDbVertex
100
AcDb3dPolylineVertex
 10
232.4679682363392
 20
212.9517566129369
 30
0.0
 70
    32
  0
VERTEX
  5
20CA
330
20BB
100
AcDbEntity
  8
0
100
AcDbVertex
100
AcDb3dPolylineVertex
 10
232.3879682363396
 20
213.1217566129371
 30
0.0
 70
    32
  0
VERTEX
  5
20CB
330
20BB
100
AcDbEntity
  8
0
100
AcDbVertex
100
AcDb3dPolylineVertex
 10
232.3029682363396
 20
213.2817566129368
 30
0.0
 70
    32
  0
VERTEX
  5
20CC
330
20BB
100
AcDbEntity
  8
0
100
AcDbVertex
100
AcDb3dPolylineVertex
 10
232.2119682363396
 20
213.441756612937
 30
0.0
 70
    32
  0
VERTEX
  5
20CD
330
20BB
100
AcDbEntity
  8
0
100
AcDbVertex
100
AcDb3dPolylineVertex
 10
232.1149682363393
 20
213.6017566129371
 30
0.0
 70
    32
  0
VERTEX
  5
20CE
330
20BB
100
AcDbEntity
  8
0
100
AcDbVertex
100
AcDb3dPolylineVertex
 10
232.0129682363396
 20
213.7517566129369
 30
0.0
 70
    32
  0
VERTEX
  5
20CF
330
20BB
100
AcDbEntity
  8
0
100
AcDbVertex
100
AcDb3dPolylineVertex
 10
231.9049682363396
 20
213.9117566129371
 30
0.0
 70
    32
  0
VERTEX
  5
20D0
330
20BB
100
AcDbEntity
  8
0
100
AcDbVertex
100
AcDb3dPolylineVertex
 10
231.7919682363396
 20
214.0617566129368
 30
0.0
 70
    32
  0
VERTEX
  5
20D1
330
20BB
100
AcDbEntity
  8
0
100
AcDbVertex
100
AcDb3dPolylineVertex
 10
231.6739682363396
 20
214.2117566129369
 30
0.0
 70
    32
  0
VERTEX
  5
20D2
330
20BB
100
AcDbEntity
  8
0
100
AcDbVertex
100
AcDb3dPolylineVertex
 10
231.5499682363395
 20
214.3617566129371
 30
0.0
 70
    32
  0
VERTEX
  5
20D3
330
20BB
100
AcDbEntity
  8
0
100
AcDbVertex
100
AcDb3dPolylineVertex
 10
231.4219682363396
 20
214.5117566129368
 30
0.0
 70
    32
  0
VERTEX
  5
20D4
330
20BB
100
AcDbEntity
  8
0
100
AcDbVertex
100
AcDb3dPolylineVertex
 10
231.2879682363392
 20
214.6517566129371
 30
0.0
 70
    32
  0
VERTEX
  5
20D5
330
20BB
100
AcDbEntity
  8
0
100
AcDbVertex
100
AcDb3dPolylineVertex
 10
231.1489682363396
 20
214.8017566129368
 30
0.0
 70
    32
  0
VERTEX
  5
20D6
330
20BB
100
AcDbEntity
  8
0
100
AcDbVertex
100
AcDb3dPolylineVertex
 10
231.0049682363394
 20
214.941756612937
 30
0.0
 70
    32
  0
VERTEX
  5
20D7
330
20BB
100
AcDbEntity
  8
0
100
AcDbVertex
100
AcDb3dPolylineVertex
 10
230.8559682363394
 20
215.071756612936
 30
0.0
 70
    32
  0
VERTEX
  5
20D8
330
20BB
100
AcDbEntity
  8
0
100
AcDbVertex
100
AcDb3dPolylineVertex
 10
230.7029682363396
 20
215.2117566129369
 30
0.0
 70
    32
  0
VERTEX
  5
20D9
330
20BB
100
AcDbEntity
  8
0
100
AcDbVertex
100
AcDb3dPolylineVertex
 10
230.5449682363395
 20
215.341756612937
 30
0.0
 70
    32
  0
VERTEX
  5
20DA
330
20BB
100
AcDbEntity
  8
0
100
AcDbVertex
100
AcDb3dPolylineVertex
 10
230.3829682363395
 20
215.471756612937
 30
0.0
 70
    32
  0
VERTEX
  5
20DB
330
20BB
100
AcDbEntity
  8
0
100
AcDbVertex
100
AcDb3dPolylineVertex
 10
230.2149682363396
 20
215.601756612937
 30
0.0
 70
    32
  0
VERTEX
  5
20DC
330
20BB
100
AcDbEntity
  8
0
100
AcDbVertex
100
AcDb3dPolylineVertex
 10
230.0439682363395
 20
215.721756612937
 30
0.0
 70
    32
  0
VERTEX
  5
20DD
330
20BB
100
AcDbEntity
  8
0
100
AcDbVertex
100
AcDb3dPolylineVertex
 10
229.8679682363395
 20
215.841756612937
 30
0.0
 70
    32
  0
VERTEX
  5
20DE
330
20BB
100
AcDbEntity
  8
0
100
AcDbVertex
100
AcDb3dPolylineVertex
 10
229.6889682363392
 20
215.9617566129369
 30
0.0
 70
    32
  0
VERTEX
  5
20DF
330
20BB
100
AcDbEntity
  8
0
100
AcDbVertex
100
AcDb3dPolylineVertex
 10
229.5049682363396
 20
216.0717566129368
 30
0.0
 70
    32
  0
VERTEX
  5
20E0
330
20BB
100
AcDbEntity
  8
0
100
AcDbVertex
100
AcDb3dPolylineVertex
 10
229.3169682363396
 20
216.1817566129371
 30
0.0
 70
    32
  0
VERTEX
  5
20E1
330
20BB
100
AcDbEntity
  8
0
100
AcDbVertex
100
AcDb3dPolylineVertex
 10
229.1249682363394
 20
216.291756612936
 30
0.0
 70
    32
  0
VERTEX
  5
20E2
330
20BB
100
AcDbEntity
  8
0
100
AcDbVertex
100
AcDb3dPolylineVertex
 10
228.9299682363393
 20
216.3917566129356
 30
0.0
 70
    32
  0
VERTEX
  5
20E3
330
20BB
100
AcDbEntity
  8
0
100
AcDbVertex
100
AcDb3dPolylineVertex
 10
228.7309682363394
 20
216.491756612937
 30
0.0
 70
    32
  0
VERTEX
  5
20E4
330
20BB
100
AcDbEntity
  8
0
100
AcDbVertex
100
AcDb3dPolylineVertex
 10
228.5289682363394
 20
216.591756612937
 30
0.0
 70
    32
  0
VERTEX
  5
20E5
330
20BB
100
AcDbEntity
  8
0
100
AcDbVertex
100
AcDb3dPolylineVertex
 10
228.3229682363396
 20
216.691756612937
 30
0.0
 70
    32
  0
VERTEX
  5
20E6
330
20BB
100
AcDbEntity
  8
0
100
AcDbVertex
100
AcDb3dPolylineVertex
 10
228.1139682363393
 20
216.7817566129369
 30
0.0
 70
    32
  0
VERTEX
  5
20E7
330
20BB
100
AcDbEntity
  8
0
100
AcDbVertex
100
AcDb3dPolylineVertex
 10
227.9019682363395
 20
216.8617566129371
 30
0.0
 70
    32
  0
VERTEX
  5
20E8
330
20BB
100
AcDbEntity
  8
0
100
AcDbVertex
100
AcDb3dPolylineVertex
 10
227.6869682363395
 20
216.9517566129369
 30
0.0
 70
    32
  0
VERTEX
  5
20E9
330
20BB
100
AcDbEntity
  8
0
100
AcDbVertex
100
AcDb3dPolylineVertex
 10
227.4689682363394
 20
217.031756612936
 30
0.0
 70
    32
  0
VERTEX
  5
20EA
330
20BB
100
AcDbEntity
  8
0
100
AcDbVertex
100
AcDb3dPolylineVertex
 10
227.2489682363394
 20
217.101756612937
 30
0.0
 70
    32
  0
VERTEX
  5
20EB
330
20BB
100
AcDbEntity
  8
0
100
AcDbVertex
100
AcDb3dPolylineVertex
 10
227.0249682363396
 20
217.1717566129347
 30
0.0
 70
    32
  0
VERTEX
  5
20EC
330
20BB
100
AcDbEntity
  8
0
100
AcDbVertex
100
AcDb3dPolylineVertex
 10
226.7999682363392
 20
217.241756612937
 30
0.0
 70
    32
  0
VERTEX
  5
20ED
330
20BB
100
AcDbEntity
  8
0
100
AcDbVertex
100
AcDb3dPolylineVertex
 10
226.5719682363396
 20
217.3117566129348
 30
0.0
 70
    32
  0
VERTEX
  5
20EE
330
20BB
100
AcDbEntity
  8
0
100
AcDbVertex
100
AcDb3dPolylineVertex
 10
226.3419682363395
 20
217.3717566129371
 30
0.0
 70
    32
  0
VERTEX
  5
20EF
330
20BB
100
AcDbEntity
  8
0
100
AcDbVertex
100
AcDb3dPolylineVertex
 10
226.1099682363392
 20
217.4217566129371
 30
0.0
 70
    32
  0
VERTEX
  5
20F0
330
20BB
100
AcDbEntity
  8
0
100
AcDbVertex
100
AcDb3dPolylineVertex
 10
225.8759682363396
 20
217.4717566129363
 30
0.0
 70
    32
  0
VERTEX
  5
20F1
330
20BB
100
AcDbEntity
  8
0
100
AcDbVertex
100
AcDb3dPolylineVertex
 10
225.6399682363396
 20
217.5217566129361
 30
0.0
 70
    32
  0
VERTEX
  5
20F2
330
20BB
100
AcDbEntity
  8
0
100
AcDbVertex
100
AcDb3dPolylineVertex
 10
225.4029682363396
 20
217.5717566129368
 30
0.0
 70
    32
  0
VERTEX
  5
20F3
330
20BB
100
AcDbEntity
  8
0
100
AcDbVertex
100
AcDb3dPolylineVertex
 10
225.1639682363395
 20
217.6117566129356
 30
0.0
 70
    32
  0
VERTEX
  5
20F4
330
20BB
100
AcDbEntity
  8
0
100
AcDbVertex
100
AcDb3dPolylineVertex
 10
224.9239682363394
 20
217.641756612937
 30
0.0
 70
    32
  0
VERTEX
  5
20F5
330
20BB
100
AcDbEntity
  8
0
100
AcDbVertex
100
AcDb3dPolylineVertex
 10
224.6829682363395
 20
217.671756612937
 30
0.0
 70
    32
  0
VERTEX
  5
20F6
330
20BB
100
AcDbEntity
  8
0
100
AcDbVertex
100
AcDb3dPolylineVertex
 10
224.4399682363395
 20
217.701756612937
 30
0.0
 70
    32
  0
VERTEX
  5
20F7
330
20BB
100
AcDbEntity
  8
0
100
AcDbVertex
100
AcDb3dPolylineVertex
 10
224.1969682363396
 20
217.721756612937
 30
0.0
 70
    32
  0
VERTEX
  5
20F8
330
20BB
100
AcDbEntity
  8
0
100
AcDbVertex
100
AcDb3dPolylineVertex
 10
223.9529682363393
 20
217.741756612937
 30
0.0
 70
    32
  0
VERTEX
  5
20F9
330
20BB
100
AcDbEntity
  8
0
100
AcDbVertex
100
AcDb3dPolylineVertex
 10
223.7089682363393
 20
217.761756612937
 30
0.0
 70
    32
  0
VERTEX
  5
20FA
330
20BB
100
AcDbEntity
  8
0
100
AcDbVertex
100
AcDb3dPolylineVertex
 10
223.4639682363395
 20
217.7717566129368
 30
0.0
 70
    32
  0
VERTEX
  5
20FB
330
20BB
100
AcDbEntity
  8
0
100
AcDbVertex
100
AcDb3dPolylineVertex
 10
223.2179682363394
 20
217.7717566129368
 30
0.0
 70
    32
  0
VERTEX
  5
20FC
330
20BB
100
AcDbEntity
  8
0
100
AcDbVertex
100
AcDb3dPolylineVertex
 10
222.9729682363395
 20
217.7817566129359
 30
0.0
 70
    32
  0
VERTEX
  5
20FD
330
20BB
100
AcDbEntity
  8
0
100
AcDbVertex
100
AcDb3dPolylineVertex
 10
222.7279682363396
 20
217.7717566129368
 30
0.0
 70
    32
  0
VERTEX
  5
20FE
330
20BB
100
AcDbEntity
  8
0
100
AcDbVertex
100
AcDb3dPolylineVertex
 10
222.4819682363396
 20
217.7717566129368
 30
0.0
 70
    32
  0
VERTEX
  5
20FF
330
20BB
100
AcDbEntity
  8
0
100
AcDbVertex
100
AcDb3dPolylineVertex
 10
222.2369682363396
 20
217.761756612937
 30
0.0
 70
    32
  0
VERTEX
  5
2100
330
20BB
100
AcDbEntity
  8
0
100
AcDbVertex
100
AcDb3dPolylineVertex
 10
221.9929682363394
 20
217.741756612937
 30
0.0
 70
    32
  0
VERTEX
  5
2101
330
20BB
100
AcDbEntity
  8
0
100
AcDbVertex
100
AcDb3dPolylineVertex
 10
221.7489682363394
 20
217.721756612937
 30
0.0
 70
    32
  0
VERTEX
  5
2102
330
20BB
100
AcDbEntity
  8
0
100
AcDbVertex
100
AcDb3dPolylineVertex
 10
221.5059682363395
 20
217.701756612937
 30
0.0
 70
    32
  0
VERTEX
  5
2103
330
20BB
100
AcDbEntity
  8
0
100
AcDbVertex
100
AcDb3dPolylineVertex
 10
221.2629682363395
 20
217.671756612937
 30
0.0
 70
    32
  0
VERTEX
  5
2104
330
20BB
100
AcDbEntity
  8
0
100
AcDbVertex
100
AcDb3dPolylineVertex
 10
221.0219682363392
 20
217.641756612937
 30
0.0
 70
    32
  0
VERTEX
  5
2105
330
20BB
100
AcDbEntity
  8
0
100
AcDbVertex
100
AcDb3dPolylineVertex
 10
220.7819682363396
 20
217.6117566129356
 30
0.0
 70
    32
  0
VERTEX
  5
2106
330
20BB
100
AcDbEntity
  8
0
100
AcDbVertex
100
AcDb3dPolylineVertex
 10
220.5429682363393
 20
217.5717566129368
 30
0.0
 70
    32
  0
VERTEX
  5
2107
330
20BB
100
AcDbEntity
  8
0
100
AcDbVertex
100
AcDb3dPolylineVertex
 10
220.3059682363396
 20
217.5217566129361
 30
0.0
 70
    32
  0
VERTEX
  5
2108
330
20BB
100
AcDbEntity
  8
0
100
AcDbVertex
100
AcDb3dPolylineVertex
 10
220.0699682363396
 20
217.4717566129363
 30
0.0
 70
    32
  0
VERTEX
  5
2109
330
20BB
100
AcDbEntity
  8
0
100
AcDbVertex
100
AcDb3dPolylineVertex
 10
219.8359682363395
 20
217.4217566129371
 30
0.0
 70
    32
  0
VERTEX
  5
210A
330
20BB
100
AcDbEntity
  8
0
100
AcDbVertex
100
AcDb3dPolylineVertex
 10
219.6039682363395
 20
217.3717566129371
 30
0.0
 70
    32
  0
VERTEX
  5
210B
330
20BB
100
AcDbEntity
  8
0
100
AcDbVertex
100
AcDb3dPolylineVertex
 10
219.3739682363396
 20
217.3117566129348
 30
0.0
 70
    32
  0
VERTEX
  5
210C
330
20BB
100
AcDbEntity
  8
0
100
AcDbVertex
100
AcDb3dPolylineVertex
 10
219.1459682363395
 20
217.241756612937
 30
0.0
 70
    32
  0
VERTEX
  5
210D
330
20BB
100
AcDbEntity
  8
0
100
AcDbVertex
100
AcDb3dPolylineVertex
 10
218.9209682363394
 20
217.1717566129347
 30
0.0
 70
    32
  0
VERTEX
  5
210E
330
20BB
100
AcDbEntity
  8
0
100
AcDbVertex
100
AcDb3dPolylineVertex
 10
218.6969682363396
 20
217.101756612937
 30
0.0
 70
    32
  0
VERTEX
  5
210F
330
20BB
100
AcDbEntity
  8
0
100
AcDbVertex
100
AcDb3dPolylineVertex
 10
218.4769682363396
 20
217.031756612936
 30
0.0
 70
    32
  0
VERTEX
  5
2110
330
20BB
100
AcDbEntity
  8
0
100
AcDbVertex
100
AcDb3dPolylineVertex
 10
218.2589682363392
 20
216.9517566129369
 30
0.0
 70
    32
  0
VERTEX
  5
2111
330
20BB
100
AcDbEntity
  8
0
100
AcDbVertex
100
AcDb3dPolylineVertex
 10
218.0439682363395
 20
216.8617566129371
 30
0.0
 70
    32
  0
VERTEX
  5
2112
330
20BB
100
AcDbEntity
  8
0
100
AcDbVertex
100
AcDb3dPolylineVertex
 10
217.8319682363396
 20
216.7817566129369
 30
0.0
 70
    32
  0
VERTEX
  5
2113
330
20BB
100
AcDbEntity
  8
0
100
AcDbVertex
100
AcDb3dPolylineVertex
 10
217.6229682363396
 20
216.691756612937
 30
0.0
 70
    32
  0
VERTEX
  5
2114
330
20BB
100
AcDbEntity
  8
0
100
AcDbVertex
100
AcDb3dPolylineVertex
 10
217.4169682363396
 20
216.591756612937
 30
0.0
 70
    32
  0
VERTEX
  5
2115
330
20BB
100
AcDbEntity
  8
0
100
AcDbVertex
100
AcDb3dPolylineVertex
 10
217.2149682363396
 20
216.491756612937
 30
0.0
 70
    32
  0
VERTEX
  5
2116
330
20BB
100
AcDbEntity
  8
0
100
AcDbVertex
100
AcDb3dPolylineVertex
 10
217.0159682363394
 20
216.3917566129356
 30
0.0
 70
    32
  0
VERTEX
  5
2117
330
20BB
100
AcDbEntity
  8
0
100
AcDbVertex
100
AcDb3dPolylineVertex
 10
216.8209682363396
 20
216.291756612936
 30
0.0
 70
    32
  0
VERTEX
  5
2118
330
20BB
100
AcDbEntity
  8
0
100
AcDbVertex
100
AcDb3dPolylineVertex
 10
216.6289682363394
 20
216.1817566129371
 30
0.0
 70
    32
  0
VERTEX
  5
2119
330
20BB
100
AcDbEntity
  8
0
100
AcDbVertex
100
AcDb3dPolylineVertex
 10
216.4409682363396
 20
216.0717566129368
 30
0.0
 70
    32
  0
VERTEX
  5
211A
330
20BB
100
AcDbEntity
  8
0
100
AcDbVertex
100
AcDb3dPolylineVertex
 10
216.2569682363396
 20
215.9617566129369
 30
0.0
 70
    32
  0
VERTEX
  5
211B
330
20BB
100
AcDbEntity
  8
0
100
AcDbVertex
100
AcDb3dPolylineVertex
 10
216.0779682363394
 20
215.841756612937
 30
0.0
 70
    32
  0
VERTEX
  5
211C
330
20BB
100
AcDbEntity
  8
0
100
AcDbVertex
100
AcDb3dPolylineVertex
 10
215.9019682363396
 20
215.721756612937
 30
0.0
 70
    32
  0
VERTEX
  5
211D
330
20BB
100
AcDbEntity
  8
0
100
AcDbVertex
100
AcDb3dPolylineVertex
 10
215.7309682363394
 20
215.601756612937
 30
0.0
 70
    32
  0
VERTEX
  5
211E
330
20BB
100
AcDbEntity
  8
0
100
AcDbVertex
100
AcDb3dPolylineVertex
 10
215.5629682363396
 20
215.471756612937
 30
0.0
 70
    32
  0
VERTEX
  5
211F
330
20BB
100
AcDbEntity
  8
0
100
AcDbVertex
100
AcDb3dPolylineVertex
 10
215.4009682363392
 20
215.341756612937
 30
0.0
 70
    32
  0
VERTEX
  5
2120
330
20BB
100
AcDbEntity
  8
0
100
AcDbVertex
100
AcDb3dPolylineVertex
 10
215.2429682363394
 20
215.2117566129369
 30
0.0
 70
    32
  0
VERTEX
  5
2121
330
20BB
100
AcDbEntity
  8
0
100
AcDbVertex
100
AcDb3dPolylineVertex
 10
215.0899682363396
 20
215.071756612936
 30
0.0
 70
    32
  0
VERTEX
  5
2122
330
20BB
100
AcDbEntity
  8
0
100
AcDbVertex
100
AcDb3dPolylineVertex
 10
214.9409682363394
 20
214.941756612937
 30
0.0
 70
    32
  0
VERTEX
  5
2123
330
20BB
100
AcDbEntity
  8
0
100
AcDbVertex
100
AcDb3dPolylineVertex
 10
214.7969682363396
 20
214.8017566129368
 30
0.0
 70
    32
  0
VERTEX
  5
2124
330
20BB
100
AcDbEntity
  8
0
100
AcDbVertex
100
AcDb3dPolylineVertex
 10
214.6579682363395
 20
214.6517566129371
 30
0.0
 70
    32
  0
VERTEX
  5
2125
330
20BB
100
AcDbEntity
  8
0
100
AcDbVertex
100
AcDb3dPolylineVertex
 10
214.5239682363394
 20
214.5117566129368
 30
0.0
 70
    32
  0
VERTEX
  5
2126
330
20BB
100
AcDbEntity
  8
0
100
AcDbVertex
100
AcDb3dPolylineVertex
 10
214.3959682363392
 20
214.3617566129371
 30
0.0
 70
    32
  0
VERTEX
  5
2127
330
20BB
100
AcDbEntity
  8
0
100
AcDbVertex
100
AcDb3dPolylineVertex
 10
214.2719682363396
 20
214.2117566129369
 30
0.0
 70
    32
  0
VERTEX
  5
2128
330
20BB
100
AcDbEntity
  8
0
100
AcDbVertex
100
AcDb3dPolylineVertex
 10
214.1539682363394
 20
214.0617566129368
 30
0.0
 70
    32
  0
VERTEX
  5
2129
330
20BB
100
AcDbEntity
  8
0
100
AcDbVertex
100
AcDb3dPolylineVertex
 10
214.0409682363394
 20
213.9117566129371
 30
0.0
 70
    32
  0
VERTEX
  5
212A
330
20BB
100
AcDbEntity
  8
0
100
AcDbVertex
100
AcDb3dPolylineVertex
 10
213.9329682363396
 20
213.7517566129369
 30
0.0
 70
    32
  0
VERTEX
  5
212B
330
20BB
100
AcDbEntity
  8
0
100
AcDbVertex
100
AcDb3dPolylineVertex
 10
213.8309682363394
 20
213.6017566129371
 30
0.0
 70
    32
  0
VERTEX
  5
212C
330
20BB
100
AcDbEntity
  8
0
100
AcDbVertex
100
AcDb3dPolylineVertex
 10
213.7339682363396
 20
213.441756612937
 30
0.0
 70
    32
  0
VERTEX
  5
212D
330
20BB
100
AcDbEntity
  8
0
100
AcDbVertex
100
AcDb3dPolylineVertex
 10
213.6429682363394
 20
213.2817566129368
 30
0.0
 70
    32
  0
VERTEX
  5
212E
330
20BB
100
AcDbEntity
  8
0
100
AcDbVertex
100
AcDb3dPolylineVertex
 10
213.5579682363395
 20
213.1217566129371
 30
0.0
 70
    32
  0
VERTEX
  5
212F
330
20BB
100
AcDbEntity
  8
0
100
AcDbVertex
100
AcDb3dPolylineVertex
 10
213.4779682363393
 20
212.9517566129369
 30
0.0
 70
    32
  0
VERTEX
  5
2130
330
20BB
100
AcDbEntity
  8
0
100
AcDbVertex
100
AcDb3dPolylineVertex
 10
213.4039682363394
 20
212.7917566129359
 30
0.0
 70
    32
  0
VERTEX
  5
2131
330
20BB
100
AcDbEntity
  8
0
100
AcDbVertex
100
AcDb3dPolylineVertex
 10
213.3349682363396
 20
212.6317566129371
 30
0.0
 70
    32
  0
VERTEX
  5
2132
330
20BB
100
AcDbEntity
  8
0
100
AcDbVertex
100
AcDb3dPolylineVertex
 10
213.2729682363396
 20
212.4617566129363
 30
0.0
 70
    32
  0
VERTEX
  5
2133
330
20BB
100
AcDbEntity
  8
0
100
AcDbVertex
100
AcDb3dPolylineVertex
 10
213.2159682363393
 20
212.291756612936
 30
0.0
 70
    32
  0
VERTEX
  5
2134
330
20BB
100
AcDbEntity
  8
0
100
AcDbVertex
100
AcDb3dPolylineVertex
 10
213.1649682363395
 20
212.1217566129356
 30
0.0
 70
    32
  0
VERTEX
  5
2135
330
20BB
100
AcDbEntity
  8
0
100
AcDbVertex
100
AcDb3dPolylineVertex
 10
213.1199682363393
 20
211.951756612937
 30
0.0
 70
    32
  0
VERTEX
  5
2136
330
20BB
100
AcDbEntity
  8
0
100
AcDbVertex
100
AcDb3dPolylineVertex
 10
213.0809682363394
 20
211.7817566129369
 30
0.0
 70
    32
  0
VERTEX
  5
2137
330
20BB
100
AcDbEntity
  8
0
100
AcDbVertex
100
AcDb3dPolylineVertex
 10
213.0479682363396
 20
211.611756612937
 30
0.0
 70
    32
  0
VERTEX
  5
2138
330
20BB
100
AcDbEntity
  8
0
100
AcDbVertex
100
AcDb3dPolylineVertex
 10
213.0209682363394
 20
211.441756612937
 30
0.0
 70
    32
  0
VERTEX
  5
2139
330
20BB
100
AcDbEntity
  8
0
100
AcDbVertex
100
AcDb3dPolylineVertex
 10
212.9999682363393
 20
211.2717566129361
 30
0.0
 70
    32
  0
VERTEX
  5
213A
330
20BB
100
AcDbEntity
  8
0
100
AcDbVertex
100
AcDb3dPolylineVertex
 10
212.9849682363395
 20
211.101756612937
 30
0.0
 70
    32
  0
VERTEX
  5
213B
330
20BB
100
AcDbEntity
  8
0
100
AcDbVertex
100
AcDb3dPolylineVertex
 10
212.9759682363395
 20
210.9217566129371
 30
0.0
 70
    32
  0
VERTEX
  5
213C
330
20BB
100
AcDbEntity
  8
0
100
AcDbVertex
100
AcDb3dPolylineVertex
 10
212.9729682363395
 20
210.7517566129369
 30
0.0
 70
    32
  0
SEQEND
  5
213D
330
20BB
100
AcDbEntity
  8
0
  0
POLYLINE
  5
213E
330
2B26
100
AcDbEntity
  8
0
100
AcDb3dPolyline
 66
     1
 10
0.0
 20
0.0
 30
0.0
 70
     8
  0
VERTEX
  5
213F
330
213E
100
AcDbEntity
  8
0
100
AcDbVertex
100
AcDb3dPolylineVertex
 10
227.9729682363392
 20
204.601756612937
 30
0.0
 70
    32
  0
VERTEX
  5
2140
330
213E
100
AcDbEntity
  8
0
100
AcDbVertex
100
AcDb3dPolylineVertex
 10
227.9709682363395
 20
204.6717566129346
 30
0.0
 70
    32
  0
VERTEX
  5
2141
330
213E
100
AcDbEntity
  8
0
100
AcDbVertex
100
AcDb3dPolylineVertex
 10
227.9669682363396
 20
204.741756612937
 30
0.0
 70
    32
  0
VERTEX
  5
2142
330
213E
100
AcDbEntity
  8
0
100
AcDbVertex
100
AcDb3dPolylineVertex
 10
227.9589682363393
 20
204.8117566129369
 30
0.0
 70
    32
  0
VERTEX
  5
2143
330
213E
100
AcDbEntity
  8
0
100
AcDbVertex
100
AcDb3dPolylineVertex
 10
227.9489682363395
 20
204.8817566129371
 30
0.0
 70
    32
  0
VERTEX
  5
2144
330
213E
100
AcDbEntity
  8
0
100
AcDbVertex
100
AcDb3dPolylineVertex
 10
227.9349682363396
 20
204.9517566129369
 30
0.0
 70
    32
  0
VERTEX
  5
2145
330
213E
100
AcDbEntity
  8
0
100
AcDbVertex
100
AcDb3dPolylineVertex
 10
227.9189682363396
 20
205.0217566129361
 30
0.0
 70
    32
  0
VERTEX
  5
2146
330
213E
100
AcDbEntity
  8
0
100
AcDbVertex
100
AcDb3dPolylineVertex
 10
227.8989682363394
 20
205.091756612937
 30
0.0
 70
    32
  0
VERTEX
  5
2147
330
213E
100
AcDbEntity
  8
0
100
AcDbVertex
100
AcDb3dPolylineVertex
 10
227.8769682363396
 20
205.1617566129371
 30
0.0
 70
    32
  0
VERTEX
  5
2148
330
213E
100
AcDbEntity
  8
0
100
AcDbVertex
100
AcDb3dPolylineVertex
 10
227.8519682363396
 20
205.2317566129369
 30
0.0
 70
    32
  0
VERTEX
  5
2149
330
213E
100
AcDbEntity
  8
0
100
AcDbVertex
100
AcDb3dPolylineVertex
 10
227.8229682363396
 20
205.3017566129359
 30
0.0
 70
    32
  0
VERTEX
  5
214A
330
213E
100
AcDbEntity
  8
0
100
AcDbVertex
100
AcDb3dPolylineVertex
 10
227.7919682363396
 20
205.3717566129371
 30
0.0
 70
    32
  0
VERTEX
  5
214B
330
213E
100
AcDbEntity
  8
0
100
AcDbVertex
100
AcDb3dPolylineVertex
 10
227.7579682363395
 20
205.4417566129363
 30
0.0
 70
    32
  0
VERTEX
  5
214C
330
213E
100
AcDbEntity
  8
0
100
AcDbVertex
100
AcDb3dPolylineVertex
 10
227.7209682363393
 20
205.5017566129369
 30
0.0
 70
    32
  0
VERTEX
  5
214D
330
213E
100
AcDbEntity
  8
0
100
AcDbVertex
100
AcDb3dPolylineVertex
 10
227.6809682363396
 20
205.5717566129368
 30
0.0
 70
    32
  0
VERTEX
  5
214E
330
213E
100
AcDbEntity
  8
0
100
AcDbVertex
100
AcDb3dPolylineVertex
 10
227.6379682363395
 20
205.6417566129371
 30
0.0
 70
    32
  0
VERTEX
  5
214F
330
213E
100
AcDbEntity
  8
0
100
AcDbVertex
100
AcDb3dPolylineVertex
 10
227.5919682363396
 20
205.701756612937
 30
0.0
 70
    32
  0
VERTEX
  5
2150
330
213E
100
AcDbEntity
  8
0
100
AcDbVertex
100
AcDb3dPolylineVertex
 10
227.5439682363395
 20
205.7717566129359
 30
0.0
 70
    32
  0
VERTEX
  5
2151
330
213E
100
AcDbEntity
  8
0
100
AcDbVertex
100
AcDb3dPolylineVertex
 10
227.4929682363396
 20
205.8317566129371
 30
0.0
 70
    32
  0
VERTEX
  5
2152
330
213E
100
AcDbEntity
  8
0
100
AcDbVertex
100
AcDb3dPolylineVertex
 10
227.4389682363394
 20
205.9017566129371
 30
0.0
 70
    32
  0
VERTEX
  5
2153
330
213E
100
AcDbEntity
  8
0
100
AcDbVertex
100
AcDb3dPolylineVertex
 10
227.3829682363396
 20
205.9617566129369
 30
0.0
 70
    32
  0
VERTEX
  5
2154
330
213E
100
AcDbEntity
  8
0
100
AcDbVertex
100
AcDb3dPolylineVertex
 10
227.3229682363396
 20
206.0217566129359
 30
0.0
 70
    32
  0
VERTEX
  5
2155
330
213E
100
AcDbEntity
  8
0
100
AcDbVertex
100
AcDb3dPolylineVertex
 10
227.2619682363394
 20
206.0817566129371
 30
0.0
 70
    32
  0
VERTEX
  5
2156
330
213E
100
AcDbEntity
  8
0
100
AcDbVertex
100
AcDb3dPolylineVertex
 10
227.1969682363396
 20
206.141756612937
 30
0.0
 70
    32
  0
VERTEX
  5
2157
330
213E
100
AcDbEntity
  8
0
100
AcDbVertex
100
AcDb3dPolylineVertex
 10
227.1299682363395
 20
206.201756612937
 30
0.0
 70
    32
  0
VERTEX
  5
2158
330
213E
100
AcDbEntity
  8
0
100
AcDbVertex
100
AcDb3dPolylineVertex
 10
227.0609682363395
 20
206.2617566129368
 30
0.0
 70
    32
  0
VERTEX
  5
2159
330
213E
100
AcDbEntity
  8
0
100
AcDbVertex
100
AcDb3dPolylineVertex
 10
226.9889682363396
 20
206.3217566129368
 30
0.0
 70
    32
  0
VERTEX
  5
215A
330
213E
100
AcDbEntity
  8
0
100
AcDbVertex
100
AcDb3dPolylineVertex
 10
226.9149682363396
 20
206.3817566129371
 30
0.0
 70
    32
  0
VERTEX
  5
215B
330
213E
100
AcDbEntity
  8
0
100
AcDbVertex
100
AcDb3dPolylineVertex
 10
226.8379682363395
 20
206.4317566129369
 30
0.0
 70
    32
  0
VERTEX
  5
215C
330
213E
100
AcDbEntity
  8
0
100
AcDbVertex
100
AcDb3dPolylineVertex
 10
226.7589682363392
 20
206.481756612937
 30
0.0
 70
    32
  0
VERTEX
  5
215D
330
213E
100
AcDbEntity
  8
0
100
AcDbVertex
100
AcDb3dPolylineVertex
 10
226.6779682363396
 20
206.5417566129359
 30
0.0
 70
    32
  0
VERTEX
  5
215E
330
213E
100
AcDbEntity
  8
0
100
AcDbVertex
100
AcDb3dPolylineVertex
 10
226.5939682363394
 20
206.591756612937
 30
0.0
 70
    32
  0
VERTEX
  5
215F
330
213E
100
AcDbEntity
  8
0
100
AcDbVertex
100
AcDb3dPolylineVertex
 10
226.5089682363392
 20
206.641756612937
 30
0.0
 70
    32
  0
VERTEX
  5
2160
330
213E
100
AcDbEntity
  8
0
100
AcDbVertex
100
AcDb3dPolylineVertex
 10
226.4209682363392
 20
206.691756612937
 30
0.0
 70
    32
  0
VERTEX
  5
2161
330
213E
100
AcDbEntity
  8
0
100
AcDbVertex
100
AcDb3dPolylineVertex
 10
226.3309682363394
 20
206.741756612937
 30
0.0
 70
    32
  0
VERTEX
  5
2162
330
213E
100
AcDbEntity
  8
0
100
AcDbVertex
100
AcDb3dPolylineVertex
 10
226.2389682363393
 20
206.7917566129368
 30
0.0
 70
    32
  0
VERTEX
  5
2163
330
213E
100
AcDbEntity
  8
0
100
AcDbVertex
100
AcDb3dPolylineVertex
 10
226.1449682363395
 20
206.8317566129371
 30
0.0
 70
    32
  0
VERTEX
  5
2164
330
213E
100
AcDbEntity
  8
0
100
AcDbVertex
100
AcDb3dPolylineVertex
 10
226.0489682363395
 20
206.8717566129371
 30
0.0
 70
    32
  0
VERTEX
  5
2165
330
213E
100
AcDbEntity
  8
0
100
AcDbVertex
100
AcDb3dPolylineVertex
 10
225.9509682363392
 20
206.9217566129371
 30
0.0
 70
    32
  0
VERTEX
  5
2166
330
213E
100
AcDbEntity
  8
0
100
AcDbVertex
100
AcDb3dPolylineVertex
 10
225.8519682363396
 20
206.9617566129362
 30
0.0
 70
    32
  0
VERTEX
  5
2167
330
213E
100
AcDbEntity
  8
0
100
AcDbVertex
100
AcDb3dPolylineVertex
 10
225.7509682363393
 20
207.001756612937
 30
0.0
 70
    32
  0
VERTEX
  5
2168
330
213E
100
AcDbEntity
  8
0
100
AcDbVertex
100
AcDb3dPolylineVertex
 10
225.6479682363396
 20
207.041756612937
 30
0.0
 70
    32
  0
VERTEX
  5
2169
330
213E
100
AcDbEntity
  8
0
100
AcDbVertex
100
AcDb3dPolylineVertex
 10
225.5439682363395
 20
207.0817566129349
 30
0.0
 70
    32
  0
VERTEX
  5
216A
330
213E
100
AcDbEntity
  8
0
100
AcDbVertex
100
AcDb3dPolylineVertex
 10
225.4369682363395
 20
207.1117566129371
 30
0.0
 70
    32
  0
VERTEX
  5
216B
330
213E
100
AcDbEntity
  8
0
100
AcDbVertex
100
AcDb3dPolylineVertex
 10
225.3299682363396
 20
207.1517566129369
 30
0.0
 70
    32
  0
VERTEX
  5
216C
330
213E
100
AcDbEntity
  8
0
100
AcDbVertex
100
AcDb3dPolylineVertex
 10
225.2209682363393
 20
207.1817566129369
 30
0.0
 70
    32
  0
VERTEX
  5
216D
330
213E
100
AcDbEntity
  8
0
100
AcDbVertex
100
AcDb3dPolylineVertex
 10
225.1109682363396
 20
207.2117566129369
 30
0.0
 70
    32
  0
VERTEX
  5
216E
330
213E
100
AcDbEntity
  8
0
100
AcDbVertex
100
AcDb3dPolylineVertex
 10
224.9989682363394
 20
207.2417566129363
 30
0.0
 70
    32
  0
VERTEX
  5
216F
330
213E
100
AcDbEntity
  8
0
100
AcDbVertex
100
AcDb3dPolylineVertex
 10
224.8859682363394
 20
207.2717566129361
 30
0.0
 70
    32
  0
VERTEX
  5
2170
330
213E
100
AcDbEntity
  8
0
100
AcDbVertex
100
AcDb3dPolylineVertex
 10
224.7719682363396
 20
207.2917566129359
 30
0.0
 70
    32
  0
VERTEX
  5
2171
330
213E
100
AcDbEntity
  8
0
100
AcDbVertex
100
AcDb3dPolylineVertex
 10
224.6569682363396
 20
207.3217566129359
 30
0.0
 70
    32
  0
VERTEX
  5
2172
330
213E
100
AcDbEntity
  8
0
100
AcDbVertex
100
AcDb3dPolylineVertex
 10
224.5409682363394
 20
207.3417566129371
 30
0.0
 70
    32
  0
VERTEX
  5
2173
330
213E
100
AcDbEntity
  8
0
100
AcDbVertex
100
AcDb3dPolylineVertex
 10
224.4239682363396
 20
207.361756612937
 30
0.0
 70
    32
  0
VERTEX
  5
2174
330
213E
100
AcDbEntity
  8
0
100
AcDbVertex
100
AcDb3dPolylineVertex
 10
224.3069682363392
 20
207.3817566129347
 30
0.0
 70
    32
  0
VERTEX
  5
2175
330
213E
100
AcDbEntity
  8
0
100
AcDbVertex
100
AcDb3dPolylineVertex
 10
224.1879682363395
 20
207.4017566129369
 30
0.0
 70
    32
  0
VERTEX
  5
2176
330
213E
100
AcDbEntity
  8
0
100
AcDbVertex
100
AcDb3dPolylineVertex
 10
224.0689682363392
 20
207.421756612937
 30
0.0
 70
    32
  0
VERTEX
  5
2177
330
213E
100
AcDbEntity
  8
0
100
AcDbVertex
100
AcDb3dPolylineVertex
 10
223.9479682363395
 20
207.4317566129369
 30
0.0
 70
    32
  0
VERTEX
  5
2178
330
213E
100
AcDbEntity
  8
0
100
AcDbVertex
100
AcDb3dPolylineVertex
 10
223.8279682363396
 20
207.441756612937
 30
0.0
 70
    32
  0
VERTEX
  5
2179
330
213E
100
AcDbEntity
  8
0
100
AcDbVertex
100
AcDb3dPolylineVertex
 10
223.7069682363395
 20
207.451756612937
 30
0.0
 70
    32
  0
VERTEX
  5
217A
330
213E
100
AcDbEntity
  8
0
100
AcDbVertex
100
AcDb3dPolylineVertex
 10
223.5849682363396
 20
207.4617566129369
 30
0.0
 70
    32
  0
VERTEX
  5
217B
330
213E
100
AcDbEntity
  8
0
100
AcDbVertex
100
AcDb3dPolylineVertex
 10
223.4629682363395
 20
207.471756612937
 30
0.0
 70
    32
  0
VERTEX
  5
217C
330
213E
100
AcDbEntity
  8
0
100
AcDbVertex
100
AcDb3dPolylineVertex
 10
223.3409682363396
 20
207.4817566129369
 30
0.0
 70
    32
  0
VERTEX
  5
217D
330
213E
100
AcDbEntity
  8
0
100
AcDbVertex
100
AcDb3dPolylineVertex
 10
223.2179682363394
 20
207.4817566129369
 30
0.0
 70
    32
  0
VERTEX
  5
217E
330
213E
100
AcDbEntity
  8
0
100
AcDbVertex
100
AcDb3dPolylineVertex
 10
223.0959682363396
 20
207.491756612937
 30
0.0
 70
    32
  0
VERTEX
  5
217F
330
213E
100
AcDbEntity
  8
0
100
AcDbVertex
100
AcDb3dPolylineVertex
 10
222.9729682363395
 20
207.491756612937
 30
0.0
 70
    32
  0
VERTEX
  5
2180
330
213E
100
AcDbEntity
  8
0
100
AcDbVertex
100
AcDb3dPolylineVertex
 10
222.8499682363396
 20
207.491756612937
 30
0.0
 70
    32
  0
VERTEX
  5
2181
330
213E
100
AcDbEntity
  8
0
100
AcDbVertex
100
AcDb3dPolylineVertex
 10
222.7279682363396
 20
207.4817566129369
 30
0.0
 70
    32
  0
VERTEX
  5
2182
330
213E
100
AcDbEntity
  8
0
100
AcDbVertex
100
AcDb3dPolylineVertex
 10
222.6049682363392
 20
207.4817566129369
 30
0.0
 70
    32
  0
VERTEX
  5
2183
330
213E
100
AcDbEntity
  8
0
100
AcDbVertex
100
AcDb3dPolylineVertex
 10
222.4829682363393
 20
207.471756612937
 30
0.0
 70
    32
  0
VERTEX
  5
2184
330
213E
100
AcDbEntity
  8
0
100
AcDbVertex
100
AcDb3dPolylineVertex
 10
222.3609682363396
 20
207.4617566129369
 30
0.0
 70
    32
  0
VERTEX
  5
2185
330
213E
100
AcDbEntity
  8
0
100
AcDbVertex
100
AcDb3dPolylineVertex
 10
222.2389682363393
 20
207.451756612937
 30
0.0
 70
    32
  0
VERTEX
  5
2186
330
213E
100
AcDbEntity
  8
0
100
AcDbVertex
100
AcDb3dPolylineVertex
 10
222.1179682363396
 20
207.441756612937
 30
0.0
 70
    32
  0
VERTEX
  5
2187
330
213E
100
AcDbEntity
  8
0
100
AcDbVertex
100
AcDb3dPolylineVertex
 10
221.9979682363392
 20
207.4317566129369
 30
0.0
 70
    32
  0
VERTEX
  5
2188
330
213E
100
AcDbEntity
  8
0
100
AcDbVertex
100
AcDb3dPolylineVertex
 10
221.8769682363396
 20
207.421756612937
 30
0.0
 70
    32
  0
VERTEX
  5
2189
330
213E
100
AcDbEntity
  8
0
100
AcDbVertex
100
AcDb3dPolylineVertex
 10
221.7579682363396
 20
207.4017566129369
 30
0.0
 70
    32
  0
VERTEX
  5
218A
330
213E
100
AcDbEntity
  8
0
100
AcDbVertex
100
AcDb3dPolylineVertex
 10
221.6389682363395
 20
207.3817566129347
 30
0.0
 70
    32
  0
VERTEX
  5
218B
330
213E
100
AcDbEntity
  8
0
100
AcDbVertex
100
AcDb3dPolylineVertex
 10
221.5219682363396
 20
207.361756612937
 30
0.0
 70
    32
  0
VERTEX
  5
218C
330
213E
100
AcDbEntity
  8
0
100
AcDbVertex
100
AcDb3dPolylineVertex
 10
221.4049682363396
 20
207.3417566129371
 30
0.0
 70
    32
  0
VERTEX
  5
218D
330
213E
100
AcDbEntity
  8
0
100
AcDbVertex
100
AcDb3dPolylineVertex
 10
221.2889682363396
 20
207.3217566129359
 30
0.0
 70
    32
  0
VERTEX
  5
218E
330
213E
100
AcDbEntity
  8
0
100
AcDbVertex
100
AcDb3dPolylineVertex
 10
221.1739682363396
 20
207.2917566129359
 30
0.0
 70
    32
  0
VERTEX
  5
218F
330
213E
100
AcDbEntity
  8
0
100
AcDbVertex
100
AcDb3dPolylineVertex
 10
221.0599682363396
 20
207.2717566129361
 30
0.0
 70
    32
  0
VERTEX
  5
2190
330
213E
100
AcDbEntity
  8
0
100
AcDbVertex
100
AcDb3dPolylineVertex
 10
220.9469682363396
 20
207.2417566129363
 30
0.0
 70
    32
  0
VERTEX
  5
2191
330
213E
100
AcDbEntity
  8
0
100
AcDbVertex
100
AcDb3dPolylineVertex
 10
220.8349682363396
 20
207.2117566129369
 30
0.0
 70
    32
  0
VERTEX
  5
2192
330
213E
100
AcDbEntity
  8
0
100
AcDbVertex
100
AcDb3dPolylineVertex
 10
220.7249682363396
 20
207.1817566129369
 30
0.0
 70
    32
  0
VERTEX
  5
2193
330
213E
100
AcDbEntity
  8
0
100
AcDbVertex
100
AcDb3dPolylineVertex
 10
220.6159682363395
 20
207.1517566129369
 30
0.0
 70
    32
  0
VERTEX
  5
2194
330
213E
100
AcDbEntity
  8
0
100
AcDbVertex
100
AcDb3dPolylineVertex
 10
220.5089682363392
 20
207.1117566129371
 30
0.0
 70
    32
  0
VERTEX
  5
2195
330
213E
100
AcDbEntity
  8
0
100
AcDbVertex
100
AcDb3dPolylineVertex
 10
220.4019682363396
 20
207.0817566129349
 30
0.0
 70
    32
  0
VERTEX
  5
2196
330
213E
100
AcDbEntity
  8
0
100
AcDbVertex
100
AcDb3dPolylineVertex
 10
220.2979682363393
 20
207.041756612937
 30
0.0
 70
    32
  0
VERTEX
  5
2197
330
213E
100
AcDbEntity
  8
0
100
AcDbVertex
100
AcDb3dPolylineVertex
 10
220.1949682363395
 20
207.001756612937
 30
0.0
 70
    32
  0
VERTEX
  5
2198
330
213E
100
AcDbEntity
  8
0
100
AcDbVertex
100
AcDb3dPolylineVertex
 10
220.0939682363394
 20
206.9617566129362
 30
0.0
 70
    32
  0
VERTEX
  5
2199
330
213E
100
AcDbEntity
  8
0
100
AcDbVertex
100
AcDb3dPolylineVertex
 10
219.9949682363396
 20
206.9217566129371
 30
0.0
 70
    32
  0
VERTEX
  5
219A
330
213E
100
AcDbEntity
  8
0
100
AcDbVertex
100
AcDb3dPolylineVertex
 10
219.8969682363395
 20
206.8717566129371
 30
0.0
 70
    32
  0
VERTEX
  5
219B
330
213E
100
AcDbEntity
  8
0
100
AcDbVertex
100
AcDb3dPolylineVertex
 10
219.8009682363395
 20
206.8317566129371
 30
0.0
 70
    32
  0
VERTEX
  5
219C
330
213E
100
AcDbEntity
  8
0
100
AcDbVertex
100
AcDb3dPolylineVertex
 10
219.7069682363395
 20
206.7917566129368
 30
0.0
 70
    32
  0
VERTEX
  5
219D
330
213E
100
AcDbEntity
  8
0
100
AcDbVertex
100
AcDb3dPolylineVertex
 10
219.6149682363397
 20
206.741756612937
 30
0.0
 70
    32
  0
VERTEX
  5
219E
330
213E
100
AcDbEntity
  8
0
100
AcDbVertex
100
AcDb3dPolylineVertex
 10
219.5249682363396
 20
206.691756612937
 30
0.0
 70
    32
  0
VERTEX
  5
219F
330
213E
100
AcDbEntity
  8
0
100
AcDbVertex
100
AcDb3dPolylineVertex
 10
219.4369682363396
 20
206.641756612937
 30
0.0
 70
    32
  0
VERTEX
  5
21A0
330
213E
100
AcDbEntity
  8
0
100
AcDbVertex
100
AcDb3dPolylineVertex
 10
219.3519682363396
 20
206.591756612937
 30
0.0
 70
    32
  0
VERTEX
  5
21A1
330
213E
100
AcDbEntity
  8
0
100
AcDbVertex
100
AcDb3dPolylineVertex
 10
219.2679682363396
 20
206.5417566129359
 30
0.0
 70
    32
  0
VERTEX
  5
21A2
330
213E
100
AcDbEntity
  8
0
100
AcDbVertex
100
AcDb3dPolylineVertex
 10
219.1869682363395
 20
206.481756612937
 30
0.0
 70
    32
  0
VERTEX
  5
21A3
330
213E
100
AcDbEntity
  8
0
100
AcDbVertex
100
AcDb3dPolylineVertex
 10
219.1079682363394
 20
206.4317566129369
 30
0.0
 70
    32
  0
VERTEX
  5
21A4
330
213E
100
AcDbEntity
  8
0
100
AcDbVertex
100
AcDb3dPolylineVertex
 10
219.0309682363396
 20
206.3817566129371
 30
0.0
 70
    32
  0
VERTEX
  5
21A5
330
213E
100
AcDbEntity
  8
0
100
AcDbVertex
100
AcDb3dPolylineVertex
 10
218.9569682363394
 20
206.3217566129368
 30
0.0
 70
    32
  0
VERTEX
  5
21A6
330
213E
100
AcDbEntity
  8
0
100
AcDbVertex
100
AcDb3dPolylineVertex
 10
218.8849682363396
 20
206.2617566129368
 30
0.0
 70
    32
  0
VERTEX
  5
21A7
330
213E
100
AcDbEntity
  8
0
100
AcDbVertex
100
AcDb3dPolylineVertex
 10
218.8159682363393
 20
206.201756612937
 30
0.0
 70
    32
  0
VERTEX
  5
21A8
330
213E
100
AcDbEntity
  8
0
100
AcDbVertex
100
AcDb3dPolylineVertex
 10
218.7489682363396
 20
206.141756612937
 30
0.0
 70
    32
  0
VERTEX
  5
21A9
330
213E
100
AcDbEntity
  8
0
100
AcDbVertex
100
AcDb3dPolylineVertex
 10
218.6839682363395
 20
206.0817566129371
 30
0.0
 70
    32
  0
VERTEX
  5
21AA
330
213E
100
AcDbEntity
  8
0
100
AcDbVertex
100
AcDb3dPolylineVertex
 10
218.6229682363395
 20
206.0217566129359
 30
0.0
 70
    32
  0
VERTEX
  5
21AB
330
213E
100
AcDbEntity
  8
0
100
AcDbVertex
100
AcDb3dPolylineVertex
 10
218.5629682363396
 20
205.9617566129369
 30
0.0
 70
    32
  0
VERTEX
  5
21AC
330
213E
100
AcDbEntity
  8
0
100
AcDbVertex
100
AcDb3dPolylineVertex
 10
218.5069682363396
 20
205.9017566129371
 30
0.0
 70
    32
  0
VERTEX
  5
21AD
330
213E
100
AcDbEntity
  8
0
100
AcDbVertex
100
AcDb3dPolylineVertex
 10
218.4529682363393
 20
205.8317566129371
 30
0.0
 70
    32
  0
VERTEX
  5
21AE
330
213E
100
AcDbEntity
  8
0
100
AcDbVertex
100
AcDb3dPolylineVertex
 10
218.4019682363396
 20
205.7717566129359
 30
0.0
 70
    32
  0
VERTEX
  5
21AF
330
213E
100
AcDbEntity
  8
0
100
AcDbVertex
100
AcDb3dPolylineVertex
 10
218.3539682363392
 20
205.701756612937
 30
0.0
 70
    32
  0
VERTEX
  5
21B0
330
213E
100
AcDbEntity
  8
0
100
AcDbVertex
100
AcDb3dPolylineVertex
 10
218.3079682363396
 20
205.6417566129371
 30
0.0
 70
    32
  0
VERTEX
  5
21B1
330
213E
100
AcDbEntity
  8
0
100
AcDbVertex
100
AcDb3dPolylineVertex
 10
218.2649682363396
 20
205.5717566129368
 30
0.0
 70
    32
  0
VERTEX
  5
21B2
330
213E
100
AcDbEntity
  8
0
100
AcDbVertex
100
AcDb3dPolylineVertex
 10
218.2249682363394
 20
205.5017566129369
 30
0.0
 70
    32
  0
VERTEX
  5
21B3
330
213E
100
AcDbEntity
  8
0
100
AcDbVertex
100
AcDb3dPolylineVertex
 10
218.1879682363394
 20
205.4417566129363
 30
0.0
 70
    32
  0
VERTEX
  5
21B4
330
213E
100
AcDbEntity
  8
0
100
AcDbVertex
100
AcDb3dPolylineVertex
 10
218.1539682363394
 20
205.3717566129371
 30
0.0
 70
    32
  0
VERTEX
  5
21B5
330
213E
100
AcDbEntity
  8
0
100
AcDbVertex
100
AcDb3dPolylineVertex
 10
218.1229682363396
 20
205.3017566129359
 30
0.0
 70
    32
  0
VERTEX
  5
21B6
330
213E
100
AcDbEntity
  8
0
100
AcDbVertex
100
AcDb3dPolylineVertex
 10
218.0939682363394
 20
205.2317566129369
 30
0.0
 70
    32
  0
VERTEX
  5
21B7
330
213E
100
AcDbEntity
  8
0
100
AcDbVertex
100
AcDb3dPolylineVertex
 10
218.0689682363392
 20
205.1617566129371
 30
0.0
 70
    32
  0
VERTEX
  5
21B8
330
213E
100
AcDbEntity
  8
0
100
AcDbVertex
100
AcDb3dPolylineVertex
 10
218.0469682363396
 20
205.091756612937
 30
0.0
 70
    32
  0
VERTEX
  5
21B9
330
213E
100
AcDbEntity
  8
0
100
AcDbVertex
100
AcDb3dPolylineVertex
 10
218.0269682363396
 20
205.0217566129361
 30
0.0
 70
    32
  0
VERTEX
  5
21BA
330
213E
100
AcDbEntity
  8
0
100
AcDbVertex
100
AcDb3dPolylineVertex
 10
218.0109682363394
 20
204.9517566129369
 30
0.0
 70
    32
  0
VERTEX
  5
21BB
330
213E
100
AcDbEntity
  8
0
100
AcDbVertex
100
AcDb3dPolylineVertex
 10
217.9969682363394
 20
204.8817566129371
 30
0.0
 70
    32
  0
VERTEX
  5
21BC
330
213E
100
AcDbEntity
  8
0
100
AcDbVertex
100
AcDb3dPolylineVertex
 10
217.9869682363396
 20
204.8117566129369
 30
0.0
 70
    32
  0
VERTEX
  5
21BD
330
213E
100
AcDbEntity
  8
0
100
AcDbVertex
100
AcDb3dPolylineVertex
 10
217.9789682363392
 20
204.741756612937
 30
0.0
 70
    32
  0
VERTEX
  5
21BE
330
213E
100
AcDbEntity
  8
0
100
AcDbVertex
100
AcDb3dPolylineVertex
 10
217.9749682363396
 20
204.6717566129346
 30
0.0
 70
    32
  0
VERTEX
  5
21BF
330
213E
100
AcDbEntity
  8
0
100
AcDbVertex
100
AcDb3dPolylineVertex
 10
217.9729682363395
 20
204.601756612937
 30
0.0
 70
    32
  0
SEQEND
  5
21C0
330
213E
100
AcDbEntity
  8
0
  0
POLYLINE
  5
21C1
330
2B26
100
AcDbEntity
  8
0
100
AcDb3dPolyline
 66
     1
 10
0.0
 20
0.0
 30
0.0
 70
     8
  0
VERTEX
  5
21C2
330
21C1
100
AcDbEntity
  8
0
100
AcDbVertex
100
AcDb3dPolylineVertex
 10
217.9729682363395
 20
199.9617566129369
 30
0.0
 70
    32
  0
VERTEX
  5
21C3
330
21C1
100
AcDbEntity
  8
0
100
AcDbVertex
100
AcDb3dPolylineVertex
 10
217.9749682363396
 20
199.8917566129371
 30
0.0
 70
    32
  0
VERTEX
  5
21C4
330
21C1
100
AcDbEntity
  8
0
100
AcDbVertex
100
AcDb3dPolylineVertex
 10
217.9789682363392
 20
199.8217566129368
 30
0.0
 70
    32
  0
VERTEX
  5
21C5
330
21C1
100
AcDbEntity
  8
0
100
AcDbVertex
100
AcDb3dPolylineVertex
 10
217.9869682363396
 20
199.7517566129369
 30
0.0
 70
    32
  0
VERTEX
  5
21C6
330
21C1
100
AcDbEntity
  8
0
100
AcDbVertex
100
AcDb3dPolylineVertex
 10
217.9969682363394
 20
199.6817566129369
 30
0.0
 70
    32
  0
VERTEX
  5
21C7
330
21C1
100
AcDbEntity
  8
0
100
AcDbVertex
100
AcDb3dPolylineVertex
 10
218.0109682363394
 20
199.6117566129371
 30
0.0
 70
    32
  0
VERTEX
  5
21C8
330
21C1
100
AcDbEntity
  8
0
100
AcDbVertex
100
AcDb3dPolylineVertex
 10
218.0269682363396
 20
199.5417566129359
 30
0.0
 70
    32
  0
VERTEX
  5
21C9
330
21C1
100
AcDbEntity
  8
0
100
AcDbVertex
100
AcDb3dPolylineVertex
 10
218.0469682363396
 20
199.471756612937
 30
0.0
 70
    32
  0
VERTEX
  5
21CA
330
21C1
100
AcDbEntity
  8
0
100
AcDbVertex
100
AcDb3dPolylineVertex
 10
218.0689682363392
 20
199.4017566129371
 30
0.0
 70
    32
  0
VERTEX
  5
21CB
330
21C1
100
AcDbEntity
  8
0
100
AcDbVertex
100
AcDb3dPolylineVertex
 10
218.0939682363394
 20
199.3317566129371
 30
0.0
 70
    32
  0
VERTEX
  5
21CC
330
21C1
100
AcDbEntity
  8
0
100
AcDbVertex
100
AcDb3dPolylineVertex
 10
218.1229682363396
 20
199.261756612937
 30
0.0
 70
    32
  0
VERTEX
  5
21CD
330
21C1
100
AcDbEntity
  8
0
100
AcDbVertex
100
AcDb3dPolylineVertex
 10
218.1539682363394
 20
199.191756612937
 30
0.0
 70
    32
  0
VERTEX
  5
21CE
330
21C1
100
AcDbEntity
  8
0
100
AcDbVertex
100
AcDb3dPolylineVertex
 10
218.1879682363394
 20
199.1217566129371
 30
0.0
 70
    32
  0
VERTEX
  5
21CF
330
21C1
100
AcDbEntity
  8
0
100
AcDbVertex
100
AcDb3dPolylineVertex
 10
218.2249682363394
 20
199.0617566129359
 30
0.0
 70
    32
  0
VERTEX
  5
21D0
330
21C1
100
AcDbEntity
  8
0
100
AcDbVertex
100
AcDb3dPolylineVertex
 10
218.2649682363396
 20
198.991756612937
 30
0.0
 70
    32
  0
VERTEX
  5
21D1
330
21C1
100
AcDbEntity
  8
0
100
AcDbVertex
100
AcDb3dPolylineVertex
 10
218.3079682363396
 20
198.921756612937
 30
0.0
 70
    32
  0
VERTEX
  5
21D2
330
21C1
100
AcDbEntity
  8
0
100
AcDbVertex
100
AcDb3dPolylineVertex
 10
218.3539682363392
 20
198.8617566129371
 30
0.0
 70
    32
  0
VERTEX
  5
21D3
330
21C1
100
AcDbEntity
  8
0
100
AcDbVertex
100
AcDb3dPolylineVertex
 10
218.4019682363396
 20
198.7917566129368
 30
0.0
 70
    32
  0
VERTEX
  5
21D4
330
21C1
100
AcDbEntity
  8
0
100
AcDbVertex
100
AcDb3dPolylineVertex
 10
218.4529682363393
 20
198.7317566129362
 30
0.0
 70
    32
  0
VERTEX
  5
21D5
330
21C1
100
AcDbEntity
  8
0
100
AcDbVertex
100
AcDb3dPolylineVertex
 10
218.5069682363396
 20
198.661756612937
 30
0.0
 70
    32
  0
VERTEX
  5
21D6
330
21C1
100
AcDbEntity
  8
0
100
AcDbVertex
100
AcDb3dPolylineVertex
 10
218.5629682363396
 20
198.6017566129371
 30
0.0
 70
    32
  0
VERTEX
  5
21D7
330
21C1
100
AcDbEntity
  8
0
100
AcDbVertex
100
AcDb3dPolylineVertex
 10
218.6229682363395
 20
198.5417566129349
 30
0.0
 70
    32
  0
VERTEX
  5
21D8
330
21C1
100
AcDbEntity
  8
0
100
AcDbVertex
100
AcDb3dPolylineVertex
 10
218.6839682363395
 20
198.481756612937
 30
0.0
 70
    32
  0
VERTEX
  5
21D9
330
21C1
100
AcDbEntity
  8
0
100
AcDbVertex
100
AcDb3dPolylineVertex
 10
218.7489682363396
 20
198.4217566129358
 30
0.0
 70
    32
  0
VERTEX
  5
21DA
330
21C1
100
AcDbEntity
  8
0
100
AcDbVertex
100
AcDb3dPolylineVertex
 10
218.8159682363393
 20
198.3617566129371
 30
0.0
 70
    32
  0
VERTEX
  5
21DB
330
21C1
100
AcDbEntity
  8
0
100
AcDbVertex
100
AcDb3dPolylineVertex
 10
218.8849682363396
 20
198.3017566129368
 30
0.0
 70
    32
  0
VERTEX
  5
21DC
330
21C1
100
AcDbEntity
  8
0
100
AcDbVertex
100
AcDb3dPolylineVertex
 10
218.9569682363394
 20
198.241756612937
 30
0.0
 70
    32
  0
VERTEX
  5
21DD
330
21C1
100
AcDbEntity
  8
0
100
AcDbVertex
100
AcDb3dPolylineVertex
 10
219.0309682363396
 20
198.191756612937
 30
0.0
 70
    32
  0
VERTEX
  5
21DE
330
21C1
100
AcDbEntity
  8
0
100
AcDbVertex
100
AcDb3dPolylineVertex
 10
219.1079682363394
 20
198.131756612937
 30
0.0
 70
    32
  0
VERTEX
  5
21DF
330
21C1
100
AcDbEntity
  8
0
100
AcDbVertex
100
AcDb3dPolylineVertex
 10
219.1869682363395
 20
198.0817566129371
 30
0.0
 70
    32
  0
VERTEX
  5
21E0
330
21C1
100
AcDbEntity
  8
0
100
AcDbVertex
100
AcDb3dPolylineVertex
 10
219.2679682363396
 20
198.0217566129368
 30
0.0
 70
    32
  0
VERTEX
  5
21E1
330
21C1
100
AcDbEntity
  8
0
100
AcDbVertex
100
AcDb3dPolylineVertex
 10
219.3519682363396
 20
197.971756612937
 30
0.0
 70
    32
  0
VERTEX
  5
21E2
330
21C1
100
AcDbEntity
  8
0
100
AcDbVertex
100
AcDb3dPolylineVertex
 10
219.4369682363396
 20
197.921756612937
 30
0.0
 70
    32
  0
VERTEX
  5
21E3
330
21C1
100
AcDbEntity
  8
0
100
AcDbVertex
100
AcDb3dPolylineVertex
 10
219.5249682363396
 20
197.8717566129371
 30
0.0
 70
    32
  0
VERTEX
  5
21E4
330
21C1
100
AcDbEntity
  8
0
100
AcDbVertex
100
AcDb3dPolylineVertex
 10
219.6149682363397
 20
197.8217566129359
 30
0.0
 70
    32
  0
VERTEX
  5
21E5
330
21C1
100
AcDbEntity
  8
0
100
AcDbVertex
100
AcDb3dPolylineVertex
 10
219.7069682363395
 20
197.7817566129369
 30
0.0
 70
    32
  0
VERTEX
  5
21E6
330
21C1
100
AcDbEntity
  8
0
100
AcDbVertex
100
AcDb3dPolylineVertex
 10
219.8009682363395
 20
197.731756612937
 30
0.0
 70
    32
  0
VERTEX
  5
21E7
330
21C1
100
AcDbEntity
  8
0
100
AcDbVertex
100
AcDb3dPolylineVertex
 10
219.8969682363395
 20
197.691756612937
 30
0.0
 70
    32
  0
VERTEX
  5
21E8
330
21C1
100
AcDbEntity
  8
0
100
AcDbVertex
100
AcDb3dPolylineVertex
 10
219.9949682363396
 20
197.641756612937
 30
0.0
 70
    32
  0
VERTEX
  5
21E9
330
21C1
100
AcDbEntity
  8
0
100
AcDbVertex
100
AcDb3dPolylineVertex
 10
220.0939682363394
 20
197.6017566129371
 30
0.0
 70
    32
  0
VERTEX
  5
21EA
330
21C1
100
AcDbEntity
  8
0
100
AcDbVertex
100
AcDb3dPolylineVertex
 10
220.1949682363395
 20
197.561756612936
 30
0.0
 70
    32
  0
VERTEX
  5
21EB
330
21C1
100
AcDbEntity
  8
0
100
AcDbVertex
100
AcDb3dPolylineVertex
 10
220.2979682363393
 20
197.521756612937
 30
0.0
 70
    32
  0
VERTEX
  5
21EC
330
21C1
100
AcDbEntity
  8
0
100
AcDbVertex
100
AcDb3dPolylineVertex
 10
220.4019682363396
 20
197.491756612937
 30
0.0
 70
    32
  0
VERTEX
  5
21ED
330
21C1
100
AcDbEntity
  8
0
100
AcDbVertex
100
AcDb3dPolylineVertex
 10
220.5089682363392
 20
197.451756612937
 30
0.0
 70
    32
  0
VERTEX
  5
21EE
330
21C1
100
AcDbEntity
  8
0
100
AcDbVertex
100
AcDb3dPolylineVertex
 10
220.6159682363395
 20
197.421756612937
 30
0.0
 70
    32
  0
VERTEX
  5
21EF
330
21C1
100
AcDbEntity
  8
0
100
AcDbVertex
100
AcDb3dPolylineVertex
 10
220.7249682363396
 20
197.3817566129371
 30
0.0
 70
    32
  0
VERTEX
  5
21F0
330
21C1
100
AcDbEntity
  8
0
100
AcDbVertex
100
AcDb3dPolylineVertex
 10
220.8349682363396
 20
197.351756612937
 30
0.0
 70
    32
  0
VERTEX
  5
21F1
330
21C1
100
AcDbEntity
  8
0
100
AcDbVertex
100
AcDb3dPolylineVertex
 10
220.9469682363396
 20
197.3217566129348
 30
0.0
 70
    32
  0
VERTEX
  5
21F2
330
21C1
100
AcDbEntity
  8
0
100
AcDbVertex
100
AcDb3dPolylineVertex
 10
221.0599682363396
 20
197.3017566129368
 30
0.0
 70
    32
  0
VERTEX
  5
21F3
330
21C1
100
AcDbEntity
  8
0
100
AcDbVertex
100
AcDb3dPolylineVertex
 10
221.1739682363396
 20
197.271756612937
 30
0.0
 70
    32
  0
VERTEX
  5
21F4
330
21C1
100
AcDbEntity
  8
0
100
AcDbVertex
100
AcDb3dPolylineVertex
 10
221.2889682363396
 20
197.241756612937
 30
0.0
 70
    32
  0
VERTEX
  5
21F5
330
21C1
100
AcDbEntity
  8
0
100
AcDbVertex
100
AcDb3dPolylineVertex
 10
221.4049682363396
 20
197.221756612937
 30
0.0
 70
    32
  0
VERTEX
  5
21F6
330
21C1
100
AcDbEntity
  8
0
100
AcDbVertex
100
AcDb3dPolylineVertex
 10
221.5219682363396
 20
197.2017566129363
 30
0.0
 70
    32
  0
VERTEX
  5
21F7
330
21C1
100
AcDbEntity
  8
0
100
AcDbVertex
100
AcDb3dPolylineVertex
 10
221.6389682363395
 20
197.1817566129363
 30
0.0
 70
    32
  0
VERTEX
  5
21F8
330
21C1
100
AcDbEntity
  8
0
100
AcDbVertex
100
AcDb3dPolylineVertex
 10
221.7579682363396
 20
197.1617566129371
 30
0.0
 70
    32
  0
VERTEX
  5
21F9
330
21C1
100
AcDbEntity
  8
0
100
AcDbVertex
100
AcDb3dPolylineVertex
 10
221.8769682363396
 20
197.1517566129371
 30
0.0
 70
    32
  0
VERTEX
  5
21FA
330
21C1
100
AcDbEntity
  8
0
100
AcDbVertex
100
AcDb3dPolylineVertex
 10
221.9979682363392
 20
197.131756612937
 30
0.0
 70
    32
  0
VERTEX
  5
21FB
330
21C1
100
AcDbEntity
  8
0
100
AcDbVertex
100
AcDb3dPolylineVertex
 10
222.1179682363396
 20
197.1217566129371
 30
0.0
 70
    32
  0
VERTEX
  5
21FC
330
21C1
100
AcDbEntity
  8
0
100
AcDbVertex
100
AcDb3dPolylineVertex
 10
222.2389682363393
 20
197.1117566129371
 30
0.0
 70
    32
  0
VERTEX
  5
21FD
330
21C1
100
AcDbEntity
  8
0
100
AcDbVertex
100
AcDb3dPolylineVertex
 10
222.3609682363396
 20
197.101756612937
 30
0.0
 70
    32
  0
VERTEX
  5
21FE
330
21C1
100
AcDbEntity
  8
0
100
AcDbVertex
100
AcDb3dPolylineVertex
 10
222.4829682363393
 20
197.091756612937
 30
0.0
 70
    32
  0
VERTEX
  5
21FF
330
21C1
100
AcDbEntity
  8
0
100
AcDbVertex
100
AcDb3dPolylineVertex
 10
222.6049682363392
 20
197.0817566129371
 30
0.0
 70
    32
  0
VERTEX
  5
2200
330
21C1
100
AcDbEntity
  8
0
100
AcDbVertex
100
AcDb3dPolylineVertex
 10
222.7279682363396
 20
197.0817566129371
 30
0.0
 70
    32
  0
VERTEX
  5
2201
330
21C1
100
AcDbEntity
  8
0
100
AcDbVertex
100
AcDb3dPolylineVertex
 10
222.8499682363396
 20
197.0817566129371
 30
0.0
 70
    32
  0
VERTEX
  5
2202
330
21C1
100
AcDbEntity
  8
0
100
AcDbVertex
100
AcDb3dPolylineVertex
 10
222.9729682363395
 20
197.0817566129371
 30
0.0
 70
    32
  0
VERTEX
  5
2203
330
21C1
100
AcDbEntity
  8
0
100
AcDbVertex
100
AcDb3dPolylineVertex
 10
223.0959682363396
 20
197.0817566129371
 30
0.0
 70
    32
  0
VERTEX
  5
2204
330
21C1
100
AcDbEntity
  8
0
100
AcDbVertex
100
AcDb3dPolylineVertex
 10
223.2179682363394
 20
197.0817566129371
 30
0.0
 70
    32
  0
VERTEX
  5
2205
330
21C1
100
AcDbEntity
  8
0
100
AcDbVertex
100
AcDb3dPolylineVertex
 10
223.3409682363396
 20
197.0817566129371
 30
0.0
 70
    32
  0
VERTEX
  5
2206
330
21C1
100
AcDbEntity
  8
0
100
AcDbVertex
100
AcDb3dPolylineVertex
 10
223.4629682363395
 20
197.091756612937
 30
0.0
 70
    32
  0
VERTEX
  5
2207
330
21C1
100
AcDbEntity
  8
0
100
AcDbVertex
100
AcDb3dPolylineVertex
 10
223.5849682363396
 20
197.101756612937
 30
0.0
 70
    32
  0
VERTEX
  5
2208
330
21C1
100
AcDbEntity
  8
0
100
AcDbVertex
100
AcDb3dPolylineVertex
 10
223.7069682363395
 20
197.1117566129371
 30
0.0
 70
    32
  0
VERTEX
  5
2209
330
21C1
100
AcDbEntity
  8
0
100
AcDbVertex
100
AcDb3dPolylineVertex
 10
223.8279682363396
 20
197.1217566129371
 30
0.0
 70
    32
  0
VERTEX
  5
220A
330
21C1
100
AcDbEntity
  8
0
100
AcDbVertex
100
AcDb3dPolylineVertex
 10
223.9479682363395
 20
197.131756612937
 30
0.0
 70
    32
  0
VERTEX
  5
220B
330
21C1
100
AcDbEntity
  8
0
100
AcDbVertex
100
AcDb3dPolylineVertex
 10
224.0689682363392
 20
197.1517566129371
 30
0.0
 70
    32
  0
VERTEX
  5
220C
330
21C1
100
AcDbEntity
  8
0
100
AcDbVertex
100
AcDb3dPolylineVertex
 10
224.1879682363395
 20
197.1617566129371
 30
0.0
 70
    32
  0
VERTEX
  5
220D
330
21C1
100
AcDbEntity
  8
0
100
AcDbVertex
100
AcDb3dPolylineVertex
 10
224.3069682363392
 20
197.1817566129363
 30
0.0
 70
    32
  0
VERTEX
  5
220E
330
21C1
100
AcDbEntity
  8
0
100
AcDbVertex
100
AcDb3dPolylineVertex
 10
224.4239682363396
 20
197.2017566129363
 30
0.0
 70
    32
  0
VERTEX
  5
220F
330
21C1
100
AcDbEntity
  8
0
100
AcDbVertex
100
AcDb3dPolylineVertex
 10
224.5409682363394
 20
197.221756612937
 30
0.0
 70
    32
  0
VERTEX
  5
2210
330
21C1
100
AcDbEntity
  8
0
100
AcDbVertex
100
AcDb3dPolylineVertex
 10
224.6569682363396
 20
197.241756612937
 30
0.0
 70
    32
  0
VERTEX
  5
2211
330
21C1
100
AcDbEntity
  8
0
100
AcDbVertex
100
AcDb3dPolylineVertex
 10
224.7719682363396
 20
197.271756612937
 30
0.0
 70
    32
  0
VERTEX
  5
2212
330
21C1
100
AcDbEntity
  8
0
100
AcDbVertex
100
AcDb3dPolylineVertex
 10
224.8859682363394
 20
197.3017566129368
 30
0.0
 70
    32
  0
VERTEX
  5
2213
330
21C1
100
AcDbEntity
  8
0
100
AcDbVertex
100
AcDb3dPolylineVertex
 10
224.9989682363394
 20
197.3217566129348
 30
0.0
 70
    32
  0
VERTEX
  5
2214
330
21C1
100
AcDbEntity
  8
0
100
AcDbVertex
100
AcDb3dPolylineVertex
 10
225.1109682363396
 20
197.351756612937
 30
0.0
 70
    32
  0
VERTEX
  5
2215
330
21C1
100
AcDbEntity
  8
0
100
AcDbVertex
100
AcDb3dPolylineVertex
 10
225.2209682363393
 20
197.3817566129371
 30
0.0
 70
    32
  0
VERTEX
  5
2216
330
21C1
100
AcDbEntity
  8
0
100
AcDbVertex
100
AcDb3dPolylineVertex
 10
225.3299682363396
 20
197.421756612937
 30
0.0
 70
    32
  0
VERTEX
  5
2217
330
21C1
100
AcDbEntity
  8
0
100
AcDbVertex
100
AcDb3dPolylineVertex
 10
225.4369682363395
 20
197.451756612937
 30
0.0
 70
    32
  0
VERTEX
  5
2218
330
21C1
100
AcDbEntity
  8
0
100
AcDbVertex
100
AcDb3dPolylineVertex
 10
225.5439682363395
 20
197.491756612937
 30
0.0
 70
    32
  0
VERTEX
  5
2219
330
21C1
100
AcDbEntity
  8
0
100
AcDbVertex
100
AcDb3dPolylineVertex
 10
225.6479682363396
 20
197.521756612937
 30
0.0
 70
    32
  0
VERTEX
  5
221A
330
21C1
100
AcDbEntity
  8
0
100
AcDbVertex
100
AcDb3dPolylineVertex
 10
225.7509682363393
 20
197.561756612936
 30
0.0
 70
    32
  0
VERTEX
  5
221B
330
21C1
100
AcDbEntity
  8
0
100
AcDbVertex
100
AcDb3dPolylineVertex
 10
225.8519682363396
 20
197.6017566129371
 30
0.0
 70
    32
  0
VERTEX
  5
221C
330
21C1
100
AcDbEntity
  8
0
100
AcDbVertex
100
AcDb3dPolylineVertex
 10
225.9509682363392
 20
197.641756612937
 30
0.0
 70
    32
  0
VERTEX
  5
221D
330
21C1
100
AcDbEntity
  8
0
100
AcDbVertex
100
AcDb3dPolylineVertex
 10
226.0489682363395
 20
197.691756612937
 30
0.0
 70
    32
  0
VERTEX
  5
221E
330
21C1
100
AcDbEntity
  8
0
100
AcDbVertex
100
AcDb3dPolylineVertex
 10
226.1449682363395
 20
197.731756612937
 30
0.0
 70
    32
  0
VERTEX
  5
221F
330
21C1
100
AcDbEntity
  8
0
100
AcDbVertex
100
AcDb3dPolylineVertex
 10
226.2389682363393
 20
197.7817566129369
 30
0.0
 70
    32
  0
VERTEX
  5
2220
330
21C1
100
AcDbEntity
  8
0
100
AcDbVertex
100
AcDb3dPolylineVertex
 10
226.3309682363394
 20
197.8217566129359
 30
0.0
 70
    32
  0
VERTEX
  5
2221
330
21C1
100
AcDbEntity
  8
0
100
AcDbVertex
100
AcDb3dPolylineVertex
 10
226.4209682363392
 20
197.8717566129371
 30
0.0
 70
    32
  0
VERTEX
  5
2222
330
21C1
100
AcDbEntity
  8
0
100
AcDbVertex
100
AcDb3dPolylineVertex
 10
226.5089682363392
 20
197.921756612937
 30
0.0
 70
    32
  0
VERTEX
  5
2223
330
21C1
100
AcDbEntity
  8
0
100
AcDbVertex
100
AcDb3dPolylineVertex
 10
226.5939682363394
 20
197.971756612937
 30
0.0
 70
    32
  0
VERTEX
  5
2224
330
21C1
100
AcDbEntity
  8
0
100
AcDbVertex
100
AcDb3dPolylineVertex
 10
226.6779682363396
 20
198.0217566129368
 30
0.0
 70
    32
  0
VERTEX
  5
2225
330
21C1
100
AcDbEntity
  8
0
100
AcDbVertex
100
AcDb3dPolylineVertex
 10
226.7589682363392
 20
198.0817566129371
 30
0.0
 70
    32
  0
VERTEX
  5
2226
330
21C1
100
AcDbEntity
  8
0
100
AcDbVertex
100
AcDb3dPolylineVertex
 10
226.8379682363395
 20
198.131756612937
 30
0.0
 70
    32
  0
VERTEX
  5
2227
330
21C1
100
AcDbEntity
  8
0
100
AcDbVertex
100
AcDb3dPolylineVertex
 10
226.9149682363396
 20
198.191756612937
 30
0.0
 70
    32
  0
VERTEX
  5
2228
330
21C1
100
AcDbEntity
  8
0
100
AcDbVertex
100
AcDb3dPolylineVertex
 10
226.9889682363396
 20
198.241756612937
 30
0.0
 70
    32
  0
VERTEX
  5
2229
330
21C1
100
AcDbEntity
  8
0
100
AcDbVertex
100
AcDb3dPolylineVertex
 10
227.0609682363395
 20
198.3017566129368
 30
0.0
 70
    32
  0
VERTEX
  5
222A
330
21C1
100
AcDbEntity
  8
0
100
AcDbVertex
100
AcDb3dPolylineVertex
 10
227.1299682363395
 20
198.3617566129371
 30
0.0
 70
    32
  0
VERTEX
  5
222B
330
21C1
100
AcDbEntity
  8
0
100
AcDbVertex
100
AcDb3dPolylineVertex
 10
227.1969682363396
 20
198.4217566129358
 30
0.0
 70
    32
  0
VERTEX
  5
222C
330
21C1
100
AcDbEntity
  8
0
100
AcDbVertex
100
AcDb3dPolylineVertex
 10
227.2619682363394
 20
198.481756612937
 30
0.0
 70
    32
  0
VERTEX
  5
222D
330
21C1
100
AcDbEntity
  8
0
100
AcDbVertex
100
AcDb3dPolylineVertex
 10
227.3229682363396
 20
198.5417566129349
 30
0.0
 70
    32
  0
VERTEX
  5
222E
330
21C1
100
AcDbEntity
  8
0
100
AcDbVertex
100
AcDb3dPolylineVertex
 10
227.3829682363396
 20
198.6017566129371
 30
0.0
 70
    32
  0
VERTEX
  5
222F
330
21C1
100
AcDbEntity
  8
0
100
AcDbVertex
100
AcDb3dPolylineVertex
 10
227.4389682363394
 20
198.661756612937
 30
0.0
 70
    32
  0
VERTEX
  5
2230
330
21C1
100
AcDbEntity
  8
0
100
AcDbVertex
100
AcDb3dPolylineVertex
 10
227.4929682363396
 20
198.7317566129362
 30
0.0
 70
    32
  0
VERTEX
  5
2231
330
21C1
100
AcDbEntity
  8
0
100
AcDbVertex
100
AcDb3dPolylineVertex
 10
227.5439682363395
 20
198.7917566129368
 30
0.0
 70
    32
  0
VERTEX
  5
2232
330
21C1
100
AcDbEntity
  8
0
100
AcDbVertex
100
AcDb3dPolylineVertex
 10
227.5919682363396
 20
198.8617566129371
 30
0.0
 70
    32
  0
VERTEX
  5
2233
330
21C1
100
AcDbEntity
  8
0
100
AcDbVertex
100
AcDb3dPolylineVertex
 10
227.6379682363395
 20
198.921756612937
 30
0.0
 70
    32
  0
VERTEX
  5
2234
330
21C1
100
AcDbEntity
  8
0
100
AcDbVertex
100
AcDb3dPolylineVertex
 10
227.6809682363396
 20
198.991756612937
 30
0.0
 70
    32
  0
VERTEX
  5
2235
330
21C1
100
AcDbEntity
  8
0
100
AcDbVertex
100
AcDb3dPolylineVertex
 10
227.7209682363393
 20
199.0617566129359
 30
0.0
 70
    32
  0
VERTEX
  5
2236
330
21C1
100
AcDbEntity
  8
0
100
AcDbVertex
100
AcDb3dPolylineVertex
 10
227.7579682363395
 20
199.1217566129371
 30
0.0
 70
    32
  0
VERTEX
  5
2237
330
21C1
100
AcDbEntity
  8
0
100
AcDbVertex
100
AcDb3dPolylineVertex
 10
227.7919682363396
 20
199.191756612937
 30
0.0
 70
    32
  0
VERTEX
  5
2238
330
21C1
100
AcDbEntity
  8
0
100
AcDbVertex
100
AcDb3dPolylineVertex
 10
227.8229682363396
 20
199.261756612937
 30
0.0
 70
    32
  0
VERTEX
  5
2239
330
21C1
100
AcDbEntity
  8
0
100
AcDbVertex
100
AcDb3dPolylineVertex
 10
227.8519682363396
 20
199.3317566129371
 30
0.0
 70
    32
  0
VERTEX
  5
223A
330
21C1
100
AcDbEntity
  8
0
100
AcDbVertex
100
AcDb3dPolylineVertex
 10
227.8769682363396
 20
199.4017566129371
 30
0.0
 70
    32
  0
VERTEX
  5
223B
330
21C1
100
AcDbEntity
  8
0
100
AcDbVertex
100
AcDb3dPolylineVertex
 10
227.8989682363394
 20
199.471756612937
 30
0.0
 70
    32
  0
VERTEX
  5
223C
330
21C1
100
AcDbEntity
  8
0
100
AcDbVertex
100
AcDb3dPolylineVertex
 10
227.9189682363396
 20
199.5417566129359
 30
0.0
 70
    32
  0
VERTEX
  5
223D
330
21C1
100
AcDbEntity
  8
0
100
AcDbVertex
100
AcDb3dPolylineVertex
 10
227.9349682363396
 20
199.6117566129371
 30
0.0
 70
    32
  0
VERTEX
  5
223E
330
21C1
100
AcDbEntity
  8
0
100
AcDbVertex
100
AcDb3dPolylineVertex
 10
227.9489682363395
 20
199.6817566129369
 30
0.0
 70
    32
  0
VERTEX
  5
223F
330
21C1
100
AcDbEntity
  8
0
100
AcDbVertex
100
AcDb3dPolylineVertex
 10
227.9589682363393
 20
199.7517566129369
 30
0.0
 70
    32
  0
VERTEX
  5
2240
330
21C1
100
AcDbEntity
  8
0
100
AcDbVertex
100
AcDb3dPolylineVertex
 10
227.9669682363396
 20
199.8217566129368
 30
0.0
 70
    32
  0
VERTEX
  5
2241
330
21C1
100
AcDbEntity
  8
0
100
AcDbVertex
100
AcDb3dPolylineVertex
 10
227.9709682363395
 20
199.8917566129371
 30
0.0
 70
    32
  0
VERTEX
  5
2242
330
21C1
100
AcDbEntity
  8
0
100
AcDbVertex
100
AcDb3dPolylineVertex
 10
227.9729682363392
 20
199.9617566129369
 30
0.0
 70
    32
  0
SEQEND
  5
2243
330
21C1
100
AcDbEntity
  8
0
  0
LINE
  5
2244
330
2B26
100
AcDbEntity
  8
0
100
AcDbLine
 10
227.9729682363392
 20
204.6008806129369
 30
0.0
 11
227.9729682363392
 21
199.9643456129359
 31
0.0
  0
LINE
  5
2245
330
2B26
100
AcDbEntity
  8
0
100
AcDbLine
 10
217.9729682363395
 20
204.6008806129369
 30
0.0
 11
217.9729682363395
 21
199.9643456129359
 31
0.0
  0
LINE
  5
2246
330
2B26
100
AcDbEntity
  8
0
100
AcDbLine
 10
384.9729682363395
 20
154.951756612937
 30
0.0
 11
384.9729682363395
 21
98.28696361293715
 31
0.0
  0
LINE
  5
2247
330
2B26
100
AcDbEntity
  8
0
100
AcDbLine
 10
360.9729682363395
 20
154.951756612937
 30
0.0
 11
360.9729682363395
 21
98.28696361293715
 31
0.0
  0
ARC
  5
224A
330
2B26
100
AcDbEntity
  8
0
100
AcDbCircle
 10
372.9729682363394
 20
127.9517566129369
 30
0.0
 40
32.0
100
AcDbArc
 50
247.9756900000006
 51
292.0243099999992
  0
LINE
  5
224F
330
2B26
100
AcDbEntity
  8
0
100
AcDbLine
 10
340.4729682363395
 20
110.9517566129369
 30
0.0
 11
340.4729682363395
 21
144.951756612937
 31
0.0
  0
LINE
  5
2253
330
2B26
100
AcDbEntity
  8
0
100
AcDbLine
 10
340.4729682363395
 20
121.951756612937
 30
0.0
 11
340.4729682363395
 21
133.951756612937
 31
0.0
  0
ARC
  5
225B
330
2B26
100
AcDbEntity
  8
0
100
AcDbCircle
 10
405.2229992363392
 20
180.0521976129348
 30
0.0
 40
15.0
100
AcDbArc
 50
119.9999999999973
 51
180.0000100000009
  0
LINE
  5
225C
330
2B26
100
AcDbEntity
  8
0
100
AcDbLine
 10
352.6729882363393
 20
173.152866612937
 30
0.0
 11
429.9652452363393
 21
217.7775726129369
 31
0.0
  0
ARC
  5
225D
330
2B26
100
AcDbEntity
  8
0
100
AcDbCircle
 10
372.9729682363394
 20
119.9323722129363
 30
0.0
 40
52.019386
100
AcDbArc
 50
70.63364999999888
 51
112.9693500000004
  0
LINE
  5
225E
330
2B26
100
AcDbEntity
  8
0
100
AcDbLine
 10
355.7229682363395
 20
159.9517486129369
 30
0.0
 11
390.2229682363393
 21
159.9517486129369
 31
0.0
  0
LINE
  5
225F
330
2B26
100
AcDbEntity
  8
0
100
AcDbLine
 10
360.9729682363395
 20
154.951756612937
 30
0.0
 11
384.9729682363395
 21
154.951756612937
 31
0.0
  0
ARC
  5
2260
330
2B26
100
AcDbEntity
  8
0
100
AcDbCircle
 10
355.6729802363396
 20
160.1517616129368
 30
0.0
 40
3.0
100
AcDbArc
 50
179.9999899999988
 51
270.0
  0
LINE
  5
2261
330
2B26
100
AcDbEntity
  8
0
100
AcDbLine
 10
355.7229512363393
 20
154.9517296129369
 30
0.0
 11
358.8983732363396
 21
149.4517366129371
 31
0.0
  0
LINE
  5
2262
330
2B26
100
AcDbEntity
  8
0
100
AcDbLine
 10
355.7229682363395
 20
159.9517486129369
 30
0.0
 11
355.7229682363395
 21
154.951756612937
 31
0.0
  0
LINE
  5
2263
330
2B26
100
AcDbEntity
  8
0
100
AcDbLine
 10
358.8984142363396
 20
149.451756612937
 30
0.0
 11
360.9729682363395
 21
149.451756612937
 31
0.0
  0
LINE
  5
2264
330
2B26
100
AcDbEntity
  8
0
100
AcDbLine
 10
352.6729882363393
 20
173.152867612937
 30
0.0
 11
352.6729882363393
 21
160.1517616129368
 31
0.0
  0
CIRCLE
  5
2265
330
2B26
100
AcDbEntity
  8
0
100
AcDbCircle
 10
372.9729682363394
 20
164.651761612936
 30
0.0
 40
2.2
  0
LINE
  5
2266
330
2B26
100
AcDbEntity
  8
0
100
AcDbLine
 10
390.2229532363393
 20
154.9517706129369
 30
0.0
 11
387.0475222363394
 21
149.4517646129362
 31
0.0
  0
LINE
  5
2267
330
2B26
100
AcDbEntity
  8
0
100
AcDbLine
 10
387.0475532363396
 20
149.451756612937
 30
0.0
 11
384.9729682363395
 21
149.451756612937
 31
0.0
  0
LINE
  5
2268
330
2B26
100
AcDbEntity
  8
0
100
AcDbLine
 10
390.2229682363393
 20
159.9517486129369
 30
0.0
 11
390.2229682363393
 21
154.951756612937
 31
0.0
  0
LINE
  5
2269
330
2B26
100
AcDbEntity
  8
0
100
AcDbLine
 10
390.2229682363393
 20
180.0521976129348
 30
0.0
 11
390.2229682363393
 21
166.930233612937
 31
0.0
  0
LINE
  5
226A
330
2B26
100
AcDbEntity
  8
0
100
AcDbLine
 10
371.0497336363393
 20
159.9517486129369
 30
0.0
 11
390.2229672363395
 21
166.9302356129371
 31
0.0
  0
LINE
  5
226B
330
2B26
100
AcDbEntity
  8
0
100
AcDbLine
 10
397.7229942363393
 20
193.0425836129369
 30
0.0
 11
432.6152472363394
 21
213.187635612937
 31
0.0
  0
LINE
  5
226C
330
2B26
100
AcDbEntity
  8
0
100
AcDbLine
 10
429.9652452363393
 20
217.7775726129369
 30
0.0
 11
432.6152472363394
 21
213.187635612937
 31
0.0
  0
ARC
  5
226D
330
2B26
100
AcDbEntity
  8
0
100
AcDbCircle
 10
530.5987491891346
 20
127.9517566129369
 30
0.0
 40
32.0
100
AcDbArc
 50
122.4617399999994
 51
57.53826099999896
  0
CIRCLE
  5
226E
330
2B26
100
AcDbEntity
  8
0
100
AcDbCircle
 10
530.5987491891346
 20
127.9517566129369
 30
0.0
 40
17.0
  0
LINE
  5
2270
330
2B26
100
AcDbEntity
  8
0
100
AcDbLine
 10
542.2482851891345
 20
149.451756612937
 30
0.0
 11
518.9492131891346
 21
149.451756612937
 31
0.0
  0
LINE
  5
2271
330
2B26
100
AcDbEntity
  8
0
100
AcDbLine
 10
547.8487491891346
 20
154.951756612937
 30
0.0
 11
513.3487491891346
 21
154.951756612937
 31
0.0
  0
LINE
  5
2272
330
2B26
100
AcDbEntity
  8
0
100
AcDbLine
 10
547.8487491891346
 20
159.951756612937
 30
0.0
 11
513.3487491891346
 21
159.951756612937
 31
0.0
  0
ARC
  5
2273
330
2B26
100
AcDbEntity
  8
0
100
AcDbCircle
 10
530.5987491891346
 20
112.7909596129369
 30
0.0
 40
60.0
100
AcDbArc
 50
75.52248800000223
 51
104.4775100000028
  0
POLYLINE
  5
2274
330
2B26
100
AcDbEntity
  8
0
100
AcDb3dPolyline
 66
     1
 10
0.0
 20
0.0
 30
0.0
 70
     8
  0
VERTEX
  5
2275
330
2274
100
AcDbEntity
  8
0
100
AcDbVertex
100
AcDb3dPolylineVertex
 10
540.5984375860424
 20
210.7517566129369
 30
0.0
 70
    32
  0
VERTEX
  5
2276
330
2274
100
AcDbEntity
  8
0
100
AcDbVertex
100
AcDb3dPolylineVertex
 10
540.5954375860424
 20
210.9217566129371
 30
0.0
 70
    32
  0
VERTEX
  5
2277
330
2274
100
AcDbEntity
  8
0
100
AcDbVertex
100
AcDb3dPolylineVertex
 10
540.5864375860423
 20
211.101756612937
 30
0.0
 70
    32
  0
VERTEX
  5
2278
330
2274
100
AcDbEntity
  8
0
100
AcDbVertex
100
AcDb3dPolylineVertex
 10
540.5714375860424
 20
211.2717566129361
 30
0.0
 70
    32
  0
VERTEX
  5
2279
330
2274
100
AcDbEntity
  8
0
100
AcDbVertex
100
AcDb3dPolylineVertex
 10
540.5504375860424
 20
211.441756612937
 30
0.0
 70
    32
  0
VERTEX
  5
227A
330
2274
100
AcDbEntity
  8
0
100
AcDbVertex
100
AcDb3dPolylineVertex
 10
540.5234375860425
 20
211.611756612937
 30
0.0
 70
    32
  0
VERTEX
  5
227B
330
2274
100
AcDbEntity
  8
0
100
AcDbVertex
100
AcDb3dPolylineVertex
 10
540.4904375860423
 20
211.7817566129369
 30
0.0
 70
    32
  0
VERTEX
  5
227C
330
2274
100
AcDbEntity
  8
0
100
AcDbVertex
100
AcDb3dPolylineVertex
 10
540.4514375860424
 20
211.951756612937
 30
0.0
 70
    32
  0
VERTEX
  5
227D
330
2274
100
AcDbEntity
  8
0
100
AcDbVertex
100
AcDb3dPolylineVertex
 10
540.4064375860423
 20
212.1217566129356
 30
0.0
 70
    32
  0
VERTEX
  5
227E
330
2274
100
AcDbEntity
  8
0
100
AcDbVertex
100
AcDb3dPolylineVertex
 10
540.3554375860424
 20
212.291756612936
 30
0.0
 70
    32
  0
VERTEX
  5
227F
330
2274
100
AcDbEntity
  8
0
100
AcDbVertex
100
AcDb3dPolylineVertex
 10
540.2994375860423
 20
212.4617566129363
 30
0.0
 70
    32
  0
VERTEX
  5
2280
330
2274
100
AcDbEntity
  8
0
100
AcDbVertex
100
AcDb3dPolylineVertex
 10
540.2364375860421
 20
212.6317566129371
 30
0.0
 70
    32
  0
VERTEX
  5
2281
330
2274
100
AcDbEntity
  8
0
100
AcDbVertex
100
AcDb3dPolylineVertex
 10
540.1684375860424
 20
212.7917566129359
 30
0.0
 70
    32
  0
VERTEX
  5
2282
330
2274
100
AcDbEntity
  8
0
100
AcDbVertex
100
AcDb3dPolylineVertex
 10
540.0944375860424
 20
212.9517566129369
 30
0.0
 70
    32
  0
VERTEX
  5
2283
330
2274
100
AcDbEntity
  8
0
100
AcDbVertex
100
AcDb3dPolylineVertex
 10
540.0144375860422
 20
213.1217566129371
 30
0.0
 70
    32
  0
VERTEX
  5
2284
330
2274
100
AcDbEntity
  8
0
100
AcDbVertex
100
AcDb3dPolylineVertex
 10
539.9284375860421
 20
213.2817566129368
 30
0.0
 70
    32
  0
VERTEX
  5
2285
330
2274
100
AcDbEntity
  8
0
100
AcDbVertex
100
AcDb3dPolylineVertex
 10
539.8374375860425
 20
213.441756612937
 30
0.0
 70
    32
  0
VERTEX
  5
2286
330
2274
100
AcDbEntity
  8
0
100
AcDbVertex
100
AcDb3dPolylineVertex
 10
539.7404375860421
 20
213.6017566129371
 30
0.0
 70
    32
  0
VERTEX
  5
2287
330
2274
100
AcDbEntity
  8
0
100
AcDbVertex
100
AcDb3dPolylineVertex
 10
539.6384375860425
 20
213.7517566129369
 30
0.0
 70
    32
  0
VERTEX
  5
2288
330
2274
100
AcDbEntity
  8
0
100
AcDbVertex
100
AcDb3dPolylineVertex
 10
539.5314375860423
 20
213.9117566129371
 30
0.0
 70
    32
  0
VERTEX
  5
2289
330
2274
100
AcDbEntity
  8
0
100
AcDbVertex
100
AcDb3dPolylineVertex
 10
539.4184375860425
 20
214.0617566129368
 30
0.0
 70
    32
  0
VERTEX
  5
228A
330
2274
100
AcDbEntity
  8
0
100
AcDbVertex
100
AcDb3dPolylineVertex
 10
539.2994375860423
 20
214.2117566129369
 30
0.0
 70
    32
  0
VERTEX
  5
228B
330
2274
100
AcDbEntity
  8
0
100
AcDbVertex
100
AcDb3dPolylineVertex
 10
539.1764375860425
 20
214.3617566129371
 30
0.0
 70
    32
  0
VERTEX
  5
228C
330
2274
100
AcDbEntity
  8
0
100
AcDbVertex
100
AcDb3dPolylineVertex
 10
539.0474375860422
 20
214.5117566129368
 30
0.0
 70
    32
  0
VERTEX
  5
228D
330
2274
100
AcDbEntity
  8
0
100
AcDbVertex
100
AcDb3dPolylineVertex
 10
538.9134375860423
 20
214.6517566129371
 30
0.0
 70
    32
  0
VERTEX
  5
228E
330
2274
100
AcDbEntity
  8
0
100
AcDbVertex
100
AcDb3dPolylineVertex
 10
538.7744375860421
 20
214.8017566129368
 30
0.0
 70
    32
  0
VERTEX
  5
228F
330
2274
100
AcDbEntity
  8
0
100
AcDbVertex
100
AcDb3dPolylineVertex
 10
538.6304375860421
 20
214.941756612937
 30
0.0
 70
    32
  0
VERTEX
  5
2290
330
2274
100
AcDbEntity
  8
0
100
AcDbVertex
100
AcDb3dPolylineVertex
 10
538.4824375860423
 20
215.071756612936
 30
0.0
 70
    32
  0
VERTEX
  5
2291
330
2274
100
AcDbEntity
  8
0
100
AcDbVertex
100
AcDb3dPolylineVertex
 10
538.3284375860423
 20
215.2117566129369
 30
0.0
 70
    32
  0
VERTEX
  5
2292
330
2274
100
AcDbEntity
  8
0
100
AcDbVertex
100
AcDb3dPolylineVertex
 10
538.1704375860424
 20
215.341756612937
 30
0.0
 70
    32
  0
VERTEX
  5
2293
330
2274
100
AcDbEntity
  8
0
100
AcDbVertex
100
AcDb3dPolylineVertex
 10
538.0084375860424
 20
215.471756612937
 30
0.0
 70
    32
  0
VERTEX
  5
2294
330
2274
100
AcDbEntity
  8
0
100
AcDbVertex
100
AcDb3dPolylineVertex
 10
537.8414375860423
 20
215.601756612937
 30
0.0
 70
    32
  0
VERTEX
  5
2295
330
2274
100
AcDbEntity
  8
0
100
AcDbVertex
100
AcDb3dPolylineVertex
 10
537.6694375860423
 20
215.721756612937
 30
0.0
 70
    32
  0
VERTEX
  5
2296
330
2274
100
AcDbEntity
  8
0
100
AcDbVertex
100
AcDb3dPolylineVertex
 10
537.4944375860425
 20
215.841756612937
 30
0.0
 70
    32
  0
VERTEX
  5
2297
330
2274
100
AcDbEntity
  8
0
100
AcDbVertex
100
AcDb3dPolylineVertex
 10
537.3144375860426
 20
215.9617566129369
 30
0.0
 70
    32
  0
VERTEX
  5
2298
330
2274
100
AcDbEntity
  8
0
100
AcDbVertex
100
AcDb3dPolylineVertex
 10
537.1304375860423
 20
216.0717566129368
 30
0.0
 70
    32
  0
VERTEX
  5
2299
330
2274
100
AcDbEntity
  8
0
100
AcDbVertex
100
AcDb3dPolylineVertex
 10
536.9424375860424
 20
216.1817566129371
 30
0.0
 70
    32
  0
VERTEX
  5
229A
330
2274
100
AcDbEntity
  8
0
100
AcDbVertex
100
AcDb3dPolylineVertex
 10
536.7514375860422
 20
216.291756612936
 30
0.0
 70
    32
  0
VERTEX
  5
229B
330
2274
100
AcDbEntity
  8
0
100
AcDbVertex
100
AcDb3dPolylineVertex
 10
536.5554375860424
 20
216.3917566129356
 30
0.0
 70
    32
  0
VERTEX
  5
229C
330
2274
100
AcDbEntity
  8
0
100
AcDbVertex
100
AcDb3dPolylineVertex
 10
536.3564375860423
 20
216.491756612937
 30
0.0
 70
    32
  0
VERTEX
  5
229D
330
2274
100
AcDbEntity
  8
0
100
AcDbVertex
100
AcDb3dPolylineVertex
 10
536.1544375860423
 20
216.591756612937
 30
0.0
 70
    32
  0
VERTEX
  5
229E
330
2274
100
AcDbEntity
  8
0
100
AcDbVertex
100
AcDb3dPolylineVertex
 10
535.9484375860423
 20
216.691756612937
 30
0.0
 70
    32
  0
VERTEX
  5
229F
330
2274
100
AcDbEntity
  8
0
100
AcDbVertex
100
AcDb3dPolylineVertex
 10
535.7394375860422
 20
216.7817566129369
 30
0.0
 70
    32
  0
VERTEX
  5
22A0
330
2274
100
AcDbEntity
  8
0
100
AcDbVertex
100
AcDb3dPolylineVertex
 10
535.5274375860424
 20
216.8617566129371
 30
0.0
 70
    32
  0
VERTEX
  5
22A1
330
2274
100
AcDbEntity
  8
0
100
AcDbVertex
100
AcDb3dPolylineVertex
 10
535.3124375860423
 20
216.9517566129369
 30
0.0
 70
    32
  0
VERTEX
  5
22A2
330
2274
100
AcDbEntity
  8
0
100
AcDbVertex
100
AcDb3dPolylineVertex
 10
535.0944375860424
 20
217.031756612936
 30
0.0
 70
    32
  0
VERTEX
  5
22A3
330
2274
100
AcDbEntity
  8
0
100
AcDbVertex
100
AcDb3dPolylineVertex
 10
534.8744375860424
 20
217.101756612937
 30
0.0
 70
    32
  0
VERTEX
  5
22A4
330
2274
100
AcDbEntity
  8
0
100
AcDbVertex
100
AcDb3dPolylineVertex
 10
534.6514375860423
 20
217.1717566129347
 30
0.0
 70
    32
  0
VERTEX
  5
22A5
330
2274
100
AcDbEntity
  8
0
100
AcDbVertex
100
AcDb3dPolylineVertex
 10
534.4254375860424
 20
217.241756612937
 30
0.0
 70
    32
  0
VERTEX
  5
22A6
330
2274
100
AcDbEntity
  8
0
100
AcDbVertex
100
AcDb3dPolylineVertex
 10
534.1974375860425
 20
217.3117566129348
 30
0.0
 70
    32
  0
VERTEX
  5
22A7
330
2274
100
AcDbEntity
  8
0
100
AcDbVertex
100
AcDb3dPolylineVertex
 10
533.9674375860425
 20
217.3717566129371
 30
0.0
 70
    32
  0
VERTEX
  5
22A8
330
2274
100
AcDbEntity
  8
0
100
AcDbVertex
100
AcDb3dPolylineVertex
 10
533.7354375860424
 20
217.4217566129371
 30
0.0
 70
    32
  0
VERTEX
  5
22A9
330
2274
100
AcDbEntity
  8
0
100
AcDbVertex
100
AcDb3dPolylineVertex
 10
533.5014375860422
 20
217.4717566129363
 30
0.0
 70
    32
  0
VERTEX
  5
22AA
330
2274
100
AcDbEntity
  8
0
100
AcDbVertex
100
AcDb3dPolylineVertex
 10
533.2654375860423
 20
217.5217566129361
 30
0.0
 70
    32
  0
VERTEX
  5
22AB
330
2274
100
AcDbEntity
  8
0
100
AcDbVertex
100
AcDb3dPolylineVertex
 10
533.0284375860424
 20
217.5717566129368
 30
0.0
 70
    32
  0
VERTEX
  5
22AC
330
2274
100
AcDbEntity
  8
0
100
AcDbVertex
100
AcDb3dPolylineVertex
 10
532.7894375860423
 20
217.6117566129356
 30
0.0
 70
    32
  0
VERTEX
  5
22AD
330
2274
100
AcDbEntity
  8
0
100
AcDbVertex
100
AcDb3dPolylineVertex
 10
532.5494375860423
 20
217.641756612937
 30
0.0
 70
    32
  0
VERTEX
  5
22AE
330
2274
100
AcDbEntity
  8
0
100
AcDbVertex
100
AcDb3dPolylineVertex
 10
532.3084375860424
 20
217.671756612937
 30
0.0
 70
    32
  0
VERTEX
  5
22AF
330
2274
100
AcDbEntity
  8
0
100
AcDbVertex
100
AcDb3dPolylineVertex
 10
532.0664375860424
 20
217.701756612937
 30
0.0
 70
    32
  0
VERTEX
  5
22B0
330
2274
100
AcDbEntity
  8
0
100
AcDbVertex
100
AcDb3dPolylineVertex
 10
531.8224375860425
 20
217.721756612937
 30
0.0
 70
    32
  0
VERTEX
  5
22B1
330
2274
100
AcDbEntity
  8
0
100
AcDbVertex
100
AcDb3dPolylineVertex
 10
531.5784375860423
 20
217.741756612937
 30
0.0
 70
    32
  0
VERTEX
  5
22B2
330
2274
100
AcDbEntity
  8
0
100
AcDbVertex
100
AcDb3dPolylineVertex
 10
531.3344375860424
 20
217.761756612937
 30
0.0
 70
    32
  0
VERTEX
  5
22B3
330
2274
100
AcDbEntity
  8
0
100
AcDbVertex
100
AcDb3dPolylineVertex
 10
531.0894375860424
 20
217.7717566129368
 30
0.0
 70
    32
  0
VERTEX
  5
22B4
330
2274
100
AcDbEntity
  8
0
100
AcDbVertex
100
AcDb3dPolylineVertex
 10
530.8444375860424
 20
217.7717566129368
 30
0.0
 70
    32
  0
VERTEX
  5
22B5
330
2274
100
AcDbEntity
  8
0
100
AcDbVertex
100
AcDb3dPolylineVertex
 10
530.5984375860425
 20
217.7817566129359
 30
0.0
 70
    32
  0
VERTEX
  5
22B6
330
2274
100
AcDbEntity
  8
0
100
AcDbVertex
100
AcDb3dPolylineVertex
 10
530.3534375860424
 20
217.7717566129368
 30
0.0
 70
    32
  0
VERTEX
  5
22B7
330
2274
100
AcDbEntity
  8
0
100
AcDbVertex
100
AcDb3dPolylineVertex
 10
530.1084375860424
 20
217.7717566129368
 30
0.0
 70
    32
  0
VERTEX
  5
22B8
330
2274
100
AcDbEntity
  8
0
100
AcDbVertex
100
AcDb3dPolylineVertex
 10
529.8634375860424
 20
217.761756612937
 30
0.0
 70
    32
  0
VERTEX
  5
22B9
330
2274
100
AcDbEntity
  8
0
100
AcDbVertex
100
AcDb3dPolylineVertex
 10
529.6184375860424
 20
217.741756612937
 30
0.0
 70
    32
  0
VERTEX
  5
22BA
330
2274
100
AcDbEntity
  8
0
100
AcDbVertex
100
AcDb3dPolylineVertex
 10
529.3744375860423
 20
217.721756612937
 30
0.0
 70
    32
  0
VERTEX
  5
22BB
330
2274
100
AcDbEntity
  8
0
100
AcDbVertex
100
AcDb3dPolylineVertex
 10
529.1314375860423
 20
217.701756612937
 30
0.0
 70
    32
  0
VERTEX
  5
22BC
330
2274
100
AcDbEntity
  8
0
100
AcDbVertex
100
AcDb3dPolylineVertex
 10
528.8894375860422
 20
217.671756612937
 30
0.0
 70
    32
  0
VERTEX
  5
22BD
330
2274
100
AcDbEntity
  8
0
100
AcDbVertex
100
AcDb3dPolylineVertex
 10
528.6474375860424
 20
217.641756612937
 30
0.0
 70
    32
  0
VERTEX
  5
22BE
330
2274
100
AcDbEntity
  8
0
100
AcDbVertex
100
AcDb3dPolylineVertex
 10
528.4074375860425
 20
217.6117566129356
 30
0.0
 70
    32
  0
VERTEX
  5
22BF
330
2274
100
AcDbEntity
  8
0
100
AcDbVertex
100
AcDb3dPolylineVertex
 10
528.1694375860423
 20
217.5717566129368
 30
0.0
 70
    32
  0
VERTEX
  5
22C0
330
2274
100
AcDbEntity
  8
0
100
AcDbVertex
100
AcDb3dPolylineVertex
 10
527.9314375860423
 20
217.5217566129361
 30
0.0
 70
    32
  0
VERTEX
  5
22C1
330
2274
100
AcDbEntity
  8
0
100
AcDbVertex
100
AcDb3dPolylineVertex
 10
527.6954375860424
 20
217.4717566129363
 30
0.0
 70
    32
  0
VERTEX
  5
22C2
330
2274
100
AcDbEntity
  8
0
100
AcDbVertex
100
AcDb3dPolylineVertex
 10
527.4614375860424
 20
217.4217566129371
 30
0.0
 70
    32
  0
VERTEX
  5
22C3
330
2274
100
AcDbEntity
  8
0
100
AcDbVertex
100
AcDb3dPolylineVertex
 10
527.2294375860424
 20
217.3717566129371
 30
0.0
 70
    32
  0
VERTEX
  5
22C4
330
2274
100
AcDbEntity
  8
0
100
AcDbVertex
100
AcDb3dPolylineVertex
 10
526.9994375860424
 20
217.3117566129348
 30
0.0
 70
    32
  0
VERTEX
  5
22C5
330
2274
100
AcDbEntity
  8
0
100
AcDbVertex
100
AcDb3dPolylineVertex
 10
526.7714375860424
 20
217.241756612937
 30
0.0
 70
    32
  0
VERTEX
  5
22C6
330
2274
100
AcDbEntity
  8
0
100
AcDbVertex
100
AcDb3dPolylineVertex
 10
526.5464375860424
 20
217.1717566129347
 30
0.0
 70
    32
  0
VERTEX
  5
22C7
330
2274
100
AcDbEntity
  8
0
100
AcDbVertex
100
AcDb3dPolylineVertex
 10
526.3234375860423
 20
217.101756612937
 30
0.0
 70
    32
  0
VERTEX
  5
22C8
330
2274
100
AcDbEntity
  8
0
100
AcDbVertex
100
AcDb3dPolylineVertex
 10
526.1024375860423
 20
217.031756612936
 30
0.0
 70
    32
  0
VERTEX
  5
22C9
330
2274
100
AcDbEntity
  8
0
100
AcDbVertex
100
AcDb3dPolylineVertex
 10
525.8844375860424
 20
216.9517566129369
 30
0.0
 70
    32
  0
VERTEX
  5
22CA
330
2274
100
AcDbEntity
  8
0
100
AcDbVertex
100
AcDb3dPolylineVertex
 10
525.6694375860424
 20
216.8617566129371
 30
0.0
 70
    32
  0
VERTEX
  5
22CB
330
2274
100
AcDbEntity
  8
0
100
AcDbVertex
100
AcDb3dPolylineVertex
 10
525.4574375860425
 20
216.7817566129369
 30
0.0
 70
    32
  0
VERTEX
  5
22CC
330
2274
100
AcDbEntity
  8
0
100
AcDbVertex
100
AcDb3dPolylineVertex
 10
525.2484375860424
 20
216.691756612937
 30
0.0
 70
    32
  0
VERTEX
  5
22CD
330
2274
100
AcDbEntity
  8
0
100
AcDbVertex
100
AcDb3dPolylineVertex
 10
525.0434375860423
 20
216.591756612937
 30
0.0
 70
    32
  0
VERTEX
  5
22CE
330
2274
100
AcDbEntity
  8
0
100
AcDbVertex
100
AcDb3dPolylineVertex
 10
524.8404375860424
 20
216.491756612937
 30
0.0
 70
    32
  0
VERTEX
  5
22CF
330
2274
100
AcDbEntity
  8
0
100
AcDbVertex
100
AcDb3dPolylineVertex
 10
524.6414375860424
 20
216.3917566129356
 30
0.0
 70
    32
  0
VERTEX
  5
22D0
330
2274
100
AcDbEntity
  8
0
100
AcDbVertex
100
AcDb3dPolylineVertex
 10
524.4464375860424
 20
216.291756612936
 30
0.0
 70
    32
  0
VERTEX
  5
22D1
330
2274
100
AcDbEntity
  8
0
100
AcDbVertex
100
AcDb3dPolylineVertex
 10
524.2544375860425
 20
216.1817566129371
 30
0.0
 70
    32
  0
VERTEX
  5
22D2
330
2274
100
AcDbEntity
  8
0
100
AcDbVertex
100
AcDb3dPolylineVertex
 10
524.0674375860423
 20
216.0717566129368
 30
0.0
 70
    32
  0
VERTEX
  5
22D3
330
2274
100
AcDbEntity
  8
0
100
AcDbVertex
100
AcDb3dPolylineVertex
 10
523.8834375860424
 20
215.9617566129369
 30
0.0
 70
    32
  0
VERTEX
  5
22D4
330
2274
100
AcDbEntity
  8
0
100
AcDbVertex
100
AcDb3dPolylineVertex
 10
523.7034375860424
 20
215.841756612937
 30
0.0
 70
    32
  0
VERTEX
  5
22D5
330
2274
100
AcDbEntity
  8
0
100
AcDbVertex
100
AcDb3dPolylineVertex
 10
523.5274375860424
 20
215.721756612937
 30
0.0
 70
    32
  0
VERTEX
  5
22D6
330
2274
100
AcDbEntity
  8
0
100
AcDbVertex
100
AcDb3dPolylineVertex
 10
523.3564375860424
 20
215.601756612937
 30
0.0
 70
    32
  0
VERTEX
  5
22D7
330
2274
100
AcDbEntity
  8
0
100
AcDbVertex
100
AcDb3dPolylineVertex
 10
523.1894375860425
 20
215.471756612937
 30
0.0
 70
    32
  0
VERTEX
  5
22D8
330
2274
100
AcDbEntity
  8
0
100
AcDbVertex
100
AcDb3dPolylineVertex
 10
523.0264375860423
 20
215.341756612937
 30
0.0
 70
    32
  0
VERTEX
  5
22D9
330
2274
100
AcDbEntity
  8
0
100
AcDbVertex
100
AcDb3dPolylineVertex
 10
522.8684375860424
 20
215.2117566129369
 30
0.0
 70
    32
  0
VERTEX
  5
22DA
330
2274
100
AcDbEntity
  8
0
100
AcDbVertex
100
AcDb3dPolylineVertex
 10
522.7154375860425
 20
215.071756612936
 30
0.0
 70
    32
  0
VERTEX
  5
22DB
330
2274
100
AcDbEntity
  8
0
100
AcDbVertex
100
AcDb3dPolylineVertex
 10
522.5664375860424
 20
214.941756612937
 30
0.0
 70
    32
  0
VERTEX
  5
22DC
330
2274
100
AcDbEntity
  8
0
100
AcDbVertex
100
AcDb3dPolylineVertex
 10
522.4224375860424
 20
214.8017566129368
 30
0.0
 70
    32
  0
VERTEX
  5
22DD
330
2274
100
AcDbEntity
  8
0
100
AcDbVertex
100
AcDb3dPolylineVertex
 10
522.2844375860423
 20
214.6517566129371
 30
0.0
 70
    32
  0
VERTEX
  5
22DE
330
2274
100
AcDbEntity
  8
0
100
AcDbVertex
100
AcDb3dPolylineVertex
 10
522.1504375860424
 20
214.5117566129368
 30
0.0
 70
    32
  0
VERTEX
  5
22DF
330
2274
100
AcDbEntity
  8
0
100
AcDbVertex
100
AcDb3dPolylineVertex
 10
522.0214375860424
 20
214.3617566129371
 30
0.0
 70
    32
  0
VERTEX
  5
22E0
330
2274
100
AcDbEntity
  8
0
100
AcDbVertex
100
AcDb3dPolylineVertex
 10
521.8974375860424
 20
214.2117566129369
 30
0.0
 70
    32
  0
VERTEX
  5
22E1
330
2274
100
AcDbEntity
  8
0
100
AcDbVertex
100
AcDb3dPolylineVertex
 10
521.7794375860425
 20
214.0617566129368
 30
0.0
 70
    32
  0
VERTEX
  5
22E2
330
2274
100
AcDbEntity
  8
0
100
AcDbVertex
100
AcDb3dPolylineVertex
 10
521.6664375860423
 20
213.9117566129371
 30
0.0
 70
    32
  0
VERTEX
  5
22E3
330
2274
100
AcDbEntity
  8
0
100
AcDbVertex
100
AcDb3dPolylineVertex
 10
521.5584375860423
 20
213.7517566129369
 30
0.0
 70
    32
  0
VERTEX
  5
22E4
330
2274
100
AcDbEntity
  8
0
100
AcDbVertex
100
AcDb3dPolylineVertex
 10
521.4564375860425
 20
213.6017566129371
 30
0.0
 70
    32
  0
VERTEX
  5
22E5
330
2274
100
AcDbEntity
  8
0
100
AcDbVertex
100
AcDb3dPolylineVertex
 10
521.3604375860425
 20
213.441756612937
 30
0.0
 70
    32
  0
VERTEX
  5
22E6
330
2274
100
AcDbEntity
  8
0
100
AcDbVertex
100
AcDb3dPolylineVertex
 10
521.2684375860423
 20
213.2817566129368
 30
0.0
 70
    32
  0
VERTEX
  5
22E7
330
2274
100
AcDbEntity
  8
0
100
AcDbVertex
100
AcDb3dPolylineVertex
 10
521.1834375860425
 20
213.1217566129371
 30
0.0
 70
    32
  0
VERTEX
  5
22E8
330
2274
100
AcDbEntity
  8
0
100
AcDbVertex
100
AcDb3dPolylineVertex
 10
521.1034375860424
 20
212.9517566129369
 30
0.0
 70
    32
  0
VERTEX
  5
22E9
330
2274
100
AcDbEntity
  8
0
100
AcDbVertex
100
AcDb3dPolylineVertex
 10
521.0294375860423
 20
212.7917566129359
 30
0.0
 70
    32
  0
VERTEX
  5
22EA
330
2274
100
AcDbEntity
  8
0
100
AcDbVertex
100
AcDb3dPolylineVertex
 10
520.9614375860423
 20
212.6317566129371
 30
0.0
 70
    32
  0
VERTEX
  5
22EB
330
2274
100
AcDbEntity
  8
0
100
AcDbVertex
100
AcDb3dPolylineVertex
 10
520.8984375860422
 20
212.4617566129363
 30
0.0
 70
    32
  0
VERTEX
  5
22EC
330
2274
100
AcDbEntity
  8
0
100
AcDbVertex
100
AcDb3dPolylineVertex
 10
520.8414375860423
 20
212.291756612936
 30
0.0
 70
    32
  0
VERTEX
  5
22ED
330
2274
100
AcDbEntity
  8
0
100
AcDbVertex
100
AcDb3dPolylineVertex
 10
520.7904375860424
 20
212.1217566129356
 30
0.0
 70
    32
  0
VERTEX
  5
22EE
330
2274
100
AcDbEntity
  8
0
100
AcDbVertex
100
AcDb3dPolylineVertex
 10
520.7464375860423
 20
211.951756612937
 30
0.0
 70
    32
  0
VERTEX
  5
22EF
330
2274
100
AcDbEntity
  8
0
100
AcDbVertex
100
AcDb3dPolylineVertex
 10
520.7074375860424
 20
211.7817566129369
 30
0.0
 70
    32
  0
VERTEX
  5
22F0
330
2274
100
AcDbEntity
  8
0
100
AcDbVertex
100
AcDb3dPolylineVertex
 10
520.6744375860423
 20
211.611756612937
 30
0.0
 70
    32
  0
VERTEX
  5
22F1
330
2274
100
AcDbEntity
  8
0
100
AcDbVertex
100
AcDb3dPolylineVertex
 10
520.6464375860424
 20
211.441756612937
 30
0.0
 70
    32
  0
VERTEX
  5
22F2
330
2274
100
AcDbEntity
  8
0
100
AcDbVertex
100
AcDb3dPolylineVertex
 10
520.6254375860424
 20
211.2717566129361
 30
0.0
 70
    32
  0
VERTEX
  5
22F3
330
2274
100
AcDbEntity
  8
0
100
AcDbVertex
100
AcDb3dPolylineVertex
 10
520.6104375860424
 20
211.101756612937
 30
0.0
 70
    32
  0
VERTEX
  5
22F4
330
2274
100
AcDbEntity
  8
0
100
AcDbVertex
100
AcDb3dPolylineVertex
 10
520.6014375860425
 20
210.9217566129371
 30
0.0
 70
    32
  0
VERTEX
  5
22F5
330
2274
100
AcDbEntity
  8
0
100
AcDbVertex
100
AcDb3dPolylineVertex
 10
520.5984375860424
 20
210.7517566129369
 30
0.0
 70
    32
  0
SEQEND
  5
22F6
330
2274
100
AcDbEntity
  8
0
  0
POLYLINE
  5
22F7
330
2B26
100
AcDbEntity
  8
0
100
AcDb3dPolyline
 66
     1
 10
0.0
 20
0.0
 30
0.0
 70
     8
  0
VERTEX
  5
22F8
330
22F7
100
AcDbEntity
  8
0
100
AcDbVertex
100
AcDb3dPolylineVertex
 10
540.5984375860424
 20
206.1617566129347
 30
0.0
 70
    32
  0
VERTEX
  5
22F9
330
22F7
100
AcDbEntity
  8
0
100
AcDbVertex
100
AcDb3dPolylineVertex
 10
540.5954375860424
 20
206.3317566129371
 30
0.0
 70
    32
  0
VERTEX
  5
22FA
330
22F7
100
AcDbEntity
  8
0
100
AcDbVertex
100
AcDb3dPolylineVertex
 10
540.5864375860423
 20
206.5117566129368
 30
0.0
 70
    32
  0
VERTEX
  5
22FB
330
22F7
100
AcDbEntity
  8
0
100
AcDbVertex
100
AcDb3dPolylineVertex
 10
540.5714375860424
 20
206.6817566129369
 30
0.0
 70
    32
  0
VERTEX
  5
22FC
330
22F7
100
AcDbEntity
  8
0
100
AcDbVertex
100
AcDb3dPolylineVertex
 10
540.5504375860424
 20
206.851756612937
 30
0.0
 70
    32
  0
VERTEX
  5
22FD
330
22F7
100
AcDbEntity
  8
0
100
AcDbVertex
100
AcDb3dPolylineVertex
 10
540.5234375860425
 20
207.021756612937
 30
0.0
 70
    32
  0
VERTEX
  5
22FE
330
22F7
100
AcDbEntity
  8
0
100
AcDbVertex
100
AcDb3dPolylineVertex
 10
540.4904375860423
 20
207.191756612937
 30
0.0
 70
    32
  0
VERTEX
  5
22FF
330
22F7
100
AcDbEntity
  8
0
100
AcDbVertex
100
AcDb3dPolylineVertex
 10
540.4514375860424
 20
207.361756612937
 30
0.0
 70
    32
  0
VERTEX
  5
2300
330
22F7
100
AcDbEntity
  8
0
100
AcDbVertex
100
AcDb3dPolylineVertex
 10
540.4064375860423
 20
207.5317566129369
 30
0.0
 70
    32
  0
VERTEX
  5
2301
330
22F7
100
AcDbEntity
  8
0
100
AcDbVertex
100
AcDb3dPolylineVertex
 10
540.3554375860424
 20
207.701756612937
 30
0.0
 70
    32
  0
VERTEX
  5
2302
330
22F7
100
AcDbEntity
  8
0
100
AcDbVertex
100
AcDb3dPolylineVertex
 10
540.2994375860423
 20
207.8717566129371
 30
0.0
 70
    32
  0
VERTEX
  5
2303
330
22F7
100
AcDbEntity
  8
0
100
AcDbVertex
100
AcDb3dPolylineVertex
 10
540.2364375860421
 20
208.041756612936
 30
0.0
 70
    32
  0
VERTEX
  5
2304
330
22F7
100
AcDbEntity
  8
0
100
AcDbVertex
100
AcDb3dPolylineVertex
 10
540.1684375860424
 20
208.201756612937
 30
0.0
 70
    32
  0
VERTEX
  5
2305
330
22F7
100
AcDbEntity
  8
0
100
AcDbVertex
100
AcDb3dPolylineVertex
 10
540.0944375860424
 20
208.3717566129371
 30
0.0
 70
    32
  0
VERTEX
  5
2306
330
22F7
100
AcDbEntity
  8
0
100
AcDbVertex
100
AcDb3dPolylineVertex
 10
540.0144375860422
 20
208.5317566129361
 30
0.0
 70
    32
  0
VERTEX
  5
2307
330
22F7
100
AcDbEntity
  8
0
100
AcDbVertex
100
AcDb3dPolylineVertex
 10
539.9284375860421
 20
208.691756612937
 30
0.0
 70
    32
  0
VERTEX
  5
2308
330
22F7
100
AcDbEntity
  8
0
100
AcDbVertex
100
AcDb3dPolylineVertex
 10
539.8374375860425
 20
208.851756612937
 30
0.0
 70
    32
  0
VERTEX
  5
2309
330
22F7
100
AcDbEntity
  8
0
100
AcDbVertex
100
AcDb3dPolylineVertex
 10
539.7404375860421
 20
209.011756612937
 30
0.0
 70
    32
  0
VERTEX
  5
230A
330
22F7
100
AcDbEntity
  8
0
100
AcDbVertex
100
AcDb3dPolylineVertex
 10
539.6384375860425
 20
209.1617566129371
 30
0.0
 70
    32
  0
VERTEX
  5
230B
330
22F7
100
AcDbEntity
  8
0
100
AcDbVertex
100
AcDb3dPolylineVertex
 10
539.5314375860423
 20
209.3217566129368
 30
0.0
 70
    32
  0
VERTEX
  5
230C
330
22F7
100
AcDbEntity
  8
0
100
AcDbVertex
100
AcDb3dPolylineVertex
 10
539.4184375860425
 20
209.471756612937
 30
0.0
 70
    32
  0
VERTEX
  5
230D
330
22F7
100
AcDbEntity
  8
0
100
AcDbVertex
100
AcDb3dPolylineVertex
 10
539.2994375860423
 20
209.6217566129371
 30
0.0
 70
    32
  0
VERTEX
  5
230E
330
22F7
100
AcDbEntity
  8
0
100
AcDbVertex
100
AcDb3dPolylineVertex
 10
539.1764375860425
 20
209.7717566129368
 30
0.0
 70
    32
  0
VERTEX
  5
230F
330
22F7
100
AcDbEntity
  8
0
100
AcDbVertex
100
AcDb3dPolylineVertex
 10
539.0474375860422
 20
209.9217566129369
 30
0.0
 70
    32
  0
VERTEX
  5
2310
330
22F7
100
AcDbEntity
  8
0
100
AcDbVertex
100
AcDb3dPolylineVertex
 10
538.9134375860423
 20
210.061756612936
 30
0.0
 70
    32
  0
VERTEX
  5
2311
330
22F7
100
AcDbEntity
  8
0
100
AcDbVertex
100
AcDb3dPolylineVertex
 10
538.7744375860421
 20
210.2117566129369
 30
0.0
 70
    32
  0
VERTEX
  5
2312
330
22F7
100
AcDbEntity
  8
0
100
AcDbVertex
100
AcDb3dPolylineVertex
 10
538.6304375860421
 20
210.3517566129371
 30
0.0
 70
    32
  0
VERTEX
  5
2313
330
22F7
100
AcDbEntity
  8
0
100
AcDbVertex
100
AcDb3dPolylineVertex
 10
538.4824375860423
 20
210.4817566129363
 30
0.0
 70
    32
  0
VERTEX
  5
2314
330
22F7
100
AcDbEntity
  8
0
100
AcDbVertex
100
AcDb3dPolylineVertex
 10
538.3284375860423
 20
210.6217566129371
 30
0.0
 70
    32
  0
VERTEX
  5
2315
330
22F7
100
AcDbEntity
  8
0
100
AcDbVertex
100
AcDb3dPolylineVertex
 10
538.1704375860424
 20
210.7517566129369
 30
0.0
 70
    32
  0
VERTEX
  5
2316
330
22F7
100
AcDbEntity
  8
0
100
AcDbVertex
100
AcDb3dPolylineVertex
 10
538.0084375860424
 20
210.8817566129348
 30
0.0
 70
    32
  0
VERTEX
  5
2317
330
22F7
100
AcDbEntity
  8
0
100
AcDbVertex
100
AcDb3dPolylineVertex
 10
537.8414375860423
 20
211.011756612937
 30
0.0
 70
    32
  0
VERTEX
  5
2318
330
22F7
100
AcDbEntity
  8
0
100
AcDbVertex
100
AcDb3dPolylineVertex
 10
537.6694375860423
 20
211.1317566129371
 30
0.0
 70
    32
  0
VERTEX
  5
2319
330
22F7
100
AcDbEntity
  8
0
100
AcDbVertex
100
AcDb3dPolylineVertex
 10
537.4944375860425
 20
211.251756612937
 30
0.0
 70
    32
  0
VERTEX
  5
231A
330
22F7
100
AcDbEntity
  8
0
100
AcDbVertex
100
AcDb3dPolylineVertex
 10
537.3144375860426
 20
211.3717566129371
 30
0.0
 70
    32
  0
VERTEX
  5
231B
330
22F7
100
AcDbEntity
  8
0
100
AcDbVertex
100
AcDb3dPolylineVertex
 10
537.1304375860423
 20
211.4817566129369
 30
0.0
 70
    32
  0
VERTEX
  5
231C
330
22F7
100
AcDbEntity
  8
0
100
AcDbVertex
100
AcDb3dPolylineVertex
 10
536.9424375860424
 20
211.591756612937
 30
0.0
 70
    32
  0
VERTEX
  5
231D
330
22F7
100
AcDbEntity
  8
0
100
AcDbVertex
100
AcDb3dPolylineVertex
 10
536.7514375860422
 20
211.7017566129363
 30
0.0
 70
    32
  0
VERTEX
  5
231E
330
22F7
100
AcDbEntity
  8
0
100
AcDbVertex
100
AcDb3dPolylineVertex
 10
536.5554375860424
 20
211.8017566129368
 30
0.0
 70
    32
  0
VERTEX
  5
231F
330
22F7
100
AcDbEntity
  8
0
100
AcDbVertex
100
AcDb3dPolylineVertex
 10
536.3564375860423
 20
211.9017566129371
 30
0.0
 70
    32
  0
VERTEX
  5
2320
330
22F7
100
AcDbEntity
  8
0
100
AcDbVertex
100
AcDb3dPolylineVertex
 10
536.1544375860423
 20
212.0017566129369
 30
0.0
 70
    32
  0
VERTEX
  5
2321
330
22F7
100
AcDbEntity
  8
0
100
AcDbVertex
100
AcDb3dPolylineVertex
 10
535.9484375860423
 20
212.1017566129361
 30
0.0
 70
    32
  0
VERTEX
  5
2322
330
22F7
100
AcDbEntity
  8
0
100
AcDbVertex
100
AcDb3dPolylineVertex
 10
535.7394375860422
 20
212.191756612937
 30
0.0
 70
    32
  0
VERTEX
  5
2323
330
22F7
100
AcDbEntity
  8
0
100
AcDbVertex
100
AcDb3dPolylineVertex
 10
535.5274375860424
 20
212.2717566129368
 30
0.0
 70
    32
  0
VERTEX
  5
2324
330
22F7
100
AcDbEntity
  8
0
100
AcDbVertex
100
AcDb3dPolylineVertex
 10
535.3124375860423
 20
212.3617566129371
 30
0.0
 70
    32
  0
VERTEX
  5
2325
330
22F7
100
AcDbEntity
  8
0
100
AcDbVertex
100
AcDb3dPolylineVertex
 10
535.0944375860424
 20
212.441756612937
 30
0.0
 70
    32
  0
VERTEX
  5
2326
330
22F7
100
AcDbEntity
  8
0
100
AcDbVertex
100
AcDb3dPolylineVertex
 10
534.8744375860424
 20
212.5117566129368
 30
0.0
 70
    32
  0
VERTEX
  5
2327
330
22F7
100
AcDbEntity
  8
0
100
AcDbVertex
100
AcDb3dPolylineVertex
 10
534.6514375860423
 20
212.5817566129371
 30
0.0
 70
    32
  0
VERTEX
  5
2328
330
22F7
100
AcDbEntity
  8
0
100
AcDbVertex
100
AcDb3dPolylineVertex
 10
534.4254375860424
 20
212.6517566129371
 30
0.0
 70
    32
  0
VERTEX
  5
2329
330
22F7
100
AcDbEntity
  8
0
100
AcDbVertex
100
AcDb3dPolylineVertex
 10
534.1974375860425
 20
212.7217566129369
 30
0.0
 70
    32
  0
VERTEX
  5
232A
330
22F7
100
AcDbEntity
  8
0
100
AcDbVertex
100
AcDb3dPolylineVertex
 10
533.9674375860425
 20
212.7817566129361
 30
0.0
 70
    32
  0
VERTEX
  5
232B
330
22F7
100
AcDbEntity
  8
0
100
AcDbVertex
100
AcDb3dPolylineVertex
 10
533.7354375860424
 20
212.831756612937
 30
0.0
 70
    32
  0
VERTEX
  5
232C
330
22F7
100
AcDbEntity
  8
0
100
AcDbVertex
100
AcDb3dPolylineVertex
 10
533.5014375860422
 20
212.8817566129371
 30
0.0
 70
    32
  0
VERTEX
  5
232D
330
22F7
100
AcDbEntity
  8
0
100
AcDbVertex
100
AcDb3dPolylineVertex
 10
533.2654375860423
 20
212.9317566129369
 30
0.0
 70
    32
  0
VERTEX
  5
232E
330
22F7
100
AcDbEntity
  8
0
100
AcDbVertex
100
AcDb3dPolylineVertex
 10
533.0284375860424
 20
212.981756612937
 30
0.0
 70
    32
  0
VERTEX
  5
232F
330
22F7
100
AcDbEntity
  8
0
100
AcDbVertex
100
AcDb3dPolylineVertex
 10
532.7894375860423
 20
213.021756612937
 30
0.0
 70
    32
  0
VERTEX
  5
2330
330
22F7
100
AcDbEntity
  8
0
100
AcDbVertex
100
AcDb3dPolylineVertex
 10
532.5494375860423
 20
213.0517566129368
 30
0.0
 70
    32
  0
VERTEX
  5
2331
330
22F7
100
AcDbEntity
  8
0
100
AcDbVertex
100
AcDb3dPolylineVertex
 10
532.3084375860424
 20
213.0817566129371
 30
0.0
 70
    32
  0
VERTEX
  5
2332
330
22F7
100
AcDbEntity
  8
0
100
AcDbVertex
100
AcDb3dPolylineVertex
 10
532.0664375860424
 20
213.1117566129371
 30
0.0
 70
    32
  0
VERTEX
  5
2333
330
22F7
100
AcDbEntity
  8
0
100
AcDbVertex
100
AcDb3dPolylineVertex
 10
531.8224375860425
 20
213.1317566129371
 30
0.0
 70
    32
  0
VERTEX
  5
2334
330
22F7
100
AcDbEntity
  8
0
100
AcDbVertex
100
AcDb3dPolylineVertex
 10
531.5784375860423
 20
213.1517566129371
 30
0.0
 70
    32
  0
VERTEX
  5
2335
330
22F7
100
AcDbEntity
  8
0
100
AcDbVertex
100
AcDb3dPolylineVertex
 10
531.3344375860424
 20
213.1717566129371
 30
0.0
 70
    32
  0
VERTEX
  5
2336
330
22F7
100
AcDbEntity
  8
0
100
AcDbVertex
100
AcDb3dPolylineVertex
 10
531.0894375860424
 20
213.1817566129364
 30
0.0
 70
    32
  0
VERTEX
  5
2337
330
22F7
100
AcDbEntity
  8
0
100
AcDbVertex
100
AcDb3dPolylineVertex
 10
530.8444375860424
 20
213.1817566129364
 30
0.0
 70
    32
  0
VERTEX
  5
2338
330
22F7
100
AcDbEntity
  8
0
100
AcDbVertex
100
AcDb3dPolylineVertex
 10
530.5984375860425
 20
213.191756612937
 30
0.0
 70
    32
  0
VERTEX
  5
2339
330
22F7
100
AcDbEntity
  8
0
100
AcDbVertex
100
AcDb3dPolylineVertex
 10
530.3534375860424
 20
213.1817566129364
 30
0.0
 70
    32
  0
VERTEX
  5
233A
330
22F7
100
AcDbEntity
  8
0
100
AcDbVertex
100
AcDb3dPolylineVertex
 10
530.1084375860424
 20
213.1817566129364
 30
0.0
 70
    32
  0
VERTEX
  5
233B
330
22F7
100
AcDbEntity
  8
0
100
AcDbVertex
100
AcDb3dPolylineVertex
 10
529.8634375860424
 20
213.1717566129371
 30
0.0
 70
    32
  0
VERTEX
  5
233C
330
22F7
100
AcDbEntity
  8
0
100
AcDbVertex
100
AcDb3dPolylineVertex
 10
529.6184375860424
 20
213.1517566129371
 30
0.0
 70
    32
  0
VERTEX
  5
233D
330
22F7
100
AcDbEntity
  8
0
100
AcDbVertex
100
AcDb3dPolylineVertex
 10
529.3744375860423
 20
213.1317566129371
 30
0.0
 70
    32
  0
VERTEX
  5
233E
330
22F7
100
AcDbEntity
  8
0
100
AcDbVertex
100
AcDb3dPolylineVertex
 10
529.1314375860423
 20
213.1117566129371
 30
0.0
 70
    32
  0
VERTEX
  5
233F
330
22F7
100
AcDbEntity
  8
0
100
AcDbVertex
100
AcDb3dPolylineVertex
 10
528.8894375860422
 20
213.0817566129371
 30
0.0
 70
    32
  0
VERTEX
  5
2340
330
22F7
100
AcDbEntity
  8
0
100
AcDbVertex
100
AcDb3dPolylineVertex
 10
528.6474375860424
 20
213.0517566129368
 30
0.0
 70
    32
  0
VERTEX
  5
2341
330
22F7
100
AcDbEntity
  8
0
100
AcDbVertex
100
AcDb3dPolylineVertex
 10
528.4074375860425
 20
213.021756612937
 30
0.0
 70
    32
  0
VERTEX
  5
2342
330
22F7
100
AcDbEntity
  8
0
100
AcDbVertex
100
AcDb3dPolylineVertex
 10
528.1694375860423
 20
212.981756612937
 30
0.0
 70
    32
  0
VERTEX
  5
2343
330
22F7
100
AcDbEntity
  8
0
100
AcDbVertex
100
AcDb3dPolylineVertex
 10
527.9314375860423
 20
212.9317566129369
 30
0.0
 70
    32
  0
VERTEX
  5
2344
330
22F7
100
AcDbEntity
  8
0
100
AcDbVertex
100
AcDb3dPolylineVertex
 10
527.6954375860424
 20
212.8817566129371
 30
0.0
 70
    32
  0
VERTEX
  5
2345
330
22F7
100
AcDbEntity
  8
0
100
AcDbVertex
100
AcDb3dPolylineVertex
 10
527.4614375860424
 20
212.831756612937
 30
0.0
 70
    32
  0
VERTEX
  5
2346
330
22F7
100
AcDbEntity
  8
0
100
AcDbVertex
100
AcDb3dPolylineVertex
 10
527.2294375860424
 20
212.7817566129361
 30
0.0
 70
    32
  0
VERTEX
  5
2347
330
22F7
100
AcDbEntity
  8
0
100
AcDbVertex
100
AcDb3dPolylineVertex
 10
526.9994375860424
 20
212.7217566129369
 30
0.0
 70
    32
  0
VERTEX
  5
2348
330
22F7
100
AcDbEntity
  8
0
100
AcDbVertex
100
AcDb3dPolylineVertex
 10
526.7714375860424
 20
212.6517566129371
 30
0.0
 70
    32
  0
VERTEX
  5
2349
330
22F7
100
AcDbEntity
  8
0
100
AcDbVertex
100
AcDb3dPolylineVertex
 10
526.5464375860424
 20
212.5817566129371
 30
0.0
 70
    32
  0
VERTEX
  5
234A
330
22F7
100
AcDbEntity
  8
0
100
AcDbVertex
100
AcDb3dPolylineVertex
 10
526.3234375860423
 20
212.5117566129368
 30
0.0
 70
    32
  0
VERTEX
  5
234B
330
22F7
100
AcDbEntity
  8
0
100
AcDbVertex
100
AcDb3dPolylineVertex
 10
526.1024375860423
 20
212.441756612937
 30
0.0
 70
    32
  0
VERTEX
  5
234C
330
22F7
100
AcDbEntity
  8
0
100
AcDbVertex
100
AcDb3dPolylineVertex
 10
525.8844375860424
 20
212.3617566129371
 30
0.0
 70
    32
  0
VERTEX
  5
234D
330
22F7
100
AcDbEntity
  8
0
100
AcDbVertex
100
AcDb3dPolylineVertex
 10
525.6694375860424
 20
212.2717566129368
 30
0.0
 70
    32
  0
VERTEX
  5
234E
330
22F7
100
AcDbEntity
  8
0
100
AcDbVertex
100
AcDb3dPolylineVertex
 10
525.4574375860425
 20
212.191756612937
 30
0.0
 70
    32
  0
VERTEX
  5
234F
330
22F7
100
AcDbEntity
  8
0
100
AcDbVertex
100
AcDb3dPolylineVertex
 10
525.2484375860424
 20
212.1017566129361
 30
0.0
 70
    32
  0
VERTEX
  5
2350
330
22F7
100
AcDbEntity
  8
0
100
AcDbVertex
100
AcDb3dPolylineVertex
 10
525.0434375860423
 20
212.0017566129369
 30
0.0
 70
    32
  0
VERTEX
  5
2351
330
22F7
100
AcDbEntity
  8
0
100
AcDbVertex
100
AcDb3dPolylineVertex
 10
524.8404375860424
 20
211.9017566129371
 30
0.0
 70
    32
  0
VERTEX
  5
2352
330
22F7
100
AcDbEntity
  8
0
100
AcDbVertex
100
AcDb3dPolylineVertex
 10
524.6414375860424
 20
211.8017566129368
 30
0.0
 70
    32
  0
VERTEX
  5
2353
330
22F7
100
AcDbEntity
  8
0
100
AcDbVertex
100
AcDb3dPolylineVertex
 10
524.4464375860424
 20
211.7017566129363
 30
0.0
 70
    32
  0
VERTEX
  5
2354
330
22F7
100
AcDbEntity
  8
0
100
AcDbVertex
100
AcDb3dPolylineVertex
 10
524.2544375860425
 20
211.591756612937
 30
0.0
 70
    32
  0
VERTEX
  5
2355
330
22F7
100
AcDbEntity
  8
0
100
AcDbVertex
100
AcDb3dPolylineVertex
 10
524.0674375860423
 20
211.4817566129369
 30
0.0
 70
    32
  0
VERTEX
  5
2356
330
22F7
100
AcDbEntity
  8
0
100
AcDbVertex
100
AcDb3dPolylineVertex
 10
523.8834375860424
 20
211.3717566129371
 30
0.0
 70
    32
  0
VERTEX
  5
2357
330
22F7
100
AcDbEntity
  8
0
100
AcDbVertex
100
AcDb3dPolylineVertex
 10
523.7034375860424
 20
211.251756612937
 30
0.0
 70
    32
  0
VERTEX
  5
2358
330
22F7
100
AcDbEntity
  8
0
100
AcDbVertex
100
AcDb3dPolylineVertex
 10
523.5274375860424
 20
211.1317566129371
 30
0.0
 70
    32
  0
VERTEX
  5
2359
330
22F7
100
AcDbEntity
  8
0
100
AcDbVertex
100
AcDb3dPolylineVertex
 10
523.3564375860424
 20
211.011756612937
 30
0.0
 70
    32
  0
VERTEX
  5
235A
330
22F7
100
AcDbEntity
  8
0
100
AcDbVertex
100
AcDb3dPolylineVertex
 10
523.1894375860425
 20
210.8817566129348
 30
0.0
 70
    32
  0
VERTEX
  5
235B
330
22F7
100
AcDbEntity
  8
0
100
AcDbVertex
100
AcDb3dPolylineVertex
 10
523.0264375860423
 20
210.7517566129369
 30
0.0
 70
    32
  0
VERTEX
  5
235C
330
22F7
100
AcDbEntity
  8
0
100
AcDbVertex
100
AcDb3dPolylineVertex
 10
522.8684375860424
 20
210.6217566129371
 30
0.0
 70
    32
  0
VERTEX
  5
235D
330
22F7
100
AcDbEntity
  8
0
100
AcDbVertex
100
AcDb3dPolylineVertex
 10
522.7154375860425
 20
210.4817566129363
 30
0.0
 70
    32
  0
VERTEX
  5
235E
330
22F7
100
AcDbEntity
  8
0
100
AcDbVertex
100
AcDb3dPolylineVertex
 10
522.5664375860424
 20
210.3517566129371
 30
0.0
 70
    32
  0
VERTEX
  5
235F
330
22F7
100
AcDbEntity
  8
0
100
AcDbVertex
100
AcDb3dPolylineVertex
 10
522.4224375860424
 20
210.2117566129369
 30
0.0
 70
    32
  0
VERTEX
  5
2360
330
22F7
100
AcDbEntity
  8
0
100
AcDbVertex
100
AcDb3dPolylineVertex
 10
522.2844375860423
 20
210.061756612936
 30
0.0
 70
    32
  0
VERTEX
  5
2361
330
22F7
100
AcDbEntity
  8
0
100
AcDbVertex
100
AcDb3dPolylineVertex
 10
522.1504375860424
 20
209.9217566129369
 30
0.0
 70
    32
  0
VERTEX
  5
2362
330
22F7
100
AcDbEntity
  8
0
100
AcDbVertex
100
AcDb3dPolylineVertex
 10
522.0214375860424
 20
209.7717566129368
 30
0.0
 70
    32
  0
VERTEX
  5
2363
330
22F7
100
AcDbEntity
  8
0
100
AcDbVertex
100
AcDb3dPolylineVertex
 10
521.8974375860424
 20
209.6217566129371
 30
0.0
 70
    32
  0
VERTEX
  5
2364
330
22F7
100
AcDbEntity
  8
0
100
AcDbVertex
100
AcDb3dPolylineVertex
 10
521.7794375860425
 20
209.471756612937
 30
0.0
 70
    32
  0
VERTEX
  5
2365
330
22F7
100
AcDbEntity
  8
0
100
AcDbVertex
100
AcDb3dPolylineVertex
 10
521.6664375860423
 20
209.3217566129368
 30
0.0
 70
    32
  0
VERTEX
  5
2366
330
22F7
100
AcDbEntity
  8
0
100
AcDbVertex
100
AcDb3dPolylineVertex
 10
521.5584375860423
 20
209.1617566129371
 30
0.0
 70
    32
  0
VERTEX
  5
2367
330
22F7
100
AcDbEntity
  8
0
100
AcDbVertex
100
AcDb3dPolylineVertex
 10
521.4564375860425
 20
209.011756612937
 30
0.0
 70
    32
  0
VERTEX
  5
2368
330
22F7
100
AcDbEntity
  8
0
100
AcDbVertex
100
AcDb3dPolylineVertex
 10
521.3604375860425
 20
208.851756612937
 30
0.0
 70
    32
  0
VERTEX
  5
2369
330
22F7
100
AcDbEntity
  8
0
100
AcDbVertex
100
AcDb3dPolylineVertex
 10
521.2684375860423
 20
208.691756612937
 30
0.0
 70
    32
  0
VERTEX
  5
236A
330
22F7
100
AcDbEntity
  8
0
100
AcDbVertex
100
AcDb3dPolylineVertex
 10
521.1834375860425
 20
208.5317566129361
 30
0.0
 70
    32
  0
VERTEX
  5
236B
330
22F7
100
AcDbEntity
  8
0
100
AcDbVertex
100
AcDb3dPolylineVertex
 10
521.1034375860424
 20
208.3717566129371
 30
0.0
 70
    32
  0
VERTEX
  5
236C
330
22F7
100
AcDbEntity
  8
0
100
AcDbVertex
100
AcDb3dPolylineVertex
 10
521.0294375860423
 20
208.201756612937
 30
0.0
 70
    32
  0
VERTEX
  5
236D
330
22F7
100
AcDbEntity
  8
0
100
AcDbVertex
100
AcDb3dPolylineVertex
 10
520.9614375860423
 20
208.041756612936
 30
0.0
 70
    32
  0
VERTEX
  5
236E
330
22F7
100
AcDbEntity
  8
0
100
AcDbVertex
100
AcDb3dPolylineVertex
 10
520.8984375860422
 20
207.8717566129371
 30
0.0
 70
    32
  0
VERTEX
  5
236F
330
22F7
100
AcDbEntity
  8
0
100
AcDbVertex
100
AcDb3dPolylineVertex
 10
520.8414375860423
 20
207.701756612937
 30
0.0
 70
    32
  0
VERTEX
  5
2370
330
22F7
100
AcDbEntity
  8
0
100
AcDbVertex
100
AcDb3dPolylineVertex
 10
520.7904375860424
 20
207.5317566129369
 30
0.0
 70
    32
  0
VERTEX
  5
2371
330
22F7
100
AcDbEntity
  8
0
100
AcDbVertex
100
AcDb3dPolylineVertex
 10
520.7464375860423
 20
207.361756612937
 30
0.0
 70
    32
  0
VERTEX
  5
2372
330
22F7
100
AcDbEntity
  8
0
100
AcDbVertex
100
AcDb3dPolylineVertex
 10
520.7074375860424
 20
207.191756612937
 30
0.0
 70
    32
  0
VERTEX
  5
2373
330
22F7
100
AcDbEntity
  8
0
100
AcDbVertex
100
AcDb3dPolylineVertex
 10
520.6744375860423
 20
207.021756612937
 30
0.0
 70
    32
  0
VERTEX
  5
2374
330
22F7
100
AcDbEntity
  8
0
100
AcDbVertex
100
AcDb3dPolylineVertex
 10
520.6464375860424
 20
206.851756612937
 30
0.0
 70
    32
  0
VERTEX
  5
2375
330
22F7
100
AcDbEntity
  8
0
100
AcDbVertex
100
AcDb3dPolylineVertex
 10
520.6254375860424
 20
206.6817566129369
 30
0.0
 70
    32
  0
VERTEX
  5
2376
330
22F7
100
AcDbEntity
  8
0
100
AcDbVertex
100
AcDb3dPolylineVertex
 10
520.6104375860424
 20
206.5117566129368
 30
0.0
 70
    32
  0
VERTEX
  5
2377
330
22F7
100
AcDbEntity
  8
0
100
AcDbVertex
100
AcDb3dPolylineVertex
 10
520.6014375860425
 20
206.3317566129371
 30
0.0
 70
    32
  0
VERTEX
  5
2378
330
22F7
100
AcDbEntity
  8
0
100
AcDbVertex
100
AcDb3dPolylineVertex
 10
520.5984375860424
 20
206.1617566129347
 30
0.0
 70
    32
  0
SEQEND
  5
2379
330
22F7
100
AcDbEntity
  8
0
  0
LINE
  5
237A
330
2B26
100
AcDbEntity
  8
0
100
AcDbLine
 10
520.5987491891346
 20
210.7533110869391
 30
0.0
 11
520.5987491891346
 21
159.951756612937
 31
0.0
  0
LINE
  5
237B
330
2B26
100
AcDbEntity
  8
0
100
AcDbLine
 10
513.3487491891346
 20
159.951756612937
 30
0.0
 11
513.3487491891346
 21
154.951756612937
 31
0.0
  0
LINE
  5
237C
330
2B26
100
AcDbEntity
  8
0
100
AcDbLine
 10
518.9492131891346
 20
154.951756612937
 30
0.0
 11
518.9492131891346
 21
149.451756612937
 31
0.0
  0
LINE
  5
237D
330
2B26
100
AcDbEntity
  8
0
100
AcDbLine
 10
513.3487491891346
 20
167.980973612937
 30
0.0
 11
513.3487491891346
 21
159.951756612937
 31
0.0
  0
ARC
  5
237E
330
2B26
100
AcDbEntity
  8
0
100
AcDbCircle
 10
516.3487491891346
 20
167.980973612937
 30
0.0
 40
3.0
100
AcDbArc
 50
104.4775100000028
 51
180.0000100000009
  0
ARC
  5
237F
330
2B26
100
AcDbEntity
  8
0
100
AcDbCircle
 10
518.5987491891346
 20
173.618584612936
 30
0.0
 40
2.0
100
AcDbArc
 50
281.1599400000003
 51
0.0
  0
LINE
  5
2380
330
2B26
100
AcDbEntity
  8
0
100
AcDbLine
 10
540.5987491891346
 20
210.7533114129371
 30
0.0
 11
540.5987491891346
 21
159.951756612937
 31
0.0
  0
LINE
  5
2381
330
2B26
100
AcDbEntity
  8
0
100
AcDbLine
 10
547.8487491891346
 20
159.951756612937
 30
0.0
 11
547.8487491891346
 21
154.951756612937
 31
0.0
  0
LINE
  5
2382
330
2B26
100
AcDbEntity
  8
0
100
AcDbLine
 10
542.2482851891345
 20
154.951756612937
 30
0.0
 11
542.2482851891345
 21
149.451756612937
 31
0.0
  0
LINE
  5
2383
330
2B26
100
AcDbEntity
  8
0
100
AcDbLine
 10
547.8487491891346
 20
167.980973612937
 30
0.0
 11
547.8487491891346
 21
159.951756612937
 31
0.0
  0
ARC
  5
2384
330
2B26
100
AcDbEntity
  8
0
100
AcDbCircle
 10
544.8487491891346
 20
167.980973612937
 30
0.0
 40
3.0
100
AcDbArc
 50
0.0
 51
75.52248800000223
  0
ARC
  5
2385
330
2B26
100
AcDbEntity
  8
0
100
AcDbCircle
 10
542.5987491891346
 20
173.618584612936
 30
0.0
 40
2.0
100
AcDbArc
 50
179.9999899999988
 51
258.8400699999998
  0
LINE
  5
2386
330
2B26
100
AcDbEntity
  8
0
100
AcDbLine
 10
525.5987494084779
 20
203.6505899629371
 30
0.0
 11
525.5987494084779
 21
199.0140549629363
 31
0.0
  0
LINE
  5
2387
330
2B26
100
AcDbEntity
  8
0
100
AcDbLine
 10
535.5987494084779
 20
203.6505899629371
 30
0.0
 11
535.5987494084779
 21
199.0140549629363
 31
0.0
  0
POLYLINE
  5
2388
330
2B26
100
AcDbEntity
  8
0
100
AcDb3dPolyline
 66
     1
 10
0.0
 20
0.0
 30
0.0
 70
     8
  0
VERTEX
  5
2389
330
2388
100
AcDbEntity
  8
0
100
AcDbVertex
100
AcDb3dPolylineVertex
 10
525.5984375860424
 20
199.0117566129361
 30
0.0
 70
    32
  0
VERTEX
  5
238A
330
2388
100
AcDbEntity
  8
0
100
AcDbVertex
100
AcDb3dPolylineVertex
 10
525.6004375860424
 20
198.941756612937
 30
0.0
 70
    32
  0
VERTEX
  5
238B
330
2388
100
AcDbEntity
  8
0
100
AcDbVertex
100
AcDb3dPolylineVertex
 10
525.6044375860424
 20
198.8717566129371
 30
0.0
 70
    32
  0
VERTEX
  5
238C
330
2388
100
AcDbEntity
  8
0
100
AcDbVertex
100
AcDb3dPolylineVertex
 10
525.6124375860424
 20
198.8017566129368
 30
0.0
 70
    32
  0
VERTEX
  5
238D
330
2388
100
AcDbEntity
  8
0
100
AcDbVertex
100
AcDb3dPolylineVertex
 10
525.6224375860425
 20
198.7317566129362
 30
0.0
 70
    32
  0
VERTEX
  5
238E
330
2388
100
AcDbEntity
  8
0
100
AcDbVertex
100
AcDb3dPolylineVertex
 10
525.6364375860423
 20
198.661756612937
 30
0.0
 70
    32
  0
VERTEX
  5
238F
330
2388
100
AcDbEntity
  8
0
100
AcDbVertex
100
AcDb3dPolylineVertex
 10
525.6524375860424
 20
198.591756612937
 30
0.0
 70
    32
  0
VERTEX
  5
2390
330
2388
100
AcDbEntity
  8
0
100
AcDbVertex
100
AcDb3dPolylineVertex
 10
525.6724375860422
 20
198.5217566129368
 30
0.0
 70
    32
  0
VERTEX
  5
2391
330
2388
100
AcDbEntity
  8
0
100
AcDbVertex
100
AcDb3dPolylineVertex
 10
525.6944375860424
 20
198.451756612937
 30
0.0
 70
    32
  0
VERTEX
  5
2392
330
2388
100
AcDbEntity
  8
0
100
AcDbVertex
100
AcDb3dPolylineVertex
 10
525.7204375860424
 20
198.3817566129371
 30
0.0
 70
    32
  0
VERTEX
  5
2393
330
2388
100
AcDbEntity
  8
0
100
AcDbVertex
100
AcDb3dPolylineVertex
 10
525.7484375860424
 20
198.311756612936
 30
0.0
 70
    32
  0
VERTEX
  5
2394
330
2388
100
AcDbEntity
  8
0
100
AcDbVertex
100
AcDb3dPolylineVertex
 10
525.7794375860425
 20
198.241756612937
 30
0.0
 70
    32
  0
VERTEX
  5
2395
330
2388
100
AcDbEntity
  8
0
100
AcDbVertex
100
AcDb3dPolylineVertex
 10
525.8144375860424
 20
198.1717566129369
 30
0.0
 70
    32
  0
VERTEX
  5
2396
330
2388
100
AcDbEntity
  8
0
100
AcDbVertex
100
AcDb3dPolylineVertex
 10
525.8514375860425
 20
198.1117566129371
 30
0.0
 70
    32
  0
VERTEX
  5
2397
330
2388
100
AcDbEntity
  8
0
100
AcDbVertex
100
AcDb3dPolylineVertex
 10
525.8914375860424
 20
198.0417566129368
 30
0.0
 70
    32
  0
VERTEX
  5
2398
330
2388
100
AcDbEntity
  8
0
100
AcDbVertex
100
AcDb3dPolylineVertex
 10
525.9334375860423
 20
197.971756612937
 30
0.0
 70
    32
  0
VERTEX
  5
2399
330
2388
100
AcDbEntity
  8
0
100
AcDbVertex
100
AcDb3dPolylineVertex
 10
525.9794375860423
 20
197.9117566129371
 30
0.0
 70
    32
  0
VERTEX
  5
239A
330
2388
100
AcDbEntity
  8
0
100
AcDbVertex
100
AcDb3dPolylineVertex
 10
526.0274375860424
 20
197.841756612937
 30
0.0
 70
    32
  0
VERTEX
  5
239B
330
2388
100
AcDbEntity
  8
0
100
AcDbVertex
100
AcDb3dPolylineVertex
 10
526.0784375860423
 20
197.7817566129369
 30
0.0
 70
    32
  0
VERTEX
  5
239C
330
2388
100
AcDbEntity
  8
0
100
AcDbVertex
100
AcDb3dPolylineVertex
 10
526.1324375860424
 20
197.7117566129369
 30
0.0
 70
    32
  0
VERTEX
  5
239D
330
2388
100
AcDbEntity
  8
0
100
AcDbVertex
100
AcDb3dPolylineVertex
 10
526.1894375860424
 20
197.6517566129348
 30
0.0
 70
    32
  0
VERTEX
  5
239E
330
2388
100
AcDbEntity
  8
0
100
AcDbVertex
100
AcDb3dPolylineVertex
 10
526.2484375860424
 20
197.591756612937
 30
0.0
 70
    32
  0
VERTEX
  5
239F
330
2388
100
AcDbEntity
  8
0
100
AcDbVertex
100
AcDb3dPolylineVertex
 10
526.3104375860424
 20
197.531756612936
 30
0.0
 70
    32
  0
VERTEX
  5
23A0
330
2388
100
AcDbEntity
  8
0
100
AcDbVertex
100
AcDb3dPolylineVertex
 10
526.3744375860424
 20
197.471756612937
 30
0.0
 70
    32
  0
VERTEX
  5
23A1
330
2388
100
AcDbEntity
  8
0
100
AcDbVertex
100
AcDb3dPolylineVertex
 10
526.4414375860424
 20
197.411756612937
 30
0.0
 70
    32
  0
VERTEX
  5
23A2
330
2388
100
AcDbEntity
  8
0
100
AcDbVertex
100
AcDb3dPolylineVertex
 10
526.5104375860423
 20
197.351756612937
 30
0.0
 70
    32
  0
VERTEX
  5
23A3
330
2388
100
AcDbEntity
  8
0
100
AcDbVertex
100
AcDb3dPolylineVertex
 10
526.5824375860424
 20
197.2917566129368
 30
0.0
 70
    32
  0
VERTEX
  5
23A4
330
2388
100
AcDbEntity
  8
0
100
AcDbVertex
100
AcDb3dPolylineVertex
 10
526.6574375860425
 20
197.241756612937
 30
0.0
 70
    32
  0
VERTEX
  5
23A5
330
2388
100
AcDbEntity
  8
0
100
AcDbVertex
100
AcDb3dPolylineVertex
 10
526.7334375860424
 20
197.1817566129363
 30
0.0
 70
    32
  0
VERTEX
  5
23A6
330
2388
100
AcDbEntity
  8
0
100
AcDbVertex
100
AcDb3dPolylineVertex
 10
526.8124375860423
 20
197.131756612937
 30
0.0
 70
    32
  0
VERTEX
  5
23A7
330
2388
100
AcDbEntity
  8
0
100
AcDbVertex
100
AcDb3dPolylineVertex
 10
526.8944375860423
 20
197.0717566129359
 30
0.0
 70
    32
  0
VERTEX
  5
23A8
330
2388
100
AcDbEntity
  8
0
100
AcDbVertex
100
AcDb3dPolylineVertex
 10
526.9774375860423
 20
197.0217566129368
 30
0.0
 70
    32
  0
VERTEX
  5
23A9
330
2388
100
AcDbEntity
  8
0
100
AcDbVertex
100
AcDb3dPolylineVertex
 10
527.0634375860423
 20
196.971756612937
 30
0.0
 70
    32
  0
VERTEX
  5
23AA
330
2388
100
AcDbEntity
  8
0
100
AcDbVertex
100
AcDb3dPolylineVertex
 10
527.1514375860423
 20
196.9217566129371
 30
0.0
 70
    32
  0
VERTEX
  5
23AB
330
2388
100
AcDbEntity
  8
0
100
AcDbVertex
100
AcDb3dPolylineVertex
 10
527.2414375860424
 20
196.8717566129356
 30
0.0
 70
    32
  0
VERTEX
  5
23AC
330
2388
100
AcDbEntity
  8
0
100
AcDbVertex
100
AcDb3dPolylineVertex
 10
527.3324375860426
 20
196.8317566129371
 30
0.0
 70
    32
  0
VERTEX
  5
23AD
330
2388
100
AcDbEntity
  8
0
100
AcDbVertex
100
AcDb3dPolylineVertex
 10
527.4264375860425
 20
196.781756612936
 30
0.0
 70
    32
  0
VERTEX
  5
23AE
330
2388
100
AcDbEntity
  8
0
100
AcDbVertex
100
AcDb3dPolylineVertex
 10
527.5224375860424
 20
196.7417566129363
 30
0.0
 70
    32
  0
VERTEX
  5
23AF
330
2388
100
AcDbEntity
  8
0
100
AcDbVertex
100
AcDb3dPolylineVertex
 10
527.6204375860421
 20
196.6917566129369
 30
0.0
 70
    32
  0
VERTEX
  5
23B0
330
2388
100
AcDbEntity
  8
0
100
AcDbVertex
100
AcDb3dPolylineVertex
 10
527.7194375860424
 20
196.6517566129369
 30
0.0
 70
    32
  0
VERTEX
  5
23B1
330
2388
100
AcDbEntity
  8
0
100
AcDbVertex
100
AcDb3dPolylineVertex
 10
527.8204375860424
 20
196.6117566129371
 30
0.0
 70
    32
  0
VERTEX
  5
23B2
330
2388
100
AcDbEntity
  8
0
100
AcDbVertex
100
AcDb3dPolylineVertex
 10
527.9234375860425
 20
196.5717566129348
 30
0.0
 70
    32
  0
VERTEX
  5
23B3
330
2388
100
AcDbEntity
  8
0
100
AcDbVertex
100
AcDb3dPolylineVertex
 10
528.0284375860424
 20
196.5417566129368
 30
0.0
 70
    32
  0
VERTEX
  5
23B4
330
2388
100
AcDbEntity
  8
0
100
AcDbVertex
100
AcDb3dPolylineVertex
 10
528.1344375860424
 20
196.5017566129369
 30
0.0
 70
    32
  0
VERTEX
  5
23B5
330
2388
100
AcDbEntity
  8
0
100
AcDbVertex
100
AcDb3dPolylineVertex
 10
528.2414375860423
 20
196.471756612937
 30
0.0
 70
    32
  0
VERTEX
  5
23B6
330
2388
100
AcDbEntity
  8
0
100
AcDbVertex
100
AcDb3dPolylineVertex
 10
528.3504375860424
 20
196.4317566129363
 30
0.0
 70
    32
  0
VERTEX
  5
23B7
330
2388
100
AcDbEntity
  8
0
100
AcDbVertex
100
AcDb3dPolylineVertex
 10
528.4614375860424
 20
196.4017566129348
 30
0.0
 70
    32
  0
VERTEX
  5
23B8
330
2388
100
AcDbEntity
  8
0
100
AcDbVertex
100
AcDb3dPolylineVertex
 10
528.5724375860423
 20
196.3717566129371
 30
0.0
 70
    32
  0
VERTEX
  5
23B9
330
2388
100
AcDbEntity
  8
0
100
AcDbVertex
100
AcDb3dPolylineVertex
 10
528.6854375860424
 20
196.351756612937
 30
0.0
 70
    32
  0
VERTEX
  5
23BA
330
2388
100
AcDbEntity
  8
0
100
AcDbVertex
100
AcDb3dPolylineVertex
 10
528.7994375860423
 20
196.3217566129359
 30
0.0
 70
    32
  0
VERTEX
  5
23BB
330
2388
100
AcDbEntity
  8
0
100
AcDbVertex
100
AcDb3dPolylineVertex
 10
528.9144375860423
 20
196.2917566129359
 30
0.0
 70
    32
  0
VERTEX
  5
23BC
330
2388
100
AcDbEntity
  8
0
100
AcDbVertex
100
AcDb3dPolylineVertex
 10
529.0304375860423
 20
196.271756612937
 30
0.0
 70
    32
  0
VERTEX
  5
23BD
330
2388
100
AcDbEntity
  8
0
100
AcDbVertex
100
AcDb3dPolylineVertex
 10
529.1474375860423
 20
196.2517566129369
 30
0.0
 70
    32
  0
VERTEX
  5
23BE
330
2388
100
AcDbEntity
  8
0
100
AcDbVertex
100
AcDb3dPolylineVertex
 10
529.2654375860423
 20
196.231756612937
 30
0.0
 70
    32
  0
VERTEX
  5
23BF
330
2388
100
AcDbEntity
  8
0
100
AcDbVertex
100
AcDb3dPolylineVertex
 10
529.3834375860424
 20
196.2117566129369
 30
0.0
 70
    32
  0
VERTEX
  5
23C0
330
2388
100
AcDbEntity
  8
0
100
AcDbVertex
100
AcDb3dPolylineVertex
 10
529.5034375860425
 20
196.201756612937
 30
0.0
 70
    32
  0
VERTEX
  5
23C1
330
2388
100
AcDbEntity
  8
0
100
AcDbVertex
100
AcDb3dPolylineVertex
 10
529.6234375860424
 20
196.1817566129369
 30
0.0
 70
    32
  0
VERTEX
  5
23C2
330
2388
100
AcDbEntity
  8
0
100
AcDbVertex
100
AcDb3dPolylineVertex
 10
529.7444375860425
 20
196.171756612937
 30
0.0
 70
    32
  0
VERTEX
  5
23C3
330
2388
100
AcDbEntity
  8
0
100
AcDbVertex
100
AcDb3dPolylineVertex
 10
529.8654375860422
 20
196.1617566129371
 30
0.0
 70
    32
  0
VERTEX
  5
23C4
330
2388
100
AcDbEntity
  8
0
100
AcDbVertex
100
AcDb3dPolylineVertex
 10
529.9864375860424
 20
196.1517566129371
 30
0.0
 70
    32
  0
VERTEX
  5
23C5
330
2388
100
AcDbEntity
  8
0
100
AcDbVertex
100
AcDb3dPolylineVertex
 10
530.1084375860424
 20
196.141756612937
 30
0.0
 70
    32
  0
VERTEX
  5
23C6
330
2388
100
AcDbEntity
  8
0
100
AcDbVertex
100
AcDb3dPolylineVertex
 10
530.2304375860424
 20
196.131756612937
 30
0.0
 70
    32
  0
VERTEX
  5
23C7
330
2388
100
AcDbEntity
  8
0
100
AcDbVertex
100
AcDb3dPolylineVertex
 10
530.3534375860424
 20
196.131756612937
 30
0.0
 70
    32
  0
VERTEX
  5
23C8
330
2388
100
AcDbEntity
  8
0
100
AcDbVertex
100
AcDb3dPolylineVertex
 10
530.4764375860425
 20
196.131756612937
 30
0.0
 70
    32
  0
VERTEX
  5
23C9
330
2388
100
AcDbEntity
  8
0
100
AcDbVertex
100
AcDb3dPolylineVertex
 10
530.5984375860425
 20
196.131756612937
 30
0.0
 70
    32
  0
VERTEX
  5
23CA
330
2388
100
AcDbEntity
  8
0
100
AcDbVertex
100
AcDb3dPolylineVertex
 10
530.7214375860423
 20
196.131756612937
 30
0.0
 70
    32
  0
VERTEX
  5
23CB
330
2388
100
AcDbEntity
  8
0
100
AcDbVertex
100
AcDb3dPolylineVertex
 10
530.8444375860424
 20
196.131756612937
 30
0.0
 70
    32
  0
VERTEX
  5
23CC
330
2388
100
AcDbEntity
  8
0
100
AcDbVertex
100
AcDb3dPolylineVertex
 10
530.9664375860424
 20
196.131756612937
 30
0.0
 70
    32
  0
VERTEX
  5
23CD
330
2388
100
AcDbEntity
  8
0
100
AcDbVertex
100
AcDb3dPolylineVertex
 10
531.0884375860424
 20
196.141756612937
 30
0.0
 70
    32
  0
VERTEX
  5
23CE
330
2388
100
AcDbEntity
  8
0
100
AcDbVertex
100
AcDb3dPolylineVertex
 10
531.2104375860424
 20
196.1517566129371
 30
0.0
 70
    32
  0
VERTEX
  5
23CF
330
2388
100
AcDbEntity
  8
0
100
AcDbVertex
100
AcDb3dPolylineVertex
 10
531.3324375860424
 20
196.1617566129371
 30
0.0
 70
    32
  0
VERTEX
  5
23D0
330
2388
100
AcDbEntity
  8
0
100
AcDbVertex
100
AcDb3dPolylineVertex
 10
531.4534375860423
 20
196.171756612937
 30
0.0
 70
    32
  0
VERTEX
  5
23D1
330
2388
100
AcDbEntity
  8
0
100
AcDbVertex
100
AcDb3dPolylineVertex
 10
531.5744375860425
 20
196.1817566129369
 30
0.0
 70
    32
  0
VERTEX
  5
23D2
330
2388
100
AcDbEntity
  8
0
100
AcDbVertex
100
AcDb3dPolylineVertex
 10
531.6944375860424
 20
196.201756612937
 30
0.0
 70
    32
  0
VERTEX
  5
23D3
330
2388
100
AcDbEntity
  8
0
100
AcDbVertex
100
AcDb3dPolylineVertex
 10
531.8134375860423
 20
196.2117566129369
 30
0.0
 70
    32
  0
VERTEX
  5
23D4
330
2388
100
AcDbEntity
  8
0
100
AcDbVertex
100
AcDb3dPolylineVertex
 10
531.9324375860421
 20
196.231756612937
 30
0.0
 70
    32
  0
VERTEX
  5
23D5
330
2388
100
AcDbEntity
  8
0
100
AcDbVertex
100
AcDb3dPolylineVertex
 10
532.0504375860424
 20
196.2517566129369
 30
0.0
 70
    32
  0
VERTEX
  5
23D6
330
2388
100
AcDbEntity
  8
0
100
AcDbVertex
100
AcDb3dPolylineVertex
 10
532.1674375860425
 20
196.271756612937
 30
0.0
 70
    32
  0
VERTEX
  5
23D7
330
2388
100
AcDbEntity
  8
0
100
AcDbVertex
100
AcDb3dPolylineVertex
 10
532.2834375860423
 20
196.2917566129359
 30
0.0
 70
    32
  0
VERTEX
  5
23D8
330
2388
100
AcDbEntity
  8
0
100
AcDbVertex
100
AcDb3dPolylineVertex
 10
532.3984375860425
 20
196.3217566129359
 30
0.0
 70
    32
  0
VERTEX
  5
23D9
330
2388
100
AcDbEntity
  8
0
100
AcDbVertex
100
AcDb3dPolylineVertex
 10
532.5124375860424
 20
196.351756612937
 30
0.0
 70
    32
  0
VERTEX
  5
23DA
330
2388
100
AcDbEntity
  8
0
100
AcDbVertex
100
AcDb3dPolylineVertex
 10
532.6254375860425
 20
196.3717566129371
 30
0.0
 70
    32
  0
VERTEX
  5
23DB
330
2388
100
AcDbEntity
  8
0
100
AcDbVertex
100
AcDb3dPolylineVertex
 10
532.7364375860423
 20
196.4017566129348
 30
0.0
 70
    32
  0
VERTEX
  5
23DC
330
2388
100
AcDbEntity
  8
0
100
AcDbVertex
100
AcDb3dPolylineVertex
 10
532.8464375860423
 20
196.4317566129363
 30
0.0
 70
    32
  0
VERTEX
  5
23DD
330
2388
100
AcDbEntity
  8
0
100
AcDbVertex
100
AcDb3dPolylineVertex
 10
532.9554375860425
 20
196.471756612937
 30
0.0
 70
    32
  0
VERTEX
  5
23DE
330
2388
100
AcDbEntity
  8
0
100
AcDbVertex
100
AcDb3dPolylineVertex
 10
533.0634375860423
 20
196.5017566129369
 30
0.0
 70
    32
  0
VERTEX
  5
23DF
330
2388
100
AcDbEntity
  8
0
100
AcDbVertex
100
AcDb3dPolylineVertex
 10
533.1694375860423
 20
196.5417566129368
 30
0.0
 70
    32
  0
VERTEX
  5
23E0
330
2388
100
AcDbEntity
  8
0
100
AcDbVertex
100
AcDb3dPolylineVertex
 10
533.2734375860423
 20
196.5717566129348
 30
0.0
 70
    32
  0
VERTEX
  5
23E1
330
2388
100
AcDbEntity
  8
0
100
AcDbVertex
100
AcDb3dPolylineVertex
 10
533.3764375860424
 20
196.6117566129371
 30
0.0
 70
    32
  0
VERTEX
  5
23E2
330
2388
100
AcDbEntity
  8
0
100
AcDbVertex
100
AcDb3dPolylineVertex
 10
533.4774375860424
 20
196.6517566129369
 30
0.0
 70
    32
  0
VERTEX
  5
23E3
330
2388
100
AcDbEntity
  8
0
100
AcDbVertex
100
AcDb3dPolylineVertex
 10
533.5774375860423
 20
196.6917566129369
 30
0.0
 70
    32
  0
VERTEX
  5
23E4
330
2388
100
AcDbEntity
  8
0
100
AcDbVertex
100
AcDb3dPolylineVertex
 10
533.6744375860424
 20
196.7417566129363
 30
0.0
 70
    32
  0
VERTEX
  5
23E5
330
2388
100
AcDbEntity
  8
0
100
AcDbVertex
100
AcDb3dPolylineVertex
 10
533.7704375860424
 20
196.781756612936
 30
0.0
 70
    32
  0
VERTEX
  5
23E6
330
2388
100
AcDbEntity
  8
0
100
AcDbVertex
100
AcDb3dPolylineVertex
 10
533.8644375860424
 20
196.8317566129371
 30
0.0
 70
    32
  0
VERTEX
  5
23E7
330
2388
100
AcDbEntity
  8
0
100
AcDbVertex
100
AcDb3dPolylineVertex
 10
533.9564375860425
 20
196.8717566129356
 30
0.0
 70
    32
  0
VERTEX
  5
23E8
330
2388
100
AcDbEntity
  8
0
100
AcDbVertex
100
AcDb3dPolylineVertex
 10
534.0464375860424
 20
196.9217566129371
 30
0.0
 70
    32
  0
VERTEX
  5
23E9
330
2388
100
AcDbEntity
  8
0
100
AcDbVertex
100
AcDb3dPolylineVertex
 10
534.1344375860423
 20
196.971756612937
 30
0.0
 70
    32
  0
VERTEX
  5
23EA
330
2388
100
AcDbEntity
  8
0
100
AcDbVertex
100
AcDb3dPolylineVertex
 10
534.2204375860424
 20
197.0217566129368
 30
0.0
 70
    32
  0
VERTEX
  5
23EB
330
2388
100
AcDbEntity
  8
0
100
AcDbVertex
100
AcDb3dPolylineVertex
 10
534.3034375860423
 20
197.0717566129359
 30
0.0
 70
    32
  0
VERTEX
  5
23EC
330
2388
100
AcDbEntity
  8
0
100
AcDbVertex
100
AcDb3dPolylineVertex
 10
534.3844375860424
 20
197.131756612937
 30
0.0
 70
    32
  0
VERTEX
  5
23ED
330
2388
100
AcDbEntity
  8
0
100
AcDbVertex
100
AcDb3dPolylineVertex
 10
534.4634375860424
 20
197.1817566129363
 30
0.0
 70
    32
  0
VERTEX
  5
23EE
330
2388
100
AcDbEntity
  8
0
100
AcDbVertex
100
AcDb3dPolylineVertex
 10
534.5404375860424
 20
197.241756612937
 30
0.0
 70
    32
  0
VERTEX
  5
23EF
330
2388
100
AcDbEntity
  8
0
100
AcDbVertex
100
AcDb3dPolylineVertex
 10
534.6144375860424
 20
197.2917566129368
 30
0.0
 70
    32
  0
VERTEX
  5
23F0
330
2388
100
AcDbEntity
  8
0
100
AcDbVertex
100
AcDb3dPolylineVertex
 10
534.6864375860421
 20
197.351756612937
 30
0.0
 70
    32
  0
VERTEX
  5
23F1
330
2388
100
AcDbEntity
  8
0
100
AcDbVertex
100
AcDb3dPolylineVertex
 10
534.7564375860423
 20
197.411756612937
 30
0.0
 70
    32
  0
VERTEX
  5
23F2
330
2388
100
AcDbEntity
  8
0
100
AcDbVertex
100
AcDb3dPolylineVertex
 10
534.8234375860423
 20
197.471756612937
 30
0.0
 70
    32
  0
VERTEX
  5
23F3
330
2388
100
AcDbEntity
  8
0
100
AcDbVertex
100
AcDb3dPolylineVertex
 10
534.8874375860424
 20
197.531756612936
 30
0.0
 70
    32
  0
VERTEX
  5
23F4
330
2388
100
AcDbEntity
  8
0
100
AcDbVertex
100
AcDb3dPolylineVertex
 10
534.9494375860424
 20
197.591756612937
 30
0.0
 70
    32
  0
VERTEX
  5
23F5
330
2388
100
AcDbEntity
  8
0
100
AcDbVertex
100
AcDb3dPolylineVertex
 10
535.0084375860424
 20
197.6517566129348
 30
0.0
 70
    32
  0
VERTEX
  5
23F6
330
2388
100
AcDbEntity
  8
0
100
AcDbVertex
100
AcDb3dPolylineVertex
 10
535.0644375860424
 20
197.7117566129369
 30
0.0
 70
    32
  0
VERTEX
  5
23F7
330
2388
100
AcDbEntity
  8
0
100
AcDbVertex
100
AcDb3dPolylineVertex
 10
535.1184375860424
 20
197.7817566129369
 30
0.0
 70
    32
  0
VERTEX
  5
23F8
330
2388
100
AcDbEntity
  8
0
100
AcDbVertex
100
AcDb3dPolylineVertex
 10
535.1694375860423
 20
197.841756612937
 30
0.0
 70
    32
  0
VERTEX
  5
23F9
330
2388
100
AcDbEntity
  8
0
100
AcDbVertex
100
AcDb3dPolylineVertex
 10
535.2184375860424
 20
197.9117566129371
 30
0.0
 70
    32
  0
VERTEX
  5
23FA
330
2388
100
AcDbEntity
  8
0
100
AcDbVertex
100
AcDb3dPolylineVertex
 10
535.2634375860425
 20
197.971756612937
 30
0.0
 70
    32
  0
VERTEX
  5
23FB
330
2388
100
AcDbEntity
  8
0
100
AcDbVertex
100
AcDb3dPolylineVertex
 10
535.3064375860424
 20
198.0417566129368
 30
0.0
 70
    32
  0
VERTEX
  5
23FC
330
2388
100
AcDbEntity
  8
0
100
AcDbVertex
100
AcDb3dPolylineVertex
 10
535.3464375860425
 20
198.1117566129371
 30
0.0
 70
    32
  0
VERTEX
  5
23FD
330
2388
100
AcDbEntity
  8
0
100
AcDbVertex
100
AcDb3dPolylineVertex
 10
535.3834375860424
 20
198.1717566129369
 30
0.0
 70
    32
  0
VERTEX
  5
23FE
330
2388
100
AcDbEntity
  8
0
100
AcDbVertex
100
AcDb3dPolylineVertex
 10
535.4174375860424
 20
198.241756612937
 30
0.0
 70
    32
  0
VERTEX
  5
23FF
330
2388
100
AcDbEntity
  8
0
100
AcDbVertex
100
AcDb3dPolylineVertex
 10
535.4484375860424
 20
198.311756612936
 30
0.0
 70
    32
  0
VERTEX
  5
2400
330
2388
100
AcDbEntity
  8
0
100
AcDbVertex
100
AcDb3dPolylineVertex
 10
535.4774375860423
 20
198.3817566129371
 30
0.0
 70
    32
  0
VERTEX
  5
2401
330
2388
100
AcDbEntity
  8
0
100
AcDbVertex
100
AcDb3dPolylineVertex
 10
535.5024375860424
 20
198.451756612937
 30
0.0
 70
    32
  0
VERTEX
  5
2402
330
2388
100
AcDbEntity
  8
0
100
AcDbVertex
100
AcDb3dPolylineVertex
 10
535.5254375860424
 20
198.5217566129368
 30
0.0
 70
    32
  0
VERTEX
  5
2403
330
2388
100
AcDbEntity
  8
0
100
AcDbVertex
100
AcDb3dPolylineVertex
 10
535.5444375860423
 20
198.591756612937
 30
0.0
 70
    32
  0
VERTEX
  5
2404
330
2388
100
AcDbEntity
  8
0
100
AcDbVertex
100
AcDb3dPolylineVertex
 10
535.5614375860425
 20
198.661756612937
 30
0.0
 70
    32
  0
VERTEX
  5
2405
330
2388
100
AcDbEntity
  8
0
100
AcDbVertex
100
AcDb3dPolylineVertex
 10
535.5744375860424
 20
198.7317566129362
 30
0.0
 70
    32
  0
VERTEX
  5
2406
330
2388
100
AcDbEntity
  8
0
100
AcDbVertex
100
AcDb3dPolylineVertex
 10
535.5854375860424
 20
198.8017566129368
 30
0.0
 70
    32
  0
VERTEX
  5
2407
330
2388
100
AcDbEntity
  8
0
100
AcDbVertex
100
AcDb3dPolylineVertex
 10
535.5924375860423
 20
198.8717566129371
 30
0.0
 70
    32
  0
VERTEX
  5
2408
330
2388
100
AcDbEntity
  8
0
100
AcDbVertex
100
AcDb3dPolylineVertex
 10
535.5974375860423
 20
198.941756612937
 30
0.0
 70
    32
  0
VERTEX
  5
2409
330
2388
100
AcDbEntity
  8
0
100
AcDbVertex
100
AcDb3dPolylineVertex
 10
535.5984375860424
 20
199.0117566129361
 30
0.0
 70
    32
  0
SEQEND
  5
240A
330
2388
100
AcDbEntity
  8
0
  0
POLYLINE
  5
240B
330
2B26
100
AcDbEntity
  8
0
100
AcDb3dPolyline
 66
     1
 10
0.0
 20
0.0
 30
0.0
 70
     8
  0
VERTEX
  5
240C
330
240B
100
AcDbEntity
  8
0
100
AcDbVertex
100
AcDb3dPolylineVertex
 10
535.5984375860424
 20
203.6517566129371
 30
0.0
 70
    32
  0
VERTEX
  5
240D
330
240B
100
AcDbEntity
  8
0
100
AcDbVertex
100
AcDb3dPolylineVertex
 10
535.5974375860423
 20
203.7217566129363
 30
0.0
 70
    32
  0
VERTEX
  5
240E
330
240B
100
AcDbEntity
  8
0
100
AcDbVertex
100
AcDb3dPolylineVertex
 10
535.5924375860423
 20
203.791756612936
 30
0.0
 70
    32
  0
VERTEX
  5
240F
330
240B
100
AcDbEntity
  8
0
100
AcDbVertex
100
AcDb3dPolylineVertex
 10
535.5854375860424
 20
203.8617566129371
 30
0.0
 70
    32
  0
VERTEX
  5
2410
330
240B
100
AcDbEntity
  8
0
100
AcDbVertex
100
AcDb3dPolylineVertex
 10
535.5744375860424
 20
203.9317566129369
 30
0.0
 70
    32
  0
VERTEX
  5
2411
330
240B
100
AcDbEntity
  8
0
100
AcDbVertex
100
AcDb3dPolylineVertex
 10
535.5614375860425
 20
204.0017566129369
 30
0.0
 70
    32
  0
VERTEX
  5
2412
330
240B
100
AcDbEntity
  8
0
100
AcDbVertex
100
AcDb3dPolylineVertex
 10
535.5444375860423
 20
204.0717566129368
 30
0.0
 70
    32
  0
VERTEX
  5
2413
330
240B
100
AcDbEntity
  8
0
100
AcDbVertex
100
AcDb3dPolylineVertex
 10
535.5254375860424
 20
204.141756612937
 30
0.0
 70
    32
  0
VERTEX
  5
2414
330
240B
100
AcDbEntity
  8
0
100
AcDbVertex
100
AcDb3dPolylineVertex
 10
535.5024375860424
 20
204.2117566129369
 30
0.0
 70
    32
  0
VERTEX
  5
2415
330
240B
100
AcDbEntity
  8
0
100
AcDbVertex
100
AcDb3dPolylineVertex
 10
535.4774375860423
 20
204.2817566129369
 30
0.0
 70
    32
  0
VERTEX
  5
2416
330
240B
100
AcDbEntity
  8
0
100
AcDbVertex
100
AcDb3dPolylineVertex
 10
535.4484375860424
 20
204.351756612937
 30
0.0
 70
    32
  0
VERTEX
  5
2417
330
240B
100
AcDbEntity
  8
0
100
AcDbVertex
100
AcDb3dPolylineVertex
 10
535.4174375860424
 20
204.4217566129371
 30
0.0
 70
    32
  0
VERTEX
  5
2418
330
240B
100
AcDbEntity
  8
0
100
AcDbVertex
100
AcDb3dPolylineVertex
 10
535.3834375860424
 20
204.491756612937
 30
0.0
 70
    32
  0
VERTEX
  5
2419
330
240B
100
AcDbEntity
  8
0
100
AcDbVertex
100
AcDb3dPolylineVertex
 10
535.3464375860425
 20
204.5517566129359
 30
0.0
 70
    32
  0
VERTEX
  5
241A
330
240B
100
AcDbEntity
  8
0
100
AcDbVertex
100
AcDb3dPolylineVertex
 10
535.3064375860424
 20
204.6217566129371
 30
0.0
 70
    32
  0
VERTEX
  5
241B
330
240B
100
AcDbEntity
  8
0
100
AcDbVertex
100
AcDb3dPolylineVertex
 10
535.2634375860425
 20
204.691756612937
 30
0.0
 70
    32
  0
VERTEX
  5
241C
330
240B
100
AcDbEntity
  8
0
100
AcDbVertex
100
AcDb3dPolylineVertex
 10
535.2184375860424
 20
204.751756612937
 30
0.0
 70
    32
  0
VERTEX
  5
241D
330
240B
100
AcDbEntity
  8
0
100
AcDbVertex
100
AcDb3dPolylineVertex
 10
535.1694375860423
 20
204.8217566129368
 30
0.0
 70
    32
  0
VERTEX
  5
241E
330
240B
100
AcDbEntity
  8
0
100
AcDbVertex
100
AcDb3dPolylineVertex
 10
535.1184375860424
 20
204.8817566129371
 30
0.0
 70
    32
  0
VERTEX
  5
241F
330
240B
100
AcDbEntity
  8
0
100
AcDbVertex
100
AcDb3dPolylineVertex
 10
535.0644375860424
 20
204.9517566129369
 30
0.0
 70
    32
  0
VERTEX
  5
2420
330
240B
100
AcDbEntity
  8
0
100
AcDbVertex
100
AcDb3dPolylineVertex
 10
535.0084375860424
 20
205.011756612936
 30
0.0
 70
    32
  0
VERTEX
  5
2421
330
240B
100
AcDbEntity
  8
0
100
AcDbVertex
100
AcDb3dPolylineVertex
 10
534.9494375860424
 20
205.0717566129368
 30
0.0
 70
    32
  0
VERTEX
  5
2422
330
240B
100
AcDbEntity
  8
0
100
AcDbVertex
100
AcDb3dPolylineVertex
 10
534.8874375860424
 20
205.131756612937
 30
0.0
 70
    32
  0
VERTEX
  5
2423
330
240B
100
AcDbEntity
  8
0
100
AcDbVertex
100
AcDb3dPolylineVertex
 10
534.8234375860423
 20
205.191756612937
 30
0.0
 70
    32
  0
VERTEX
  5
2424
330
240B
100
AcDbEntity
  8
0
100
AcDbVertex
100
AcDb3dPolylineVertex
 10
534.7564375860423
 20
205.2517566129348
 30
0.0
 70
    32
  0
VERTEX
  5
2425
330
240B
100
AcDbEntity
  8
0
100
AcDbVertex
100
AcDb3dPolylineVertex
 10
534.6864375860421
 20
205.3117566129369
 30
0.0
 70
    32
  0
VERTEX
  5
2426
330
240B
100
AcDbEntity
  8
0
100
AcDbVertex
100
AcDb3dPolylineVertex
 10
534.6144375860424
 20
205.3717566129371
 30
0.0
 70
    32
  0
VERTEX
  5
2427
330
240B
100
AcDbEntity
  8
0
100
AcDbVertex
100
AcDb3dPolylineVertex
 10
534.5404375860424
 20
205.421756612937
 30
0.0
 70
    32
  0
VERTEX
  5
2428
330
240B
100
AcDbEntity
  8
0
100
AcDbVertex
100
AcDb3dPolylineVertex
 10
534.4634375860424
 20
205.4817566129369
 30
0.0
 70
    32
  0
VERTEX
  5
2429
330
240B
100
AcDbEntity
  8
0
100
AcDbVertex
100
AcDb3dPolylineVertex
 10
534.3844375860424
 20
205.5317566129369
 30
0.0
 70
    32
  0
VERTEX
  5
242A
330
240B
100
AcDbEntity
  8
0
100
AcDbVertex
100
AcDb3dPolylineVertex
 10
534.3034375860423
 20
205.591756612937
 30
0.0
 70
    32
  0
VERTEX
  5
242B
330
240B
100
AcDbEntity
  8
0
100
AcDbVertex
100
AcDb3dPolylineVertex
 10
534.2204375860424
 20
205.6417566129371
 30
0.0
 70
    32
  0
VERTEX
  5
242C
330
240B
100
AcDbEntity
  8
0
100
AcDbVertex
100
AcDb3dPolylineVertex
 10
534.1344375860423
 20
205.691756612937
 30
0.0
 70
    32
  0
VERTEX
  5
242D
330
240B
100
AcDbEntity
  8
0
100
AcDbVertex
100
AcDb3dPolylineVertex
 10
534.0464375860424
 20
205.7417566129362
 30
0.0
 70
    32
  0
VERTEX
  5
242E
330
240B
100
AcDbEntity
  8
0
100
AcDbVertex
100
AcDb3dPolylineVertex
 10
533.9564375860425
 20
205.791756612936
 30
0.0
 70
    32
  0
VERTEX
  5
242F
330
240B
100
AcDbEntity
  8
0
100
AcDbVertex
100
AcDb3dPolylineVertex
 10
533.8644375860424
 20
205.8317566129371
 30
0.0
 70
    32
  0
VERTEX
  5
2430
330
240B
100
AcDbEntity
  8
0
100
AcDbVertex
100
AcDb3dPolylineVertex
 10
533.7704375860424
 20
205.8817566129356
 30
0.0
 70
    32
  0
VERTEX
  5
2431
330
240B
100
AcDbEntity
  8
0
100
AcDbVertex
100
AcDb3dPolylineVertex
 10
533.6744375860424
 20
205.9217566129369
 30
0.0
 70
    32
  0
VERTEX
  5
2432
330
240B
100
AcDbEntity
  8
0
100
AcDbVertex
100
AcDb3dPolylineVertex
 10
533.5774375860423
 20
205.971756612937
 30
0.0
 70
    32
  0
VERTEX
  5
2433
330
240B
100
AcDbEntity
  8
0
100
AcDbVertex
100
AcDb3dPolylineVertex
 10
533.4774375860424
 20
206.011756612937
 30
0.0
 70
    32
  0
VERTEX
  5
2434
330
240B
100
AcDbEntity
  8
0
100
AcDbVertex
100
AcDb3dPolylineVertex
 10
533.3764375860424
 20
206.0517566129359
 30
0.0
 70
    32
  0
VERTEX
  5
2435
330
240B
100
AcDbEntity
  8
0
100
AcDbVertex
100
AcDb3dPolylineVertex
 10
533.2734375860423
 20
206.091756612937
 30
0.0
 70
    32
  0
VERTEX
  5
2436
330
240B
100
AcDbEntity
  8
0
100
AcDbVertex
100
AcDb3dPolylineVertex
 10
533.1694375860423
 20
206.1217566129371
 30
0.0
 70
    32
  0
VERTEX
  5
2437
330
240B
100
AcDbEntity
  8
0
100
AcDbVertex
100
AcDb3dPolylineVertex
 10
533.0634375860423
 20
206.1617566129347
 30
0.0
 70
    32
  0
VERTEX
  5
2438
330
240B
100
AcDbEntity
  8
0
100
AcDbVertex
100
AcDb3dPolylineVertex
 10
532.9554375860425
 20
206.1917566129364
 30
0.0
 70
    32
  0
VERTEX
  5
2439
330
240B
100
AcDbEntity
  8
0
100
AcDbVertex
100
AcDb3dPolylineVertex
 10
532.8464375860423
 20
206.231756612937
 30
0.0
 70
    32
  0
VERTEX
  5
243A
330
240B
100
AcDbEntity
  8
0
100
AcDbVertex
100
AcDb3dPolylineVertex
 10
532.7364375860423
 20
206.2617566129368
 30
0.0
 70
    32
  0
VERTEX
  5
243B
330
240B
100
AcDbEntity
  8
0
100
AcDbVertex
100
AcDb3dPolylineVertex
 10
532.6254375860425
 20
206.2917566129368
 30
0.0
 70
    32
  0
VERTEX
  5
243C
330
240B
100
AcDbEntity
  8
0
100
AcDbVertex
100
AcDb3dPolylineVertex
 10
532.5124375860424
 20
206.3217566129368
 30
0.0
 70
    32
  0
VERTEX
  5
243D
330
240B
100
AcDbEntity
  8
0
100
AcDbVertex
100
AcDb3dPolylineVertex
 10
532.3984375860425
 20
206.341756612937
 30
0.0
 70
    32
  0
VERTEX
  5
243E
330
240B
100
AcDbEntity
  8
0
100
AcDbVertex
100
AcDb3dPolylineVertex
 10
532.2834375860423
 20
206.3717566129371
 30
0.0
 70
    32
  0
VERTEX
  5
243F
330
240B
100
AcDbEntity
  8
0
100
AcDbVertex
100
AcDb3dPolylineVertex
 10
532.1674375860425
 20
206.391756612937
 30
0.0
 70
    32
  0
VERTEX
  5
2440
330
240B
100
AcDbEntity
  8
0
100
AcDbVertex
100
AcDb3dPolylineVertex
 10
532.0504375860424
 20
206.411756612937
 30
0.0
 70
    32
  0
VERTEX
  5
2441
330
240B
100
AcDbEntity
  8
0
100
AcDbVertex
100
AcDb3dPolylineVertex
 10
531.9324375860421
 20
206.4317566129369
 30
0.0
 70
    32
  0
VERTEX
  5
2442
330
240B
100
AcDbEntity
  8
0
100
AcDbVertex
100
AcDb3dPolylineVertex
 10
531.8134375860423
 20
206.4517566129369
 30
0.0
 70
    32
  0
VERTEX
  5
2443
330
240B
100
AcDbEntity
  8
0
100
AcDbVertex
100
AcDb3dPolylineVertex
 10
531.6944375860424
 20
206.4717566129363
 30
0.0
 70
    32
  0
VERTEX
  5
2444
330
240B
100
AcDbEntity
  8
0
100
AcDbVertex
100
AcDb3dPolylineVertex
 10
531.5744375860425
 20
206.481756612937
 30
0.0
 70
    32
  0
VERTEX
  5
2445
330
240B
100
AcDbEntity
  8
0
100
AcDbVertex
100
AcDb3dPolylineVertex
 10
531.4534375860423
 20
206.4917566129363
 30
0.0
 70
    32
  0
VERTEX
  5
2446
330
240B
100
AcDbEntity
  8
0
100
AcDbVertex
100
AcDb3dPolylineVertex
 10
531.3324375860424
 20
206.5017566129361
 30
0.0
 70
    32
  0
VERTEX
  5
2447
330
240B
100
AcDbEntity
  8
0
100
AcDbVertex
100
AcDb3dPolylineVertex
 10
531.2104375860424
 20
206.5117566129368
 30
0.0
 70
    32
  0
VERTEX
  5
2448
330
240B
100
AcDbEntity
  8
0
100
AcDbVertex
100
AcDb3dPolylineVertex
 10
531.0884375860424
 20
206.5217566129359
 30
0.0
 70
    32
  0
VERTEX
  5
2449
330
240B
100
AcDbEntity
  8
0
100
AcDbVertex
100
AcDb3dPolylineVertex
 10
530.9664375860424
 20
206.5317566129369
 30
0.0
 70
    32
  0
VERTEX
  5
244A
330
240B
100
AcDbEntity
  8
0
100
AcDbVertex
100
AcDb3dPolylineVertex
 10
530.8444375860424
 20
206.5317566129369
 30
0.0
 70
    32
  0
VERTEX
  5
244B
330
240B
100
AcDbEntity
  8
0
100
AcDbVertex
100
AcDb3dPolylineVertex
 10
530.7214375860423
 20
206.5317566129369
 30
0.0
 70
    32
  0
VERTEX
  5
244C
330
240B
100
AcDbEntity
  8
0
100
AcDbVertex
100
AcDb3dPolylineVertex
 10
530.5984375860425
 20
206.5417566129359
 30
0.0
 70
    32
  0
VERTEX
  5
244D
330
240B
100
AcDbEntity
  8
0
100
AcDbVertex
100
AcDb3dPolylineVertex
 10
530.4764375860425
 20
206.5317566129369
 30
0.0
 70
    32
  0
VERTEX
  5
244E
330
240B
100
AcDbEntity
  8
0
100
AcDbVertex
100
AcDb3dPolylineVertex
 10
530.3534375860424
 20
206.5317566129369
 30
0.0
 70
    32
  0
VERTEX
  5
244F
330
240B
100
AcDbEntity
  8
0
100
AcDbVertex
100
AcDb3dPolylineVertex
 10
530.2304375860424
 20
206.5317566129369
 30
0.0
 70
    32
  0
VERTEX
  5
2450
330
240B
100
AcDbEntity
  8
0
100
AcDbVertex
100
AcDb3dPolylineVertex
 10
530.1084375860424
 20
206.5217566129359
 30
0.0
 70
    32
  0
VERTEX
  5
2451
330
240B
100
AcDbEntity
  8
0
100
AcDbVertex
100
AcDb3dPolylineVertex
 10
529.9864375860424
 20
206.5117566129368
 30
0.0
 70
    32
  0
VERTEX
  5
2452
330
240B
100
AcDbEntity
  8
0
100
AcDbVertex
100
AcDb3dPolylineVertex
 10
529.8654375860422
 20
206.5017566129361
 30
0.0
 70
    32
  0
VERTEX
  5
2453
330
240B
100
AcDbEntity
  8
0
100
AcDbVertex
100
AcDb3dPolylineVertex
 10
529.7444375860425
 20
206.4917566129363
 30
0.0
 70
    32
  0
VERTEX
  5
2454
330
240B
100
AcDbEntity
  8
0
100
AcDbVertex
100
AcDb3dPolylineVertex
 10
529.6234375860424
 20
206.481756612937
 30
0.0
 70
    32
  0
VERTEX
  5
2455
330
240B
100
AcDbEntity
  8
0
100
AcDbVertex
100
AcDb3dPolylineVertex
 10
529.5034375860425
 20
206.4717566129363
 30
0.0
 70
    32
  0
VERTEX
  5
2456
330
240B
100
AcDbEntity
  8
0
100
AcDbVertex
100
AcDb3dPolylineVertex
 10
529.3834375860424
 20
206.4517566129369
 30
0.0
 70
    32
  0
VERTEX
  5
2457
330
240B
100
AcDbEntity
  8
0
100
AcDbVertex
100
AcDb3dPolylineVertex
 10
529.2654375860423
 20
206.4317566129369
 30
0.0
 70
    32
  0
VERTEX
  5
2458
330
240B
100
AcDbEntity
  8
0
100
AcDbVertex
100
AcDb3dPolylineVertex
 10
529.1474375860423
 20
206.411756612937
 30
0.0
 70
    32
  0
VERTEX
  5
2459
330
240B
100
AcDbEntity
  8
0
100
AcDbVertex
100
AcDb3dPolylineVertex
 10
529.0304375860423
 20
206.391756612937
 30
0.0
 70
    32
  0
VERTEX
  5
245A
330
240B
100
AcDbEntity
  8
0
100
AcDbVertex
100
AcDb3dPolylineVertex
 10
528.9144375860423
 20
206.3717566129371
 30
0.0
 70
    32
  0
VERTEX
  5
245B
330
240B
100
AcDbEntity
  8
0
100
AcDbVertex
100
AcDb3dPolylineVertex
 10
528.7994375860423
 20
206.341756612937
 30
0.0
 70
    32
  0
VERTEX
  5
245C
330
240B
100
AcDbEntity
  8
0
100
AcDbVertex
100
AcDb3dPolylineVertex
 10
528.6854375860424
 20
206.3217566129368
 30
0.0
 70
    32
  0
VERTEX
  5
245D
330
240B
100
AcDbEntity
  8
0
100
AcDbVertex
100
AcDb3dPolylineVertex
 10
528.5724375860423
 20
206.2917566129368
 30
0.0
 70
    32
  0
VERTEX
  5
245E
330
240B
100
AcDbEntity
  8
0
100
AcDbVertex
100
AcDb3dPolylineVertex
 10
528.4614375860424
 20
206.2617566129368
 30
0.0
 70
    32
  0
VERTEX
  5
245F
330
240B
100
AcDbEntity
  8
0
100
AcDbVertex
100
AcDb3dPolylineVertex
 10
528.3504375860424
 20
206.231756612937
 30
0.0
 70
    32
  0
VERTEX
  5
2460
330
240B
100
AcDbEntity
  8
0
100
AcDbVertex
100
AcDb3dPolylineVertex
 10
528.2414375860423
 20
206.1917566129364
 30
0.0
 70
    32
  0
VERTEX
  5
2461
330
240B
100
AcDbEntity
  8
0
100
AcDbVertex
100
AcDb3dPolylineVertex
 10
528.1344375860424
 20
206.1617566129347
 30
0.0
 70
    32
  0
VERTEX
  5
2462
330
240B
100
AcDbEntity
  8
0
100
AcDbVertex
100
AcDb3dPolylineVertex
 10
528.0284375860424
 20
206.1217566129371
 30
0.0
 70
    32
  0
VERTEX
  5
2463
330
240B
100
AcDbEntity
  8
0
100
AcDbVertex
100
AcDb3dPolylineVertex
 10
527.9234375860425
 20
206.091756612937
 30
0.0
 70
    32
  0
VERTEX
  5
2464
330
240B
100
AcDbEntity
  8
0
100
AcDbVertex
100
AcDb3dPolylineVertex
 10
527.8204375860424
 20
206.0517566129359
 30
0.0
 70
    32
  0
VERTEX
  5
2465
330
240B
100
AcDbEntity
  8
0
100
AcDbVertex
100
AcDb3dPolylineVertex
 10
527.7194375860424
 20
206.011756612937
 30
0.0
 70
    32
  0
VERTEX
  5
2466
330
240B
100
AcDbEntity
  8
0
100
AcDbVertex
100
AcDb3dPolylineVertex
 10
527.6204375860421
 20
205.971756612937
 30
0.0
 70
    32
  0
VERTEX
  5
2467
330
240B
100
AcDbEntity
  8
0
100
AcDbVertex
100
AcDb3dPolylineVertex
 10
527.5224375860424
 20
205.9217566129369
 30
0.0
 70
    32
  0
VERTEX
  5
2468
330
240B
100
AcDbEntity
  8
0
100
AcDbVertex
100
AcDb3dPolylineVertex
 10
527.4264375860425
 20
205.8817566129356
 30
0.0
 70
    32
  0
VERTEX
  5
2469
330
240B
100
AcDbEntity
  8
0
100
AcDbVertex
100
AcDb3dPolylineVertex
 10
527.3324375860426
 20
205.8317566129371
 30
0.0
 70
    32
  0
VERTEX
  5
246A
330
240B
100
AcDbEntity
  8
0
100
AcDbVertex
100
AcDb3dPolylineVertex
 10
527.2414375860424
 20
205.791756612936
 30
0.0
 70
    32
  0
VERTEX
  5
246B
330
240B
100
AcDbEntity
  8
0
100
AcDbVertex
100
AcDb3dPolylineVertex
 10
527.1514375860423
 20
205.7417566129362
 30
0.0
 70
    32
  0
VERTEX
  5
246C
330
240B
100
AcDbEntity
  8
0
100
AcDbVertex
100
AcDb3dPolylineVertex
 10
527.0634375860423
 20
205.691756612937
 30
0.0
 70
    32
  0
VERTEX
  5
246D
330
240B
100
AcDbEntity
  8
0
100
AcDbVertex
100
AcDb3dPolylineVertex
 10
526.9774375860423
 20
205.6417566129371
 30
0.0
 70
    32
  0
VERTEX
  5
246E
330
240B
100
AcDbEntity
  8
0
100
AcDbVertex
100
AcDb3dPolylineVertex
 10
526.8944375860423
 20
205.591756612937
 30
0.0
 70
    32
  0
VERTEX
  5
246F
330
240B
100
AcDbEntity
  8
0
100
AcDbVertex
100
AcDb3dPolylineVertex
 10
526.8124375860423
 20
205.5317566129369
 30
0.0
 70
    32
  0
VERTEX
  5
2470
330
240B
100
AcDbEntity
  8
0
100
AcDbVertex
100
AcDb3dPolylineVertex
 10
526.7334375860424
 20
205.4817566129369
 30
0.0
 70
    32
  0
VERTEX
  5
2471
330
240B
100
AcDbEntity
  8
0
100
AcDbVertex
100
AcDb3dPolylineVertex
 10
526.6574375860425
 20
205.421756612937
 30
0.0
 70
    32
  0
VERTEX
  5
2472
330
240B
100
AcDbEntity
  8
0
100
AcDbVertex
100
AcDb3dPolylineVertex
 10
526.5824375860424
 20
205.3717566129371
 30
0.0
 70
    32
  0
VERTEX
  5
2473
330
240B
100
AcDbEntity
  8
0
100
AcDbVertex
100
AcDb3dPolylineVertex
 10
526.5104375860423
 20
205.3117566129369
 30
0.0
 70
    32
  0
VERTEX
  5
2474
330
240B
100
AcDbEntity
  8
0
100
AcDbVertex
100
AcDb3dPolylineVertex
 10
526.4414375860424
 20
205.2517566129348
 30
0.0
 70
    32
  0
VERTEX
  5
2475
330
240B
100
AcDbEntity
  8
0
100
AcDbVertex
100
AcDb3dPolylineVertex
 10
526.3744375860424
 20
205.191756612937
 30
0.0
 70
    32
  0
VERTEX
  5
2476
330
240B
100
AcDbEntity
  8
0
100
AcDbVertex
100
AcDb3dPolylineVertex
 10
526.3104375860424
 20
205.131756612937
 30
0.0
 70
    32
  0
VERTEX
  5
2477
330
240B
100
AcDbEntity
  8
0
100
AcDbVertex
100
AcDb3dPolylineVertex
 10
526.2484375860424
 20
205.0717566129368
 30
0.0
 70
    32
  0
VERTEX
  5
2478
330
240B
100
AcDbEntity
  8
0
100
AcDbVertex
100
AcDb3dPolylineVertex
 10
526.1894375860424
 20
205.011756612936
 30
0.0
 70
    32
  0
VERTEX
  5
2479
330
240B
100
AcDbEntity
  8
0
100
AcDbVertex
100
AcDb3dPolylineVertex
 10
526.1324375860424
 20
204.9517566129369
 30
0.0
 70
    32
  0
VERTEX
  5
247A
330
240B
100
AcDbEntity
  8
0
100
AcDbVertex
100
AcDb3dPolylineVertex
 10
526.0784375860423
 20
204.8817566129371
 30
0.0
 70
    32
  0
VERTEX
  5
247B
330
240B
100
AcDbEntity
  8
0
100
AcDbVertex
100
AcDb3dPolylineVertex
 10
526.0274375860424
 20
204.8217566129368
 30
0.0
 70
    32
  0
VERTEX
  5
247C
330
240B
100
AcDbEntity
  8
0
100
AcDbVertex
100
AcDb3dPolylineVertex
 10
525.9794375860423
 20
204.751756612937
 30
0.0
 70
    32
  0
VERTEX
  5
247D
330
240B
100
AcDbEntity
  8
0
100
AcDbVertex
100
AcDb3dPolylineVertex
 10
525.9334375860423
 20
204.691756612937
 30
0.0
 70
    32
  0
VERTEX
  5
247E
330
240B
100
AcDbEntity
  8
0
100
AcDbVertex
100
AcDb3dPolylineVertex
 10
525.8914375860424
 20
204.6217566129371
 30
0.0
 70
    32
  0
VERTEX
  5
247F
330
240B
100
AcDbEntity
  8
0
100
AcDbVertex
100
AcDb3dPolylineVertex
 10
525.8514375860425
 20
204.5517566129359
 30
0.0
 70
    32
  0
VERTEX
  5
2480
330
240B
100
AcDbEntity
  8
0
100
AcDbVertex
100
AcDb3dPolylineVertex
 10
525.8144375860424
 20
204.491756612937
 30
0.0
 70
    32
  0
VERTEX
  5
2481
330
240B
100
AcDbEntity
  8
0
100
AcDbVertex
100
AcDb3dPolylineVertex
 10
525.7794375860425
 20
204.4217566129371
 30
0.0
 70
    32
  0
VERTEX
  5
2482
330
240B
100
AcDbEntity
  8
0
100
AcDbVertex
100
AcDb3dPolylineVertex
 10
525.7484375860424
 20
204.351756612937
 30
0.0
 70
    32
  0
VERTEX
  5
2483
330
240B
100
AcDbEntity
  8
0
100
AcDbVertex
100
AcDb3dPolylineVertex
 10
525.7204375860424
 20
204.2817566129369
 30
0.0
 70
    32
  0
VERTEX
  5
2484
330
240B
100
AcDbEntity
  8
0
100
AcDbVertex
100
AcDb3dPolylineVertex
 10
525.6944375860424
 20
204.2117566129369
 30
0.0
 70
    32
  0
VERTEX
  5
2485
330
240B
100
AcDbEntity
  8
0
100
AcDbVertex
100
AcDb3dPolylineVertex
 10
525.6724375860422
 20
204.141756612937
 30
0.0
 70
    32
  0
VERTEX
  5
2486
330
240B
100
AcDbEntity
  8
0
100
AcDbVertex
100
AcDb3dPolylineVertex
 10
525.6524375860424
 20
204.0717566129368
 30
0.0
 70
    32
  0
VERTEX
  5
2487
330
240B
100
AcDbEntity
  8
0
100
AcDbVertex
100
AcDb3dPolylineVertex
 10
525.6364375860423
 20
204.0017566129369
 30
0.0
 70
    32
  0
VERTEX
  5
2488
330
240B
100
AcDbEntity
  8
0
100
AcDbVertex
100
AcDb3dPolylineVertex
 10
525.6224375860425
 20
203.9317566129369
 30
0.0
 70
    32
  0
VERTEX
  5
2489
330
240B
100
AcDbEntity
  8
0
100
AcDbVertex
100
AcDb3dPolylineVertex
 10
525.6124375860424
 20
203.8617566129371
 30
0.0
 70
    32
  0
VERTEX
  5
248A
330
240B
100
AcDbEntity
  8
0
100
AcDbVertex
100
AcDb3dPolylineVertex
 10
525.6044375860424
 20
203.791756612936
 30
0.0
 70
    32
  0
VERTEX
  5
248B
330
240B
100
AcDbEntity
  8
0
100
AcDbVertex
100
AcDb3dPolylineVertex
 10
525.6004375860424
 20
203.7217566129363
 30
0.0
 70
    32
  0
VERTEX
  5
248C
330
240B
100
AcDbEntity
  8
0
100
AcDbVertex
100
AcDb3dPolylineVertex
 10
525.5984375860424
 20
203.6517566129371
 30
0.0
 70
    32
  0
SEQEND
  5
248D
330
240B
100
AcDbEntity
  8
0
  0
LINE
  5
248E
330
2B26
100
AcDbEntity
  8
0
100
AcDbLine
 10
384.9729682363395
 20
306.2452964722148
 30
0.0
 11
384.9729682363395
 21
323.5180554722151
 31
0.0
  0
LINE
  5
248F
330
2B26
100
AcDbEntity
  8
0
100
AcDbLine
 10
360.9729682363395
 20
306.2452964722148
 30
0.0
 11
360.9729682363395
 21
323.5180554722151
 31
0.0
  0
ARC
  5
2490
330
2B26
100
AcDbEntity
  8
0
100
AcDbCircle
 10
372.9729682363394
 20
335.910089472215
 30
0.0
 40
32.0
100
AcDbArc
 50
247.9756900000006
 51
292.0243099999992
  0
LINE
  5
2491
330
2B26
100
AcDbEntity
  8
0
100
AcDbLine
 10
362.6729802363396
 20
325.910089472215
 30
0.0
 11
423.9550242363395
 21
325.910089472215
 31
0.0
  0
LINE
  5
2492
330
2B26
100
AcDbEntity
  8
0
100
AcDbLine
 10
362.6729802363396
 20
345.910089472215
 30
0.0
 11
423.9550242363395
 21
345.910089472215
 31
0.0
  0
LINE
  5
2493
330
2B26
100
AcDbEntity
  8
0
100
AcDbLine
 10
384.9729682363395
 20
365.5748824722139
 30
0.0
 11
384.9729682363395
 21
348.302123472215
 31
0.0
  0
LINE
  5
2494
330
2B26
100
AcDbEntity
  8
0
100
AcDbLine
 10
360.9729682363395
 20
365.5748824722139
 30
0.0
 11
360.9729682363395
 21
348.302123472215
 31
0.0
  0
ARC
  5
2495
330
2B26
100
AcDbEntity
  8
0
100
AcDbCircle
 10
372.9729682363394
 20
335.910089472215
 30
0.0
 40
17.25
100
AcDbArc
 50
211.2936299999954
 51
324.5698400000004
  0
ARC
  5
2496
330
2B26
100
AcDbEntity
  8
0
100
AcDbCircle
 10
372.9729682363394
 20
335.910089472215
 30
0.0
 40
17.25
100
AcDbArc
 50
35.43015800000246
 51
148.7063700000043
  0
ARC
  5
249D
330
2B26
100
AcDbEntity
  8
0
100
AcDbCircle
 10
362.6729802363396
 20
335.910089472215
 30
0.0
 40
10.0
100
AcDbArc
 50
90.00000300000094
 51
270.0
  0
LINE
  5
249F
330
2B26
100
AcDbEntity
  8
0
100
AcDbLine
 10
340.4729682363395
 20
318.910089472215
 30
0.0
 11
340.4729682363395
 21
352.910089472215
 31
0.0
  0
ARC
  5
24A0
330
2B26
100
AcDbEntity
  8
0
100
AcDbCircle
 10
372.9729682363394
 20
335.910089472215
 30
0.0
 40
32.0
100
AcDbArc
 50
67.97568900000185
 51
112.0243099999992
  0
POLYLINE
  5
24A1
330
2B26
100
AcDbEntity
  8
0
100
AcDb3dPolyline
 66
     1
 10
0.0
 20
0.0
 30
0.0
 70
     8
  0
VERTEX
  5
24A2
330
24A1
100
AcDbEntity
  8
0
100
AcDbVertex
100
AcDb3dPolylineVertex
 10
423.9549682363393
 20
325.910089472215
 30
0.0
 70
    32
  0
VERTEX
  5
24A3
330
24A1
100
AcDbEntity
  8
0
100
AcDbVertex
100
AcDb3dPolylineVertex
 10
424.1539682363393
 20
325.910089472215
 30
0.0
 70
    32
  0
VERTEX
  5
24A4
330
24A1
100
AcDbEntity
  8
0
100
AcDbVertex
100
AcDb3dPolylineVertex
 10
424.3529682363393
 20
325.920089472215
 30
0.0
 70
    32
  0
VERTEX
  5
24A5
330
24A1
100
AcDbEntity
  8
0
100
AcDbVertex
100
AcDb3dPolylineVertex
 10
424.5519682363394
 20
325.9400894722149
 30
0.0
 70
    32
  0
VERTEX
  5
24A6
330
24A1
100
AcDbEntity
  8
0
100
AcDbVertex
100
AcDb3dPolylineVertex
 10
424.7499682363393
 20
325.9600894722149
 30
0.0
 70
    32
  0
VERTEX
  5
24A7
330
24A1
100
AcDbEntity
  8
0
100
AcDbVertex
100
AcDb3dPolylineVertex
 10
424.9479682363394
 20
325.990089472214
 30
0.0
 70
    32
  0
VERTEX
  5
24A8
330
24A1
100
AcDbEntity
  8
0
100
AcDbVertex
100
AcDb3dPolylineVertex
 10
425.1449682363394
 20
326.020089472214
 30
0.0
 70
    32
  0
VERTEX
  5
24A9
330
24A1
100
AcDbEntity
  8
0
100
AcDbVertex
100
AcDb3dPolylineVertex
 10
425.3419682363394
 20
326.0600894722148
 30
0.0
 70
    32
  0
VERTEX
  5
24AA
330
24A1
100
AcDbEntity
  8
0
100
AcDbVertex
100
AcDb3dPolylineVertex
 10
425.5369682363394
 20
326.1000894722148
 30
0.0
 70
    32
  0
VERTEX
  5
24AB
330
24A1
100
AcDbEntity
  8
0
100
AcDbVertex
100
AcDb3dPolylineVertex
 10
425.7319682363396
 20
326.1500894722149
 30
0.0
 70
    32
  0
VERTEX
  5
24AC
330
24A1
100
AcDbEntity
  8
0
100
AcDbVertex
100
AcDb3dPolylineVertex
 10
425.9259682363394
 20
326.2100894722142
 30
0.0
 70
    32
  0
VERTEX
  5
24AD
330
24A1
100
AcDbEntity
  8
0
100
AcDbVertex
100
AcDb3dPolylineVertex
 10
426.1179682363394
 20
326.2700894722148
 30
0.0
 70
    32
  0
VERTEX
  5
24AE
330
24A1
100
AcDbEntity
  8
0
100
AcDbVertex
100
AcDb3dPolylineVertex
 10
426.3099682363393
 20
326.3400894722149
 30
0.0
 70
    32
  0
VERTEX
  5
24AF
330
24A1
100
AcDbEntity
  8
0
100
AcDbVertex
100
AcDb3dPolylineVertex
 10
426.4989682363395
 20
326.4100894722151
 30
0.0
 70
    32
  0
VERTEX
  5
24B0
330
24A1
100
AcDbEntity
  8
0
100
AcDbVertex
100
AcDb3dPolylineVertex
 10
426.6879682363393
 20
326.490089472214
 30
0.0
 70
    32
  0
VERTEX
  5
24B1
330
24A1
100
AcDbEntity
  8
0
100
AcDbVertex
100
AcDb3dPolylineVertex
 10
426.8739682363396
 20
326.580089472214
 30
0.0
 70
    32
  0
VERTEX
  5
24B2
330
24A1
100
AcDbEntity
  8
0
100
AcDbVertex
100
AcDb3dPolylineVertex
 10
427.0589682363396
 20
326.670089472215
 30
0.0
 70
    32
  0
VERTEX
  5
24B3
330
24A1
100
AcDbEntity
  8
0
100
AcDbVertex
100
AcDb3dPolylineVertex
 10
427.2419682363396
 20
326.7700894722139
 30
0.0
 70
    32
  0
VERTEX
  5
24B4
330
24A1
100
AcDbEntity
  8
0
100
AcDbVertex
100
AcDb3dPolylineVertex
 10
427.4229682363396
 20
326.8700894722151
 30
0.0
 70
    32
  0
VERTEX
  5
24B5
330
24A1
100
AcDbEntity
  8
0
100
AcDbVertex
100
AcDb3dPolylineVertex
 10
427.6019682363394
 20
326.980089472215
 30
0.0
 70
    32
  0
VERTEX
  5
24B6
330
24A1
100
AcDbEntity
  8
0
100
AcDbVertex
100
AcDb3dPolylineVertex
 10
427.7789682363393
 20
327.0900894722149
 30
0.0
 70
    32
  0
VERTEX
  5
24B7
330
24A1
100
AcDbEntity
  8
0
100
AcDbVertex
100
AcDb3dPolylineVertex
 10
427.9529682363396
 20
327.2100894722142
 30
0.0
 70
    32
  0
VERTEX
  5
24B8
330
24A1
100
AcDbEntity
  8
0
100
AcDbVertex
100
AcDb3dPolylineVertex
 10
428.1249682363394
 20
327.3300894722148
 30
0.0
 70
    32
  0
VERTEX
  5
24B9
330
24A1
100
AcDbEntity
  8
0
100
AcDbVertex
100
AcDb3dPolylineVertex
 10
428.2949682363393
 20
327.4600894722149
 30
0.0
 70
    32
  0
VERTEX
  5
24BA
330
24A1
100
AcDbEntity
  8
0
100
AcDbVertex
100
AcDb3dPolylineVertex
 10
428.4609682363394
 20
327.6000894722149
 30
0.0
 70
    32
  0
VERTEX
  5
24BB
330
24A1
100
AcDbEntity
  8
0
100
AcDbVertex
100
AcDb3dPolylineVertex
 10
428.6259682363396
 20
327.730089472215
 30
0.0
 70
    32
  0
VERTEX
  5
24BC
330
24A1
100
AcDbEntity
  8
0
100
AcDbVertex
100
AcDb3dPolylineVertex
 10
428.7869682363393
 20
327.8800894722149
 30
0.0
 70
    32
  0
VERTEX
  5
24BD
330
24A1
100
AcDbEntity
  8
0
100
AcDbVertex
100
AcDb3dPolylineVertex
 10
428.9449682363394
 20
328.0300894722139
 30
0.0
 70
    32
  0
VERTEX
  5
24BE
330
24A1
100
AcDbEntity
  8
0
100
AcDbVertex
100
AcDb3dPolylineVertex
 10
429.1009682363394
 20
328.1800894722143
 30
0.0
 70
    32
  0
VERTEX
  5
24BF
330
24A1
100
AcDbEntity
  8
0
100
AcDbVertex
100
AcDb3dPolylineVertex
 10
429.2529682363396
 20
328.3400894722149
 30
0.0
 70
    32
  0
VERTEX
  5
24C0
330
24A1
100
AcDbEntity
  8
0
100
AcDbVertex
100
AcDb3dPolylineVertex
 10
429.4019682363396
 20
328.5000894722148
 30
0.0
 70
    32
  0
VERTEX
  5
24C1
330
24A1
100
AcDbEntity
  8
0
100
AcDbVertex
100
AcDb3dPolylineVertex
 10
429.5479682363393
 20
328.670089472215
 30
0.0
 70
    32
  0
VERTEX
  5
24C2
330
24A1
100
AcDbEntity
  8
0
100
AcDbVertex
100
AcDb3dPolylineVertex
 10
429.6909682363396
 20
328.8400894722149
 30
0.0
 70
    32
  0
VERTEX
  5
24C3
330
24A1
100
AcDbEntity
  8
0
100
AcDbVertex
100
AcDb3dPolylineVertex
 10
429.8299682363394
 20
329.0100894722148
 30
0.0
 70
    32
  0
VERTEX
  5
24C4
330
24A1
100
AcDbEntity
  8
0
100
AcDbVertex
100
AcDb3dPolylineVertex
 10
429.9649682363393
 20
329.1900894722143
 30
0.0
 70
    32
  0
VERTEX
  5
24C5
330
24A1
100
AcDbEntity
  8
0
100
AcDbVertex
100
AcDb3dPolylineVertex
 10
430.0969682363394
 20
329.3800894722132
 30
0.0
 70
    32
  0
VERTEX
  5
24C6
330
24A1
100
AcDbEntity
  8
0
100
AcDbVertex
100
AcDb3dPolylineVertex
 10
430.2249682363394
 20
329.5700894722148
 30
0.0
 70
    32
  0
VERTEX
  5
24C7
330
24A1
100
AcDbEntity
  8
0
100
AcDbVertex
100
AcDb3dPolylineVertex
 10
430.3499682363392
 20
329.7600894722147
 30
0.0
 70
    32
  0
VERTEX
  5
24C8
330
24A1
100
AcDbEntity
  8
0
100
AcDbVertex
100
AcDb3dPolylineVertex
 10
430.4699682363393
 20
329.9500894722149
 30
0.0
 70
    32
  0
VERTEX
  5
24C9
330
24A1
100
AcDbEntity
  8
0
100
AcDbVertex
100
AcDb3dPolylineVertex
 10
430.5869682363394
 20
330.1500894722136
 30
0.0
 70
    32
  0
VERTEX
  5
24CA
330
24A1
100
AcDbEntity
  8
0
100
AcDbVertex
100
AcDb3dPolylineVertex
 10
430.6989682363393
 20
330.3500894722148
 30
0.0
 70
    32
  0
VERTEX
  5
24CB
330
24A1
100
AcDbEntity
  8
0
100
AcDbVertex
100
AcDb3dPolylineVertex
 10
430.8079682363393
 20
330.5600894722148
 30
0.0
 70
    32
  0
VERTEX
  5
24CC
330
24A1
100
AcDbEntity
  8
0
100
AcDbVertex
100
AcDb3dPolylineVertex
 10
430.9119682363394
 20
330.770089472214
 30
0.0
 70
    32
  0
VERTEX
  5
24CD
330
24A1
100
AcDbEntity
  8
0
100
AcDbVertex
100
AcDb3dPolylineVertex
 10
431.0129682363394
 20
330.980089472215
 30
0.0
 70
    32
  0
VERTEX
  5
24CE
330
24A1
100
AcDbEntity
  8
0
100
AcDbVertex
100
AcDb3dPolylineVertex
 10
431.1089682363394
 20
331.2000894722138
 30
0.0
 70
    32
  0
VERTEX
  5
24CF
330
24A1
100
AcDbEntity
  8
0
100
AcDbVertex
100
AcDb3dPolylineVertex
 10
431.1999682363394
 20
331.410089472215
 30
0.0
 70
    32
  0
VERTEX
  5
24D0
330
24A1
100
AcDbEntity
  8
0
100
AcDbVertex
100
AcDb3dPolylineVertex
 10
431.2879682363393
 20
331.6300894722136
 30
0.0
 70
    32
  0
VERTEX
  5
24D1
330
24A1
100
AcDbEntity
  8
0
100
AcDbVertex
100
AcDb3dPolylineVertex
 10
431.3699682363393
 20
331.8600894722151
 30
0.0
 70
    32
  0
VERTEX
  5
24D2
330
24A1
100
AcDbEntity
  8
0
100
AcDbVertex
100
AcDb3dPolylineVertex
 10
431.4489682363396
 20
332.0800894722148
 30
0.0
 70
    32
  0
VERTEX
  5
24D3
330
24A1
100
AcDbEntity
  8
0
100
AcDbVertex
100
AcDb3dPolylineVertex
 10
431.5229682363394
 20
332.3100894722148
 30
0.0
 70
    32
  0
VERTEX
  5
24D4
330
24A1
100
AcDbEntity
  8
0
100
AcDbVertex
100
AcDb3dPolylineVertex
 10
431.5919682363394
 20
332.5400894722146
 30
0.0
 70
    32
  0
VERTEX
  5
24D5
330
24A1
100
AcDbEntity
  8
0
100
AcDbVertex
100
AcDb3dPolylineVertex
 10
431.6569682363396
 20
332.7700894722147
 30
0.0
 70
    32
  0
VERTEX
  5
24D6
330
24A1
100
AcDbEntity
  8
0
100
AcDbVertex
100
AcDb3dPolylineVertex
 10
431.7169682363394
 20
333.010089472214
 30
0.0
 70
    32
  0
VERTEX
  5
24D7
330
24A1
100
AcDbEntity
  8
0
100
AcDbVertex
100
AcDb3dPolylineVertex
 10
431.7719682363396
 20
333.2400894722147
 30
0.0
 70
    32
  0
VERTEX
  5
24D8
330
24A1
100
AcDbEntity
  8
0
100
AcDbVertex
100
AcDb3dPolylineVertex
 10
431.8229682363393
 20
333.4800894722141
 30
0.0
 70
    32
  0
VERTEX
  5
24D9
330
24A1
100
AcDbEntity
  8
0
100
AcDbVertex
100
AcDb3dPolylineVertex
 10
431.8689682363393
 20
333.720089472215
 30
0.0
 70
    32
  0
VERTEX
  5
24DA
330
24A1
100
AcDbEntity
  8
0
100
AcDbVertex
100
AcDb3dPolylineVertex
 10
431.9099682363393
 20
333.9600894722137
 30
0.0
 70
    32
  0
VERTEX
  5
24DB
330
24A1
100
AcDbEntity
  8
0
100
AcDbVertex
100
AcDb3dPolylineVertex
 10
431.9469682363393
 20
334.2000894722138
 30
0.0
 70
    32
  0
VERTEX
  5
24DC
330
24A1
100
AcDbEntity
  8
0
100
AcDbVertex
100
AcDb3dPolylineVertex
 10
431.9779682363395
 20
334.4400894722149
 30
0.0
 70
    32
  0
VERTEX
  5
24DD
330
24A1
100
AcDbEntity
  8
0
100
AcDbVertex
100
AcDb3dPolylineVertex
 10
432.0049682363396
 20
334.6900894722149
 30
0.0
 70
    32
  0
VERTEX
  5
24DE
330
24A1
100
AcDbEntity
  8
0
100
AcDbVertex
100
AcDb3dPolylineVertex
 10
432.0269682363393
 20
334.930089472215
 30
0.0
 70
    32
  0
VERTEX
  5
24DF
330
24A1
100
AcDbEntity
  8
0
100
AcDbVertex
100
AcDb3dPolylineVertex
 10
432.0439682363394
 20
335.1700894722136
 30
0.0
 70
    32
  0
VERTEX
  5
24E0
330
24A1
100
AcDbEntity
  8
0
100
AcDbVertex
100
AcDb3dPolylineVertex
 10
432.0569682363395
 20
335.4200894722136
 30
0.0
 70
    32
  0
VERTEX
  5
24E1
330
24A1
100
AcDbEntity
  8
0
100
AcDbVertex
100
AcDb3dPolylineVertex
 10
432.0639682363396
 20
335.660089472215
 30
0.0
 70
    32
  0
VERTEX
  5
24E2
330
24A1
100
AcDbEntity
  8
0
100
AcDbVertex
100
AcDb3dPolylineVertex
 10
432.0659682363396
 20
335.910089472215
 30
0.0
 70
    32
  0
VERTEX
  5
24E3
330
24A1
100
AcDbEntity
  8
0
100
AcDbVertex
100
AcDb3dPolylineVertex
 10
432.0639682363396
 20
336.160089472215
 30
0.0
 70
    32
  0
VERTEX
  5
24E4
330
24A1
100
AcDbEntity
  8
0
100
AcDbVertex
100
AcDb3dPolylineVertex
 10
432.0569682363395
 20
336.4000894722136
 30
0.0
 70
    32
  0
VERTEX
  5
24E5
330
24A1
100
AcDbEntity
  8
0
100
AcDbVertex
100
AcDb3dPolylineVertex
 10
432.0439682363394
 20
336.6500894722136
 30
0.0
 70
    32
  0
VERTEX
  5
24E6
330
24A1
100
AcDbEntity
  8
0
100
AcDbVertex
100
AcDb3dPolylineVertex
 10
432.0269682363393
 20
336.8900894722151
 30
0.0
 70
    32
  0
VERTEX
  5
24E7
330
24A1
100
AcDbEntity
  8
0
100
AcDbVertex
100
AcDb3dPolylineVertex
 10
432.0049682363396
 20
337.1300894722151
 30
0.0
 70
    32
  0
VERTEX
  5
24E8
330
24A1
100
AcDbEntity
  8
0
100
AcDbVertex
100
AcDb3dPolylineVertex
 10
431.9779682363395
 20
337.3800894722151
 30
0.0
 70
    32
  0
VERTEX
  5
24E9
330
24A1
100
AcDbEntity
  8
0
100
AcDbVertex
100
AcDb3dPolylineVertex
 10
431.9469682363393
 20
337.6200894722132
 30
0.0
 70
    32
  0
VERTEX
  5
24EA
330
24A1
100
AcDbEntity
  8
0
100
AcDbVertex
100
AcDb3dPolylineVertex
 10
431.9099682363393
 20
337.8600894722136
 30
0.0
 70
    32
  0
VERTEX
  5
24EB
330
24A1
100
AcDbEntity
  8
0
100
AcDbVertex
100
AcDb3dPolylineVertex
 10
431.8689682363393
 20
338.1000894722149
 30
0.0
 70
    32
  0
VERTEX
  5
24EC
330
24A1
100
AcDbEntity
  8
0
100
AcDbVertex
100
AcDb3dPolylineVertex
 10
431.8229682363393
 20
338.3400894722149
 30
0.0
 70
    32
  0
VERTEX
  5
24ED
330
24A1
100
AcDbEntity
  8
0
100
AcDbVertex
100
AcDb3dPolylineVertex
 10
431.7719682363396
 20
338.5800894722148
 30
0.0
 70
    32
  0
VERTEX
  5
24EE
330
24A1
100
AcDbEntity
  8
0
100
AcDbVertex
100
AcDb3dPolylineVertex
 10
431.7169682363394
 20
338.810089472214
 30
0.0
 70
    32
  0
VERTEX
  5
24EF
330
24A1
100
AcDbEntity
  8
0
100
AcDbVertex
100
AcDb3dPolylineVertex
 10
431.6569682363396
 20
339.0500894722147
 30
0.0
 70
    32
  0
VERTEX
  5
24F0
330
24A1
100
AcDbEntity
  8
0
100
AcDbVertex
100
AcDb3dPolylineVertex
 10
431.5919682363394
 20
339.280089472214
 30
0.0
 70
    32
  0
VERTEX
  5
24F1
330
24A1
100
AcDbEntity
  8
0
100
AcDbVertex
100
AcDb3dPolylineVertex
 10
431.5229682363394
 20
339.5100894722131
 30
0.0
 70
    32
  0
VERTEX
  5
24F2
330
24A1
100
AcDbEntity
  8
0
100
AcDbVertex
100
AcDb3dPolylineVertex
 10
431.4489682363396
 20
339.740089472214
 30
0.0
 70
    32
  0
VERTEX
  5
24F3
330
24A1
100
AcDbEntity
  8
0
100
AcDbVertex
100
AcDb3dPolylineVertex
 10
431.3699682363393
 20
339.9600894722149
 30
0.0
 70
    32
  0
VERTEX
  5
24F4
330
24A1
100
AcDbEntity
  8
0
100
AcDbVertex
100
AcDb3dPolylineVertex
 10
431.2879682363393
 20
340.1900894722136
 30
0.0
 70
    32
  0
VERTEX
  5
24F5
330
24A1
100
AcDbEntity
  8
0
100
AcDbVertex
100
AcDb3dPolylineVertex
 10
431.1999682363394
 20
340.410089472215
 30
0.0
 70
    32
  0
VERTEX
  5
24F6
330
24A1
100
AcDbEntity
  8
0
100
AcDbVertex
100
AcDb3dPolylineVertex
 10
431.1089682363394
 20
340.6200894722151
 30
0.0
 70
    32
  0
VERTEX
  5
24F7
330
24A1
100
AcDbEntity
  8
0
100
AcDbVertex
100
AcDb3dPolylineVertex
 10
431.0129682363394
 20
340.8400894722149
 30
0.0
 70
    32
  0
VERTEX
  5
24F8
330
24A1
100
AcDbEntity
  8
0
100
AcDbVertex
100
AcDb3dPolylineVertex
 10
430.9119682363394
 20
341.0500894722147
 30
0.0
 70
    32
  0
VERTEX
  5
24F9
330
24A1
100
AcDbEntity
  8
0
100
AcDbVertex
100
AcDb3dPolylineVertex
 10
430.8079682363393
 20
341.2600894722146
 30
0.0
 70
    32
  0
VERTEX
  5
24FA
330
24A1
100
AcDbEntity
  8
0
100
AcDbVertex
100
AcDb3dPolylineVertex
 10
430.6989682363393
 20
341.4700894722138
 30
0.0
 70
    32
  0
VERTEX
  5
24FB
330
24A1
100
AcDbEntity
  8
0
100
AcDbVertex
100
AcDb3dPolylineVertex
 10
430.5869682363394
 20
341.6700894722136
 30
0.0
 70
    32
  0
VERTEX
  5
24FC
330
24A1
100
AcDbEntity
  8
0
100
AcDbVertex
100
AcDb3dPolylineVertex
 10
430.4699682363393
 20
341.8700894722151
 30
0.0
 70
    32
  0
VERTEX
  5
24FD
330
24A1
100
AcDbEntity
  8
0
100
AcDbVertex
100
AcDb3dPolylineVertex
 10
430.3499682363392
 20
342.0600894722149
 30
0.0
 70
    32
  0
VERTEX
  5
24FE
330
24A1
100
AcDbEntity
  8
0
100
AcDbVertex
100
AcDb3dPolylineVertex
 10
430.2249682363394
 20
342.2500894722131
 30
0.0
 70
    32
  0
VERTEX
  5
24FF
330
24A1
100
AcDbEntity
  8
0
100
AcDbVertex
100
AcDb3dPolylineVertex
 10
430.0969682363394
 20
342.4400894722136
 30
0.0
 70
    32
  0
VERTEX
  5
2500
330
24A1
100
AcDbEntity
  8
0
100
AcDbVertex
100
AcDb3dPolylineVertex
 10
429.9649682363393
 20
342.6300894722132
 30
0.0
 70
    32
  0
VERTEX
  5
2501
330
24A1
100
AcDbEntity
  8
0
100
AcDbVertex
100
AcDb3dPolylineVertex
 10
429.8299682363394
 20
342.8100894722148
 30
0.0
 70
    32
  0
VERTEX
  5
2502
330
24A1
100
AcDbEntity
  8
0
100
AcDbVertex
100
AcDb3dPolylineVertex
 10
429.6909682363396
 20
342.980089472215
 30
0.0
 70
    32
  0
VERTEX
  5
2503
330
24A1
100
AcDbEntity
  8
0
100
AcDbVertex
100
AcDb3dPolylineVertex
 10
429.5479682363393
 20
343.1500894722149
 30
0.0
 70
    32
  0
VERTEX
  5
2504
330
24A1
100
AcDbEntity
  8
0
100
AcDbVertex
100
AcDb3dPolylineVertex
 10
429.4019682363396
 20
343.3200894722148
 30
0.0
 70
    32
  0
VERTEX
  5
2505
330
24A1
100
AcDbEntity
  8
0
100
AcDbVertex
100
AcDb3dPolylineVertex
 10
429.2529682363396
 20
343.480089472215
 30
0.0
 70
    32
  0
VERTEX
  5
2506
330
24A1
100
AcDbEntity
  8
0
100
AcDbVertex
100
AcDb3dPolylineVertex
 10
429.1009682363394
 20
343.640089472215
 30
0.0
 70
    32
  0
VERTEX
  5
2507
330
24A1
100
AcDbEntity
  8
0
100
AcDbVertex
100
AcDb3dPolylineVertex
 10
428.9449682363394
 20
343.7900894722146
 30
0.0
 70
    32
  0
VERTEX
  5
2508
330
24A1
100
AcDbEntity
  8
0
100
AcDbVertex
100
AcDb3dPolylineVertex
 10
428.7869682363393
 20
343.940089472215
 30
0.0
 70
    32
  0
VERTEX
  5
2509
330
24A1
100
AcDbEntity
  8
0
100
AcDbVertex
100
AcDb3dPolylineVertex
 10
428.6259682363396
 20
344.0900894722149
 30
0.0
 70
    32
  0
VERTEX
  5
250A
330
24A1
100
AcDbEntity
  8
0
100
AcDbVertex
100
AcDb3dPolylineVertex
 10
428.4609682363394
 20
344.2200894722137
 30
0.0
 70
    32
  0
VERTEX
  5
250B
330
24A1
100
AcDbEntity
  8
0
100
AcDbVertex
100
AcDb3dPolylineVertex
 10
428.2949682363393
 20
344.3600894722151
 30
0.0
 70
    32
  0
VERTEX
  5
250C
330
24A1
100
AcDbEntity
  8
0
100
AcDbVertex
100
AcDb3dPolylineVertex
 10
428.1249682363394
 20
344.490089472214
 30
0.0
 70
    32
  0
VERTEX
  5
250D
330
24A1
100
AcDbEntity
  8
0
100
AcDbVertex
100
AcDb3dPolylineVertex
 10
427.9529682363396
 20
344.610089472213
 30
0.0
 70
    32
  0
VERTEX
  5
250E
330
24A1
100
AcDbEntity
  8
0
100
AcDbVertex
100
AcDb3dPolylineVertex
 10
427.7789682363393
 20
344.7300894722149
 30
0.0
 70
    32
  0
VERTEX
  5
250F
330
24A1
100
AcDbEntity
  8
0
100
AcDbVertex
100
AcDb3dPolylineVertex
 10
427.6019682363394
 20
344.8400894722149
 30
0.0
 70
    32
  0
VERTEX
  5
2510
330
24A1
100
AcDbEntity
  8
0
100
AcDbVertex
100
AcDb3dPolylineVertex
 10
427.4229682363396
 20
344.9500894722149
 30
0.0
 70
    32
  0
VERTEX
  5
2511
330
24A1
100
AcDbEntity
  8
0
100
AcDbVertex
100
AcDb3dPolylineVertex
 10
427.2419682363396
 20
345.0500894722147
 30
0.0
 70
    32
  0
VERTEX
  5
2512
330
24A1
100
AcDbEntity
  8
0
100
AcDbVertex
100
AcDb3dPolylineVertex
 10
427.0589682363396
 20
345.1500894722149
 30
0.0
 70
    32
  0
VERTEX
  5
2513
330
24A1
100
AcDbEntity
  8
0
100
AcDbVertex
100
AcDb3dPolylineVertex
 10
426.8739682363396
 20
345.240089472214
 30
0.0
 70
    32
  0
VERTEX
  5
2514
330
24A1
100
AcDbEntity
  8
0
100
AcDbVertex
100
AcDb3dPolylineVertex
 10
426.6879682363393
 20
345.3300894722139
 30
0.0
 70
    32
  0
VERTEX
  5
2515
330
24A1
100
AcDbEntity
  8
0
100
AcDbVertex
100
AcDb3dPolylineVertex
 10
426.4989682363395
 20
345.4100894722136
 30
0.0
 70
    32
  0
VERTEX
  5
2516
330
24A1
100
AcDbEntity
  8
0
100
AcDbVertex
100
AcDb3dPolylineVertex
 10
426.3099682363393
 20
345.4800894722149
 30
0.0
 70
    32
  0
VERTEX
  5
2517
330
24A1
100
AcDbEntity
  8
0
100
AcDbVertex
100
AcDb3dPolylineVertex
 10
426.1179682363394
 20
345.5500894722147
 30
0.0
 70
    32
  0
VERTEX
  5
2518
330
24A1
100
AcDbEntity
  8
0
100
AcDbVertex
100
AcDb3dPolylineVertex
 10
425.9259682363394
 20
345.6100894722151
 30
0.0
 70
    32
  0
VERTEX
  5
2519
330
24A1
100
AcDbEntity
  8
0
100
AcDbVertex
100
AcDb3dPolylineVertex
 10
425.7319682363396
 20
345.6700894722149
 30
0.0
 70
    32
  0
VERTEX
  5
251A
330
24A1
100
AcDbEntity
  8
0
100
AcDbVertex
100
AcDb3dPolylineVertex
 10
425.5369682363394
 20
345.720089472215
 30
0.0
 70
    32
  0
VERTEX
  5
251B
330
24A1
100
AcDbEntity
  8
0
100
AcDbVertex
100
AcDb3dPolylineVertex
 10
425.3419682363394
 20
345.7600894722141
 30
0.0
 70
    32
  0
VERTEX
  5
251C
330
24A1
100
AcDbEntity
  8
0
100
AcDbVertex
100
AcDb3dPolylineVertex
 10
425.1449682363394
 20
345.8000894722147
 30
0.0
 70
    32
  0
VERTEX
  5
251D
330
24A1
100
AcDbEntity
  8
0
100
AcDbVertex
100
AcDb3dPolylineVertex
 10
424.9479682363394
 20
345.8300894722129
 30
0.0
 70
    32
  0
VERTEX
  5
251E
330
24A1
100
AcDbEntity
  8
0
100
AcDbVertex
100
AcDb3dPolylineVertex
 10
424.7499682363393
 20
345.8600894722151
 30
0.0
 70
    32
  0
VERTEX
  5
251F
330
24A1
100
AcDbEntity
  8
0
100
AcDbVertex
100
AcDb3dPolylineVertex
 10
424.5519682363394
 20
345.8800894722151
 30
0.0
 70
    32
  0
VERTEX
  5
2520
330
24A1
100
AcDbEntity
  8
0
100
AcDbVertex
100
AcDb3dPolylineVertex
 10
424.3529682363393
 20
345.900089472215
 30
0.0
 70
    32
  0
VERTEX
  5
2521
330
24A1
100
AcDbEntity
  8
0
100
AcDbVertex
100
AcDb3dPolylineVertex
 10
424.1539682363393
 20
345.910089472215
 30
0.0
 70
    32
  0
VERTEX
  5
2522
330
24A1
100
AcDbEntity
  8
0
100
AcDbVertex
100
AcDb3dPolylineVertex
 10
423.9549682363393
 20
345.910089472215
 30
0.0
 70
    32
  0
SEQEND
  5
2523
330
24A1
100
AcDbEntity
  8
0
  0
LINE
  5
2524
330
2B26
100
AcDbEntity
  8
0
100
AcDbLine
 10
405.4729682363396
 20
352.910089472215
 30
0.0
 11
402.6229702363393
 21
352.910089472215
 31
0.0
  0
LINE
  5
2525
330
2B26
100
AcDbEntity
  8
0
100
AcDbLine
 10
402.6229692363393
 20
352.9100904722146
 30
0.0
 11
400.0751772363396
 21
345.9100890722146
 31
0.0
  0
LINE
  5
2526
330
2B26
100
AcDbEntity
  8
0
100
AcDbLine
 10
405.4729682363396
 20
345.910089472215
 30
0.0
 11
405.4729682363396
 21
352.910089472215
 31
0.0
  0
LINE
  5
2527
330
2B26
100
AcDbEntity
  8
0
100
AcDbLine
 10
405.4729682363396
 20
327.260089872215
 30
0.0
 11
405.4729682363396
 21
344.560089072215
 31
0.0
  0
LINE
  5
2528
330
2B26
100
AcDbEntity
  8
0
100
AcDbLine
 10
402.9742502363395
 20
340.9100894722136
 30
0.0
 11
416.3049992363394
 21
340.9100894722136
 31
0.0
  0
LINE
  5
2529
330
2B26
100
AcDbEntity
  8
0
100
AcDbLine
 10
402.9742502363395
 20
330.910089472215
 30
0.0
 11
416.3049992363394
 21
330.910089472215
 31
0.0
  0
LINE
  5
252A
330
2B26
100
AcDbEntity
  8
0
100
AcDbLine
 10
405.4729682363396
 20
318.910089472215
 30
0.0
 11
405.4729682363396
 21
325.910089472215
 31
0.0
  0
LINE
  5
252B
330
2B26
100
AcDbEntity
  8
0
100
AcDbLine
 10
402.6229692363393
 20
318.9100884722149
 30
0.0
 11
400.0751772363396
 21
325.9100898722148
 31
0.0
  0
LINE
  5
252C
330
2B26
100
AcDbEntity
  8
0
100
AcDbLine
 10
405.4729682363396
 20
318.910089472215
 30
0.0
 11
402.6229702363393
 21
318.910089472215
 31
0.0
  0
ARC
  5
252D
330
2B26
100
AcDbEntity
  8
0
100
AcDbCircle
 10
402.9742502363395
 20
335.910089472215
 30
0.0
 40
5.0
100
AcDbArc
 50
90.00000300000094
 51
270.0
  0
ARC
  5
252E
330
2B26
100
AcDbEntity
  8
0
100
AcDbCircle
 10
416.3049992363394
 20
335.910089472215
 30
0.0
 40
5.0
100
AcDbArc
 50
270.0
 51
90.00000300000094
  0
LINE
  5
29D2
330
2B26
100
AcDbEntity
  8
AM_0N
100
AcDbLine
 10
343.3229676363395
 20
110.9517566129369
 30
0.0
 11
346.3621193363394
 21
119.3017570129369
 31
0.0
  0
LINE
  5
29D5
330
2B26
100
AcDbEntity
  8
AM_0N
100
AcDbLine
 10
340.4729682363395
 20
110.9517566129369
 30
0.0
 11
343.3229676363395
 21
110.9517566129369
 31
0.0
  0
LINE
  5
29D6
330
2B26
100
AcDbEntity
  8
AM_0N
100
AcDbLine
 10
340.4729682363395
 20
144.951756612937
 30
0.0
 11
343.3229676363395
 21
144.951756612937
 31
0.0
  0
LINE
  5
29D7
330
2B26
100
AcDbEntity
  8
0
100
AcDbLine
 10
346.3621193363394
 20
136.6017562129362
 30
0.0
 11
346.3621193363394
 21
119.3017570129369
 31
0.0
  0
LINE
  5
29D9
330
2B26
100
AcDbEntity
  8
AM_0N
100
AcDbLine
 10
346.3621193363394
 20
136.6017562129362
 30
0.0
 11
360.9729682363395
 21
136.6017562129362
 31
0.0
  0
LINE
  5
29DA
330
2B26
100
AcDbEntity
  8
AM_0N
100
AcDbLine
 10
346.3621193363394
 20
119.3017570129369
 30
0.0
 11
360.9729682363395
 21
119.3017570129369
 31
0.0
  0
LINE
  5
29DB
330
2B26
100
AcDbEntity
  8
AM_0N
100
AcDbLine
 10
343.3229676363395
 20
144.951756612937
 30
0.0
 11
346.3621193363394
 21
136.6017562129362
 31
0.0
  0
LINE
  5
29E6
330
2B26
100
AcDbEntity
  8
AM_0N
100
AcDbLine
 10
399.5838171363393
 20
119.3017570129369
 30
0.0
 11
384.9729682363393
 21
119.3017570129369
 31
0.0
  0
LINE
  5
29E7
330
2B26
100
AcDbEntity
  8
AM_0N
100
AcDbLine
 10
399.5838171363393
 20
136.6017562129362
 30
0.0
 11
384.9729682363393
 21
136.6017562129362
 31
0.0
  0
LINE
  5
29E8
330
2B26
100
AcDbEntity
  8
AM_0N
100
AcDbLine
 10
402.6229688363393
 20
110.9517566129369
 30
0.0
 11
399.5838171363393
 21
119.3017570129369
 31
0.0
  0
LINE
  5
29E9
330
2B26
100
AcDbEntity
  8
0
100
AcDbLine
 10
405.4729682363393
 20
110.9517566129369
 30
0.0
 11
405.4729682363393
 21
144.951756612937
 31
0.0
  0
LINE
  5
29EA
330
2B26
100
AcDbEntity
  8
AM_0N
100
AcDbLine
 10
405.4729682363393
 20
110.9517566129369
 30
0.0
 11
402.6229688363393
 21
110.9517566129369
 31
0.0
  0
LINE
  5
29EB
330
2B26
100
AcDbEntity
  8
AM_0N
100
AcDbLine
 10
402.6229688363393
 20
144.951756612937
 30
0.0
 11
399.5838171363393
 21
136.6017562129362
 31
0.0
  0
POINT
  5
29EC
330
2B26
100
AcDbEntity
  8
AM_0N
100
AcDbPoint
 10
375.7543596676403
 20
127.9517566129369
 30
0.0
  0
LINE
  5
29ED
330
2B26
100
AcDbEntity
  8
0
100
AcDbLine
 10
399.5838171363393
 20
136.6017562129362
 30
0.0
 11
399.5838171363393
 21
119.3017570129369
 31
0.0
  0
LINE
  5
29EE
330
2B26
100
AcDbEntity
  8
AM_0N
100
AcDbLine
 10
405.4729682363393
 20
144.951756612937
 30
0.0
 11
402.6229688363393
 21
144.951756612937
 31
0.0
  0
LINE
  5
29EF
330
2B26
100
AcDbEntity
  8
0
100
AcDbLine
 10
405.4729682363393
 20
121.951756612937
 30
0.0
 11
405.4729682363393
 21
133.951756612937
 31
0.0
  0
LINE
  5
2A04
330
2B26
100
AcDbEntity
  8
AM_0N
100
AcDbLine
 10
346.3621193363394
 20
327.260089872215
 30
0.0
 11
357.6552609416793
 21
327.260089872215
 31
0.0
  0
LINE
  5
2A05
330
2B26
100
AcDbEntity
  8
AM_0N
100
AcDbLine
 10
346.3621193363394
 20
344.560089072215
 30
0.0
 11
357.6552609416793
 21
344.560089072215
 31
0.0
  0
LINE
  5
2A06
330
2B26
100
AcDbEntity
  8
AM_0N
100
AcDbLine
 10
343.3229676363395
 20
318.910089472215
 30
0.0
 11
346.3621193363394
 21
327.260089872215
 31
0.0
  0
LINE
  5
2A08
330
2B26
100
AcDbEntity
  8
AM_0N
100
AcDbLine
 10
340.4729682363395
 20
318.910089472215
 30
0.0
 11
343.3229676363395
 21
318.910089472215
 31
0.0
  0
LINE
  5
2A09
330
2B26
100
AcDbEntity
  8
AM_0N
100
AcDbLine
 10
343.3229676363395
 20
352.910089472215
 30
0.0
 11
346.3621193363394
 21
344.560089072215
 31
0.0
  0
POINT
  5
2A0A
330
2B26
100
AcDbEntity
  8
AM_0N
100
AcDbPoint
 10
340.4729682363395
 20
335.910089472215
 30
0.0
  0
LINE
  5
2A0B
330
2B26
100
AcDbEntity
  8
0
100
AcDbLine
 10
346.3621193363394
 20
344.560089072215
 30
0.0
 11
346.3621193363394
 21
327.260089872215
 31
0.0
  0
LINE
  5
2A0C
330
2B26
100
AcDbEntity
  8
AM_0N
100
AcDbLine
 10
340.4729682363395
 20
352.910089472215
 30
0.0
 11
343.3229676363395
 21
352.910089472215
 31
0.0
  0
LINE
  5
2A0D
330
2B26
100
AcDbEntity
  8
0
100
AcDbLine
 10
340.4729682363395
 20
329.910089472215
 30
0.0
 11
340.4729682363395
 21
341.910089472215
 31
0.0
  0
CIRCLE
  5
2A0E
330
2B26
100
AcDbEntity
  8
0
  6
Continuous
100
AcDbCircle
 10
530.5987491891346
 20
127.9517566129369
 30
0.0
 40
8.649999599999773
  0
CIRCLE
  5
2A10
330
2B26
100
AcDbEntity
  8
0
  6
Continuous
100
AcDbCircle
 10
222.9729682363395
 20
127.9517566129369
 30
0.0
 40
8.649999599999773
  0
LINE
  5
2B9E
330
2B26
100
AcDbEntity
  8
0
  6
CENTER
100
AcDbLine
 10
372.9729682363394
 20
86.080445996401
 30
0.0
 11
372.9729682363394
 21
203.981942847588
 31
0.0
  0
LINE
  5
2B9F
330
2B26
100
AcDbEntity
  8
0
  6
CENTER
100
AcDbLine
 10
332.2005219909124
 20
127.9632315817027
 30
0.0
 11
413.7454144817666
 21
127.9632315817027
 31
0.0
  0
LINE
  5
2BA0
330
2B26
100
AcDbEntity
  8
0
  6
CENTER
100
AcDbLine
 10
489.8263029437075
 20
127.9517566129369
 30
0.0
 11
571.3711954345617
 21
127.9517566129369
 31
0.0
  0
LINE
  5
2BA1
330
2B26
100
AcDbEntity
  8
0
  6
CENTER
100
AcDbLine
 10
530.5987491891346
 20
86.06897102763531
 30
0.0
 11
530.5987491891346
 21
226.6339063634361
 31
0.0
  0
LINE
  5
2BA2
330
2B26
100
AcDbEntity
  8
0
  6
CENTER
100
AcDbLine
 10
442.2238774355437
 20
335.9100894722152
 30
0.0
 11
329.6428141514526
 21
335.9100894722149
 31
0.0
  0
LINE
  5
2BA3
330
2B26
100
AcDbEntity
  8
0
  6
CENTER
100
AcDbLine
 10
372.9729682363394
 20
294.4975837348076
 30
0.0
 11
372.9729682363394
 21
377.3225952096225
 31
0.0
  0
LINE
  5
2BA4
330
2B26
100
AcDbEntity
  8
0
  6
CENTER
100
AcDbLine
 10
182.2005219909124
 20
127.9517566129369
 30
0.0
 11
263.7454144817666
 21
127.9517566129369
 31
0.0
  0
LINE
  5
2BA5
330
2B26
100
AcDbEntity
  8
0
  6
CENTER
100
AcDbLine
 10
222.9729682363395
 20
86.06897102763531
 30
0.0
 11
222.9729682363395
 21
226.6339063634361
 31
0.0
  0
ENDSEC
  0
SECTION
  2
OBJECTS
  0
DICTIONARY
  5
2B14
330
0
100
AcDbDictionary
281
     1
  3
ACAD_GROUP
350
2B15
  3
ACAD_LAYOUT
350
2B21
  3
ACAD_MLINESTYLE
350
2B1E
  3
ACAD_PLOTSETTINGS
350
2B20
  3
ACAD_PLOTSTYLENAME
350
2B16
  3
AcDbVariableDictionary
350
2B89
  0
DICTIONARY
  5
2B90
330
2B0A
100
AcDbDictionary
280
     1
281
     1
  3
ACAD_LAYERSTATES
360
2B91
  0
DICTIONARY
  5
2B4B
330
2B26
100
AcDbDictionary
280
     1
281
     1
  3
ACAD_LAYOUTSELFREF
360
2B7A
  0
DICTIONARY
  5
2B4D
330
2B22
100
AcDbDictionary
280
     1
281
     1
  3
ACAD_LAYOUTSELFREF
360
2B79
  0
DICTIONARY
  5
2B15
102
{ACAD_REACTORS
330
2B14
102
}
330
2B14
100
AcDbDictionary
281
     1
  0
DICTIONARY
  5
2B21
102
{ACAD_REACTORS
330
2B14
102
}
330
2B14
100
AcDbDictionary
281
     1
  3
Model
350
2B29
  3
ﾚｲｱｳﾄ1
350
2B25
  0
DICTIONARY
  5
2B1E
102
{ACAD_REACTORS
330
2B14
102
}
330
2B14
100
AcDbDictionary
281
     1
  3
Standard
350
2B1F
  0
DICTIONARY
  5
2B20
102
{ACAD_REACTORS
330
2B14
102
}
330
2B14
100
AcDbDictionary
281
     1
  0
ACDBDICTIONARYWDFLT
  5
2B16
102
{ACAD_REACTORS
330
2B14
102
}
330
2B14
100
AcDbDictionary
281
     1
  3
Normal
350
2B17
100
AcDbDictionaryWithDefault
340
2B17
  0
DICTIONARY
  5
2B89
102
{ACAD_REACTORS
330
2B14
102
}
330
2B14
100
AcDbDictionary
281
     1
  3
DIMASSOC
350
2B8A
  0
DICTIONARY
  5
2B91
102
{ACAD_REACTORS
330
2B90
102
}
330
2B90
100
AcDbDictionary
281
     1
  0
XRECORD
  5
2B7A
102
{ACAD_REACTORS
330
2B4B
102
}
330
2B4B
100
AcDbXrecord
280
     1
340
2B26
  0
XRECORD
  5
2B79
102
{ACAD_REACTORS
330
2B4D
102
}
330
2B4D
100
AcDbXrecord
280
     1
340
2B22
  0
LAYOUT
  5
2B29
102
{ACAD_REACTORS
330
2B21
102
}
330
2B21
100
AcDbPlotSettings
  1

  2
SII LP-2150 (D-SCAN C2)
  4

  6

 40
0.0
 41
0.0
 42
0.0
 43
0.0
 44
0.0
 45
0.0
 46
0.0
 47
0.0
 48
0.0
 49
0.0
140
0.0
141
0.0
142
1.0
143
1.0
 70
  1712
 72
     0
 73
     0
 74
     0
  7

 75
     0
147
1.0
148
0.0
149
0.0
100
AcDbLayout
  1
Model
 70
     1
 71
     0
 10
0.0
 20
0.0
 11
12.0
 21
9.0
 12
0.0
 22
0.0
 32
0.0
 14
0.0
 24
0.0
 34
0.0
 15
0.0
 25
0.0
 35
0.0
146
0.0
 13
0.0
 23
0.0
 33
0.0
 16
1.0
 26
0.0
 36
0.0
 17
0.0
 27
1.0
 37
0.0
 76
     0
330
2B26
  0
LAYOUT
  5
2B25
102
{ACAD_REACTORS
330
2B21
102
}
330
2B21
100
AcDbPlotSettings
  1

  2
SII LP-2150 (D-SCAN C2)
  4

  6

 40
0.0
 41
0.0
 42
0.0
 43
0.0
 44
0.0
 45
0.0
 46
0.0
 47
0.0
 48
0.0
 49
0.0
140
0.0
141
0.0
142
1.0
143
1.0
 70
   688
 72
     0
 73
     0
 74
     5
  7

 75
    16
147
1.0
148
0.0
149
0.0
100
AcDbLayout
  1
ﾚｲｱｳﾄ1
 70
     1
 71
     1
 10
-44.912933
 20
-21.841471
 11
153.5627299999999
 21
105.04179
 12
0.0
 22
0.0
 32
0.0
 14
-44.912933
 24
-21.841471
 34
0.0
 15
153.5627299999999
 25
105.04179
 35
0.0
146
0.0
 13
0.0
 23
0.0
 33
0.0
 16
1.0
 26
0.0
 36
0.0
 17
0.0
 27
1.0
 37
0.0
 76
     0
330
2B22
  0
MLINESTYLE
  5
2B1F
102
{ACAD_REACTORS
330
2B1E
102
}
330
2B1E
100
AcDbMlineStyle
  2
STANDARD
 70
     0
  3

 62
   256
 51
90.0
 52
90.0
 71
     2
 49
0.5
 62
   256
  6
BYLAYER
 49
-0.5
 62
   256
  6
BYLAYER
  0
ACDBPLACEHOLDER
  5
2B17
102
{ACAD_REACTORS
330
2B16
102
}
330
2B16
  0
DICTIONARYVAR
  5
2B8A
102
{ACAD_REACTORS
330
2B89
102
}
330
2B89
100
DictionaryVariables
280
     0
  1
1
  0
ENDSEC
  0
EOF
