  0
SECTION
  2
HEADER
  9
$ACADVER
  1
AC1015
  9
$ACADMAINTVER
 70
    14
  9
$DWGCODEPAGE
  3
ANSI_932
  9
$INSBASE
 10
0.0
 20
0.0
 30
0.0
  9
$EXTMIN
 10
-54.77703531911402
 20
86.81312161264873
 30
-0.0000000000000058
  9
$EXTMAX
 10
744.2066959533515
 20
578.6187615766166
 30
0.0000000000000104
  9
$LIMMIN
 10
0.0
 20
0.0
  9
$LIMMAX
 10
12.0
 20
9.0
  9
$ORTHOMODE
 70
     0
  9
$REGENMODE
 70
     1
  9
$FILLMODE
 70
     1
  9
$QTEXTMODE
 70
     0
  9
$MIRRTEXT
 70
     1
  9
$LTSCALE
 40
1.0
  9
$ATTMODE
 70
     1
  9
$TEXTSIZE
 40
0.2
  9
$TRACEWID
 40
0.05
  9
$TEXTSTYLE
  7
STANDARD
  9
$CLAYER
  8
0
  9
$CELTYPE
  6
CONTINUOUS
  9
$CECOLOR
 62
   256
  9
$CELTSCALE
 40
1.0
  9
$DISPSILH
 70
     0
  9
$DIMSCALE
 40
1.0
  9
$DIMASZ
 40
1.0
  9
$DIMEXO
 40
2.54
  9
$DIMDLI
 40
0.38
  9
$DIMRND
 40
0.0
  9
$DIMDLE
 40
0.0
  9
$DIMEXE
 40
2.54
  9
$DIMTP
 40
0.0
  9
$DIMTM
 40
0.0
  9
$DIMTXT
 40
3.2
  9
$DIMCEN
 40
0.09
  9
$DIMTSZ
 40
0.0
  9
$DIMTOL
 70
     0
  9
$DIMLIM
 70
     0
  9
$DIMTIH
 70
     0
  9
$DIMTOH
 70
     0
  9
$DIMSE1
 70
     0
  9
$DIMSE2
 70
     0
  9
$DIMTAD
 70
     1
  9
$DIMZIN
 70
     0
  9
$DIMBLK
  1

  9
$DIMASO
 70
     1
  9
$DIMSHO
 70
     0
  9
$DIMPOST
  1

  9
$DIMAPOST
  1

  9
$DIMALT
 70
     0
  9
$DIMALTD
 70
     2
  9
$DIMALTF
 40
25.4
  9
$DIMLFAC
 40
1.0
  9
$DIMTOFL
 70
     0
  9
$DIMTVP
 40
1.0
  9
$DIMTIX
 70
     0
  9
$DIMSOXD
 70
     0
  9
$DIMSAH
 70
     1
  9
$DIMBLK1
  1

  9
$DIMBLK2
  1

  9
$DIMSTYLE
  2
STANDARD
  9
$DIMCLRD
 70
     0
  9
$DIMCLRE
 70
     0
  9
$DIMCLRT
 70
     0
  9
$DIMTFAC
 40
1.0
  9
$DIMGAP
 40
1.6
  9
$DIMJUST
 70
     0
  9
$DIMSD1
 70
     0
  9
$DIMSD2
 70
     0
  9
$DIMTOLJ
 70
     1
  9
$DIMTZIN
 70
     0
  9
$DIMALTZ
 70
     0
  9
$DIMALTTZ
 70
     0
  9
$DIMUPT
 70
     0
  9
$DIMDEC
 70
     4
  9
$DIMTDEC
 70
     4
  9
$DIMALTU
 70
     2
  9
$DIMALTTD
 70
     2
  9
$DIMTXSTY
  7
STANDARD
  9
$DIMAUNIT
 70
     0
  9
$DIMADEC
 70
     0
  9
$DIMALTRND
 40
0.0
  9
$DIMAZIN
 70
     0
  9
$DIMDSEP
 70
    46
  9
$DIMATFIT
 70
     3
  9
$DIMFRAC
 70
     0
  9
$DIMLDRBLK
  1

  9
$DIMLUNIT
 70
     2
  9
$DIMLWD
 70
    -2
  9
$DIMLWE
 70
    -2
  9
$DIMTMOVE
 70
     0
  9
$LUNITS
 70
     2
  9
$LUPREC
 70
     4
  9
$SKETCHINC
 40
0.1
  9
$FILLETRAD
 40
0.0
  9
$AUNITS
 70
     0
  9
$AUPREC
 70
     0
  9
$MENU
  1
.
  9
$ELEVATION
 40
0.0
  9
$PELEVATION
 40
0.0
  9
$THICKNESS
 40
0.0
  9
$LIMCHECK
 70
     0
  9
$CHAMFERA
 40
0.0
  9
$CHAMFERB
 40
0.0
  9
$CHAMFERC
 40
0.0
  9
$CHAMFERD
 40
0.0
  9
$SKPOLY
 70
     0
  9
$TDCREATE
 40
2452488.423138738
  9
$TDUCREATE
 40
2452488.048138738
  9
$TDUPDATE
 40
2456899.666729340
  9
$TDUUPDATE
 40
2456899.291729340
  9
$TDINDWG
 40
0.2801885069
  9
$TDUSRTIMER
 40
0.2801883218
  9
$USRTIMER
 70
     1
  9
$ANGBASE
 50
0.0
  9
$ANGDIR
 70
     0
  9
$PDMODE
 70
     3
  9
$PDSIZE
 40
0.0
  9
$PLINEWID
 40
0.0
  9
$SPLFRAME
 70
     0
  9
$SPLINETYPE
 70
     6
  9
$SPLINESEGS
 70
     8
  9
$HANDSEED
  5
2269
  9
$SURFTAB1
 70
     6
  9
$SURFTAB2
 70
     6
  9
$SURFTYPE
 70
     6
  9
$SURFU
 70
     6
  9
$SURFV
 70
     6
  9
$UCSBASE
  2

  9
$UCSNAME
  2

  9
$UCSORG
 10
0.0
 20
0.0
 30
0.0
  9
$UCSXDIR
 10
1.0
 20
0.0
 30
0.0
  9
$UCSYDIR
 10
0.0
 20
1.0
 30
0.0
  9
$UCSORTHOREF
  2

  9
$UCSORTHOVIEW
 70
     0
  9
$UCSORGTOP
 10
0.0
 20
0.0
 30
0.0
  9
$UCSORGBOTTOM
 10
0.0
 20
0.0
 30
0.0
  9
$UCSORGLEFT
 10
0.0
 20
0.0
 30
0.0
  9
$UCSORGRIGHT
 10
0.0
 20
0.0
 30
0.0
  9
$UCSORGFRONT
 10
0.0
 20
0.0
 30
0.0
  9
$UCSORGBACK
 10
0.0
 20
0.0
 30
0.0
  9
$PUCSBASE
  2

  9
$PUCSNAME
  2

  9
$PUCSORG
 10
0.0
 20
0.0
 30
0.0
  9
$PUCSXDIR
 10
1.0
 20
0.0
 30
0.0
  9
$PUCSYDIR
 10
0.0
 20
1.0
 30
0.0
  9
$PUCSORTHOREF
  2

  9
$PUCSORTHOVIEW
 70
     0
  9
$PUCSORGTOP
 10
0.0
 20
0.0
 30
0.0
  9
$PUCSORGBOTTOM
 10
0.0
 20
0.0
 30
0.0
  9
$PUCSORGLEFT
 10
0.0
 20
0.0
 30
0.0
  9
$PUCSORGRIGHT
 10
0.0
 20
0.0
 30
0.0
  9
$PUCSORGFRONT
 10
0.0
 20
0.0
 30
0.0
  9
$PUCSORGBACK
 10
0.0
 20
0.0
 30
0.0
  9
$USERI1
 70
     0
  9
$USERI2
 70
     0
  9
$USERI3
 70
     0
  9
$USERI4
 70
     0
  9
$USERI5
 70
     0
  9
$USERR1
 40
0.0
  9
$USERR2
 40
0.0
  9
$USERR3
 40
0.0
  9
$USERR4
 40
0.0
  9
$USERR5
 40
0.0
  9
$WORLDVIEW
 70
     1
  9
$SHADEDGE
 70
     3
  9
$SHADEDIF
 70
    70
  9
$TILEMODE
 70
     1
  9
$MAXACTVP
 70
    48
  9
$PINSBASE
 10
0.0
 20
0.0
 30
0.0
  9
$PLIMCHECK
 70
     0
  9
$PEXTMIN
 10
1.000000000000000E+20
 20
1.000000000000000E+20
 30
1.000000000000000E+20
  9
$PEXTMAX
 10
-1.000000000000000E+20
 20
-1.000000000000000E+20
 30
-1.000000000000000E+20
  9
$PLIMMIN
 10
0.0
 20
0.0
  9
$PLIMMAX
 10
12.0
 20
9.0
  9
$UNITMODE
 70
     0
  9
$VISRETAIN
 70
     1
  9
$PLINEGEN
 70
     0
  9
$PSLTSCALE
 70
     1
  9
$TREEDEPTH
 70
  3020
  9
$CMLSTYLE
  2
Standard
  9
$CMLJUST
 70
     0
  9
$CMLSCALE
 40
1.0
  9
$PROXYGRAPHICS
 70
     1
  9
$MEASUREMENT
 70
     0
  9
$CELWEIGHT
370
    -1
  9
$ENDCAPS
280
     0
  9
$JOINSTYLE
280
     0
  9
$LWDISPLAY
290
     0
  9
$INSUNITS
 70
     0
  9
$HYPERLINKBASE
  1

  9
$STYLESHEET
  1

  9
$XEDIT
290
     1
  9
$CEPSNTYPE
380
     0
  9
$PSTYLEMODE
290
     1
  9
$FINGERPRINTGUID
  2
{FFE95C04-33D2-4560-80D0-1E2918E4EC86}
  9
$VERSIONGUID
  2
{86115D74-A6C8-46A7-806F-E0DF62F8EF65}
  9
$EXTNAMES
290
     1
  9
$PSVPSCALE
 40
0.0
  9
$OLESTARTUP
290
     0
  0
ENDSEC
  0
SECTION
  2
CLASSES
  0
CLASS
  1
ACDBDICTIONARYWDFLT
  2
AcDbDictionaryWithDefault
  3
AutoCAD 2000
 90
        0
280
     0
281
     0
  0
CLASS
  1
ACDBPLACEHOLDER
  2
AcDbPlaceHolder
  3
AutoCAD 2000
 90
        0
280
     0
281
     0
  0
CLASS
  1
LAYOUT
  2
AcDbLayout
  3
AutoCAD 2000
 90
        0
280
     0
281
     0
  0
CLASS
  1
DICTIONARYVAR
  2
AcDbDictionaryVar
  3
AutoCAD 2000
 90
        0
280
     0
281
     0
  0
CLASS
  1
LONG_TRANSACTION
  2
AcDbLongTransaction
  3
AutoCAD 2000
 90
    32768
280
     0
281
     0
  0
CLASS
  1
LWPOLYLINE
  2
AcDbPolyline
  3
AutoCAD 2000
 90
    32768
280
     0
281
     1
  0
CLASS
  1
HATCH
  2
AcDbHatch
  3
AutoCAD 2000
 90
    32768
280
     0
281
     1
  0
CLASS
  1
XRECORD
  2
AcDbXrecord
  3
AutoCAD 2000
 90
    32768
280
     0
281
     0
  0
ENDSEC
  0
SECTION
  2
TABLES
  0
TABLE
  2
VPORT
  5
21B6
330
0
100
AcDbSymbolTable
 70
     2
  0
VPORT
  5
2268
330
21B6
100
AcDbSymbolTableRecord
100
AcDbViewportTableRecord
  2
*Active
 70
     0
 10
0.0
 20
0.0
 11
1.0
 21
1.0
 12
344.7148303171187
 22
332.7159415946326
 13
0.0
 23
0.0
 14
1.0
 24
1.0
 15
0.0
 25
0.0
 16
0.0
 26
0.0
 36
1.0
 17
0.0
 27
0.0
 37
0.0
 40
503.8246153216862
 41
1.592161016949152
 42
50.0
 43
0.0
 44
0.0
 50
0.0
 51
0.0
 71
     0
 72
   100
 73
     1
 74
     3
 75
     0
 76
     0
 77
     0
 78
     0
281
     0
 65
     1
110
0.0
120
0.0
130
0.0
111
1.0
121
0.0
131
0.0
112
0.0
122
1.0
132
0.0
 79
     0
146
0.0
  0
ENDTAB
  0
TABLE
  2
LTYPE
  5
21B3
330
0
100
AcDbSymbolTable
 70
     2
  0
LTYPE
  5
21C1
330
21B3
100
AcDbSymbolTableRecord
100
AcDbLinetypeTableRecord
  2
ByBlock
 70
     0
  3

 72
    65
 73
     0
 40
0.0
  0
LTYPE
  5
21C2
330
21B3
100
AcDbSymbolTableRecord
100
AcDbLinetypeTableRecord
  2
ByLayer
 70
     0
  3

 72
    65
 73
     0
 40
0.0
  0
LTYPE
  5
21C3
330
21B3
100
AcDbSymbolTableRecord
100
AcDbLinetypeTableRecord
  2
CONTINUOUS
 70
     0
  3
Solid line
 72
    65
 73
     0
 40
0.0
  0
LTYPE
  5
21D1
330
21B3
100
AcDbSymbolTableRecord
100
AcDbLinetypeTableRecord
  2
CENTER
 70
     0
  3
__ . __
 72
    65
 73
     4
 40
7.0
 49
4.0
 74
     0
 49
-1.0
 74
     0
 49
1.0
 74
     0
 49
-1.0
 74
     0
  0
ENDTAB
  0
TABLE
  2
LAYER
  5
21B0
102
{ACAD_XDICTIONARY
360
2244
102
}
330
0
100
AcDbSymbolTable
 70
     2
  0
LAYER
  5
21BE
330
21B0
100
AcDbSymbolTableRecord
100
AcDbLayerTableRecord
  2
0
 70
     0
 62
     7
  6
CONTINUOUS
370
    -3
390
21BD
  0
LAYER
  5
21DA
330
21B0
100
AcDbSymbolTableRecord
100
AcDbLayerTableRecord
  2
AM_0N
 70
     0
 62
     7
  6
CONTINUOUS
370
    -3
390
21BD
  0
ENDTAB
  0
TABLE
  2
STYLE
  5
21B1
330
0
100
AcDbSymbolTable
 70
     1
  0
STYLE
  5
21BF
330
21B1
100
AcDbSymbolTableRecord
100
AcDbTextStyleTableRecord
  2
STANDARD
 70
     0
 40
0.0
 41
1.0
 50
0.0
 71
     0
 42
0.2
  3
txt
  4
BIGFONT
  0
ENDTAB
  0
TABLE
  2
VIEW
  5
21B4
330
0
100
AcDbSymbolTable
 70
     1
  0
VIEW
  5
21DE
330
21B4
100
AcDbSymbolTableRecord
100
AcDbViewTableRecord
  2
OLE1
 70
     0
 40
3692.141019219747
 10
1914.591370701856
 20
1272.206200738182
 41
4595.022665841169
 11
0.0
 21
0.0
 31
1.0
 12
0.0
 22
0.0
 32
0.0
 42
50.0
 43
0.0
 44
0.0
 50
0.0
 71
     0
281
     0
 72
     1
110
0.0
120
0.0
130
0.0
111
1.0
121
0.0
131
0.0
112
0.0
122
1.0
132
0.0
 79
     0
146
0.0
  0
ENDTAB
  0
TABLE
  2
UCS
  5
21B5
330
0
100
AcDbSymbolTable
 70
     0
  0
ENDTAB
  0
TABLE
  2
APPID
  5
21B7
330
0
100
AcDbSymbolTable
 70
     8
  0
APPID
  5
21C0
330
21B7
100
AcDbSymbolTableRecord
100
AcDbRegAppTableRecord
  2
ACAD
 70
     0
  0
APPID
  5
21DF
330
21B7
100
AcDbSymbolTableRecord
100
AcDbRegAppTableRecord
  2
MCAD_NO_VIS
 70
     0
  0
APPID
  5
21E0
330
21B7
100
AcDbSymbolTableRecord
100
AcDbRegAppTableRecord
  2
ACAD_TEMP_GRAPHIC
 70
     0
  0
APPID
  5
21E1
330
21B7
100
AcDbSymbolTableRecord
100
AcDbRegAppTableRecord
  2
ACATTRIBSERVICES
 70
     0
  0
APPID
  5
21E2
330
21B7
100
AcDbSymbolTableRecord
100
AcDbRegAppTableRecord
  2
CONTENTBLOCKICON
 70
     0
  0
APPID
  5
2241
330
21B7
100
AcDbSymbolTableRecord
100
AcDbRegAppTableRecord
  2
ACAD_DSTYLE_DIMJAG
 70
     0
  0
APPID
  5
2242
330
21B7
100
AcDbSymbolTableRecord
100
AcDbRegAppTableRecord
  2
ACAD_DSTYLE_DIMTALN
 70
     0
  0
APPID
  5
2243
330
21B7
100
AcDbSymbolTableRecord
100
AcDbRegAppTableRecord
  2
ACAD_PSEXT
 70
     0
  0
ENDTAB
  0
TABLE
  2
DIMSTYLE
  5
21B8
330
0
100
AcDbSymbolTable
 70
     1
100
AcDbDimStyleTable
 71
     0
  0
DIMSTYLE
105
21E3
330
21B8
100
AcDbSymbolTableRecord
100
AcDbDimStyleTableRecord
  2
STANDARD
 70
     0
279
     2
340
21BF
  0
ENDTAB
  0
TABLE
  2
BLOCK_RECORD
  5
21AF
330
0
100
AcDbSymbolTable
 70
     0
  0
BLOCK_RECORD
  5
21CC
102
{ACAD_XDICTIONARY
360
21F8
102
}
330
21AF
100
AcDbSymbolTableRecord
100
AcDbBlockTableRecord
  2
*Model_Space
340
21CF
  0
BLOCK_RECORD
  5
21C8
102
{ACAD_XDICTIONARY
360
21FA
102
}
330
21AF
100
AcDbSymbolTableRecord
100
AcDbBlockTableRecord
  2
*Paper_Space
340
21CB
  0
ENDTAB
  0
ENDSEC
  0
SECTION
  2
BLOCKS
  0
BLOCK
  5
21CD
330
21CC
100
AcDbEntity
  8
0
100
AcDbBlockBegin
  2
*Model_Space
 70
     0
 10
0.0
 20
0.0
 30
0.0
  3
*Model_Space
  1

  0
ENDBLK
  5
21CE
330
21CC
100
AcDbEntity
  8
0
100
AcDbBlockEnd
  0
BLOCK
  5
21C9
330
21C8
100
AcDbEntity
 67
     1
  8
0
100
AcDbBlockBegin
  2
*Paper_Space
 70
     0
 10
0.0
 20
0.0
 30
0.0
  3
*Paper_Space
  1

  0
ENDBLK
  5
21CA
330
21C8
100
AcDbEntity
 67
     1
  8
0
100
AcDbBlockEnd
  0
ENDSEC
  0
SECTION
  2
ENTITIES
  0
TEXT
  5
F6E
330
21CC
100
AcDbEntity
  8
0
  6
Continuous
100
AcDbText
 10
-54.74047376768385
 20
530.5922691439264
 30
0.0
 40
48.000002
  1
BVA__T01000 8A
 41
1.32095
100
AcDbText
  0
LINE
  5
1F1E
330
21CC
100
AcDbEntity
  8
AM_0N
100
AcDbLine
 10
247.7123025106036
 20
145.6997014385371
 30
0.0
 11
251.3884019106036
 21
135.5997017385373
 31
0.0
  0
LINE
  5
1F20
330
21CC
100
AcDbEntity
  8
AM_0N
100
AcDbLine
 10
247.7123025106036
 20
111.6997014385372
 30
0.0
 11
251.3884019106036
 21
121.7997011385372
 31
0.0
  0
LINE
  5
1F21
330
21CC
100
AcDbEntity
  8
AM_0N
100
AcDbLine
 10
244.8623031106036
 20
111.6997014385372
 30
0.0
 11
247.7123025106036
 21
111.6997014385372
 31
0.0
  0
LINE
  5
1F26
330
21CC
100
AcDbEntity
  8
AM_0N
100
AcDbLine
 10
251.3884018106036
 20
121.7997013385371
 30
0.0
 11
265.3626751106037
 21
121.7997013385371
 31
0.0
  0
LINE
  5
1F27
330
21CC
100
AcDbEntity
  8
AM_0N
100
AcDbLine
 10
251.3884018106036
 20
135.5997015385359
 30
0.0
 11
265.3626751106037
 21
135.5997015385359
 31
0.0
  0
LINE
  5
1F28
330
21CC
100
AcDbEntity
  8
AM_0N
100
AcDbLine
 10
244.8623031106036
 20
145.6997014385371
 30
0.0
 11
247.7123025106036
 21
145.6997014385371
 31
0.0
  0
LINE
  5
1F29
330
21CC
100
AcDbEntity
  8
AM_0N
100
AcDbLine
 10
251.3884018106036
 20
121.7997013385371
 30
0.0
 11
251.3884019833975
 21
135.5997015385359
 31
0.0
  0
LINE
  5
1F2A
330
21CC
100
AcDbEntity
  8
AM_0N
100
AcDbLine
 10
247.7123025106036
 20
111.6997014385372
 30
0.0
 11
247.7123025106036
 21
145.6997014385371
 31
0.0
  0
LINE
  5
1FED
330
21CC
100
AcDbEntity
  8
0
  6
Continuous
100
AcDbLine
 10
239.3623031106035
 20
405.9449814385366
 30
0.0
 11
331.3623031106036
 21
405.9449814385366
 31
0.0
  0
LINE
  5
1FEE
330
21CC
100
AcDbEntity
  8
0
  6
Continuous
100
AcDbLine
 10
239.3623031106035
 20
351.9449814385366
 30
0.0
 11
331.3623031106036
 21
351.9449814385366
 31
0.0
  0
LINE
  5
1FEF
330
21CC
100
AcDbEntity
  8
0
  6
Continuous
100
AcDbLine
 10
331.3623031106036
 20
244.6996914385371
 30
0.0
 11
239.3623031106035
 21
244.6996914385371
 31
0.0
  0
LINE
  5
1FF0
330
21CC
100
AcDbEntity
  8
0
  6
Continuous
100
AcDbLine
 10
331.3623031106036
 20
224.6996934385371
 30
0.0
 11
239.3623031106035
 21
224.6996934385371
 31
0.0
  0
LINE
  5
1FF1
330
21CC
100
AcDbEntity
  8
0
  6
Continuous
100
AcDbLine
 10
331.3623031106036
 20
205.6996934385371
 30
0.0
 11
239.3623031106035
 21
205.6996934385371
 31
0.0
  0
LINE
  5
1FF2
330
21CC
100
AcDbEntity
  8
0
  6
Continuous
100
AcDbLine
 10
331.3623031106036
 20
185.6996934385362
 30
0.0
 11
239.3623031106035
 21
185.6996934385362
 31
0.0
  0
LINE
  5
1FF3
330
21CC
100
AcDbEntity
  8
0
  6
Continuous
100
AcDbLine
 10
239.3623031106035
 20
244.9731914385371
 30
0.0
 11
239.3623031106035
 21
185.426195438537
 31
0.0
  0
LINE
  5
1FF4
330
21CC
100
AcDbEntity
  8
0
  6
Continuous
100
AcDbLine
 10
289.3623031106036
 20
155.6996934385362
 30
0.0
 11
289.3623031106036
 21
99.03490643853729
 31
0.0
  0
LINE
  5
1FF7
330
21CC
100
AcDbEntity
  8
0
  6
Continuous
100
AcDbLine
 10
265.3623031106034
 20
155.6996934385362
 30
0.0
 11
265.3623031106034
 21
99.03490643853729
 31
0.0
  0
LINE
  5
1FF8
330
21CC
100
AcDbEntity
  8
0
  6
Continuous
100
AcDbLine
 10
244.8623031106035
 20
111.6997014385372
 30
0.0
 11
244.8623031106035
 21
145.6997014385371
 31
0.0
  0
ARC
  5
1FFE
330
21CC
100
AcDbEntity
  8
0
  6
Continuous
100
AcDbCircle
 10
277.3623031106036
 20
128.6997014385372
 30
0.0
 40
32.0
100
AcDbArc
 50
247.9756900000003
 51
292.0243099999992
  0
LINE
  5
2004
330
21CC
100
AcDbEntity
  8
0
  6
Continuous
100
AcDbLine
 10
234.8623031106035
 20
194.1417254385372
 30
0.0
 11
239.3623031106035
 21
194.1417254385372
 31
0.0
  0
LINE
  5
2005
330
21CC
100
AcDbEntity
  8
0
  6
Continuous
100
AcDbLine
 10
234.8623031106035
 20
188.3681964385365
 30
0.0
 11
239.3623031106035
 21
188.3681964385365
 31
0.0
  0
LINE
  5
2006
330
21CC
100
AcDbEntity
  8
0
  6
Continuous
100
AcDbLine
 10
234.8623031106035
 20
185.426195438537
 30
0.0
 11
234.8623031106035
 21
196.9731924385373
 31
0.0
  0
LINE
  5
2007
330
21CC
100
AcDbEntity
  8
0
  6
Continuous
100
AcDbLine
 10
234.8623031106035
 20
185.426195438537
 30
0.0
 11
239.3623031106035
 21
185.426195438537
 31
0.0
  0
LINE
  5
2008
330
21CC
100
AcDbEntity
  8
0
  6
Continuous
100
AcDbLine
 10
234.8623031106035
 20
196.9731924385373
 30
0.0
 11
239.3623031106035
 21
196.9731924385373
 31
0.0
  0
LINE
  5
2009
330
21CC
100
AcDbEntity
  8
0
  6
Continuous
100
AcDbLine
 10
289.3626801106035
 20
155.6996514385373
 30
0.0
 11
292.5769711106037
 21
185.6996954385363
 31
0.0
  0
LINE
  5
200A
330
21CC
100
AcDbEntity
  8
0
  6
Continuous
100
AcDbLine
 10
265.3626751106037
 20
155.6997394385366
 30
0.0
 11
262.1483941106038
 21
185.6996924385361
 31
0.0
  0
LINE
  5
200C
330
21CC
100
AcDbEntity
  8
0
  6
Continuous
100
AcDbLine
 10
265.3623031106034
 20
155.6996934385362
 30
0.0
 11
289.3623031106036
 21
155.6996934385362
 31
0.0
  0
LINE
  5
200F
330
21CC
100
AcDbEntity
  8
0
  6
Continuous
100
AcDbLine
 10
239.3623031106035
 20
405.9449814385366
 30
0.0
 11
239.3623031106035
 21
351.9449814385366
 31
0.0
  0
LINE
  5
2010
330
21CC
100
AcDbEntity
  8
0
  6
Continuous
100
AcDbLine
 10
235.3623031106035
 20
354.9449814385375
 30
0.0
 11
235.3623031106035
 21
364.9449814385366
 31
0.0
  0
LINE
  5
2011
330
21CC
100
AcDbEntity
  8
0
  6
Continuous
100
AcDbLine
 10
234.8623031106035
 20
233.4261914385372
 30
0.0
 11
234.8623031106035
 21
244.9731914385371
 31
0.0
  0
LINE
  5
2012
330
21CC
100
AcDbEntity
  8
0
  6
Continuous
100
AcDbLine
 10
227.3623031106036
 20
228.641725438536
 30
0.0
 11
236.3623031106035
 21
228.641725438536
 31
0.0
  0
LINE
  5
2013
330
21CC
100
AcDbEntity
  8
0
  6
Continuous
100
AcDbLine
 10
227.3623031106036
 20
222.8681964385365
 30
0.0
 11
236.3623031106035
 21
222.8681964385365
 31
0.0
  0
LINE
  5
2014
330
21CC
100
AcDbEntity
  8
0
  6
Continuous
100
AcDbLine
 10
227.3623031106036
 20
222.8681964385365
 30
0.0
 11
227.3623031106036
 21
228.641725438536
 31
0.0
  0
LINE
  5
2015
330
21CC
100
AcDbEntity
  8
0
  6
Continuous
100
AcDbLine
 10
234.8623031106035
 20
233.4261914385372
 30
0.0
 11
239.3623031106035
 21
233.4261914385372
 31
0.0
  0
LINE
  5
2016
330
21CC
100
AcDbEntity
  8
0
  6
Continuous
100
AcDbLine
 10
236.3623031106035
 20
229.9549614385361
 30
0.0
 11
236.3623031106035
 21
221.4444294385371
 31
0.0
  0
LINE
  5
2017
330
21CC
100
AcDbEntity
  8
0
  6
Continuous
100
AcDbLine
 10
232.3623031106035
 20
231.5284714385366
 30
0.0
 11
239.3623031106035
 21
231.5284714385366
 31
0.0
  0
LINE
  5
2018
330
21CC
100
AcDbEntity
  8
0
  6
Continuous
100
AcDbLine
 10
232.3623031106035
 20
219.9814474385374
 30
0.0
 11
232.3623031106035
 21
231.5284714385366
 31
0.0
  0
LINE
  5
2019
330
21CC
100
AcDbEntity
  8
0
  6
Continuous
100
AcDbLine
 10
232.3623031106035
 20
219.9814474385374
 30
0.0
 11
239.3623031106035
 21
219.9814474385374
 31
0.0
  0
LINE
  5
201A
330
21CC
100
AcDbEntity
  8
0
  6
Continuous
100
AcDbLine
 10
236.3623031106035
 20
219.9814474385374
 30
0.0
 11
236.3623031106035
 21
231.5284714385366
 31
0.0
  0
LINE
  5
201B
330
21CC
100
AcDbEntity
  8
0
  6
Continuous
100
AcDbLine
 10
234.8623031106035
 20
236.3682014385361
 30
0.0
 11
239.3623031106035
 21
236.3682014385361
 31
0.0
  0
LINE
  5
201C
330
21CC
100
AcDbEntity
  8
0
  6
Continuous
100
AcDbLine
 10
234.8623031106035
 20
242.141721438536
 30
0.0
 11
239.3623031106035
 21
242.141721438536
 31
0.0
  0
LINE
  5
201D
330
21CC
100
AcDbEntity
  8
0
  6
Continuous
100
AcDbLine
 10
234.8623031106035
 20
244.9731914385371
 30
0.0
 11
239.3623031106035
 21
244.9731914385371
 31
0.0
  0
LINE
  5
201E
330
21CC
100
AcDbEntity
  8
0
  6
Continuous
100
AcDbLine
 10
271.3623031106036
 20
259.6997014385372
 30
0.0
 11
283.3623031106034
 21
259.6997014385372
 31
0.0
  0
LINE
  5
201F
330
21CC
100
AcDbEntity
  8
0
  6
Continuous
100
AcDbLine
 10
283.3623031106034
 20
244.6996914385371
 30
0.0
 11
283.3623031106034
 21
259.6997014385372
 31
0.0
  0
LINE
  5
2020
330
21CC
100
AcDbEntity
  8
0
  6
Continuous
100
AcDbLine
 10
271.3623031106036
 20
244.6996914385371
 30
0.0
 11
271.3623031106036
 21
259.6997014385372
 31
0.0
  0
LINE
  5
2021
330
21CC
100
AcDbEntity
  8
0
  6
Continuous
100
AcDbLine
 10
235.3623031106035
 20
359.9449814385375
 30
0.0
 11
239.3623031106035
 21
359.9449814385375
 31
0.0
  0
LINE
  5
2022
330
21CC
100
AcDbEntity
  8
0
  6
Continuous
100
AcDbLine
 10
235.3623031106035
 20
354.9449814385375
 30
0.0
 11
239.3623031106035
 21
354.9449814385375
 31
0.0
  0
LINE
  5
2023
330
21CC
100
AcDbEntity
  8
0
  6
Continuous
100
AcDbLine
 10
289.3623031106036
 20
349.2801884385372
 30
0.0
 11
289.3623031106036
 21
351.9449814385366
 31
0.0
  0
LINE
  5
2024
330
21CC
100
AcDbEntity
  8
0
  6
Continuous
100
AcDbLine
 10
265.3623031106034
 20
349.2801884385372
 30
0.0
 11
265.3623031106034
 21
351.9449814385366
 31
0.0
  0
ARC
  5
2025
330
21CC
100
AcDbEntity
  8
0
  6
Continuous
100
AcDbCircle
 10
277.3623031106036
 20
378.9449814385366
 30
0.0
 40
32.0
100
AcDbArc
 50
247.9756900000003
 51
292.0243099999992
  0
LINE
  5
2026
330
21CC
100
AcDbEntity
  8
0
  6
Continuous
100
AcDbLine
 10
227.3623031106036
 20
394.8870134385363
 30
0.0
 11
232.3623031106035
 21
394.8870134385363
 31
0.0
  0
LINE
  5
2027
330
21CC
100
AcDbEntity
  8
0
  6
Continuous
100
AcDbLine
 10
227.3623031106036
 20
389.1134844385373
 30
0.0
 11
232.3623031106035
 21
389.1134844385373
 31
0.0
  0
LINE
  5
2028
330
21CC
100
AcDbEntity
  8
0
  6
Continuous
100
AcDbLine
 10
227.3623031106036
 20
394.8870134385363
 30
0.0
 11
227.3623031106036
 21
389.1134844385373
 31
0.0
  0
LINE
  5
2029
330
21CC
100
AcDbEntity
  8
0
  6
Continuous
100
AcDbLine
 10
244.8623031106035
 20
370.2949818385366
 30
0.0
 11
244.8623031106035
 21
387.5949810385366
 31
0.0
  0
LINE
  5
202A
330
21CC
100
AcDbEntity
  8
0
  6
Continuous
100
AcDbLine
 10
235.3623031106035
 20
392.9449814385366
 30
0.0
 11
235.3623031106035
 21
402.9449814385375
 31
0.0
  0
LINE
  5
202B
330
21CC
100
AcDbEntity
  8
0
  6
Continuous
100
AcDbLine
 10
235.3623031106035
 20
392.9449814385366
 30
0.0
 11
239.3623031106035
 21
392.9449814385366
 31
0.0
  0
LINE
  5
202C
330
21CC
100
AcDbEntity
  8
0
  6
Continuous
100
AcDbLine
 10
235.3623031106035
 20
397.9449814385375
 30
0.0
 11
239.3623031106035
 21
397.9449814385375
 31
0.0
  0
LINE
  5
202D
330
21CC
100
AcDbEntity
  8
0
  6
Continuous
100
AcDbLine
 10
235.3623031106035
 20
402.9449814385375
 30
0.0
 11
239.3623031106035
 21
402.9449814385375
 31
0.0
  0
LINE
  5
202E
330
21CC
100
AcDbEntity
  8
0
  6
Continuous
100
AcDbLine
 10
232.3623031106035
 20
396.9449814385366
 30
0.0
 11
235.3623031106035
 21
396.9449814385366
 31
0.0
  0
LINE
  5
202F
330
21CC
100
AcDbEntity
  8
0
  6
Continuous
100
AcDbLine
 10
232.3623031106035
 20
386.9449814385375
 30
0.0
 11
232.3623031106035
 21
396.9449814385366
 31
0.0
  0
LINE
  5
2030
330
21CC
100
AcDbEntity
  8
0
  6
Continuous
100
AcDbLine
 10
232.3623031106035
 20
386.9449814385375
 30
0.0
 11
236.3623031106035
 21
386.9449814385375
 31
0.0
  0
LINE
  5
2031
330
21CC
100
AcDbEntity
  8
0
  6
Continuous
100
AcDbLine
 10
232.3623031106035
 20
391.9449814385375
 30
0.0
 11
236.3623031106035
 21
391.9449814385375
 31
0.0
  0
LINE
  5
2032
330
21CC
100
AcDbEntity
  8
0
  6
Continuous
100
AcDbLine
 10
236.3623031106035
 20
392.9449814385366
 30
0.0
 11
236.3623031106035
 21
385.689731438536
 31
0.0
  0
LINE
  5
2033
330
21CC
100
AcDbEntity
  8
0
  6
Continuous
100
AcDbLine
 10
236.3623031106035
 20
385.689731438536
 30
0.0
 11
239.3623031106035
 21
385.689731438536
 31
0.0
  0
LINE
  5
2034
330
21CC
100
AcDbEntity
  8
0
  6
Continuous
100
AcDbLine
 10
235.3623031106035
 20
364.9449814385366
 30
0.0
 11
239.3623031106035
 21
364.9449814385366
 31
0.0
  0
CIRCLE
  5
2035
330
21CC
100
AcDbEntity
  8
0
  6
Continuous
100
AcDbCircle
 10
277.3623031106036
 20
378.9449814385366
 30
0.0
 40
6.0
  0
LINE
  5
2036
330
21CC
100
AcDbEntity
  8
0
  6
Continuous
100
AcDbLine
 10
309.8623031106036
 20
370.2949818385366
 30
0.0
 11
309.8623031106036
 21
387.5949810385366
 31
0.0
  0
LINE
  5
2037
330
21CC
100
AcDbEntity
  8
0
  6
Continuous
100
AcDbLine
 10
289.3623031106036
 20
408.6097744385362
 30
0.0
 11
289.3623031106036
 21
405.9449814385366
 31
0.0
  0
LINE
  5
2038
330
21CC
100
AcDbEntity
  8
0
  6
Continuous
100
AcDbLine
 10
265.3623031106034
 20
408.6097744385362
 30
0.0
 11
265.3623031106034
 21
405.9449814385366
 31
0.0
  0
ARC
  5
2039
330
21CC
100
AcDbEntity
  8
0
  6
Continuous
100
AcDbCircle
 10
277.3623031106036
 20
378.9449814385366
 30
0.0
 40
32.0
100
AcDbArc
 50
67.97568900000111
 51
112.0243099999997
  0
LINE
  5
203A
330
21CC
100
AcDbEntity
  8
0
  6
Continuous
100
AcDbLine
 10
331.3623031106036
 20
244.9731914385371
 30
0.0
 11
331.3623031106036
 21
185.426195438537
 31
0.0
  0
LINE
  5
203B
330
21CC
100
AcDbEntity
  8
0
  6
Continuous
100
AcDbLine
 10
401.2084887805664
 20
205.625026438536
 30
0.0
 11
402.7028887805665
 21
185.6996954385363
 31
0.0
  0
LINE
  5
203C
330
21CC
100
AcDbEntity
  8
0
  6
Continuous
100
AcDbLine
 10
455.1972807805664
 20
205.6250104385364
 30
0.0
 11
453.7028817805663
 21
185.6996944385365
 31
0.0
  0
LINE
  5
203D
330
21CC
100
AcDbEntity
  8
0
  6
Continuous
100
AcDbLine
 10
399.2028777805663
 20
185.6996934385362
 30
0.0
 11
457.2028777805662
 21
185.6996934385362
 31
0.0
  0
LINE
  5
203E
330
21CC
100
AcDbEntity
  8
0
  6
Continuous
100
AcDbLine
 10
399.2028777805663
 20
155.6996934385362
 30
0.0
 11
457.2028777805662
 21
155.6996934385362
 31
0.0
  0
LINE
  5
203F
330
21CC
100
AcDbEntity
  8
0
  6
Continuous
100
AcDbLine
 10
401.2028777805662
 20
157.6996934385371
 30
0.0
 11
455.2028777805662
 21
157.6996934385371
 31
0.0
  0
LINE
  5
2040
330
21CC
100
AcDbEntity
  8
0
  6
Continuous
100
AcDbLine
 10
401.2028777805662
 20
183.6996934385362
 30
0.0
 11
455.2028777805662
 21
183.6996934385362
 31
0.0
  0
ARC
  5
2041
330
21CC
100
AcDbEntity
  8
0
  6
Continuous
100
AcDbCircle
 10
428.2028777805662
 20
128.6997014385372
 30
0.0
 40
32.0
100
AcDbArc
 50
122.4617699999986
 51
57.53823399999792
  0
LINE
  5
2044
330
21CC
100
AcDbEntity
  8
0
  6
Continuous
100
AcDbLine
 10
335.8623031106034
 20
194.1417254385372
 30
0.0
 11
331.3623031106036
 21
194.1417254385372
 31
0.0
  0
LINE
  5
2045
330
21CC
100
AcDbEntity
  8
0
  6
Continuous
100
AcDbLine
 10
335.8623031106034
 20
188.3681964385365
 30
0.0
 11
331.3623031106036
 21
188.3681964385365
 31
0.0
  0
LINE
  5
2046
330
21CC
100
AcDbEntity
  8
0
  6
Continuous
100
AcDbLine
 10
335.8623031106034
 20
185.426195438537
 30
0.0
 11
335.8623031106034
 21
196.9731924385373
 31
0.0
  0
LINE
  5
2047
330
21CC
100
AcDbEntity
  8
0
  6
Continuous
100
AcDbLine
 10
335.8623031106034
 20
185.426195438537
 30
0.0
 11
331.3623031106036
 21
185.426195438537
 31
0.0
  0
LINE
  5
2048
330
21CC
100
AcDbEntity
  8
0
  6
Continuous
100
AcDbLine
 10
335.8623031106034
 20
196.9731924385373
 30
0.0
 11
331.3623031106036
 21
196.9731924385373
 31
0.0
  0
LINE
  5
2049
330
21CC
100
AcDbEntity
  8
0
  6
Continuous
100
AcDbLine
 10
418.2028777805662
 20
183.6996934385362
 30
0.0
 11
418.2028777805662
 21
157.6996934385371
 31
0.0
  0
LINE
  5
204A
330
21CC
100
AcDbEntity
  8
0
  6
Continuous
100
AcDbLine
 10
401.2028777805662
 20
183.6996934385362
 30
0.0
 11
401.2028777805662
 21
157.6996934385371
 31
0.0
  0
LINE
  5
204B
330
21CC
100
AcDbEntity
  8
0
  6
Continuous
100
AcDbLine
 10
399.2028777805663
 20
185.6996934385362
 30
0.0
 11
399.2028777805663
 21
155.6996934385362
 31
0.0
  0
LINE
  5
204C
330
21CC
100
AcDbEntity
  8
0
  6
Continuous
100
AcDbLine
 10
409.2028797805662
 20
196.9731954385362
 30
0.0
 11
404.2028787805662
 21
194.086443438537
 31
0.0
  0
LINE
  5
204D
330
21CC
100
AcDbEntity
  8
0
  6
Continuous
100
AcDbLine
 10
404.2028777805662
 20
194.086443438537
 30
0.0
 11
404.2028777805662
 21
188.3129404385362
 31
0.0
  0
LINE
  5
204E
330
21CC
100
AcDbEntity
  8
0
  6
Continuous
100
AcDbLine
 10
409.2028787805664
 20
185.4261894385363
 30
0.0
 11
404.2028757805661
 21
188.3129424385363
 31
0.0
  0
LINE
  5
204F
330
21CC
100
AcDbEntity
  8
0
  6
Continuous
100
AcDbLine
 10
414.2028797805663
 20
188.3129414385366
 30
0.0
 11
409.2028787805664
 21
185.4261894385363
 31
0.0
  0
LINE
  5
2050
330
21CC
100
AcDbEntity
  8
0
  6
Continuous
100
AcDbLine
 10
414.2028777805662
 20
194.086443438537
 30
0.0
 11
414.2028777805662
 21
188.3129404385362
 31
0.0
  0
LINE
  5
2051
330
21CC
100
AcDbEntity
  8
0
  6
Continuous
100
AcDbLine
 10
409.202875780566
 20
196.9731964385361
 30
0.0
 11
414.2028787805662
 21
194.086443438537
 31
0.0
  0
LINE
  5
2052
330
21CC
100
AcDbEntity
  8
0
  6
Continuous
100
AcDbLine
 10
455.2028777805662
 20
183.6996934385362
 30
0.0
 11
455.2028777805662
 21
157.6996934385371
 31
0.0
  0
LINE
  5
2053
330
21CC
100
AcDbEntity
  8
0
  6
Continuous
100
AcDbLine
 10
457.2028777805662
 20
185.6996934385362
 30
0.0
 11
457.2028777805662
 21
155.6996934385362
 31
0.0
  0
LINE
  5
2054
330
21CC
100
AcDbEntity
  8
0
  6
Continuous
100
AcDbLine
 10
438.2028777805662
 20
183.6996934385362
 30
0.0
 11
438.2028777805662
 21
157.6996934385371
 31
0.0
  0
LINE
  5
2055
330
21CC
100
AcDbEntity
  8
0
  6
Continuous
100
AcDbLine
 10
452.2028777805663
 20
194.086443438537
 30
0.0
 11
452.2028777805663
 21
188.3129404385362
 31
0.0
  0
LINE
  5
2056
330
21CC
100
AcDbEntity
  8
0
  6
Continuous
100
AcDbLine
 10
447.2028797805662
 20
196.9731964385361
 30
0.0
 11
442.2028767805662
 21
194.086443438537
 31
0.0
  0
LINE
  5
2057
330
21CC
100
AcDbEntity
  8
0
  6
Continuous
100
AcDbLine
 10
442.2028777805662
 20
194.086443438537
 30
0.0
 11
442.2028777805662
 21
188.3129404385362
 31
0.0
  0
LINE
  5
2058
330
21CC
100
AcDbEntity
  8
0
  6
Continuous
100
AcDbLine
 10
447.2028767805662
 20
185.4261894385363
 30
0.0
 11
442.202875780566
 21
188.3129414385366
 31
0.0
  0
LINE
  5
2059
330
21CC
100
AcDbEntity
  8
0
  6
Continuous
100
AcDbLine
 10
452.2028797805663
 20
188.3129424385363
 30
0.0
 11
447.2028767805662
 21
185.4261894385363
 31
0.0
  0
LINE
  5
205A
330
21CC
100
AcDbEntity
  8
0
  6
Continuous
100
AcDbLine
 10
447.202875780566
 20
196.9731954385362
 30
0.0
 11
452.2028767805663
 21
194.086443438537
 31
0.0
  0
LINE
  5
205B
330
21CC
100
AcDbEntity
  8
0
  6
Continuous
100
AcDbLine
 10
422.2028997805663
 20
259.6997014385372
 30
0.0
 11
434.2028997805663
 21
259.6997014385372
 31
0.0
  0
CIRCLE
  5
205C
330
21CC
100
AcDbEntity
  8
0
  6
Continuous
100
AcDbCircle
 10
428.2028777805662
 20
215.6996934385371
 30
0.0
 40
4.5
  0
LINE
  5
205D
330
21CC
100
AcDbEntity
  8
0
  6
Continuous
100
AcDbLine
 10
402.7029087805662
 20
244.6996914385371
 30
0.0
 11
453.7028907805663
 21
244.6996914385371
 31
0.0
  0
LINE
  5
205E
330
21CC
100
AcDbEntity
  8
0
  6
Continuous
100
AcDbLine
 10
331.3623031106036
 20
405.9449814385366
 30
0.0
 11
331.3623031106036
 21
351.9449814385366
 31
0.0
  0
LINE
  5
205F
330
21CC
100
AcDbEntity
  8
0
  6
Continuous
100
AcDbLine
 10
335.3623031106036
 20
354.9449814385375
 30
0.0
 11
335.3623031106036
 21
364.9449814385366
 31
0.0
  0
LINE
  5
2060
330
21CC
100
AcDbEntity
  8
0
  6
Continuous
100
AcDbLine
 10
335.8623031106034
 20
233.4261914385372
 30
0.0
 11
335.8623031106034
 21
244.9731914385371
 31
0.0
  0
LINE
  5
2061
330
21CC
100
AcDbEntity
  8
0
  6
Continuous
100
AcDbLine
 10
334.3623031106036
 20
229.9549614385361
 30
0.0
 11
334.3623031106036
 21
221.4444294385371
 31
0.0
  0
LINE
  5
2062
330
21CC
100
AcDbEntity
  8
0
  6
Continuous
100
AcDbLine
 10
338.3623031106036
 20
231.5284714385366
 30
0.0
 11
331.3623031106036
 21
231.5284714385366
 31
0.0
  0
LINE
  5
2063
330
21CC
100
AcDbEntity
  8
0
  6
Continuous
100
AcDbLine
 10
338.3623031106036
 20
219.9814474385374
 30
0.0
 11
338.3623031106036
 21
231.5284714385366
 31
0.0
  0
LINE
  5
2064
330
21CC
100
AcDbEntity
  8
0
  6
Continuous
100
AcDbLine
 10
338.3623031106036
 20
219.9814474385374
 30
0.0
 11
331.3623031106036
 21
219.9814474385374
 31
0.0
  0
LINE
  5
2065
330
21CC
100
AcDbEntity
  8
0
  6
Continuous
100
AcDbLine
 10
334.3623031106036
 20
219.9814474385374
 30
0.0
 11
334.3623031106036
 21
231.5284714385366
 31
0.0
  0
LINE
  5
2066
330
21CC
100
AcDbEntity
  8
0
  6
Continuous
100
AcDbLine
 10
343.3623031106036
 20
222.8681964385365
 30
0.0
 11
343.3623031106036
 21
228.641725438536
 31
0.0
  0
LINE
  5
2067
330
21CC
100
AcDbEntity
  8
0
  6
Continuous
100
AcDbLine
 10
343.3623031106036
 20
228.641725438536
 30
0.0
 11
334.3623031106036
 21
228.641725438536
 31
0.0
  0
LINE
  5
2068
330
21CC
100
AcDbEntity
  8
0
  6
Continuous
100
AcDbLine
 10
343.3623031106036
 20
222.8681964385365
 30
0.0
 11
334.3623031106036
 21
222.8681964385365
 31
0.0
  0
LINE
  5
2069
330
21CC
100
AcDbEntity
  8
0
  6
Continuous
100
AcDbLine
 10
335.8623031106034
 20
236.3682014385361
 30
0.0
 11
331.3623031106036
 21
236.3682014385361
 31
0.0
  0
LINE
  5
206A
330
21CC
100
AcDbEntity
  8
0
  6
Continuous
100
AcDbLine
 10
335.8623031106034
 20
233.4261914385372
 30
0.0
 11
331.3623031106036
 21
233.4261914385372
 31
0.0
  0
LINE
  5
206B
330
21CC
100
AcDbEntity
  8
0
  6
Continuous
100
AcDbLine
 10
335.8623031106034
 20
242.141721438536
 30
0.0
 11
331.3623031106036
 21
242.141721438536
 31
0.0
  0
LINE
  5
206C
330
21CC
100
AcDbEntity
  8
0
  6
Continuous
100
AcDbLine
 10
335.8623031106034
 20
244.9731914385371
 30
0.0
 11
331.3623031106036
 21
244.9731914385371
 31
0.0
  0
LINE
  5
206D
330
21CC
100
AcDbEntity
  8
0
  6
Continuous
100
AcDbLine
 10
335.3623031106036
 20
359.9449814385375
 30
0.0
 11
331.3623031106036
 21
359.9449814385375
 31
0.0
  0
LINE
  5
206E
330
21CC
100
AcDbEntity
  8
0
  6
Continuous
100
AcDbLine
 10
335.3623031106036
 20
354.9449814385375
 30
0.0
 11
331.3623031106036
 21
354.9449814385375
 31
0.0
  0
LINE
  5
206F
330
21CC
100
AcDbEntity
  8
0
  6
Continuous
100
AcDbLine
 10
401.2085087805663
 20
224.7743814385359
 30
0.0
 11
402.7029067805663
 21
244.6996914385371
 31
0.0
  0
LINE
  5
2070
330
21CC
100
AcDbEntity
  8
0
  6
Continuous
100
AcDbLine
 10
404.2028777805662
 20
242.0864414385373
 30
0.0
 11
404.2028777805662
 21
236.3129414385365
 31
0.0
  0
LINE
  5
2071
330
21CC
100
AcDbEntity
  8
0
  6
Continuous
100
AcDbLine
 10
414.2028777805662
 20
242.0864414385373
 30
0.0
 11
414.2028777805662
 21
236.3129414385365
 31
0.0
  0
LINE
  5
2072
330
21CC
100
AcDbEntity
  8
0
  6
Continuous
100
AcDbLine
 10
420.2346904805664
 20
228.641725438536
 30
0.0
 11
420.2346904805664
 21
222.7576624385365
 31
0.0
  0
LINE
  5
2073
330
21CC
100
AcDbEntity
  8
0
  6
Continuous
100
AcDbLine
 10
401.2028777805662
 20
205.7745844385372
 30
0.0
 11
401.2028777805662
 21
224.6248034385359
 31
0.0
  0
LINE
  5
2074
330
21CC
100
AcDbEntity
  8
0
  6
Continuous
100
AcDbLine
 10
409.2028797805662
 20
233.4261914385372
 30
0.0
 11
404.2028767805662
 21
236.3129414385365
 31
0.0
  0
LINE
  5
2075
330
21CC
100
AcDbEntity
  8
0
  6
Continuous
100
AcDbLine
 10
414.2028777805662
 20
236.3129414385365
 30
0.0
 11
409.2028787805664
 21
233.4261914385372
 31
0.0
  0
LINE
  5
2076
330
21CC
100
AcDbEntity
  8
0
  6
Continuous
100
AcDbLine
 10
415.2028787805662
 20
231.5284714385366
 30
0.0
 11
410.1710647805663
 21
228.6417224385363
 31
0.0
  0
LINE
  5
2077
330
21CC
100
AcDbEntity
  8
0
  6
Continuous
100
AcDbLine
 10
415.2028757805661
 20
219.8709094385374
 30
0.0
 11
410.1710627805664
 21
222.7576594385372
 31
0.0
  0
LINE
  5
2078
330
21CC
100
AcDbEntity
  8
0
  6
Continuous
100
AcDbLine
 10
410.1710647805663
 20
228.641725438536
 30
0.0
 11
410.1710647805663
 21
222.7576624385365
 31
0.0
  0
ARC
  5
2079
330
21CC
100
AcDbEntity
  8
0
  6
Continuous
100
AcDbCircle
 10
403.2028777805662
 20
224.6248034385359
 30
0.0
 40
2.0
100
AcDbArc
 50
175.7108499999993
 51
180.0000100000009
  0
ARC
  5
207A
330
21CC
100
AcDbEntity
  8
0
  6
Continuous
100
AcDbCircle
 10
403.2028777805662
 20
205.7745844385372
 30
0.0
 40
2.0
100
AcDbArc
 50
179.9999899999988
 51
184.2891500000004
  0
LINE
  5
207B
330
21CC
100
AcDbEntity
  8
0
  6
Continuous
100
AcDbLine
 10
415.2028767805663
 20
231.5284714385366
 30
0.0
 11
420.2346900805664
 21
228.641725438536
 31
0.0
  0
LINE
  5
207C
330
21CC
100
AcDbEntity
  8
0
  6
Continuous
100
AcDbLine
 10
415.2028757805661
 20
219.870913438536
 30
0.0
 11
420.2346890805664
 21
222.7576634385366
 31
0.0
  0
CIRCLE
  5
207D
330
21CC
100
AcDbEntity
  8
0
  6
Continuous
100
AcDbCircle
 10
415.2028777805663
 20
225.6996934385362
 30
0.0
 40
2.9447174
  0
LINE
  5
207E
330
21CC
100
AcDbEntity
  8
0
  6
Continuous
100
AcDbLine
 10
422.2028997805663
 20
244.6996914385371
 30
0.0
 11
422.2028997805663
 21
259.6997014385372
 31
0.0
  0
LINE
  5
207F
330
21CC
100
AcDbEntity
  8
0
  6
Continuous
100
AcDbLine
 10
409.2028777805662
 20
244.9732014385372
 30
0.0
 11
404.2028777805662
 21
242.0864414385373
 31
0.0
  0
LINE
  5
2080
330
21CC
100
AcDbEntity
  8
0
  6
Continuous
100
AcDbLine
 10
409.2028767805663
 20
244.9732014385372
 30
0.0
 11
414.2028797805663
 21
242.0864414385373
 31
0.0
  0
LINE
  5
2081
330
21CC
100
AcDbEntity
  8
0
  6
Continuous
100
AcDbLine
 10
343.3623031106036
 20
394.8870134385363
 30
0.0
 11
338.3623031106036
 21
394.8870134385363
 31
0.0
  0
LINE
  5
2082
330
21CC
100
AcDbEntity
  8
0
  6
Continuous
100
AcDbLine
 10
343.3623031106036
 20
389.1134844385373
 30
0.0
 11
338.3623031106036
 21
389.1134844385373
 31
0.0
  0
LINE
  5
2083
330
21CC
100
AcDbEntity
  8
0
  6
Continuous
100
AcDbLine
 10
335.3623031106036
 20
392.9449814385366
 30
0.0
 11
335.3623031106036
 21
402.9449814385375
 31
0.0
  0
LINE
  5
2084
330
21CC
100
AcDbEntity
  8
0
  6
Continuous
100
AcDbLine
 10
335.3623031106036
 20
392.9449814385366
 30
0.0
 11
331.3623031106036
 21
392.9449814385366
 31
0.0
  0
LINE
  5
2085
330
21CC
100
AcDbEntity
  8
0
  6
Continuous
100
AcDbLine
 10
335.3623031106036
 20
397.9449814385375
 30
0.0
 11
331.3623031106036
 21
397.9449814385375
 31
0.0
  0
LINE
  5
2086
330
21CC
100
AcDbEntity
  8
0
  6
Continuous
100
AcDbLine
 10
335.3623031106036
 20
402.9449814385375
 30
0.0
 11
331.3623031106036
 21
402.9449814385375
 31
0.0
  0
LINE
  5
2087
330
21CC
100
AcDbEntity
  8
0
  6
Continuous
100
AcDbLine
 10
338.3623031106036
 20
396.9449814385366
 30
0.0
 11
335.3623031106036
 21
396.9449814385366
 31
0.0
  0
LINE
  5
2088
330
21CC
100
AcDbEntity
  8
0
  6
Continuous
100
AcDbLine
 10
338.3623031106036
 20
386.9449814385375
 30
0.0
 11
338.3623031106036
 21
396.9449814385366
 31
0.0
  0
LINE
  5
2089
330
21CC
100
AcDbEntity
  8
0
  6
Continuous
100
AcDbLine
 10
338.3623031106036
 20
386.9449814385375
 30
0.0
 11
334.3623031106036
 21
386.9449814385375
 31
0.0
  0
LINE
  5
208A
330
21CC
100
AcDbEntity
  8
0
  6
Continuous
100
AcDbLine
 10
338.3623031106036
 20
391.9449814385375
 30
0.0
 11
334.3623031106036
 21
391.9449814385375
 31
0.0
  0
LINE
  5
208B
330
21CC
100
AcDbEntity
  8
0
  6
Continuous
100
AcDbLine
 10
343.3623031106036
 20
394.8870134385363
 30
0.0
 11
343.3623031106036
 21
389.1134844385373
 31
0.0
  0
LINE
  5
208C
330
21CC
100
AcDbEntity
  8
0
  6
Continuous
100
AcDbLine
 10
334.3623031106036
 20
392.9449814385366
 30
0.0
 11
334.3623031106036
 21
385.689731438536
 31
0.0
  0
LINE
  5
208D
330
21CC
100
AcDbEntity
  8
0
  6
Continuous
100
AcDbLine
 10
334.3623031106036
 20
385.689731438536
 30
0.0
 11
331.3623031106036
 21
385.689731438536
 31
0.0
  0
LINE
  5
208E
330
21CC
100
AcDbEntity
  8
0
  6
Continuous
100
AcDbLine
 10
335.3623031106036
 20
364.9449814385366
 30
0.0
 11
331.3623031106036
 21
364.9449814385366
 31
0.0
  0
LINE
  5
208F
330
21CC
100
AcDbEntity
  8
0
  6
Continuous
100
AcDbLine
 10
453.7028907805663
 20
244.6996914385371
 30
0.0
 11
455.1972877805663
 21
224.7744004385363
 31
0.0
  0
LINE
  5
2090
330
21CC
100
AcDbEntity
  8
0
  6
Continuous
100
AcDbLine
 10
452.2028777805663
 20
242.0864414385373
 30
0.0
 11
452.2028777805663
 21
236.3129414385365
 31
0.0
  0
LINE
  5
2091
330
21CC
100
AcDbEntity
  8
0
  6
Continuous
100
AcDbLine
 10
442.2028777805662
 20
242.0864414385373
 30
0.0
 11
442.2028777805662
 21
236.3129414385365
 31
0.0
  0
LINE
  5
2092
330
21CC
100
AcDbEntity
  8
0
  6
Continuous
100
AcDbLine
 10
455.2028777805662
 20
205.7745844385372
 30
0.0
 11
455.2028777805662
 21
224.6248034385359
 31
0.0
  0
ARC
  5
2093
330
21CC
100
AcDbEntity
  8
0
  6
Continuous
100
AcDbCircle
 10
453.2028777805662
 20
224.6248034385359
 30
0.0
 40
2.0
100
AcDbArc
 50
0.0
 51
4.289153500001481
  0
ARC
  5
2094
330
21CC
100
AcDbEntity
  8
0
  6
Continuous
100
AcDbCircle
 10
453.2028777805662
 20
205.7745844385372
 30
0.0
 40
2.0
100
AcDbArc
 50
355.7108499999994
 51
0.0
  0
LINE
  5
2095
330
21CC
100
AcDbEntity
  8
0
  6
Continuous
100
AcDbLine
 10
447.2028767805662
 20
233.4261914385372
 30
0.0
 11
442.2028777805662
 21
236.3129414385365
 31
0.0
  0
LINE
  5
2096
330
21CC
100
AcDbEntity
  8
0
  6
Continuous
100
AcDbLine
 10
452.2028787805663
 20
236.3129414385365
 30
0.0
 11
447.202875780566
 21
233.4261914385372
 31
0.0
  0
LINE
  5
2097
330
21CC
100
AcDbEntity
  8
0
  6
Continuous
100
AcDbLine
 10
447.2028787805662
 20
244.9732014385372
 30
0.0
 11
442.202875780566
 21
242.0864414385373
 31
0.0
  0
LINE
  5
2098
330
21CC
100
AcDbEntity
  8
0
  6
Continuous
100
AcDbLine
 10
434.2028997805663
 20
244.6996914385371
 30
0.0
 11
434.2028997805663
 21
259.6997014385372
 31
0.0
  0
LINE
  5
2099
330
21CC
100
AcDbEntity
  8
0
  6
Continuous
100
AcDbLine
 10
447.2028777805662
 20
244.9732014385372
 30
0.0
 11
452.2028777805663
 21
242.0864414385373
 31
0.0
  0
LINE
  5
209A
330
21CC
100
AcDbEntity
  8
AM_0N
100
AcDbLine
 10
307.0123037106034
 20
111.6997014385372
 30
0.0
 11
303.3362043106034
 21
121.7997011385372
 31
0.0
  0
LINE
  5
209B
330
21CC
100
AcDbEntity
  8
AM_0N
100
AcDbLine
 10
307.0123037106034
 20
111.6997014385372
 30
0.0
 11
307.0123037106034
 21
145.6997014385371
 31
0.0
  0
LINE
  5
209C
330
21CC
100
AcDbEntity
  8
0
  6
Continuous
100
AcDbLine
 10
309.8623031106036
 20
111.6997014385372
 30
0.0
 11
309.8623031106036
 21
145.6997014385371
 31
0.0
  0
LINE
  5
209D
330
21CC
100
AcDbEntity
  8
AM_0N
100
AcDbLine
 10
309.8623031106034
 20
111.6997014385372
 30
0.0
 11
307.0123037106034
 21
111.6997014385372
 31
0.0
  0
LINE
  5
209E
330
21CC
100
AcDbEntity
  8
AM_0N
100
AcDbLine
 10
307.0123037106034
 20
145.6997014385371
 30
0.0
 11
303.3362043106034
 21
135.5997017385373
 31
0.0
  0
LINE
  5
209F
330
21CC
100
AcDbEntity
  8
AM_0N
100
AcDbLine
 10
309.8623031106036
 20
145.6997014385371
 30
0.0
 11
307.0123037106034
 21
145.6997014385371
 31
0.0
  0
LINE
  5
20A0
330
21CC
100
AcDbEntity
  8
AM_0N
100
AcDbLine
 10
303.3362044106035
 20
121.7997013385371
 30
0.0
 11
289.3619311106034
 21
121.7997013385371
 31
0.0
  0
LINE
  5
20A1
330
21CC
100
AcDbEntity
  8
AM_0N
100
AcDbLine
 10
303.3362044106035
 20
135.5997015385359
 30
0.0
 11
289.3619311106036
 21
135.5997015385359
 31
0.0
  0
LINE
  5
20A2
330
21CC
100
AcDbEntity
  8
AM_0N
100
AcDbLine
 10
303.3362044106035
 20
121.7997013385371
 30
0.0
 11
303.3362042378095
 21
135.5997015385359
 31
0.0
  0
CIRCLE
  5
20AC
330
21CC
100
AcDbEntity
  8
0
  6
Continuous
100
AcDbCircle
 10
428.2028777805662
 20
128.6997014385372
 30
0.0
 40
17.0
  0
CIRCLE
  5
20B0
330
21CC
100
AcDbEntity
  8
0
  6
Continuous
100
AcDbCircle
 10
428.2028777805662
 20
128.6997014385372
 30
0.0
 40
6.900000099999942
  0
LINE
  5
224B
330
21CC
100
AcDbEntity
  8
0
  6
CENTER
100
AcDbLine
 10
346.6132123098077
 20
378.9449814385368
 30
0.0
 11
221.8921759493068
 21
378.9449814385366
 31
0.0
  0
LINE
  5
224C
330
21CC
100
AcDbEntity
  8
0
  6
CENTER
100
AcDbLine
 10
277.3623031106036
 20
86.81691585323552
 30
0.0
 11
277.3623031106036
 21
270.4345686204219
 31
0.0
  0
LINE
  5
224D
330
21CC
100
AcDbEntity
  8
0
  6
CENTER
100
AcDbLine
 10
236.5898568651764
 20
128.6997014385372
 30
0.0
 11
318.1347493560306
 21
128.6997014385372
 31
0.0
  0
LINE
  5
224E
330
21CC
100
AcDbEntity
  8
0
  6
CENTER
100
AcDbLine
 10
387.4304315351392
 20
128.6997014385372
 30
0.0
 11
468.9753240259934
 21
128.6997014385372
 31
0.0
  0
LINE
  5
224F
330
21CC
100
AcDbEntity
  8
0
  6
CENTER
100
AcDbLine
 10
428.2028777805662
 20
86.81691585323552
 30
0.0
 11
428.2028777805662
 21
270.4345686204219
 31
0.0
  0
LINE
  5
2250
330
21CC
100
AcDbEntity
  8
0
  6
CENTER
100
AcDbLine
 10
277.3623031106036
 20
337.5324757011292
 30
0.0
 11
277.3623031106036
 21
420.3574871759442
 31
0.0
  0
ENDSEC
  0
SECTION
  2
OBJECTS
  0
DICTIONARY
  5
21BA
330
0
100
AcDbDictionary
281
     1
  3
ACAD_GROUP
350
21BB
  3
ACAD_LAYOUT
350
21C7
  3
ACAD_MLINESTYLE
350
21C4
  3
ACAD_PLOTSETTINGS
350
21C6
  3
ACAD_PLOTSTYLENAME
350
21BC
  3
AcDbVariableDictionary
350
2238
  0
DICTIONARY
  5
2244
330
21B0
100
AcDbDictionary
280
     1
281
     1
  3
ACAD_LAYERSTATES
360
2245
  0
DICTIONARY
  5
21F8
330
21CC
100
AcDbDictionary
280
     1
281
     1
  3
ACAD_LAYOUTSELFREF
360
2227
  0
DICTIONARY
  5
21FA
330
21C8
100
AcDbDictionary
280
     1
281
     1
  3
ACAD_LAYOUTSELFREF
360
2226
  0
DICTIONARY
  5
21BB
102
{ACAD_REACTORS
330
21BA
102
}
330
21BA
100
AcDbDictionary
281
     1
  0
DICTIONARY
  5
21C7
102
{ACAD_REACTORS
330
21BA
102
}
330
21BA
100
AcDbDictionary
281
     1
  3
Model
350
21CF
  3
ﾚｲｱｳﾄ1
350
21CB
  0
DICTIONARY
  5
21C4
102
{ACAD_REACTORS
330
21BA
102
}
330
21BA
100
AcDbDictionary
281
     1
  3
Standard
350
21C5
  0
DICTIONARY
  5
21C6
102
{ACAD_REACTORS
330
21BA
102
}
330
21BA
100
AcDbDictionary
281
     1
  0
ACDBDICTIONARYWDFLT
  5
21BC
102
{ACAD_REACTORS
330
21BA
102
}
330
21BA
100
AcDbDictionary
281
     1
  3
Normal
350
21BD
100
AcDbDictionaryWithDefault
340
21BD
  0
DICTIONARY
  5
2238
102
{ACAD_REACTORS
330
21BA
102
}
330
21BA
100
AcDbDictionary
281
     1
  3
DIMASSOC
350
2239
  0
DICTIONARY
  5
2245
102
{ACAD_REACTORS
330
2244
102
}
330
2244
100
AcDbDictionary
281
     1
  0
XRECORD
  5
2227
102
{ACAD_REACTORS
330
21F8
102
}
330
21F8
100
AcDbXrecord
280
     1
340
21CC
  0
XRECORD
  5
2226
102
{ACAD_REACTORS
330
21FA
102
}
330
21FA
100
AcDbXrecord
280
     1
340
21C8
  0
LAYOUT
  5
21CF
102
{ACAD_REACTORS
330
21C7
102
}
330
21C7
100
AcDbPlotSettings
  1

  2
SII LP-2150 (D-SCAN C2)
  4

  6

 40
0.0
 41
0.0
 42
0.0
 43
0.0
 44
0.0
 45
0.0
 46
0.0
 47
0.0
 48
0.0
 49
0.0
140
0.0
141
0.0
142
1.0
143
1.0
 70
  1712
 72
     0
 73
     0
 74
     0
  7

 75
     0
147
1.0
148
0.0
149
0.0
100
AcDbLayout
  1
Model
 70
     1
 71
     0
 10
0.0
 20
0.0
 11
12.0
 21
9.0
 12
0.0
 22
0.0
 32
0.0
 14
0.0
 24
0.0
 34
0.0
 15
0.0
 25
0.0
 35
0.0
146
0.0
 13
0.0
 23
0.0
 33
0.0
 16
1.0
 26
0.0
 36
0.0
 17
0.0
 27
1.0
 37
0.0
 76
     0
330
21CC
  0
LAYOUT
  5
21CB
102
{ACAD_REACTORS
330
21C7
102
}
330
21C7
100
AcDbPlotSettings
  1

  2
SII LP-2150 (D-SCAN C2)
  4

  6

 40
0.0
 41
0.0
 42
0.0
 43
0.0
 44
0.0
 45
0.0
 46
0.0
 47
0.0
 48
0.0
 49
0.0
140
0.0
141
0.0
142
1.0
143
1.0
 70
   688
 72
     0
 73
     0
 74
     5
  7

 75
    16
147
1.0
148
0.0
149
0.0
100
AcDbLayout
  1
ﾚｲｱｳﾄ1
 70
     1
 71
     1
 10
0.0
 20
0.0
 11
12.0
 21
9.0
 12
0.0
 22
0.0
 32
0.0
 14
1.000000000000000E+20
 24
1.000000000000000E+20
 34
1.000000000000000E+20
 15
-1.000000000000000E+20
 25
-1.000000000000000E+20
 35
-1.000000000000000E+20
146
0.0
 13
0.0
 23
0.0
 33
0.0
 16
1.0
 26
0.0
 36
0.0
 17
0.0
 27
1.0
 37
0.0
 76
     0
330
21C8
  0
MLINESTYLE
  5
21C5
102
{ACAD_REACTORS
330
21C4
102
}
330
21C4
100
AcDbMlineStyle
  2
STANDARD
 70
     0
  3

 62
   256
 51
90.0
 52
90.0
 71
     2
 49
0.5
 62
   256
  6
BYLAYER
 49
-0.5
 62
   256
  6
BYLAYER
  0
ACDBPLACEHOLDER
  5
21BD
102
{ACAD_REACTORS
330
21BC
102
}
330
21BC
  0
DICTIONARYVAR
  5
2239
102
{ACAD_REACTORS
330
2238
102
}
330
2238
100
DictionaryVariables
280
     0
  1
1
  0
ENDSEC
  0
EOF
