  0
SECTION
  2
HEADER
  9
$ACADVER
  1
AC1024
  9
$ACADMAINTVER
 70
     6
  9
$DWGCODEPAGE
  3
ANSI_932
  9
$LASTSAVEDBY
  1
kanatani
  9
$INSBASE
 10
0.0
 20
0.0
 30
0.0
  9
$EXTMIN
 10
-166.49998184992
 20
-144.4491188712543
 30
0.0
  9
$EXTMAX
 10
146.6164407195037
 20
275.7661231514713
 30
0.0
  9
$LIMMIN
 10
0.0
 20
0.0
  9
$LIMMAX
 10
420.0
 20
297.0
  9
$ORTHOMODE
 70
     0
  9
$REGENMODE
 70
     1
  9
$FILLMODE
 70
     1
  9
$QTEXTMODE
 70
     0
  9
$MIRRTEXT
 70
     1
  9
$LTSCALE
 40
0.2
  9
$ATTMODE
 70
     1
  9
$TEXTSIZE
 40
2.5
  9
$TRACEWID
 40
1.0
  9
$TEXTSTYLE
  7
Standard
  9
$CLAYER
  8
0
  9
$CELTYPE
  6
ByLayer
  9
$CECOLOR
 62
   256
  9
$CELTSCALE
 40
1.0
  9
$DISPSILH
 70
     0
  9
$DIMSCALE
 40
1.0
  9
$DIMASZ
 40
2.5
  9
$DIMEXO
 40
0.625
  9
$DIMDLI
 40
3.75
  9
$DIMRND
 40
0.0
  9
$DIMDLE
 40
0.0
  9
$DIMEXE
 40
1.25
  9
$DIMTP
 40
0.0
  9
$DIMTM
 40
0.0
  9
$DIMTXT
 40
2.5
  9
$DIMCEN
 40
2.5
  9
$DIMTSZ
 40
0.0
  9
$DIMTOL
 70
     0
  9
$DIMLIM
 70
     0
  9
$DIMTIH
 70
     0
  9
$DIMTOH
 70
     0
  9
$DIMSE1
 70
     0
  9
$DIMSE2
 70
     0
  9
$DIMTAD
 70
     1
  9
$DIMZIN
 70
     8
  9
$DIMBLK
  1

  9
$DIMASO
 70
     1
  9
$DIMSHO
 70
     1
  9
$DIMPOST
  1

  9
$DIMAPOST
  1

  9
$DIMALT
 70
     0
  9
$DIMALTD
 70
     3
  9
$DIMALTF
 40
0.03937007874016
  9
$DIMLFAC
 40
1.0
  9
$DIMTOFL
 70
     1
  9
$DIMTVP
 40
0.0
  9
$DIMTIX
 70
     0
  9
$DIMSOXD
 70
     0
  9
$DIMSAH
 70
     0
  9
$DIMBLK1
  1

  9
$DIMBLK2
  1

  9
$DIMSTYLE
  2
ISO-25
  9
$DIMCLRD
 70
     0
  9
$DIMCLRE
 70
     0
  9
$DIMCLRT
 70
     0
  9
$DIMTFAC
 40
1.0
  9
$DIMGAP
 40
0.625
  9
$DIMJUST
 70
     0
  9
$DIMSD1
 70
     0
  9
$DIMSD2
 70
     0
  9
$DIMTOLJ
 70
     0
  9
$DIMTZIN
 70
     8
  9
$DIMALTZ
 70
     0
  9
$DIMALTTZ
 70
     0
  9
$DIMUPT
 70
     0
  9
$DIMDEC
 70
     2
  9
$DIMTDEC
 70
     2
  9
$DIMALTU
 70
     2
  9
$DIMALTTD
 70
     3
  9
$DIMTXSTY
  7
Standard
  9
$DIMAUNIT
 70
     0
  9
$DIMADEC
 70
     0
  9
$DIMALTRND
 40
0.0
  9
$DIMAZIN
 70
     0
  9
$DIMDSEP
 70
    44
  9
$DIMATFIT
 70
     3
  9
$DIMFRAC
 70
     0
  9
$DIMLDRBLK
  1

  9
$DIMLUNIT
 70
     2
  9
$DIMLWD
 70
    -2
  9
$DIMLWE
 70
    -2
  9
$DIMTMOVE
 70
     0
  9
$DIMFXL
 40
1.0
  9
$DIMFXLON
 70
     0
  9
$DIMJOGANG
 40
0.7853981633974483
  9
$DIMTFILL
 70
     0
  9
$DIMTFILLCLR
 70
     0
  9
$DIMARCSYM
 70
     0
  9
$DIMLTYPE
  6

  9
$DIMLTEX1
  6

  9
$DIMLTEX2
  6

  9
$DIMTXTDIRECTION
 70
     0
  9
$LUNITS
 70
     2
  9
$LUPREC
 70
     4
  9
$SKETCHINC
 40
1.0
  9
$FILLETRAD
 40
10.0
  9
$AUNITS
 70
     0
  9
$AUPREC
 70
     0
  9
$MENU
  1
.
  9
$ELEVATION
 40
0.0
  9
$PELEVATION
 40
0.0
  9
$THICKNESS
 40
0.0
  9
$LIMCHECK
 70
     0
  9
$CHAMFERA
 40
10.0
  9
$CHAMFERB
 40
10.0
  9
$CHAMFERC
 40
20.0
  9
$CHAMFERD
 40
0.0
  9
$SKPOLY
 70
     0
  9
$TDCREATE
 40
2456874.593217083
  9
$TDUCREATE
 40
2456874.218217083
  9
$TDUPDATE
 40
2456910.421057836
  9
$TDUUPDATE
 40
2456910.046057836
  9
$TDINDWG
 40
0.0017260069
  9
$TDUSRTIMER
 40
0.0017259954
  9
$USRTIMER
 70
     1
  9
$ANGBASE
 50
0.0
  9
$ANGDIR
 70
     0
  9
$PDMODE
 70
     0
  9
$PDSIZE
 40
0.0
  9
$PLINEWID
 40
0.0
  9
$SPLFRAME
 70
     0
  9
$SPLINETYPE
 70
     6
  9
$SPLINESEGS
 70
     8
  9
$HANDSEED
  5
4FA
  9
$SURFTAB1
 70
     6
  9
$SURFTAB2
 70
     6
  9
$SURFTYPE
 70
     6
  9
$SURFU
 70
     6
  9
$SURFV
 70
     6
  9
$UCSBASE
  2

  9
$UCSNAME
  2

  9
$UCSORG
 10
0.0
 20
0.0
 30
0.0
  9
$UCSXDIR
 10
1.0
 20
0.0
 30
0.0
  9
$UCSYDIR
 10
0.0
 20
1.0
 30
0.0
  9
$UCSORTHOREF
  2

  9
$UCSORTHOVIEW
 70
     0
  9
$UCSORGTOP
 10
0.0
 20
0.0
 30
0.0
  9
$UCSORGBOTTOM
 10
0.0
 20
0.0
 30
0.0
  9
$UCSORGLEFT
 10
0.0
 20
0.0
 30
0.0
  9
$UCSORGRIGHT
 10
0.0
 20
0.0
 30
0.0
  9
$UCSORGFRONT
 10
0.0
 20
0.0
 30
0.0
  9
$UCSORGBACK
 10
0.0
 20
0.0
 30
0.0
  9
$PUCSBASE
  2

  9
$PUCSNAME
  2

  9
$PUCSORG
 10
0.0
 20
0.0
 30
0.0
  9
$PUCSXDIR
 10
1.0
 20
0.0
 30
0.0
  9
$PUCSYDIR
 10
0.0
 20
1.0
 30
0.0
  9
$PUCSORTHOREF
  2

  9
$PUCSORTHOVIEW
 70
     0
  9
$PUCSORGTOP
 10
0.0
 20
0.0
 30
0.0
  9
$PUCSORGBOTTOM
 10
0.0
 20
0.0
 30
0.0
  9
$PUCSORGLEFT
 10
0.0
 20
0.0
 30
0.0
  9
$PUCSORGRIGHT
 10
0.0
 20
0.0
 30
0.0
  9
$PUCSORGFRONT
 10
0.0
 20
0.0
 30
0.0
  9
$PUCSORGBACK
 10
0.0
 20
0.0
 30
0.0
  9
$USERI1
 70
     0
  9
$USERI2
 70
     0
  9
$USERI3
 70
     0
  9
$USERI4
 70
     0
  9
$USERI5
 70
     0
  9
$USERR1
 40
0.0
  9
$USERR2
 40
0.0
  9
$USERR3
 40
0.0
  9
$USERR4
 40
0.0
  9
$USERR5
 40
0.0
  9
$WORLDVIEW
 70
     1
  9
$SHADEDGE
 70
     3
  9
$SHADEDIF
 70
    70
  9
$TILEMODE
 70
     1
  9
$MAXACTVP
 70
    64
  9
$PINSBASE
 10
0.0
 20
0.0
 30
0.0
  9
$PLIMCHECK
 70
     0
  9
$PEXTMIN
 10
26.66076962115563
 20
20.31135699206658
 30
-0.0015258207003583
  9
$PEXTMAX
 10
240.039213369355
 20
182.8886381005154
 30
0.0000000349246037
  9
$PLIMMIN
 10
-6.350006103515625
 20
-6.349999904632568
  9
$PLIMMAX
 10
273.0499877929688
 20
209.5499939918518
  9
$UNITMODE
 70
     0
  9
$VISRETAIN
 70
     1
  9
$PLINEGEN
 70
     0
  9
$PSLTSCALE
 70
     1
  9
$TREEDEPTH
 70
  3020
  9
$CMLSTYLE
  2
Standard
  9
$CMLJUST
 70
     0
  9
$CMLSCALE
 40
20.0
  9
$PROXYGRAPHICS
 70
     1
  9
$MEASUREMENT
 70
     1
  9
$CELWEIGHT
370
    -1
  9
$ENDCAPS
280
     0
  9
$JOINSTYLE
280
     0
  9
$LWDISPLAY
290
     0
  9
$INSUNITS
 70
     4
  9
$HYPERLINKBASE
  1

  9
$STYLESHEET
  1

  9
$XEDIT
290
     1
  9
$CEPSNTYPE
380
     0
  9
$PSTYLEMODE
290
     1
  9
$FINGERPRINTGUID
  2
{FDEAD578-A652-11D2-9A35-0060089B3A3F}
  9
$VERSIONGUID
  2
{985F9444-5CF9-482E-A546-7CD1AD00E3C2}
  9
$EXTNAMES
290
     1
  9
$PSVPSCALE
 40
0.0
  9
$OLESTARTUP
290
     0
  9
$SORTENTS
280
   127
  9
$INDEXCTL
280
     0
  9
$HIDETEXT
280
     1
  9
$XCLIPFRAME
280
     2
  9
$HALOGAP
280
     0
  9
$OBSCOLOR
 70
   257
  9
$OBSLTYPE
280
     0
  9
$INTERSECTIONDISPLAY
280
     0
  9
$INTERSECTIONCOLOR
 70
   257
  9
$DIMASSOC
280
     2
  9
$PROJECTNAME
  1

  9
$CAMERADISPLAY
290
     0
  9
$LENSLENGTH
 40
50.0
  9
$CAMERAHEIGHT
 40
0.0
  9
$STEPSPERSEC
 40
2.0
  9
$STEPSIZE
 40
6.0
  9
$3DDWFPREC
 40
2.0
  9
$PSOLWIDTH
 40
0.25
  9
$PSOLHEIGHT
 40
4.0
  9
$LOFTANG1
 40
1.570796326794896
  9
$LOFTANG2
 40
1.570796326794896
  9
$LOFTMAG1
 40
0.0
  9
$LOFTMAG2
 40
0.0
  9
$LOFTPARAM
 70
     7
  9
$LOFTNORMALS
280
     1
  9
$LATITUDE
 40
37.795
  9
$LONGITUDE
 40
-122.394
  9
$NORTHDIRECTION
 40
0.0
  9
$TIMEZONE
 70
 -8000
  9
$LIGHTGLYPHDISPLAY
280
     1
  9
$TILEMODELIGHTSYNCH
280
     1
  9
$CMATERIAL
347
4A9
  9
$SOLIDHIST
280
     1
  9
$SHOWHIST
280
     1
  9
$DWFFRAME
280
     2
  9
$DGNFRAME
280
     0
  9
$REALWORLDSCALE
290
     1
  9
$INTERFERECOLOR
 62
     1
  9
$INTERFEREOBJVS
345
4CB
  9
$INTERFEREVPVS
346
4C8
  9
$CSHADOW
280
     0
  9
$SHADOWPLANELOCATION
 40
0.0
  0
ENDSEC
  0
SECTION
  2
CLASSES
  0
CLASS
  1
ACDBDICTIONARYWDFLT
  2
AcDbDictionaryWithDefault
  3
ObjectDBX Classes
 90
        0
 91
        1
280
     0
281
     0
  0
CLASS
  1
DICTIONARYVAR
  2
AcDbDictionaryVar
  3
ObjectDBX Classes
 90
        0
 91
        9
280
     0
281
     0
  0
CLASS
  1
MATERIAL
  2
AcDbMaterial
  3
ObjectDBX Classes
 90
     1153
 91
        3
280
     0
281
     0
  0
CLASS
  1
VISUALSTYLE
  2
AcDbVisualStyle
  3
ObjectDBX Classes
 90
     4095
 91
       19
280
     0
281
     0
  0
CLASS
  1
TABLESTYLE
  2
AcDbTableStyle
  3
ObjectDBX Classes
 90
     4095
 91
        1
280
     0
281
     0
  0
CLASS
  1
SCALE
  2
AcDbScale
  3
ObjectDBX Classes
 90
     1153
 91
       17
280
     0
281
     0
  0
CLASS
  1
MLEADERSTYLE
  2
AcDbMLeaderStyle
  3
ACDB_MLEADERSTYLE_CLASS
 90
     4095
 91
        1
280
     0
281
     0
  0
CLASS
  1
CELLSTYLEMAP
  2
AcDbCellStyleMap
  3
ObjectDBX Classes
 90
     1152
 91
        1
280
     0
281
     0
  0
ENDSEC
  0
SECTION
  2
TABLES
  0
TABLE
  2
VPORT
  5
8
330
0
100
AcDbSymbolTable
 70
     1
  0
VPORT
  5
4A6
330
8
100
AcDbSymbolTableRecord
100
AcDbViewportTableRecord
  2
*Active
 70
     0
 10
0.0
 20
0.0
 11
1.0
 21
1.0
 12
-9.93565870677645
 22
76.61892129711515
 13
0.0
 23
0.0
 14
10.0
 24
10.0
 15
10.0
 25
10.0
 16
0.0
 26
0.0
 36
1.0
 17
0.0
 27
0.0
 37
0.0
 40
444.8573906306753
 41
1.857142857142857
 42
50.0
 43
0.0
 44
0.0
 50
0.0
 51
0.0
 71
     0
 72
   100
 73
     1
 74
     3
 75
     0
 76
     0
 77
     0
 78
     0
281
     0
 65
     1
110
0.0
120
0.0
130
0.0
111
1.0
121
0.0
131
0.0
112
0.0
122
1.0
132
0.0
 79
     0
146
0.0
348
4C7
 60
     3
 61
     5
292
     1
282
     1
141
0.0
142
0.0
 63
   250
421
  3355443
  0
ENDTAB
  0
TABLE
  2
LTYPE
  5
5
330
0
100
AcDbSymbolTable
 70
     3
  0
LTYPE
  5
14
330
5
100
AcDbSymbolTableRecord
100
AcDbLinetypeTableRecord
  2
ByBlock
 70
     0
  3

 72
    65
 73
     0
 40
0.0
  0
LTYPE
  5
15
330
5
100
AcDbSymbolTableRecord
100
AcDbLinetypeTableRecord
  2
ByLayer
 70
     0
  3

 72
    65
 73
     0
 40
0.0
  0
LTYPE
  5
16
330
5
100
AcDbSymbolTableRecord
100
AcDbLinetypeTableRecord
  2
Continuous
 70
     0
  3
Solid line
 72
    65
 73
     0
 40
0.0
  0
LTYPE
  5
8D
330
5
100
AcDbSymbolTableRecord
100
AcDbLinetypeTableRecord
  2
CENTER
 70
     0
  3
Center ____ _ ____ _ ____ _ ____ _ ____ _ ____
 72
    65
 73
     4
 40
50.8
 49
31.75
 74
     0
 49
-6.349999999999999
 74
     0
 49
6.349999999999999
 74
     0
 49
-6.349999999999999
 74
     0
  0
LTYPE
  5
8E
330
5
100
AcDbSymbolTableRecord
100
AcDbLinetypeTableRecord
  2
PHANTOM
 70
     0
  3
Phantom ______  __  __  ______  __  __  ______
 72
    65
 73
     6
 40
63.5
 49
31.75
 74
     0
 49
-6.349999999999999
 74
     0
 49
6.349999999999999
 74
     0
 49
-6.349999999999999
 74
     0
 49
6.349999999999999
 74
     0
 49
-6.349999999999999
 74
     0
  0
ENDTAB
  0
TABLE
  2
LAYER
  5
2
102
{ACAD_XDICTIONARY
360
97
102
}
330
0
100
AcDbSymbolTable
 70
     3
  0
LAYER
  5
10
102
{ACAD_XDICTIONARY
360
4EE
102
}
330
2
100
AcDbSymbolTableRecord
100
AcDbLayerTableRecord
  2
0
 70
     0
 62
     7
  6
Continuous
370
    -3
390
F
347
4B9
  0
LAYER
  5
8F
102
{ACAD_XDICTIONARY
360
90
102
}
330
2
100
AcDbSymbolTableRecord
100
AcDbLayerTableRecord
  2
2
 70
     0
 62
     2
  6
PHANTOM
370
    -3
390
F
347
4B9
1001
AcAecLayerStandard
1000

1000

1001
ACCMTRANSPARENCY
1071
        0
  0
LAYER
  5
92
102
{ACAD_XDICTIONARY
360
93
102
}
330
2
100
AcDbSymbolTableRecord
100
AcDbLayerTableRecord
  2
1
 70
     0
 62
     5
  6
CENTER
370
    -3
390
F
347
4B9
1001
AcAecLayerStandard
1000

1000

1001
ACCMTRANSPARENCY
1071
        0
  0
ENDTAB
  0
TABLE
  2
STYLE
  5
3
330
0
100
AcDbSymbolTable
 70
     1
  0
STYLE
  5
11
330
3
100
AcDbSymbolTableRecord
100
AcDbTextStyleTableRecord
  2
Standard
 70
     0
 40
0.0
 41
1.0
 50
0.0
 71
     0
 42
2.5
  3
txt
  4

  0
ENDTAB
  0
TABLE
  2
VIEW
  5
6
330
0
100
AcDbSymbolTable
 70
     0
  0
ENDTAB
  0
TABLE
  2
UCS
  5
7
330
0
100
AcDbSymbolTable
 70
     0
  0
ENDTAB
  0
TABLE
  2
APPID
  5
9
330
0
100
AcDbSymbolTable
 70
     3
  0
APPID
  5
12
330
9
100
AcDbSymbolTableRecord
100
AcDbRegAppTableRecord
  2
ACAD
 70
     0
  0
APPID
  5
95
330
9
100
AcDbSymbolTableRecord
100
AcDbRegAppTableRecord
  2
AcAecLayerStandard
 70
     0
  0
APPID
  5
96
330
9
100
AcDbSymbolTableRecord
100
AcDbRegAppTableRecord
  2
ACCMTRANSPARENCY
 70
     0
  0
ENDTAB
  0
TABLE
  2
DIMSTYLE
  5
A
330
0
100
AcDbSymbolTable
 70
     1
100
AcDbDimStyleTable
 71
     0
  0
DIMSTYLE
105
27
330
A
100
AcDbSymbolTableRecord
100
AcDbDimStyleTableRecord
  2
ISO-25
 70
     0
 41
2.5
 42
0.625
 43
3.75
 44
1.25
 73
     0
 74
     0
 77
     1
 78
     8
140
2.5
141
2.5
143
0.03937007874016
147
0.625
171
     3
172
     1
271
     2
272
     2
274
     3
278
    44
283
     0
284
     8
340
11
  0
ENDTAB
  0
TABLE
  2
BLOCK_RECORD
  5
1
330
0
100
AcDbSymbolTable
 70
     1
  0
BLOCK_RECORD
  5
1F
330
1
100
AcDbSymbolTableRecord
100
AcDbBlockTableRecord
  2
*Model_Space
340
22
 70
     0
280
     1
281
     0
  0
BLOCK_RECORD
  5
55
330
1
100
AcDbSymbolTableRecord
100
AcDbBlockTableRecord
  2
*Paper_Space
340
56
 70
     0
280
     1
281
     0
  0
BLOCK_RECORD
  5
50
330
1
100
AcDbSymbolTableRecord
100
AcDbBlockTableRecord
  2
*Paper_Space0
340
51
 70
     0
280
     1
281
     0
  0
ENDTAB
  0
ENDSEC
  0
SECTION
  2
BLOCKS
  0
BLOCK
  5
20
330
1F
100
AcDbEntity
  8
0
100
AcDbBlockBegin
  2
*Model_Space
 70
     0
 10
0.0
 20
0.0
 30
0.0
  3
*Model_Space
  1

  0
ENDBLK
  5
21
330
1F
100
AcDbEntity
  8
0
100
AcDbBlockEnd
  0
BLOCK
  5
57
330
55
100
AcDbEntity
 67
     1
  8
0
100
AcDbBlockBegin
  2
*Paper_Space
 70
     0
 10
0.0
 20
0.0
 30
0.0
  3
*Paper_Space
  1

  0
ENDBLK
  5
58
330
55
100
AcDbEntity
 67
     1
  8
0
100
AcDbBlockEnd
  0
BLOCK
  5
52
330
50
100
AcDbEntity
 67
     1
  8
0
100
AcDbBlockBegin
  2
*Paper_Space0
 70
     0
 10
0.0
 20
0.0
 30
0.0
  3
*Paper_Space0
  1

  0
VIEWPORT
  5
6B
330
50
100
AcDbEntity
 67
     1
  8
0
100
AcDbViewport
 10
133.3499908447266
 20
101.5999970436096
 30
0.0
 40
381.3957395593835
 41
218.2856291881582
 68
     0
 69
     0
 12
133.3499908447266
 22
101.5999970436096
 13
0.0
 23
0.0
 14
10.0
 24
10.0
 15
10.0
 25
10.0
 16
0.0
 26
0.0
 36
1.0
 17
0.0
 27
0.0
 37
0.0
 42
50.0
 43
0.0
 44
0.0
 45
218.2856291881582
 50
0.0
 51
0.0
 72
   100
 90
    32800
  1

281
     0
 71
     1
 74
     0
110
0.0
120
0.0
130
0.0
111
1.0
121
0.0
131
0.0
112
0.0
122
1.0
132
0.0
 79
     0
146
0.0
170
     0
 61
     5
348
4C7
292
     1
282
     1
141
0.0
142
0.0
 63
   250
421
  3355443
  0
VIEWPORT
  5
6D
330
50
100
AcDbEntity
 67
     1
  8
0
100
AcDbViewport
 10
133.3499939441681
 20
101.5999939441681
 30
0.0
 40
213.3599903106689
 41
162.5599903106689
 68
     0
 69
     0
 12
210.0
 22
148.5
 13
0.0
 23
0.0
 14
10.0
 24
10.0
 15
10.0
 25
10.0
 16
0.0
 26
0.0
 36
1.0
 17
0.0
 27
0.0
 37
0.0
 42
50.0
 43
0.0
 44
0.0
 45
324.0677920111345
 50
0.0
 51
0.0
 72
   100
 90
    32864
  1

281
     0
 71
     1
 74
     0
110
0.0
120
0.0
130
0.0
111
1.0
121
0.0
131
0.0
112
0.0
122
1.0
132
0.0
 79
     0
146
0.0
170
     0
 61
     5
348
4C7
292
     1
282
     1
141
0.0
142
0.0
 63
   250
421
  3355443
  0
ENDBLK
  5
53
330
50
100
AcDbEntity
 67
     1
  8
0
100
AcDbBlockEnd
  0
ENDSEC
  0
SECTION
  2
ENTITIES
  0
LINE
  5
29F
330
1F
100
AcDbEntity
  8
2
100
AcDbLine
 10
-132.5
 20
154.5802423243158
 30
0.0
 11
100.5
 21
154.5802423243158
 31
0.0
  0
LINE
  5
2A0
330
1F
100
AcDbEntity
  8
2
100
AcDbLine
 10
-132.5
 20
150.5557061915033
 30
0.0
 11
100.5
 21
150.5557061915033
 31
0.0
  0
LINE
  5
2A1
330
1F
100
AcDbEntity
  8
2
100
AcDbLine
 10
-142.6439208984375
 20
166.5557672266595
 30
0.0
 11
-135.5
 21
166.5557672266595
 31
0.0
  0
LINE
  5
2A2
330
1F
100
AcDbEntity
  8
2
100
AcDbLine
 10
-142.6439208984375
 20
157.0557672266595
 30
0.0
 11
-135.5
 21
157.0557672266595
 31
0.0
  0
LINE
  5
2A3
330
1F
100
AcDbEntity
  8
2
100
AcDbLine
 10
-145.5
 20
152.480449843847
 30
0.0
 11
-134.4999389648437
 21
152.480449843847
 31
0.0
  0
LINE
  5
2A4
330
1F
100
AcDbEntity
  8
2
100
AcDbLine
 10
-145.5
 20
150.5557061915033
 30
0.0
 11
-133.4999389648437
 21
150.5557061915033
 31
0.0
  0
ARC
  5
2A5
330
1F
100
AcDbEntity
  8
2
100
AcDbCircle
 10
-129.8930053710937
 20
161.8057061915033
 30
0.0
 40
13.60700035095215
100
AcDbArc
 50
159.5686415786477
 51
200.4313547788948
  0
LINE
  5
2A6
330
1F
100
AcDbEntity
  8
2
100
AcDbLine
 10
-143.4999389648437
 20
161.8057061915033
 30
0.0
 11
-143.4999389648437
 21
171.3057672266595
 31
0.0
  0
LINE
  5
2A7
330
1F
100
AcDbEntity
  8
2
100
AcDbLine
 10
-146.4998755373535
 20
151.5557626966738
 30
0.0
 11
-145.4998959956902
 21
150.5557832393024
 31
0.0
  0
LINE
  5
2A8
330
1F
100
AcDbEntity
  8
2
100
AcDbLine
 10
-133.4999127647743
 20
151.5558198899457
 30
0.0
 11
-132.4998900647365
 21
150.5557972742033
 31
0.0
  0
LINE
  5
2A9
330
1F
100
AcDbEntity
  8
2
100
AcDbLine
 10
-135.5
 20
155.5557061915033
 30
0.0
 11
-133.4999389648437
 21
155.5557061915033
 31
0.0
  0
ARC
  5
2AA
330
1F
100
AcDbEntity
  8
2
100
AcDbCircle
 10
97.89297485351562
 20
161.8057061915033
 30
0.0
 40
13.60700035095215
100
AcDbArc
 50
339.5686416923301
 51
20.43136172276529
  0
LINE
  5
2AB
330
1F
100
AcDbEntity
  8
2
100
AcDbLine
 10
111.5000305175426
 20
161.8057061914787
 30
0.0
 11
111.5000305175422
 21
171.305767226635
 31
0.0
  0
LINE
  5
2AC
330
1F
100
AcDbEntity
  8
2
100
AcDbLine
 10
110.6440124511368
 20
157.055767226635
 30
0.0
 11
103.4999999999645
 21
157.0557672266345
 31
0.0
  0
LINE
  5
2AD
330
1F
100
AcDbEntity
  8
2
100
AcDbLine
 10
113.4999694824218
 20
152.480449843847
 30
0.0
 11
102.5
 21
152.480449843847
 31
0.0
  0
LINE
  5
2AE
330
1F
100
AcDbEntity
  8
2
100
AcDbLine
 10
113.4999694824218
 20
150.5557061915033
 30
0.0
 11
101.5000305175781
 21
150.5557061915033
 31
0.0
  0
LINE
  5
2AF
330
1F
100
AcDbEntity
  8
2
100
AcDbLine
 10
101.499913489909
 20
151.5558615017628
 30
0.0
 11
100.4999123690586
 21
150.555860465206
 31
0.0
  0
LINE
  5
2B0
330
1F
100
AcDbEntity
  8
2
100
AcDbLine
 10
103.4999694824219
 20
155.5557061915033
 30
0.0
 11
101.5000305175781
 21
155.5557061915033
 31
0.0
  0
LINE
  5
2B1
330
1F
100
AcDbEntity
  8
2
100
AcDbLine
 10
113.4998855602916
 20
150.5558559721112
 30
0.0
 11
114.4998865968482
 21
151.5558570929618
 31
0.0
  0
LINE
  5
2B2
330
1F
100
AcDbEntity
  8
2
100
AcDbLine
 10
110.6440124511364
 20
166.555767226635
 30
0.0
 11
103.4999999999645
 21
166.5557672266345
 31
0.0
  0
LINE
  5
2B3
330
1F
100
AcDbEntity
  8
2
100
AcDbLine
 10
-132.5
 20
266.5557672266596
 30
0.0
 11
100.5
 21
266.5557672266596
 31
0.0
  0
LINE
  5
2B4
330
1F
100
AcDbEntity
  8
2
100
AcDbLine
 10
-132.5
 20
262.5312310938471
 30
0.0
 11
100.5
 21
262.5312310938471
 31
0.0
  0
ARC
  5
2B5
330
1F
100
AcDbEntity
  8
2
100
AcDbCircle
 10
-160.447265625
 20
212.8057672266596
 30
0.0
 40
10.44731616973877
100
AcDbArc
 50
335.9958380393912
 51
24.00416537570913
  0
ARC
  5
2B6
330
1F
100
AcDbEntity
  8
2
100
AcDbCircle
 10
-145.5526123046875
 20
212.8057672266596
 30
0.0
 40
10.44731616973877
100
AcDbArc
 50
155.9958379257051
 51
204.0041584318385
  0
LINE
  5
2B7
330
1F
100
AcDbEntity
  8
2
100
AcDbLine
 10
-145.5
 20
238.5557061915033
 30
0.0
 11
-145.5
 21
178.5557672266595
 31
0.0
  0
LINE
  5
2B8
330
1F
100
AcDbEntity
  8
2
100
AcDbLine
 10
-146.5
 20
237.5557672266596
 30
0.0
 11
-146.5
 21
179.5557061915033
 31
0.0
  0
LINE
  5
2B9
330
1F
100
AcDbEntity
  8
2
100
AcDbLine
 10
-150.0
 20
200.0557672266596
 30
0.0
 11
-150.0
 21
217.0557061915034
 31
0.0
  0
LINE
  5
2BA
330
1F
100
AcDbEntity
  8
2
100
AcDbLine
 10
-126.5
 20
266.5557672266596
 30
0.0
 11
-126.5
 21
250.5557061915034
 31
0.0
  0
LINE
  5
2BB
330
1F
100
AcDbEntity
  8
2
100
AcDbLine
 10
-161.5
 20
213.5557061915033
 30
0.0
 11
-161.5
 21
203.5557672266596
 31
0.0
  0
LINE
  5
2BC
330
1F
100
AcDbEntity
  8
2
100
AcDbLine
 10
-142.6439208984375
 20
176.0557672266595
 30
0.0
 11
-135.5
 21
176.0557672266595
 31
0.0
  0
LINE
  5
2BD
330
1F
100
AcDbEntity
  8
2
100
AcDbLine
 10
-145.5
 20
178.5557672266595
 30
0.0
 11
-132.5
 21
178.5557672266595
 31
0.0
  0
LINE
  5
2BE
330
1F
100
AcDbEntity
  8
2
100
AcDbLine
 10
-145.5
 20
177.141582656347
 30
0.0
 11
-145.5
 21
150.5557061915033
 31
0.0
  0
LINE
  5
2BF
330
1F
100
AcDbEntity
  8
2
100
AcDbLine
 10
-146.5
 20
178.1415216211908
 30
0.0
 11
-146.5
 21
151.5557672266595
 31
0.0
  0
ARC
  5
2C0
330
1F
100
AcDbEntity
  8
2
100
AcDbCircle
 10
-129.8930053710937
 20
171.3057672266595
 30
0.0
 40
13.60700035095215
100
AcDbArc
 50
159.5686415786477
 51
200.4313547788948
  0
LINE
  5
2C1
330
1F
100
AcDbEntity
  8
2
100
AcDbLine
 10
-146.4999441524251
 20
179.5558117821651
 30
0.0
 11
-145.4999214523868
 21
178.555789166423
 31
0.0
  0
LINE
  5
2C2
330
1F
100
AcDbEntity
  8
2
100
AcDbLine
 10
-155.096435546875
 20
200.0557672266596
 30
0.0
 11
-150.9035034179687
 21
200.0557672266596
 31
0.0
  0
LINE
  5
2C3
330
1F
100
AcDbEntity
  8
2
100
AcDbLine
 10
-155.096435546875
 20
208.5557061915034
 30
0.0
 11
-150.9035034179687
 21
208.5557061915034
 31
0.0
  0
ARC
  5
2C4
330
1F
100
AcDbEntity
  8
2
100
AcDbCircle
 10
-145.5526123046875
 20
204.3057061915034
 30
0.0
 40
10.44731616973877
100
AcDbArc
 50
155.9958379257051
 51
204.0041584318385
  0
LINE
  5
2C5
330
1F
100
AcDbEntity
  8
2
100
AcDbLine
 10
-155.9999389648437
 20
204.3057061915034
 30
0.0
 11
-155.9999389648437
 21
212.8057672266596
 31
0.0
  0
LINE
  5
2C6
330
1F
100
AcDbEntity
  8
2
100
AcDbLine
 10
-161.5
 20
203.5557672266596
 30
0.0
 11
-155.9999389648437
 21
203.5557672266596
 31
0.0
  0
ARC
  5
2C7
330
1F
100
AcDbEntity
  8
2
100
AcDbCircle
 10
-160.447265625
 20
204.3057061915034
 30
0.0
 40
10.44731616973877
100
AcDbArc
 50
335.9958380393912
 51
24.00416537570913
  0
ARC
  5
2C8
330
1F
100
AcDbEntity
  8
2
100
AcDbCircle
 10
-148.0
 20
200.5557061915034
 30
0.0
 40
2.0
100
AcDbArc
 50
179.9999913485786
 51
270.000000683243
  0
LINE
  5
2C9
330
1F
100
AcDbEntity
  8
2
100
AcDbLine
 10
-148.0
 20
198.5557672266596
 30
0.0
 11
-146.5
 21
198.5557672266596
 31
0.0
  0
LINE
  5
2CA
330
1F
100
AcDbEntity
  8
2
100
AcDbLine
 10
-132.5
 20
150.5557061915033
 30
0.0
 11
-132.5
 21
178.5557672266595
 31
0.0
  0
LINE
  5
2CB
330
1F
100
AcDbEntity
  8
2
100
AcDbLine
 10
-133.4999389648437
 20
178.5557672266595
 30
0.0
 11
-133.4999389648437
 21
151.5557672266595
 31
0.0
  0
LINE
  5
2CC
330
1F
100
AcDbEntity
  8
2
100
AcDbLine
 10
-135.5
 20
155.5557061915033
 30
0.0
 11
-135.5
 21
177.5557672266595
 31
0.0
  0
LINE
  5
2CD
330
1F
100
AcDbEntity
  8
2
100
AcDbLine
 10
-135.5
 20
177.5557672266595
 30
0.0
 11
-133.4999389648437
 21
177.5557672266595
 31
0.0
  0
LINE
  5
2CE
330
1F
100
AcDbEntity
  8
2
100
AcDbLine
 10
-142.6439208984375
 20
250.5557061915034
 30
0.0
 11
-135.5
 21
250.5557061915034
 31
0.0
  0
LINE
  5
2CF
330
1F
100
AcDbEntity
  8
2
100
AcDbLine
 10
-142.6439208984375
 20
260.0557672266596
 30
0.0
 11
-135.5
 21
260.0557672266596
 31
0.0
  0
LINE
  5
2D0
330
1F
100
AcDbEntity
  8
2
100
AcDbLine
 10
-142.6439208984375
 20
241.0557061915034
 30
0.0
 11
-135.5
 21
241.0557061915034
 31
0.0
  0
LINE
  5
2D1
330
1F
100
AcDbEntity
  8
2
100
AcDbLine
 10
-145.5
 20
264.6310235743158
 30
0.0
 11
-134.4999389648437
 21
264.6310235743158
 31
0.0
  0
LINE
  5
2D2
330
1F
100
AcDbEntity
  8
2
100
AcDbLine
 10
-145.5
 20
238.5557061915033
 30
0.0
 11
-132.5
 21
238.5557061915033
 31
0.0
  0
LINE
  5
2D3
330
1F
100
AcDbEntity
  8
2
100
AcDbLine
 10
-145.5
 20
266.5557672266596
 30
0.0
 11
-133.4999389648437
 21
266.5557672266596
 31
0.0
  0
ARC
  5
2D4
330
1F
100
AcDbEntity
  8
2
100
AcDbCircle
 10
-129.8930053710937
 20
245.8057061915034
 30
0.0
 40
13.60700035095215
100
AcDbArc
 50
159.5686415786477
 51
200.4313547788948
  0
LINE
  5
2D5
330
1F
100
AcDbEntity
  8
2
100
AcDbLine
 10
-143.4999389648437
 20
245.8057061915034
 30
0.0
 11
-143.4999389648437
 21
255.3057672266596
 31
0.0
  0
LINE
  5
2D6
330
1F
100
AcDbEntity
  8
2
100
AcDbLine
 10
-145.5
 20
266.5557672266596
 30
0.0
 11
-145.5
 21
239.9698907618159
 31
0.0
  0
LINE
  5
2D7
330
1F
100
AcDbEntity
  8
2
100
AcDbLine
 10
-146.5
 20
265.5557061915033
 30
0.0
 11
-146.5
 21
238.9699517969721
 31
0.0
  0
LINE
  5
2D8
330
1F
100
AcDbEntity
  8
2
100
AcDbLine
 10
-155.096435546875
 20
217.0557061915034
 30
0.0
 11
-150.9035034179687
 21
217.0557061915034
 31
0.0
  0
LINE
  5
2D9
330
1F
100
AcDbEntity
  8
2
100
AcDbLine
 10
-161.5
 20
213.5557061915033
 30
0.0
 11
-155.9999389648437
 21
213.5557061915033
 31
0.0
  0
ARC
  5
2DA
330
1F
100
AcDbEntity
  8
2
100
AcDbCircle
 10
-148.0
 20
216.5557672266596
 30
0.0
 40
2.0
100
AcDbArc
 50
90.00000250446868
 51
180.0000050089569
  0
LINE
  5
2DB
330
1F
100
AcDbEntity
  8
2
100
AcDbLine
 10
-148.0
 20
218.5557061915034
 30
0.0
 11
-146.5
 21
218.5557061915034
 31
0.0
  0
LINE
  5
2DC
330
1F
100
AcDbEntity
  8
2
100
AcDbLine
 10
-146.5001600791074
 20
237.5559618019354
 30
0.0
 11
-145.5001589582566
 21
238.5559628384922
 31
0.0
  0
ARC
  5
2DD
330
1F
100
AcDbEntity
  8
2
100
AcDbCircle
 10
-129.8930053710937
 20
255.3057672266596
 30
0.0
 40
13.60700035095215
100
AcDbArc
 50
159.5686415786477
 51
200.4313547788948
  0
LINE
  5
2DE
330
1F
100
AcDbEntity
  8
2
100
AcDbLine
 10
-146.5001804781818
 20
265.5559704264559
 30
0.0
 11
-145.500179357331
 21
266.5559714630129
 31
0.0
  0
LINE
  5
2DF
330
1F
100
AcDbEntity
  8
2
100
AcDbLine
 10
-132.5
 20
266.5557672266596
 30
0.0
 11
-132.5
 21
238.5557061915033
 31
0.0
  0
LINE
  5
2E0
330
1F
100
AcDbEntity
  8
2
100
AcDbLine
 10
-135.5
 20
239.5557061915034
 30
0.0
 11
-135.5
 21
261.5557672266596
 31
0.0
  0
LINE
  5
2E1
330
1F
100
AcDbEntity
  8
2
100
AcDbLine
 10
-133.4999389648437
 20
265.5557061915033
 30
0.0
 11
-133.4999389648437
 21
238.5557061915033
 31
0.0
  0
LINE
  5
2E2
330
1F
100
AcDbEntity
  8
2
100
AcDbLine
 10
-135.5
 20
239.5557061915034
 30
0.0
 11
-133.4999389648437
 21
239.5557061915034
 31
0.0
  0
LINE
  5
2E3
330
1F
100
AcDbEntity
  8
2
100
AcDbLine
 10
-135.5
 20
261.5557672266596
 30
0.0
 11
-133.4999389648437
 21
261.5557672266596
 31
0.0
  0
LINE
  5
2E4
330
1F
100
AcDbEntity
  8
2
100
AcDbLine
 10
-133.5001880342188
 20
265.5559698785474
 30
0.0
 11
-132.5001869133684
 21
266.5559709151042
 31
0.0
  0
ARC
  5
2E5
330
1F
100
AcDbEntity
  8
2
100
AcDbCircle
 10
128.4473571777343
 20
212.8057672266596
 30
0.0
 40
10.44731616973877
100
AcDbArc
 50
155.9958379257051
 51
204.0041584318385
  0
ARC
  5
2E6
330
1F
100
AcDbEntity
  8
2
100
AcDbCircle
 10
113.5526733398437
 20
212.8057672266596
 30
0.0
 40
10.44731616973877
100
AcDbArc
 50
335.9958380393912
 51
24.00416537570913
  0
LINE
  5
2E7
330
1F
100
AcDbEntity
  8
2
100
AcDbLine
 10
118.0
 20
200.0557672266596
 30
0.0
 11
118.0
 21
217.0557061915034
 31
0.0
  0
LINE
  5
2E8
330
1F
100
AcDbEntity
  8
2
100
AcDbLine
 10
129.5
 20
213.5557061915033
 30
0.0
 11
129.5
 21
203.5557672266596
 31
0.0
  0
LINE
  5
2E9
330
1F
100
AcDbEntity
  8
2
100
AcDbLine
 10
94.49996948242187
 20
266.5557672266596
 30
0.0
 11
94.49996948242187
 21
150.5557061915033
 31
0.0
  0
LINE
  5
2EA
330
1F
100
AcDbEntity
  8
2
100
AcDbLine
 10
113.4999694824218
 20
265.5557061915033
 30
0.0
 11
113.4999694824218
 21
151.5557672266595
 31
0.0
  0
LINE
  5
2EB
330
1F
100
AcDbEntity
  8
2
100
AcDbLine
 10
114.5
 20
265.5557061915033
 30
0.0
 11
114.5
 21
151.5557672266595
 31
0.0
  0
LINE
  5
2EC
330
1F
100
AcDbEntity
  8
2
100
AcDbLine
 10
100.5
 20
150.5557061915033
 30
0.0
 11
100.5
 21
178.5557672266595
 31
0.0
  0
LINE
  5
2ED
330
1F
100
AcDbEntity
  8
2
100
AcDbLine
 10
101.5000305175781
 20
178.5557672266595
 30
0.0
 11
101.5000305175781
 21
151.5557672266595
 31
0.0
  0
LINE
  5
2EE
330
1F
100
AcDbEntity
  8
2
100
AcDbLine
 10
103.4999694824219
 20
155.5557061915033
 30
0.0
 11
103.4999694824219
 21
177.5557672266595
 31
0.0
  0
LINE
  5
2EF
330
1F
100
AcDbEntity
  8
2
100
AcDbLine
 10
110.6440124511355
 20
176.055767226635
 30
0.0
 11
103.4999999999636
 21
176.0557672266345
 31
0.0
  0
LINE
  5
2F0
330
1F
100
AcDbEntity
  8
2
100
AcDbLine
 10
113.4999694824218
 20
178.5557672266595
 30
0.0
 11
100.5
 21
178.5557672266595
 31
0.0
  0
LINE
  5
2F1
330
1F
100
AcDbEntity
  8
2
100
AcDbLine
 10
103.4999694824219
 20
177.5557672266595
 30
0.0
 11
101.5000305175781
 21
177.5557672266595
 31
0.0
  0
ARC
  5
2F2
330
1F
100
AcDbEntity
  8
2
100
AcDbCircle
 10
97.89297485351562
 20
171.3057672266595
 30
0.0
 40
13.60700035095215
100
AcDbArc
 50
339.5686416923301
 51
20.43136172276529
  0
LINE
  5
2F3
330
1F
100
AcDbEntity
  8
2
100
AcDbLine
 10
114.4998747452045
 20
179.5558587887822
 30
0.0
 11
113.4998736243533
 21
178.5558577522252
 31
0.0
  0
LINE
  5
2F4
330
1F
100
AcDbEntity
  8
2
100
AcDbLine
 10
123.0964660644531
 20
200.0557672266596
 30
0.0
 11
118.9035339355468
 21
200.0557672266596
 31
0.0
  0
LINE
  5
2F5
330
1F
100
AcDbEntity
  8
2
100
AcDbLine
 10
123.0964660644531
 20
208.5557061915034
 30
0.0
 11
118.9035339355468
 21
208.5557061915034
 31
0.0
  0
ARC
  5
2F6
330
1F
100
AcDbEntity
  8
2
100
AcDbCircle
 10
128.4473571777343
 20
204.3057061915034
 30
0.0
 40
10.44731616973877
100
AcDbArc
 50
155.9958379257051
 51
204.0041584318385
  0
ARC
  5
2F7
330
1F
100
AcDbEntity
  8
2
100
AcDbCircle
 10
115.9999694824219
 20
200.5557061915034
 30
0.0
 40
2.0
100
AcDbArc
 50
269.9999974955052
 51
0.0
  0
LINE
  5
2F8
330
1F
100
AcDbEntity
  8
2
100
AcDbLine
 10
115.9999694824219
 20
198.5557672266596
 30
0.0
 11
114.5
 21
198.5557672266596
 31
0.0
  0
ARC
  5
2F9
330
1F
100
AcDbEntity
  8
2
100
AcDbCircle
 10
113.5526733398437
 20
204.3057061915034
 30
0.0
 40
10.44731616973877
100
AcDbArc
 50
335.9958380393912
 51
24.00416537570913
  0
LINE
  5
2FA
330
1F
100
AcDbEntity
  8
2
100
AcDbLine
 10
124.0000305175781
 20
204.3057061915034
 30
0.0
 11
124.0000305175781
 21
212.8057672266596
 31
0.0
  0
LINE
  5
2FB
330
1F
100
AcDbEntity
  8
2
100
AcDbLine
 10
129.5
 20
203.5557672266596
 30
0.0
 11
124.0000305175781
 21
203.5557672266596
 31
0.0
  0
ARC
  5
2FC
330
1F
100
AcDbEntity
  8
2
100
AcDbCircle
 10
97.89297485351562
 20
245.8057061915034
 30
0.0
 40
13.60700035095215
100
AcDbArc
 50
339.5686416923301
 51
20.43136172276529
  0
LINE
  5
2FD
330
1F
100
AcDbEntity
  8
2
100
AcDbLine
 10
111.5000305175381
 20
245.8057061914788
 30
0.0
 11
111.5000305175372
 21
255.305767226635
 31
0.0
  0
LINE
  5
2FE
330
1F
100
AcDbEntity
  8
2
100
AcDbLine
 10
100.5
 20
266.5557672266596
 30
0.0
 11
100.5
 21
238.5557061915033
 31
0.0
  0
LINE
  5
2FF
330
1F
100
AcDbEntity
  8
2
100
AcDbLine
 10
103.4999694824219
 20
239.5557061915034
 30
0.0
 11
103.4999694824219
 21
261.5557672266596
 31
0.0
  0
LINE
  5
300
330
1F
100
AcDbEntity
  8
2
100
AcDbLine
 10
101.5000305175781
 20
265.5557061915033
 30
0.0
 11
101.5000305175781
 21
238.5557061915033
 31
0.0
  0
LINE
  5
301
330
1F
100
AcDbEntity
  8
2
100
AcDbLine
 10
123.0964660644531
 20
217.0557061915034
 30
0.0
 11
118.9035339355468
 21
217.0557061915034
 31
0.0
  0
ARC
  5
302
330
1F
100
AcDbEntity
  8
2
100
AcDbCircle
 10
115.9999694824219
 20
216.5557672266596
 30
0.0
 40
2.0
100
AcDbArc
 50
0.0
 51
90.00000250446868
  0
LINE
  5
303
330
1F
100
AcDbEntity
  8
2
100
AcDbLine
 10
115.9999694824219
 20
218.5557061915034
 30
0.0
 11
114.5
 21
218.5557061915034
 31
0.0
  0
LINE
  5
304
330
1F
100
AcDbEntity
  8
2
100
AcDbLine
 10
110.6440124511318
 20
241.0557061914788
 30
0.0
 11
103.49999999996
 21
241.0557061914783
 31
0.0
  0
LINE
  5
305
330
1F
100
AcDbEntity
  8
2
100
AcDbLine
 10
113.4999694824218
 20
238.5557061915033
 30
0.0
 11
100.5
 21
238.5557061915033
 31
0.0
  0
LINE
  5
306
330
1F
100
AcDbEntity
  8
2
100
AcDbLine
 10
103.4999694824219
 20
239.5557061915034
 30
0.0
 11
101.5000305175781
 21
239.5557061915034
 31
0.0
  0
LINE
  5
307
330
1F
100
AcDbEntity
  8
2
100
AcDbLine
 10
114.500206660015
 20
237.5558851239421
 30
0.0
 11
113.5001408016023
 21
238.5559508980555
 31
0.0
  0
LINE
  5
308
330
1F
100
AcDbEntity
  8
2
100
AcDbLine
 10
129.5
 20
213.5557061915033
 30
0.0
 11
124.0000305175781
 21
213.5557061915033
 31
0.0
  0
LINE
  5
309
330
1F
100
AcDbEntity
  8
2
100
AcDbLine
 10
110.6440124511314
 20
250.5557061914788
 30
0.0
 11
103.4999999999595
 21
250.5557061914784
 31
0.0
  0
LINE
  5
30A
330
1F
100
AcDbEntity
  8
2
100
AcDbLine
 10
110.6440124511309
 20
260.0557672266351
 30
0.0
 11
103.499999999959
 21
260.0557672266346
 31
0.0
  0
LINE
  5
30B
330
1F
100
AcDbEntity
  8
2
100
AcDbLine
 10
103.4999694824219
 20
261.5557672266596
 30
0.0
 11
101.5000305175781
 21
261.5557672266596
 31
0.0
  0
ARC
  5
30C
330
1F
100
AcDbEntity
  8
2
100
AcDbCircle
 10
97.89297485351562
 20
255.3057672266596
 30
0.0
 40
13.60700035095215
100
AcDbArc
 50
339.5686416923301
 51
20.43136172276529
  0
LINE
  5
30D
330
1F
100
AcDbEntity
  8
2
100
AcDbLine
 10
113.4999694824218
 20
264.6310235743158
 30
0.0
 11
102.5
 21
264.6310235743158
 31
0.0
  0
LINE
  5
30E
330
1F
100
AcDbEntity
  8
2
100
AcDbLine
 10
113.4999694824218
 20
266.5557672266596
 30
0.0
 11
101.5000305175781
 21
266.5557672266596
 31
0.0
  0
LINE
  5
30F
330
1F
100
AcDbEntity
  8
2
100
AcDbLine
 10
101.5001698775682
 20
265.5558716213648
 30
0.0
 11
100.5001040191555
 21
266.5559373954784
 31
0.0
  0
LINE
  5
310
330
1F
100
AcDbEntity
  8
2
100
AcDbLine
 10
113.5001686522946
 20
266.5558987301805
 30
0.0
 11
114.500148109666
 21
265.5559191885168
 31
0.0
  0
LINE
  5
311
330
1F
100
AcDbEntity
  8
1
100
AcDbLine
 10
0.0
 20
55.1000003948808
 30
0.0
 11
0.0
 21
-144.4491188712543
 31
0.0
  0
LINE
  5
312
330
1F
100
AcDbEntity
  8
2
100
AcDbLine
 10
-145.4999227708549
 20
0.0
 30
0.0
 11
113.5000305175781
 21
0.0
 31
0.0
  0
LINE
  5
313
330
1F
100
AcDbEntity
  8
2
100
AcDbLine
 10
-143.4999227708813
 20
-3.77276611332013
 30
0.0
 11
-143.4999227708804
 21
-20.22723388675763
 31
0.0
  0
ARC
  5
314
330
1F
100
AcDbEntity
  8
2
100
AcDbCircle
 10
-125.4999227708549
 20
-12.0
 30
0.0
 40
18.0
100
AcDbArc
 50
162.2591213946025
 51
197.7408749629343
  0
LINE
  5
315
330
1F
100
AcDbEntity
  8
2
100
AcDbLine
 10
-146.4999838060112
 20
-23.58578491210938
 30
0.0
 11
-146.4999838060112
 21
-1.0
 31
0.0
  0
LINE
  5
316
330
1F
100
AcDbEntity
  8
2
100
AcDbLine
 10
-135.4999227708549
 20
-23.0
 30
0.0
 11
-135.4999227708549
 21
-1.0
 31
0.0
  0
LINE
  5
317
330
1F
100
AcDbEntity
  8
2
100
AcDbLine
 10
-133.4999227708549
 20
0.0
 30
0.0
 11
-133.4999227708549
 21
-24.0
 31
0.0
  0
LINE
  5
318
330
1F
100
AcDbEntity
  8
2
100
AcDbLine
 10
-145.4999227708549
 20
-22.61013793945313
 30
0.0
 11
-145.4999227708549
 21
0.0
 31
0.0
  0
ARC
  5
319
330
1F
100
AcDbEntity
  8
2
100
AcDbCircle
 10
-138.6789388841362
 20
-20.22723388671875
 30
0.0
 40
4.821000576019287
100
AcDbArc
 50
145.3301150461277
 51
214.6698949717647
  0
LINE
  5
31A
330
1F
100
AcDbEntity
  8
2
100
AcDbLine
 10
-145.4999227708549
 20
-24.0
 30
0.0
 11
-133.4999227708549
 21
-24.0
 31
0.0
  0
LINE
  5
31B
330
1F
100
AcDbEntity
  8
2
100
AcDbLine
 10
-145.5000479634154
 20
-23.9998724430277
 30
0.0
 11
-146.5000382103799
 21
-24.9998627742848
 31
0.0
  0
LINE
  5
31C
330
1F
100
AcDbEntity
  8
2
100
AcDbLine
 10
-142.6439047044741
 20
-22.96966552738263
 30
0.0
 11
-135.4999227708799
 21
-22.96966552738218
 31
0.0
  0
LINE
  5
31D
330
1F
100
AcDbEntity
  8
2
100
AcDbLine
 10
-135.4999227708549
 20
-23.0
 30
0.0
 11
-133.4999227708549
 21
-23.0
 31
0.0
  0
LINE
  5
31E
330
1F
100
AcDbEntity
  8
2
100
AcDbLine
 10
-142.6439047044741
 20
-17.48480224613263
 30
0.0
 11
-135.4999227708804
 21
-17.48480224613217
 31
0.0
  0
LINE
  5
31F
330
1F
100
AcDbEntity
  8
2
100
AcDbLine
 10
-146.5
 20
-0.9999517353178362
 30
0.0
 11
-145.4999880895557
 21
0.0000600908319939
 31
0.0
  0
LINE
  5
320
330
1F
100
AcDbEntity
  8
2
100
AcDbLine
 10
-142.643904704475
 20
-1.030334472694903
 30
0.0
 11
-135.4999227708813
 21
-1.030334472694448
 31
0.0
  0
LINE
  5
321
330
1F
100
AcDbEntity
  8
2
100
AcDbLine
 10
-135.4999227708549
 20
-1.0
 30
0.0
 11
-133.4999227708549
 21
-1.0
 31
0.0
  0
LINE
  5
322
330
1F
100
AcDbEntity
  8
2
100
AcDbLine
 10
-142.643904704475
 20
-6.515136718788653
 30
0.0
 11
-135.4999227708813
 21
-6.515136718788426
 31
0.0
  0
ARC
  5
323
330
1F
100
AcDbEntity
  8
2
100
AcDbCircle
 10
-138.6789388841362
 20
-3.772766113281022
 30
0.0
 40
4.821000576019287
100
AcDbArc
 50
145.3301150461277
 51
214.6698949717647
  0
LINE
  5
324
330
1F
100
AcDbEntity
  8
2
100
AcDbLine
 10
111.5000305175781
 20
-3.772766113281022
 30
0.0
 11
111.5000305175781
 21
-20.22723388671875
 31
0.0
  0
ARC
  5
325
330
1F
100
AcDbEntity
  8
2
100
AcDbCircle
 10
93.50006103515625
 20
-12.0
 30
0.0
 40
18.0
100
AcDbArc
 50
342.2591249233908
 51
17.74087849170615
  0
LINE
  5
326
330
1F
100
AcDbEntity
  8
2
100
AcDbLine
 10
103.5000305175781
 20
-23.0
 30
0.0
 11
103.5000305175781
 21
-1.0
 31
0.0
  0
LINE
  5
327
330
1F
100
AcDbEntity
  8
2
100
AcDbLine
 10
114.5
 20
-23.58578491210938
 30
0.0
 11
114.5
 21
-1.0
 31
0.0
  0
LINE
  5
328
330
1F
100
AcDbEntity
  8
2
100
AcDbLine
 10
101.5000305175781
 20
0.0
 30
0.0
 11
101.5000305175781
 21
-24.0
 31
0.0
  0
LINE
  5
329
330
1F
100
AcDbEntity
  8
2
100
AcDbLine
 10
113.5000305175781
 20
-22.61013793945313
 30
0.0
 11
113.5000305175781
 21
0.0
 31
0.0
  0
ARC
  5
32A
330
1F
100
AcDbEntity
  8
2
100
AcDbCircle
 10
106.6789855957031
 20
-20.22723388671875
 30
0.0
 40
4.821000576019287
100
AcDbArc
 50
325.3301100371948
 51
34.66988654773562
  0
LINE
  5
32B
330
1F
100
AcDbEntity
  8
2
100
AcDbLine
 10
110.6440124511719
 20
-22.96966552734375
 30
0.0
 11
103.5000305175781
 21
-22.96966552734375
 31
0.0
  0
LINE
  5
32C
330
1F
100
AcDbEntity
  8
2
100
AcDbLine
 10
113.5000305175781
 20
-24.0
 30
0.0
 11
101.5000305175781
 21
-24.0
 31
0.0
  0
LINE
  5
32D
330
1F
100
AcDbEntity
  8
2
100
AcDbLine
 10
103.5000305175781
 20
-23.0
 30
0.0
 11
101.5000305175781
 21
-23.0
 31
0.0
  0
LINE
  5
32E
330
1F
100
AcDbEntity
  8
2
100
AcDbLine
 10
113.5001181561483
 20
-24.00000413905377
 30
0.0
 11
114.5000976135197
 21
-24.99998368071715
 31
0.0
  0
LINE
  5
32F
330
1F
100
AcDbEntity
  8
2
100
AcDbLine
 10
110.6440124511719
 20
-17.48480224609375
 30
0.0
 11
103.5000305175781
 21
-17.48480224609375
 31
0.0
  0
LINE
  5
330
330
1F
100
AcDbEntity
  8
2
100
AcDbLine
 10
110.6440124511719
 20
-1.030334472656022
 30
0.0
 11
103.5000305175781
 21
-1.030334472656022
 31
0.0
  0
LINE
  5
331
330
1F
100
AcDbEntity
  8
2
100
AcDbLine
 10
103.5000305175781
 20
-1.0
 30
0.0
 11
101.5000305175781
 21
-1.0
 31
0.0
  0
LINE
  5
332
330
1F
100
AcDbEntity
  8
2
100
AcDbLine
 10
113.5001104011289
 20
0.0000129832931179
 30
0.0
 11
114.5000898585003
 21
-0.9999665583704882
 31
0.0
  0
LINE
  5
333
330
1F
100
AcDbEntity
  8
2
100
AcDbLine
 10
110.6440124511719
 20
-6.51513671875
 30
0.0
 11
103.5000305175781
 21
-6.51513671875
 31
0.0
  0
ARC
  5
334
330
1F
100
AcDbEntity
  8
2
100
AcDbCircle
 10
106.6789855957031
 20
-3.772766113281022
 30
0.0
 40
4.821000576019287
100
AcDbArc
 50
325.3301100371948
 51
34.66988654773562
  0
LINE
  5
335
330
1F
100
AcDbEntity
  8
2
100
AcDbLine
 10
-126.5
 20
166.5557061915032
 30
0.0
 11
-126.5
 21
150.5557061915033
 31
0.0
  0
LINE
  5
336
330
1F
100
AcDbEntity
  8
2
100
AcDbLine
 10
-145.4999389648437
 20
-76.44999980255966
 30
0.0
 11
113.5000305175781
 21
-76.44999980255966
 31
0.0
  0
LINE
  5
337
330
1F
100
AcDbEntity
  8
2
100
AcDbLine
 10
-145.4999389648437
 20
-46.44999980255966
 30
0.0
 11
113.5000305175781
 21
-46.44999980255966
 31
0.0
  0
LINE
  5
338
330
1F
100
AcDbEntity
  8
2
100
AcDbLine
 10
-145.4999389648437
 20
-122.4499998025596
 30
0.0
 11
113.5000305175781
 21
-122.4499998025596
 31
0.0
  0
CIRCLE
  5
339
330
1F
100
AcDbEntity
  8
2
100
AcDbCircle
 10
-136.5
 20
-61.44999980255966
 30
0.0
 40
6.574872493743896
  0
ARC
  5
33A
330
1F
100
AcDbEntity
  8
2
100
AcDbCircle
 10
-153.7835693359375
 20
-54.08876323029403
 30
0.0
 40
3.783614635467529
100
AcDbArc
 50
319.5701056421823
 51
40.42988752762321
  0
ARC
  5
33B
330
1F
100
AcDbEntity
  8
2
100
AcDbCircle
 10
-152.21630859375
 20
-54.08876323029403
 30
0.0
 40
3.783614635467529
100
AcDbArc
 50
139.5701072360292
 51
220.4298891214955
  0
LINE
  5
33C
330
1F
100
AcDbEntity
  8
2
100
AcDbLine
 10
-150.0
 20
-53.44999980255966
 30
0.0
 11
-150.0
 21
-69.44999980255966
 31
0.0
  0
LINE
  5
33D
330
1F
100
AcDbEntity
  8
2
100
AcDbLine
 10
-155.9999389648437
 20
-54.08876323029403
 30
0.0
 11
-155.9999389648437
 21
-68.81120585724715
 31
0.0
  0
LINE
  5
33E
330
1F
100
AcDbEntity
  8
2
100
AcDbLine
 10
-145.4999227708549
 20
-24.0
 30
0.0
 11
-145.4999389648437
 21
-98.44999980255966
 31
0.0
  0
LINE
  5
33F
330
1F
100
AcDbEntity
  8
2
100
AcDbLine
 10
-126.4999838060112
 20
0.0
 30
0.0
 11
-126.5
 21
-122.4499998025596
 31
0.0
  0
LINE
  5
340
330
1F
100
AcDbEntity
  8
2
100
AcDbLine
 10
-146.4999838060112
 20
-25.0
 30
0.0
 11
-146.5
 21
-97.44999980255967
 31
0.0
  0
LINE
  5
341
330
1F
100
AcDbEntity
  8
2
100
AcDbLine
 10
-142.6439208984375
 20
-99.48033427521568
 30
0.0
 11
-135.4999389648437
 21
-99.48033427521568
 31
0.0
  0
LINE
  5
342
330
1F
100
AcDbEntity
  8
2
100
AcDbLine
 10
-142.6439208984375
 20
-104.9651975564657
 30
0.0
 11
-135.4999389648437
 21
-104.9651975564657
 31
0.0
  0
LINE
  5
343
330
1F
100
AcDbEntity
  8
2
100
AcDbLine
 10
-142.6439208984375
 20
-115.9348020486534
 30
0.0
 11
-135.4999389648437
 21
-115.9348020486534
 31
0.0
  0
LINE
  5
344
330
1F
100
AcDbEntity
  8
2
100
AcDbLine
 10
-142.6439208984375
 20
-121.4196653299034
 30
0.0
 11
-135.4999389648437
 21
-121.4196653299034
 31
0.0
  0
LINE
  5
345
330
1F
100
AcDbEntity
  8
2
100
AcDbLine
 10
-145.4999389648437
 20
-98.44999980255966
 30
0.0
 11
-133.4999389648437
 21
-98.44999980255966
 31
0.0
  0
ARC
  5
346
330
1F
100
AcDbEntity
  8
2
100
AcDbCircle
 10
-138.678955078125
 20
-118.6772336892784
 30
0.0
 40
4.821000576019287
100
AcDbArc
 50
145.3301150461277
 51
214.6698813114079
  0
LINE
  5
347
330
1F
100
AcDbEntity
  8
2
100
AcDbLine
 10
-145.4999389648437
 20
-99.86421489045028
 30
0.0
 11
-145.4999389648437
 21
-122.4499998025596
 31
0.0
  0
LINE
  5
348
330
1F
100
AcDbEntity
  8
2
100
AcDbLine
 10
-146.5
 20
-98.86424540802842
 30
0.0
 11
-146.5
 21
-121.4499998025596
 31
0.0
  0
LINE
  5
349
330
1F
100
AcDbEntity
  8
2
100
AcDbLine
 10
-146.4999748311138
 20
-121.4499769219981
 30
0.0
 11
-145.4999952894504
 21
-122.4499563793695
 31
0.0
  0
ARC
  5
34A
330
1F
100
AcDbEntity
  8
2
100
AcDbCircle
 10
-138.678955078125
 20
-102.2227659158406
 30
0.0
 40
4.821000576019287
100
AcDbArc
 50
145.3301150461277
 51
214.6698813114079
  0
LINE
  5
34B
330
1F
100
AcDbEntity
  8
2
100
AcDbLine
 10
-143.4999389648437
 20
-118.6772336892784
 30
0.0
 11
-143.4999389648437
 21
-102.2227659158406
 31
0.0
  0
ARC
  5
34C
330
1F
100
AcDbEntity
  8
2
100
AcDbCircle
 10
-125.4999389648437
 20
-110.4499998025596
 30
0.0
 40
18.0
100
AcDbArc
 50
162.2591213946025
 51
197.7408749629343
  0
LINE
  5
34D
330
1F
100
AcDbEntity
  8
2
100
AcDbLine
 10
-145.4999436763796
 20
-98.45002384551548
 30
0.0
 11
-146.4999231337506
 21
-97.45004430385211
 31
0.0
  0
ARC
  5
34E
330
1F
100
AcDbEntity
  8
2
100
AcDbCircle
 10
-147.9999389648437
 20
-69.44999980255966
 30
0.0
 40
2.0
100
AcDbArc
 50
179.9999913485786
 51
270.000000683243
  0
LINE
  5
34F
330
1F
100
AcDbEntity
  8
2
100
AcDbLine
 10
-155.096435546875
 20
-71.26497172638778
 30
0.0
 11
-150.9035034179687
 21
-71.26497172638778
 31
0.0
  0
LINE
  5
350
330
1F
100
AcDbEntity
  8
2
100
AcDbLine
 10
-155.096435546875
 20
-66.35747050568466
 30
0.0
 11
-150.9034423828125
 21
-66.35747050568466
 31
0.0
  0
LINE
  5
351
330
1F
100
AcDbEntity
  8
2
100
AcDbLine
 10
-155.096435546875
 20
-56.54252909943465
 30
0.0
 11
-150.9034423828125
 21
-56.54252909943465
 31
0.0
  0
ARC
  5
352
330
1F
100
AcDbEntity
  8
2
100
AcDbCircle
 10
-142.2208251953125
 20
-61.44999980255966
 30
0.0
 40
13.77916812896728
100
AcDbArc
 50
159.1359354343503
 51
200.8640609231939
  0
ARC
  5
353
330
1F
100
AcDbEntity
  8
2
100
AcDbCircle
 10
-152.21630859375
 20
-68.81120585724715
 30
0.0
 40
3.783614635467529
100
AcDbArc
 50
139.5701072360292
 51
220.4298891214955
  0
LINE
  5
354
330
1F
100
AcDbEntity
  8
2
100
AcDbLine
 10
-161.5
 20
-56.44999980255966
 30
0.0
 11
-161.5
 21
-66.44999980255966
 31
0.0
  0
LINE
  5
355
330
1F
100
AcDbEntity
  8
2
100
AcDbLine
 10
-161.5
 20
-56.44999980255966
 30
0.0
 11
-155.9999389648437
 21
-56.44999980255966
 31
0.0
  0
LINE
  5
356
330
1F
100
AcDbEntity
  8
2
100
AcDbLine
 10
-161.5
 20
-66.44999980255966
 30
0.0
 11
-155.9999389648437
 21
-66.44999980255966
 31
0.0
  0
ARC
  5
357
330
1F
100
AcDbEntity
  8
2
100
AcDbCircle
 10
-153.7835693359375
 20
-68.81120585724715
 30
0.0
 40
3.783614635467529
100
AcDbArc
 50
319.5701056421823
 51
40.42988752762321
  0
ARC
  5
358
330
1F
100
AcDbEntity
  8
2
100
AcDbCircle
 10
-163.7791137695312
 20
-61.44999980255966
 30
0.0
 40
13.77916812896728
100
AcDbArc
 50
339.1359423782197
 51
20.86406103688066
  0
LINE
  5
359
330
1F
100
AcDbEntity
  8
2
100
AcDbLine
 10
-147.9999389648437
 20
-71.44999980255966
 30
0.0
 11
-146.5
 21
-71.44999980255966
 31
0.0
  0
LINE
  5
35A
330
1F
100
AcDbEntity
  8
2
100
AcDbLine
 10
-135.4999389648437
 20
-99.44999980255966
 30
0.0
 11
-135.4999389648437
 21
-121.4499998025596
 31
0.0
  0
LINE
  5
35B
330
1F
100
AcDbEntity
  8
2
100
AcDbLine
 10
-133.4999389648437
 20
-98.44999980255966
 30
0.0
 11
-133.4999389648437
 21
-122.4499998025596
 31
0.0
  0
LINE
  5
35C
330
1F
100
AcDbEntity
  8
2
100
AcDbLine
 10
-135.4999389648437
 20
-121.4499998025596
 30
0.0
 11
-133.4999389648437
 21
-121.4499998025596
 31
0.0
  0
LINE
  5
35D
330
1F
100
AcDbEntity
  8
2
100
AcDbLine
 10
-135.4999389648437
 20
-99.44999980255966
 30
0.0
 11
-133.4999389648437
 21
-99.44999980255966
 31
0.0
  0
CIRCLE
  5
35E
330
1F
100
AcDbEntity
  8
2
100
AcDbCircle
 10
-136.5
 20
-61.44999980255966
 30
0.0
 40
5.724287509918212
  0
LINE
  5
35F
330
1F
100
AcDbEntity
  8
2
100
AcDbLine
 10
-155.096435546875
 20
-51.63505839630966
 30
0.0
 11
-150.9035034179687
 21
-51.63505839630966
 31
0.0
  0
ARC
  5
360
330
1F
100
AcDbEntity
  8
2
100
AcDbCircle
 10
-147.9999389648437
 20
-53.44999980255966
 30
0.0
 40
2.0
100
AcDbArc
 50
90.00000250446868
 51
180.0000050089569
  0
LINE
  5
361
330
1F
100
AcDbEntity
  8
2
100
AcDbLine
 10
-147.9999389648437
 20
-51.44999980255966
 30
0.0
 11
-146.5
 21
-51.44999980255966
 31
0.0
  0
ARC
  5
362
330
1F
100
AcDbEntity
  8
2
100
AcDbCircle
 10
121.7835998535156
 20
-54.08876323029403
 30
0.0
 40
3.783614635467529
100
AcDbArc
 50
139.5701072360292
 51
220.4298891214955
  0
ARC
  5
363
330
1F
100
AcDbEntity
  8
2
100
AcDbCircle
 10
120.2163696289062
 20
-54.08876323029403
 30
0.0
 40
3.783614635467529
100
AcDbArc
 50
319.5701056421823
 51
40.42988752762321
  0
CIRCLE
  5
364
330
1F
100
AcDbEntity
  8
2
100
AcDbCircle
 10
104.5
 20
-61.44999980255966
 30
0.0
 40
6.574872493743896
  0
LINE
  5
365
330
1F
100
AcDbEntity
  8
2
100
AcDbLine
 10
118.0000305175781
 20
-53.44999980255966
 30
0.0
 11
118.0000305175781
 21
-69.44999980255966
 31
0.0
  0
LINE
  5
366
330
1F
100
AcDbEntity
  8
2
100
AcDbLine
 10
124.0000305175781
 20
-54.08876323029403
 30
0.0
 11
124.0000305175781
 21
-68.81120585724715
 31
0.0
  0
LINE
  5
367
330
1F
100
AcDbEntity
  8
2
100
AcDbLine
 10
113.5000305175781
 20
-24.0
 30
0.0
 11
113.5000305175781
 21
-98.44999980255966
 31
0.0
  0
LINE
  5
368
330
1F
100
AcDbEntity
  8
2
100
AcDbLine
 10
94.49996948242187
 20
0.0
 30
0.0
 11
94.49996948242187
 21
-122.4499998025596
 31
0.0
  0
LINE
  5
369
330
1F
100
AcDbEntity
  8
2
100
AcDbLine
 10
114.5
 20
-25.0
 30
0.0
 11
114.5
 21
-97.44999980255967
 31
0.0
  0
LINE
  5
36A
330
1F
100
AcDbEntity
  8
2
100
AcDbLine
 10
42.85598754882812
 20
-97.54472636505965
 30
0.0
 11
89.85598754882813
 21
-97.54472636505965
 31
0.0
  0
LINE
  5
36B
330
1F
100
AcDbEntity
  8
2
100
AcDbLine
 10
42.85598754882812
 20
-117.5447263650596
 30
0.0
 11
89.85598754882813
 21
-117.5447263650596
 31
0.0
  0
LINE
  5
36C
330
1F
100
AcDbEntity
  8
2
100
AcDbLine
 10
91.35598754882812
 20
-105.5447263650596
 30
0.0
 11
41.35598754882813
 21
-105.5447263650596
 31
0.0
  0
LINE
  5
36D
330
1F
100
AcDbEntity
  8
2
100
AcDbLine
 10
91.35598754882812
 20
-105.0447263650596
 30
0.0
 11
41.35598754882813
 21
-105.0447263650596
 31
0.0
  0
ARC
  5
36E
330
1F
100
AcDbEntity
  8
2
100
AcDbCircle
 10
106.6789855957031
 20
-118.6772336892784
 30
0.0
 40
4.821000576019287
100
AcDbArc
 50
325.330113452291
 51
34.66988996283316
  0
LINE
  5
36F
330
1F
100
AcDbEntity
  8
2
100
AcDbLine
 10
103.5000305175781
 20
-99.44999980255966
 30
0.0
 11
103.5000305175781
 21
-121.4499998025596
 31
0.0
  0
LINE
  5
370
330
1F
100
AcDbEntity
  8
2
100
AcDbLine
 10
114.5
 20
-98.86424540802842
 30
0.0
 11
114.5
 21
-121.4499998025596
 31
0.0
  0
LINE
  5
371
330
1F
100
AcDbEntity
  8
2
100
AcDbLine
 10
113.5000305175781
 20
-99.86421489045028
 30
0.0
 11
113.5000305175781
 21
-122.4499998025596
 31
0.0
  0
LINE
  5
372
330
1F
100
AcDbEntity
  8
2
100
AcDbLine
 10
101.5000305175781
 20
-98.44999980255966
 30
0.0
 11
101.5000305175781
 21
-122.4499998025596
 31
0.0
  0
LINE
  5
373
330
1F
100
AcDbEntity
  8
2
100
AcDbLine
 10
110.6440124511719
 20
-121.4196653299034
 30
0.0
 11
103.5000305175781
 21
-121.4196653299034
 31
0.0
  0
LINE
  5
374
330
1F
100
AcDbEntity
  8
2
100
AcDbLine
 10
103.5000305175781
 20
-121.4499998025596
 30
0.0
 11
101.5000305175781
 21
-121.4499998025596
 31
0.0
  0
LINE
  5
375
330
1F
100
AcDbEntity
  8
2
100
AcDbLine
 10
113.4999130442534
 20
-122.4499295023265
 30
0.0
 11
114.4999140808104
 21
-121.4499283814759
 31
0.0
  0
LINE
  5
376
330
1F
100
AcDbEntity
  8
2
100
AcDbLine
 10
91.35598754882812
 20
-99.04472636505966
 30
0.0
 11
91.35598754882812
 21
-116.0447263650596
 31
0.0
  0
ARC
  5
377
330
1F
100
AcDbEntity
  8
2
100
AcDbCircle
 10
89.85598754882813
 20
-116.0447263650596
 30
0.0
 40
1.5
100
AcDbArc
 50
269.9999974955052
 51
0.0
  0
ARC
  5
378
330
1F
100
AcDbEntity
  8
2
100
AcDbCircle
 10
89.85598754882813
 20
-99.04472636505966
 30
0.0
 40
1.5
100
AcDbArc
 50
0.0
 51
90.00000250446868
  0
ARC
  5
379
330
1F
100
AcDbEntity
  8
2
100
AcDbCircle
 10
106.6789855957031
 20
-102.2227659158406
 30
0.0
 40
4.821000576019287
100
AcDbArc
 50
325.330113452291
 51
34.66988996283316
  0
LINE
  5
37A
330
1F
100
AcDbEntity
  8
2
100
AcDbLine
 10
111.5000305175781
 20
-118.6772336892784
 30
0.0
 11
111.5000305175781
 21
-102.2227659158406
 31
0.0
  0
LINE
  5
37B
330
1F
100
AcDbEntity
  8
2
100
AcDbLine
 10
110.6440124511719
 20
-104.9651975564657
 30
0.0
 11
103.5000305175781
 21
-104.9651975564657
 31
0.0
  0
LINE
  5
37C
330
1F
100
AcDbEntity
  8
2
100
AcDbLine
 10
110.6440124511719
 20
-115.9348020486534
 30
0.0
 11
103.5000305175781
 21
-115.9348020486534
 31
0.0
  0
ARC
  5
37D
330
1F
100
AcDbEntity
  8
2
100
AcDbCircle
 10
93.50006103515625
 20
-110.4499998025596
 30
0.0
 40
18.0
100
AcDbArc
 50
342.2591215082939
 51
17.74087507660915
  0
LINE
  5
37E
330
1F
100
AcDbEntity
  8
2
100
AcDbLine
 10
110.6440124511719
 20
-99.48033427521568
 30
0.0
 11
103.5000305175781
 21
-99.48033427521568
 31
0.0
  0
LINE
  5
37F
330
1F
100
AcDbEntity
  8
2
100
AcDbLine
 10
101.5000305175781
 20
-98.44999980255966
 30
0.0
 11
113.5000305175781
 21
-98.44999980255966
 31
0.0
  0
LINE
  5
380
330
1F
100
AcDbEntity
  8
2
100
AcDbLine
 10
103.5000305175781
 20
-99.44999980255966
 30
0.0
 11
101.5000305175781
 21
-99.44999980255966
 31
0.0
  0
LINE
  5
381
330
1F
100
AcDbEntity
  8
2
100
AcDbLine
 10
113.4999551911028
 20
-98.44994677180649
 30
0.0
 11
114.4999562276598
 21
-97.4499456509559
 31
0.0
  0
LINE
  5
382
330
1F
100
AcDbEntity
  8
2
100
AcDbLine
 10
123.0964660644531
 20
-71.26497172638778
 30
0.0
 11
118.9035034179687
 21
-71.26497172638778
 31
0.0
  0
LINE
  5
383
330
1F
100
AcDbEntity
  8
2
100
AcDbLine
 10
123.0964660644531
 20
-66.35747050568466
 30
0.0
 11
118.9035034179687
 21
-66.35747050568466
 31
0.0
  0
LINE
  5
384
330
1F
100
AcDbEntity
  8
2
100
AcDbLine
 10
123.0964660644531
 20
-56.54252909943465
 30
0.0
 11
118.9035034179687
 21
-56.54252909943465
 31
0.0
  0
ARC
  5
385
330
1F
100
AcDbEntity
  8
2
100
AcDbCircle
 10
116.0000305175781
 20
-69.44999980255966
 30
0.0
 40
2.0
100
AcDbArc
 50
269.9999974955052
 51
0.0
  0
CIRCLE
  5
386
330
1F
100
AcDbEntity
  8
2
100
AcDbCircle
 10
104.5
 20
-61.44999980255966
 30
0.0
 40
5.724287509918212
  0
ARC
  5
387
330
1F
100
AcDbEntity
  8
2
100
AcDbCircle
 10
121.7835998535156
 20
-68.81120585724715
 30
0.0
 40
3.783614635467529
100
AcDbArc
 50
139.5701072360292
 51
220.4298891214955
  0
ARC
  5
388
330
1F
100
AcDbEntity
  8
2
100
AcDbCircle
 10
131.7791748046875
 20
-61.44999980255966
 30
0.0
 40
13.77916812896728
100
AcDbArc
 50
159.1359354343503
 51
200.8640609231939
  0
LINE
  5
389
330
1F
100
AcDbEntity
  8
2
100
AcDbLine
 10
116.0000305175781
 20
-71.44999980255966
 30
0.0
 11
114.5
 21
-71.44999980255966
 31
0.0
  0
ARC
  5
38A
330
1F
100
AcDbEntity
  8
2
100
AcDbCircle
 10
110.2208251953125
 20
-61.44999980255966
 30
0.0
 40
13.77916812896728
100
AcDbArc
 50
339.1359423782197
 51
20.86406103688066
  0
ARC
  5
38B
330
1F
100
AcDbEntity
  8
2
100
AcDbCircle
 10
120.2163696289062
 20
-68.81120585724715
 30
0.0
 40
3.783614635467529
100
AcDbArc
 50
319.5701056421823
 51
40.42988752762321
  0
LINE
  5
38C
330
1F
100
AcDbEntity
  8
2
100
AcDbLine
 10
129.5
 20
-56.44999980255966
 30
0.0
 11
129.5
 21
-66.44999980255966
 31
0.0
  0
LINE
  5
38D
330
1F
100
AcDbEntity
  8
2
100
AcDbLine
 10
129.5
 20
-56.44999980255966
 30
0.0
 11
124.0000305175781
 21
-56.44999980255966
 31
0.0
  0
LINE
  5
38E
330
1F
100
AcDbEntity
  8
2
100
AcDbLine
 10
129.5
 20
-66.44999980255966
 30
0.0
 11
124.0000305175781
 21
-66.44999980255966
 31
0.0
  0
LINE
  5
38F
330
1F
100
AcDbEntity
  8
2
100
AcDbLine
 10
123.0964660644531
 20
-51.63505839630966
 30
0.0
 11
118.9035034179687
 21
-51.63505839630966
 31
0.0
  0
ARC
  5
390
330
1F
100
AcDbEntity
  8
2
100
AcDbCircle
 10
116.0000305175781
 20
-53.44999980255966
 30
0.0
 40
2.0
100
AcDbArc
 50
0.0
 51
90.00000250446868
  0
LINE
  5
391
330
1F
100
AcDbEntity
  8
2
100
AcDbLine
 10
116.0000305175781
 20
-51.44999980255966
 30
0.0
 11
114.5
 21
-51.44999980255966
 31
0.0
  0
LINE
  5
392
330
1F
100
AcDbEntity
  8
2
100
AcDbLine
 10
41.35598754882813
 20
-99.04472636505966
 30
0.0
 11
41.35598754882813
 21
-116.0447263650596
 31
0.0
  0
ARC
  5
393
330
1F
100
AcDbEntity
  8
2
100
AcDbCircle
 10
42.85598754882812
 20
-116.0447263650596
 30
0.0
 40
1.5
100
AcDbArc
 50
179.9999913485786
 51
270.000000683243
  0
ARC
  5
394
330
1F
100
AcDbEntity
  8
2
100
AcDbCircle
 10
42.85598754882812
 20
-99.04472636505966
 30
0.0
 40
1.5
100
AcDbArc
 50
90.00000250446868
 51
180.0000050089569
  0
LINE
  5
395
330
1F
100
AcDbEntity
  8
0
100
AcDbLine
 10
-131.2000000000007
 20
245.5555531915043
 30
0.0
 11
-131.2000000000007
 21
171.5555531915025
 31
0.0
  0
LINE
  5
396
330
1F
100
AcDbEntity
  8
1
100
AcDbLine
 10
-165.1618799123907
 20
208.5557061915035
 30
0.0
 11
146.6164407195037
 21
208.5557061915032
 31
0.0
  0
LINE
  5
397
330
1F
100
AcDbEntity
  8
0
100
AcDbLine
 10
0.1139191700003721
 20
250.5555531915043
 30
0.0
 11
-64.70001200000115
 21
250.5555531915043
 31
0.0
  0
LINE
  5
398
330
1F
100
AcDbEntity
  8
0
100
AcDbLine
 10
0.0
 20
166.5555531915043
 30
0.0
 11
-126.2000000000007
 21
166.5555531915043
 31
0.0
  0
LINE
  5
399
330
1F
100
AcDbEntity
  8
1
100
AcDbLine
 10
23.80000299999847
 20
175.4590286915018
 30
0.0
 11
23.80000299999847
 21
194.0526976915035
 31
0.0
  0
LINE
  5
39A
330
1F
100
AcDbEntity
  8
1
100
AcDbLine
 10
33.18913099999827
 20
184.7558631915027
 30
0.0
 11
14.41087499999867
 21
184.7558631915027
 31
0.0
  0
LINE
  5
39B
330
1F
100
AcDbEntity
  8
1
100
AcDbLine
 10
23.80000299999847
 20
232.7457071915042
 30
0.0
 11
23.80000299999847
 21
241.4302671915039
 31
0.0
  0
LINE
  5
39C
330
1F
100
AcDbEntity
  8
1
100
AcDbLine
 10
32.90808099999959
 20
232.3558621915045
 30
0.0
 11
27.77374599999712
 21
232.3558621915045
 31
0.0
  0
LINE
  5
39D
330
1F
100
AcDbEntity
  8
0
100
AcDbLine
 10
-31.30555359132677
 20
184.7558631915027
 30
0.0
 11
-27.5527800000018
 21
178.2558631915045
 31
0.0
  0
LINE
  5
39E
330
1F
100
AcDbEntity
  8
0
100
AcDbLine
 10
-27.5527800000018
 20
178.2558631915045
 30
0.0
 11
-20.04722600000059
 21
178.2558631915045
 31
0.0
  0
LINE
  5
39F
330
1F
100
AcDbEntity
  8
0
100
AcDbLine
 10
-18.65757900000062
 20
180.6628021915049
 30
0.0
 11
-20.04722600000059
 21
178.2558651915034
 31
0.0
  0
LINE
  5
3A0
330
1F
100
AcDbEntity
  8
0
100
AcDbLine
 10
-20.04722800000127
 20
191.2558631915045
 30
0.0
 11
-19.15908600000148
 21
189.7175561915019
 31
0.0
  0
LINE
  5
3A1
330
1F
100
AcDbEntity
  8
0
100
AcDbLine
 10
-27.55277999999953
 20
191.2558631915045
 30
0.0
 11
-24.67017900000064
 21
191.2558631915045
 31
0.0
  0
LINE
  5
3A2
330
1F
100
AcDbEntity
  8
0
100
AcDbLine
 10
-27.55278000000362
 20
225.8558621915027
 30
0.0
 11
-20.04722600000059
 21
225.8558621915027
 31
0.0
  0
LINE
  5
3A3
330
1F
100
AcDbEntity
  8
0
100
AcDbLine
 10
-16.29445100000157
 20
232.3558621915045
 30
0.0
 11
-20.04722800000127
 21
225.8558621915027
 31
0.0
  0
LINE
  5
3A4
330
1F
100
AcDbEntity
  8
0
100
AcDbLine
 10
-20.04722600000059
 20
238.8558601915038
 30
0.0
 11
-16.29444900000089
 21
232.3558621915045
 31
0.0
  0
LINE
  5
3A5
330
1F
100
AcDbEntity
  8
0
100
AcDbLine
 10
-27.5527800000018
 20
238.8558621915027
 30
0.0
 11
-20.04722600000059
 21
238.8558621915027
 31
0.0
  0
LINE
  5
3A6
330
1F
100
AcDbEntity
  8
0
100
AcDbLine
 10
31.305554999999
 20
232.355860191502
 30
0.0
 11
27.95965599999909
 21
226.5605931915043
 31
0.0
  0
LINE
  5
3A7
330
1F
100
AcDbEntity
  8
0
100
AcDbLine
 10
27.55277999999999
 20
238.8558621915027
 30
0.0
 11
31.30555699999786
 21
232.3558621915045
 31
0.0
  0
LINE
  5
3A8
330
1F
100
AcDbEntity
  8
0
100
AcDbLine
 10
20.04722600000059
 20
238.8558621915027
 30
0.0
 11
27.55277999999999
 21
238.8558621915027
 31
0.0
  0
LINE
  5
3A9
330
1F
100
AcDbEntity
  8
0
100
AcDbLine
 10
16.7928009999996
 20
233.2190301915026
 30
0.0
 11
20.04722600000059
 21
238.8558601915038
 31
0.0
  0
LINE
  5
3AA
330
1F
100
AcDbEntity
  8
0
100
AcDbLine
 10
16.29444899999908
 20
184.7558631915027
 30
0.0
 11
20.04722600000059
 21
178.2558651915034
 31
0.0
  0
LINE
  5
3AB
330
1F
100
AcDbEntity
  8
0
100
AcDbLine
 10
20.04722600000059
 20
178.2558631915045
 30
0.0
 11
27.55277999999999
 21
178.2558631915044
 31
0.0
  0
LINE
  5
3AC
330
1F
100
AcDbEntity
  8
0
100
AcDbLine
 10
31.30555699999786
 20
184.7558631915027
 30
0.0
 11
27.55277999999999
 21
178.2558631915044
 31
0.0
  0
LINE
  5
3AD
330
1F
100
AcDbEntity
  8
0
100
AcDbLine
 10
27.55277999999999
 20
191.2558631915045
 30
0.0
 11
31.305554999999
 21
184.7558651915033
 31
0.0
  0
LINE
  5
3AE
330
1F
100
AcDbEntity
  8
0
100
AcDbLine
 10
20.04722600000059
 20
191.2558631915045
 30
0.0
 11
27.55277999999999
 21
191.2558631915045
 31
0.0
  0
LINE
  5
3AF
330
1F
100
AcDbEntity
  8
0
100
AcDbLine
 10
16.29445099999975
 20
184.7558631915027
 30
0.0
 11
20.04722799999945
 21
191.2558631915045
 31
0.0
  0
LINE
  5
3B0
330
1F
100
AcDbEntity
  8
2
100
AcDbLine
 10
-24.69996184992033
 20
174.5555531915025
 30
0.0
 11
-61.79997184992044
 21
174.5555531915025
 31
0.0
  0
LINE
  5
3B1
330
1F
100
AcDbEntity
  8
2
100
AcDbLine
 10
-24.69996184992033
 20
198.5555531915025
 30
0.0
 11
-61.79997184992044
 21
198.5555531915025
 31
0.0
  0
LINE
  5
3B2
330
1F
100
AcDbEntity
  8
0
100
AcDbLine
 10
-64.80001100000118
 20
250.5555531915043
 30
0.0
 11
-126.2000000000007
 21
250.5555531915043
 31
0.0
  0
ARC
  5
3B3
330
1F
100
AcDbEntity
  8
0
100
AcDbCircle
 10
-126.2000000000007
 20
245.5555531915043
 30
0.0
 40
5.0
100
AcDbArc
 50
90.0
 51
180.0
  0
LINE
  5
3B4
330
1F
100
AcDbEntity
  8
2
100
AcDbLine
 10
-61.79997184992044
 20
206.5555535915037
 30
0.0
 11
-129.49998184992
 21
206.5555535915037
 31
0.0
  0
LINE
  5
3B5
330
1F
100
AcDbEntity
  8
2
100
AcDbLine
 10
-61.79997184992044
 20
166.5555531915043
 30
0.0
 11
-129.49998184992
 21
166.5555531915043
 31
0.0
  0
LINE
  5
3B6
330
1F
100
AcDbEntity
  8
1
100
AcDbLine
 10
0.0
 20
140.4941514232687
 30
0.0
 11
0.0
 21
275.7661231514713
 31
0.0
  0
LINE
  5
3B7
330
1F
100
AcDbEntity
  8
2
100
AcDbLine
 10
-166.49998184992
 20
173.5555531915044
 30
0.0
 11
-129.49998184992
 21
173.5555531915044
 31
0.0
  0
LINE
  5
3B8
330
1F
100
AcDbEntity
  8
2
100
AcDbLine
 10
-166.49998184992
 20
199.5555535915037
 30
0.0
 11
-129.49998184992
 21
199.5555535915037
 31
0.0
  0
ARC
  5
3B9
330
1F
100
AcDbEntity
  8
0
100
AcDbCircle
 10
23.80000299999847
 20
232.3558621915045
 30
0.0
 40
7.699999799999998
100
AcDbArc
 50
205.4897700000093
 51
218.2592900000181
  0
ARC
  5
3BA
330
1F
100
AcDbEntity
  8
0
100
AcDbCircle
 10
-23.80000300000211
 20
184.7558631915027
 30
0.0
 40
6.5
100
AcDbArc
 50
49.13997699997256
 51
61.51484099999968
  0
ARC
  5
3BB
330
1F
100
AcDbEntity
  8
0
100
AcDbCircle
 10
23.80000299999847
 20
232.3558621915045
 30
0.0
 40
7.699999799999998
100
AcDbArc
 50
301.968920000014
 51
187.3277199999987
  0
CIRCLE
  5
3BC
330
1F
100
AcDbEntity
  8
0
100
AcDbCircle
 10
-23.80000300000211
 20
232.3558621915045
 30
0.0
 40
7.699999799999998
  0
CIRCLE
  5
3BD
330
1F
100
AcDbEntity
  8
0
100
AcDbCircle
 10
23.80000299999847
 20
184.7558631915027
 30
0.0
 40
7.699999799999998
  0
ARC
  5
3BE
330
1F
100
AcDbEntity
  8
0
100
AcDbCircle
 10
-23.80000300000211
 20
184.7558631915027
 30
0.0
 40
7.699999799999998
100
AcDbArc
 50
79.58356074550787
 51
327.9133300000022
  0
ARC
  5
3BF
330
1F
100
AcDbEntity
  8
0
100
AcDbCircle
 10
-23.80000300000211
 20
232.3558621915045
 30
0.0
 40
6.5
100
AcDbArc
 50
276.4512199999784
 51
263.5266292107973
  0
ARC
  5
3C0
330
1F
100
AcDbEntity
  8
0
100
AcDbCircle
 10
23.80000299999847
 20
232.3558621915045
 30
0.0
 40
6.5
100
AcDbArc
 50
308.3543799999804
 51
170.9784099999799
  0
ARC
  5
3C1
330
1F
100
AcDbEntity
  8
0
100
AcDbCircle
 10
-126.2000000000007
 20
171.5555531915025
 30
0.0
 40
5.0
100
AcDbArc
 50
180.0
 51
270.0
  0
ARC
  5
3C2
330
1F
100
AcDbEntity
  8
0
100
AcDbCircle
 10
-23.80000300000211
 20
184.7558631915027
 30
0.0
 40
6.5
100
AcDbArc
 50
97.95846562679242
 51
322.4527299999908
  0
CIRCLE
  5
3C3
330
1F
100
AcDbEntity
  8
0
100
AcDbCircle
 10
23.80000299999847
 20
184.7558631915027
 30
0.0
 40
6.5
  0
ARC
  5
3C4
330
1F
100
AcDbEntity
  8
0
100
AcDbCircle
 10
0.0
 20
208.5557061915034
 30
0.0
 40
42.0
100
AcDbArc
 50
269.9999969999632
 51
89.84459999998115
  0
LINE
  5
3C5
330
1F
100
AcDbEntity
  8
0
100
AcDbLine
 10
15.0001525878888
 20
208.5557061915034
 30
0.0
 11
15.0001525878888
 21
217.0554620915019
 31
0.0
  0
LINE
  5
3C6
330
1F
100
AcDbEntity
  8
0
100
AcDbLine
 10
12.41274358788905
 20
216.9777890915039
 30
0.0
 11
1.087811987888926
 21
223.5162411915035
 31
0.0
  0
LINE
  5
3C7
330
1F
100
AcDbEntity
  8
0
100
AcDbLine
 10
13.5001525878888
 20
202.0171319915035
 30
0.0
 11
13.5001525878888
 21
215.0937920915049
 31
0.0
  0
LINE
  5
3C8
330
1F
100
AcDbEntity
  8
0
100
AcDbLine
 10
12.41243158788893
 20
200.133730091503
 30
0.0
 11
1.087712287890099
 21
193.595399191504
 31
0.0
  0
LINE
  5
3C9
330
1F
100
AcDbEntity
  8
0
100
AcDbLine
 10
-14.99984741211119
 20
180.7819601915045
 30
0.0
 11
-14.99984741211119
 21
208.5557061915034
 31
0.0
  0
LINE
  5
3CA
330
1F
100
AcDbEntity
  8
0
100
AcDbLine
 10
0.000152587888806
 20
193.5557061915034
 30
0.0
 11
-8.499847412111193
 21
193.5557061915034
 31
0.0
  0
LINE
  5
3CB
330
1F
100
AcDbEntity
  8
0
100
AcDbLine
 10
-1.087249412110395
 20
193.5951171915049
 30
0.0
 11
-12.41218041211141
 21
200.1335688915033
 31
0.0
  0
LINE
  5
3CC
330
1F
100
AcDbEntity
  8
0
100
AcDbLine
 10
-13.49984741211119
 20
215.0937920915049
 30
0.0
 11
-13.49984741211119
 21
202.0171319915035
 31
0.0
  0
LINE
  5
3CD
330
1F
100
AcDbEntity
  8
0
100
AcDbLine
 10
-1.087445012110038
 20
223.516202191503
 30
0.0
 11
-12.41216441210963
 21
216.9778720915047
 31
0.0
  0
LINE
  5
3CE
330
1F
100
AcDbEntity
  8
0
100
AcDbLine
 10
-8.999847412111193
 20
181.5557061915033
 30
0.0
 11
-14.99984741211119
 21
181.5557061915033
 31
0.0
  0
LINE
  5
3CF
330
1F
100
AcDbEntity
  8
1
100
AcDbLine
 10
-3.288786212111517
 20
186.5554621915026
 30
0.0
 11
-61.80001100000118
 21
186.5558591915024
 31
0.0
  0
LINE
  5
3D0
330
1F
100
AcDbEntity
  8
0
100
AcDbLine
 10
-8.999847412111193
 20
181.5557061915033
 30
0.0
 11
-8.999847412111193
 21
193.0557061915015
 31
0.0
  0
LINE
  5
3D1
330
1F
100
AcDbEntity
  8
0
100
AcDbLine
 10
27.77390658788863
 20
223.5557061915034
 30
0.0
 11
0.000152587888806
 21
223.5557061915034
 31
0.0
  0
LINE
  5
3D2
330
1F
100
AcDbEntity
  8
0
100
AcDbLine
 10
27.0001605878897
 20
217.5557061915033
 30
0.0
 11
15.5001525878888
 21
217.5557061915033
 31
0.0
  0
LINE
  5
3D3
330
1F
100
AcDbEntity
  8
1
100
AcDbLine
 10
22.00040458789044
 20
214.5712715915025
 30
0.0
 11
22.00040458789044
 21
234.9905361915035
 31
0.0
  0
LINE
  5
3D4
330
1F
100
AcDbEntity
  8
0
100
AcDbLine
 10
27.0001605878897
 20
223.5557061915034
 30
0.0
 11
27.0001605878897
 21
217.5557061915033
 31
0.0
  0
LINE
  5
3D5
330
1F
100
AcDbEntity
  8
0
100
AcDbLine
 10
17.67027658788902
 20
233.2556571915039
 30
0.0
 11
26.33053158788971
 21
233.2556571915039
 31
0.0
  0
LINE
  5
3D6
330
1F
100
AcDbEntity
  8
0
100
AcDbLine
 10
16.22690158788828
 20
232.7513391915045
 30
0.0
 11
16.22690158788828
 21
229.2556571915039
 31
0.0
  0
LINE
  5
3D7
330
1F
100
AcDbEntity
  8
0
100
AcDbLine
 10
27.77390658788863
 20
232.7513391915045
 30
0.0
 11
27.77390658788863
 21
229.2556571915039
 31
0.0
  0
LINE
  5
3D8
330
1F
100
AcDbEntity
  8
0
100
AcDbLine
 10
19.11365358788862
 20
232.7513391915045
 30
0.0
 11
19.11365358788862
 21
229.2556571915039
 31
0.0
  0
LINE
  5
3D9
330
1F
100
AcDbEntity
  8
0
100
AcDbLine
 10
24.88715558788863
 20
232.7513391915045
 30
0.0
 11
24.88715558788863
 21
229.2556571915039
 31
0.0
  0
LINE
  5
3DA
330
1F
100
AcDbEntity
  8
0
100
AcDbLine
 10
16.22690158788828
 20
229.2556571915039
 30
0.0
 11
27.77390658788863
 21
229.2556571915039
 31
0.0
  0
LINE
  5
3DB
330
1F
100
AcDbEntity
  8
0
100
AcDbLine
 10
-20.69980441211192
 20
180.7819601915045
 30
0.0
 11
-20.69980441211192
 21
192.3289641915026
 31
0.0
  0
LINE
  5
3DC
330
1F
100
AcDbEntity
  8
0
100
AcDbLine
 10
-24.19548841210963
 20
189.4422131915044
 30
0.0
 11
-20.69980441211192
 21
189.4422131915044
 31
0.0
  0
LINE
  5
3DD
330
1F
100
AcDbEntity
  8
0
100
AcDbLine
 10
-24.19548841210963
 20
183.6687111915026
 30
0.0
 11
-20.69980441211192
 21
183.6687111915026
 31
0.0
  0
LINE
  5
3DE
330
1F
100
AcDbEntity
  8
0
100
AcDbLine
 10
-24.19548841210963
 20
192.3289641915026
 30
0.0
 11
-20.69980441211192
 21
192.3289641915026
 31
0.0
  0
LINE
  5
3DF
330
1F
100
AcDbEntity
  8
0
100
AcDbLine
 10
-24.19548841210963
 20
180.7819601915045
 30
0.0
 11
-20.69980441211192
 21
180.7819601915045
 31
0.0
  0
LINE
  5
3E0
330
1F
100
AcDbEntity
  8
0
100
AcDbLine
 10
-24.6998044121101
 20
182.2253341915048
 30
0.0
 11
-24.6998044121101
 21
190.8855901915022
 31
0.0
  0
LINE
  5
3E1
330
1F
100
AcDbEntity
  8
0
100
AcDbLine
 10
20.00040458788863
 20
214.2556563915032
 30
0.0
 11
24.00040458788863
 21
214.2556563915032
 31
0.0
  0
LINE
  5
3E2
330
1F
100
AcDbEntity
  8
0
100
AcDbLine
 10
19.00040458789044
 20
229.2556571915039
 30
0.0
 11
19.00040458789044
 21
227.5557061915034
 31
0.0
  0
LINE
  5
3E3
330
1F
100
AcDbEntity
  8
0
100
AcDbLine
 10
25.00040458789044
 20
229.2556571915039
 30
0.0
 11
25.00040458789044
 21
227.5557061915034
 31
0.0
  0
LINE
  5
3E4
330
1F
100
AcDbEntity
  8
0
100
AcDbLine
 10
19.00040458789044
 20
215.2556563915033
 30
0.0
 11
25.00040458789044
 21
215.2556563915033
 31
0.0
  0
LINE
  5
3E5
330
1F
100
AcDbEntity
  8
0
100
AcDbLine
 10
25.00040458789044
 20
215.2556573915036
 30
0.0
 11
24.00040258788977
 21
214.2556558915031
 31
0.0
  0
LINE
  5
3E6
330
1F
100
AcDbEntity
  8
0
100
AcDbLine
 10
19.00040458789044
 20
215.2556563915033
 30
0.0
 11
20.00040458788863
 21
214.2556558915031
 31
0.0
  0
LINE
  5
3E7
330
1F
100
AcDbEntity
  8
0
100
AcDbLine
 10
19.60040458788899
 20
229.2556571915039
 30
0.0
 11
19.60040458788899
 21
227.5557061915034
 31
0.0
  0
LINE
  5
3E8
330
1F
100
AcDbEntity
  8
0
100
AcDbLine
 10
24.40040358788974
 20
229.2556571915039
 30
0.0
 11
24.40040358788974
 21
227.5557061915034
 31
0.0
  0
LINE
  5
3E9
330
1F
100
AcDbEntity
  8
0
100
AcDbLine
 10
19.00040458789044
 20
217.5557061915033
 30
0.0
 11
19.00040458789044
 21
215.2556563915033
 31
0.0
  0
LINE
  5
3EA
330
1F
100
AcDbEntity
  8
0
100
AcDbLine
 10
19.60040458788899
 20
217.5557061915033
 30
0.0
 11
19.60040458788899
 21
214.6556555915041
 31
0.0
  0
LINE
  5
3EB
330
1F
100
AcDbEntity
  8
0
100
AcDbLine
 10
24.40040358788974
 20
217.5557061915033
 30
0.0
 11
24.40040358788974
 21
214.6556559915035
 31
0.0
  0
LINE
  5
3EC
330
1F
100
AcDbEntity
  8
0
100
AcDbLine
 10
25.00040458789044
 20
217.5557061915033
 30
0.0
 11
25.00040458789044
 21
215.2556568915034
 31
0.0
  0
LINE
  5
3ED
330
1F
100
AcDbEntity
  8
0
100
AcDbLine
 10
24.88715558788863
 20
227.0513901915047
 30
0.0
 11
24.88715558788863
 21
223.5557061915034
 31
0.0
  0
LINE
  5
3EE
330
1F
100
AcDbEntity
  8
0
100
AcDbLine
 10
19.11365358788862
 20
227.0513901915047
 30
0.0
 11
19.11365358788862
 21
223.5557061915034
 31
0.0
  0
LINE
  5
3EF
330
1F
100
AcDbEntity
  8
0
100
AcDbLine
 10
27.77390658788863
 20
227.0513901915047
 30
0.0
 11
27.77390658788863
 21
223.5557061915034
 31
0.0
  0
LINE
  5
3F0
330
1F
100
AcDbEntity
  8
0
100
AcDbLine
 10
16.22690158788828
 20
227.0513901915047
 30
0.0
 11
16.22690158788828
 21
223.5557061915034
 31
0.0
  0
LINE
  5
3F1
330
1F
100
AcDbEntity
  8
0
100
AcDbLine
 10
17.67027658788902
 20
227.5557061915034
 30
0.0
 11
26.33053158788971
 21
227.5557061915034
 31
0.0
  0
LINE
  5
3F2
330
1F
100
AcDbEntity
  8
0
100
AcDbLine
 10
-18.99984741211119
 20
182.2253341915048
 30
0.0
 11
-18.99984741211119
 21
190.8855901915022
 31
0.0
  0
LINE
  5
3F3
330
1F
100
AcDbEntity
  8
0
100
AcDbLine
 10
-8.999847412111193
 20
183.5554621915026
 30
0.0
 11
-6.699804312111155
 21
183.5554621915026
 31
0.0
  0
LINE
  5
3F4
330
1F
100
AcDbEntity
  8
0
100
AcDbLine
 10
-8.999847412111193
 20
184.1554621915048
 30
0.0
 11
-6.099803912109564
 21
184.1554621915048
 31
0.0
  0
LINE
  5
3F5
330
1F
100
AcDbEntity
  8
0
100
AcDbLine
 10
-18.49553141211072
 20
189.4422131915044
 30
0.0
 11
-14.99984741211119
 21
189.4422131915044
 31
0.0
  0
LINE
  5
3F6
330
1F
100
AcDbEntity
  8
0
100
AcDbLine
 10
-18.49553141211072
 20
180.7819601915045
 30
0.0
 11
-14.99984741211119
 21
180.7819601915045
 31
0.0
  0
LINE
  5
3F7
330
1F
100
AcDbEntity
  8
0
100
AcDbLine
 10
-18.49553141211072
 20
192.3289641915026
 30
0.0
 11
-14.99984741211119
 21
192.3289641915026
 31
0.0
  0
LINE
  5
3F8
330
1F
100
AcDbEntity
  8
0
100
AcDbLine
 10
-18.49553141211072
 20
183.6687111915026
 30
0.0
 11
-14.99984741211119
 21
183.6687111915026
 31
0.0
  0
LINE
  5
3F9
330
1F
100
AcDbEntity
  8
0
100
AcDbLine
 10
-8.999847412111193
 20
188.9554611915037
 30
0.0
 11
-6.099803912109564
 21
188.9554611915037
 31
0.0
  0
LINE
  5
3FA
330
1F
100
AcDbEntity
  8
0
100
AcDbLine
 10
-20.69980441211192
 20
188.9554611915037
 30
0.0
 11
-18.99984741211119
 21
188.9554611915037
 31
0.0
  0
LINE
  5
3FB
330
1F
100
AcDbEntity
  8
0
100
AcDbLine
 10
-20.69980441211192
 20
184.1554621915048
 30
0.0
 11
-18.99984741211119
 21
184.1554621915048
 31
0.0
  0
LINE
  5
3FC
330
1F
100
AcDbEntity
  8
0
100
AcDbLine
 10
-6.699804312111155
 20
183.5554601915019
 30
0.0
 11
-5.699803312110816
 21
184.5554621915044
 31
0.0
  0
LINE
  5
3FD
330
1F
100
AcDbEntity
  8
0
100
AcDbLine
 10
-6.699804312111155
 20
189.5554621915026
 30
0.0
 11
-5.699803812110985
 21
188.5554621915044
 31
0.0
  0
LINE
  5
3FE
330
1F
100
AcDbEntity
  8
0
100
AcDbLine
 10
-6.699804312111155
 20
183.5554621915026
 30
0.0
 11
-6.699804312111155
 21
189.5554621915026
 31
0.0
  0
LINE
  5
3FF
330
1F
100
AcDbEntity
  8
0
100
AcDbLine
 10
-20.69980441211192
 20
189.5554621915026
 30
0.0
 11
-18.99984741211119
 21
189.5554621915026
 31
0.0
  0
LINE
  5
400
330
1F
100
AcDbEntity
  8
0
100
AcDbLine
 10
-20.69980441211192
 20
183.5554621915026
 30
0.0
 11
-18.99984741211119
 21
183.5554621915026
 31
0.0
  0
LINE
  5
401
330
1F
100
AcDbEntity
  8
0
100
AcDbLine
 10
-5.699804312111155
 20
184.5554621915044
 30
0.0
 11
-5.699804312111155
 21
188.5554621915044
 31
0.0
  0
LINE
  5
402
330
1F
100
AcDbEntity
  8
0
100
AcDbLine
 10
-8.999847412111193
 20
189.5554621915026
 30
0.0
 11
-6.699804812111324
 21
189.5554621915026
 31
0.0
  0
ARC
  5
403
330
1F
100
AcDbEntity
  8
0
100
AcDbCircle
 10
-23.80000341211235
 20
184.755703191503
 30
0.0
 40
7.699999799999998
100
AcDbArc
 50
51.74070999996692
 51
66.25726034724088
  0
CIRCLE
  5
404
330
1F
100
AcDbEntity
  8
0
100
AcDbCircle
 10
0.000152587888806
 20
208.5557061915034
 30
0.0
 40
7.5
  0
ARC
  5
405
330
1F
100
AcDbEntity
  8
0
100
AcDbCircle
 10
-16.68219041211159
 20
190.8855901915022
 30
0.0
 40
2.317657899999999
100
AcDbArc
 50
141.4810399999884
 51
218.5189580000061
  0
ARC
  5
406
330
1F
100
AcDbEntity
  8
0
100
AcDbCircle
 10
-10.4856914121101
 20
186.5554621915026
 30
0.0
 40
8.514156299999999
100
AcDbArc
 50
160.1808099999989
 51
199.8191930000185
  0
ARC
  5
407
330
1F
100
AcDbEntity
  8
0
100
AcDbCircle
 10
-16.68219041211159
 20
182.2253341915048
 30
0.0
 40
2.317657899999999
100
AcDbArc
 50
141.4810399999884
 51
218.5189580000061
  0
ARC
  5
408
330
1F
100
AcDbEntity
  8
0
100
AcDbCircle
 10
26.33053158788971
 20
225.2380491915038
 30
0.0
 40
2.317657899999999
100
AcDbArc
 50
51.48107999999695
 51
128.518920000003
  0
ARC
  5
409
330
1F
100
AcDbEntity
  8
0
100
AcDbCircle
 10
22.00040458789044
 20
219.0415501915041
 30
0.0
 40
8.514156299999999
100
AcDbArc
 50
70.1808100000056
 51
109.8191899999944
  0
ARC
  5
40A
330
1F
100
AcDbEntity
  8
0
100
AcDbCircle
 10
17.67027658788902
 20
225.2380491915038
 30
0.0
 40
2.317657899999999
100
AcDbArc
 50
51.48107999999695
 51
128.518920000003
  0
ARC
  5
40B
330
1F
100
AcDbEntity
  8
0
100
AcDbCircle
 10
-22.38214641211198
 20
190.8855901915022
 30
0.0
 40
2.317657899999999
100
AcDbArc
 50
141.4810399999884
 51
218.5189580000061
  0
ARC
  5
40C
330
1F
100
AcDbEntity
  8
0
100
AcDbCircle
 10
-16.18564841211082
 20
186.5554621915026
 30
0.0
 40
8.514156299999999
100
AcDbArc
 50
160.1808099999989
 51
199.8191930000185
  0
ARC
  5
40D
330
1F
100
AcDbEntity
  8
0
100
AcDbCircle
 10
-22.38214641211198
 20
182.2253341915048
 30
0.0
 40
2.317657899999999
100
AcDbArc
 50
141.4810399999884
 51
218.5189580000061
  0
ARC
  5
40E
330
1F
100
AcDbEntity
  8
0
100
AcDbCircle
 10
17.67027658788902
 20
230.9379981915036
 30
0.0
 40
2.317657899999999
100
AcDbArc
 50
51.48107999999695
 51
128.518920000003
  0
ARC
  5
40F
330
1F
100
AcDbEntity
  8
0
100
AcDbCircle
 10
22.00040458789044
 20
224.7415011915028
 30
0.0
 40
8.514156299999999
100
AcDbArc
 50
70.1808100000056
 51
109.8191899999944
  0
ARC
  5
410
330
1F
100
AcDbEntity
  8
0
100
AcDbCircle
 10
26.33053158788971
 20
230.9379981915036
 30
0.0
 40
2.317657899999999
100
AcDbArc
 50
51.48107999999695
 51
128.518920000003
  0
ARC
  5
411
330
1F
100
AcDbEntity
  8
0
100
AcDbCircle
 10
-8.499847412111193
 20
193.0557061915015
 30
0.0
 40
0.5
100
AcDbArc
 50
90.0
 51
180.0
  0
ARC
  5
412
330
1F
100
AcDbEntity
  8
0
100
AcDbCircle
 10
0.0
 20
208.5557061915034
 30
0.0
 40
17.5
100
AcDbArc
 50
241.8693769999635
 51
26.23570999999632
  0
ARC
  5
413
330
1F
100
AcDbEntity
  8
0
100
AcDbCircle
 10
15.5001525878888
 20
217.0554620915019
 30
0.0
 40
0.5
100
AcDbArc
 50
90.0
 51
180.0
  0
CIRCLE
  5
414
330
1F
100
AcDbEntity
  8
0
100
AcDbCircle
 10
0.000152587888806
 20
208.5557061915034
 30
0.0
 40
15.0
  0
ARC
  5
415
330
1F
100
AcDbEntity
  8
0
100
AcDbCircle
 10
0.0
 20
208.5557061915034
 30
0.0
 40
17.5
100
AcDbArc
 50
62.20824000001548
 51
207.4293000000025
  0
LINE
  5
416
330
1F
100
AcDbEntity
  8
0
100
AcDbLine
 10
7.000007199998435
 20
208.5558403880014
 30
0.0
 11
3.999998799999957
 21
206.8237847793926
 31
0.0
  0
LINE
  5
417
330
1F
100
AcDbEntity
  8
0
100
AcDbLine
 10
-4.000013800001397
 20
210.2878788793924
 30
0.0
 11
-7.000022399999579
 21
208.5558232814683
 31
0.0
  0
LINE
  5
418
330
1F
100
AcDbEntity
  8
0
100
AcDbLine
 10
-4.0
 20
209.8058587793921
 30
0.0
 11
-4.0
 21
210.2879144793925
 31
0.0
  0
LINE
  5
419
330
1F
100
AcDbEntity
  8
0
100
AcDbLine
 10
4.0
 20
209.8058587793921
 30
0.0
 11
4.0
 21
210.2879144793925
 31
0.0
  0
LINE
  5
41A
330
1F
100
AcDbEntity
  8
0
100
AcDbLine
 10
4.0
 20
206.8238030793937
 30
0.0
 11
4.0
 21
207.3058587793922
 31
0.0
  0
LINE
  5
41B
330
1F
100
AcDbEntity
  8
0
100
AcDbLine
 10
-4.0
 20
206.8238030793937
 30
0.0
 11
-4.0
 21
207.3058587793922
 31
0.0
  0
LINE
  5
41C
330
1F
100
AcDbEntity
  8
0
100
AcDbLine
 10
-3.999995899999703
 20
206.8238252793936
 30
0.0
 11
-6.999997599999915
 21
208.5558769857026
 31
0.0
  0
LINE
  5
41D
330
1F
100
AcDbEntity
  8
0
100
AcDbLine
 10
7.000001899999915
 20
208.5558770453072
 30
0.0
 11
4.000003299999661
 21
210.287927079392
 31
0.0
  0
LINE
  5
41E
330
1F
100
AcDbEntity
  8
0
100
AcDbLine
 10
-4.0
 20
207.3058587793922
 30
0.0
 11
4.0
 21
207.3058587793922
 31
0.0
  0
LINE
  5
41F
330
1F
100
AcDbEntity
  8
0
100
AcDbLine
 10
-4.0
 20
209.8058587793921
 30
0.0
 11
4.0
 21
209.8058587793921
 31
0.0
  0
LINE
  5
420
330
1F
100
AcDbEntity
  8
2
100
AcDbLine
 10
-24.69996184992033
 20
174.5555531915025
 30
0.0
 11
-24.69996184992033
 21
198.5555531915025
 31
0.0
  0
LINE
  5
421
330
1F
100
AcDbEntity
  8
2
100
AcDbLine
 10
-61.79997184992044
 20
166.5555531915043
 30
0.0
 11
-61.79997184992044
 21
206.5555535915037
 31
0.0
  0
LINE
  5
422
330
1F
100
AcDbEntity
  8
2
100
AcDbLine
 10
-129.49998184992
 20
166.5555531915043
 30
0.0
 11
-129.49998184992
 21
206.5555535915037
 31
0.0
  0
LINE
  5
423
330
1F
100
AcDbEntity
  8
2
100
AcDbLine
 10
-166.49998184992
 20
173.5555531915044
 30
0.0
 11
-166.49998184992
 21
199.5555535915037
 31
0.0
  0
CIRCLE
  5
424
330
1F
100
AcDbEntity
  8
0
100
AcDbCircle
 10
-66.50008400000115
 20
171.4557611915033
 30
0.0
 40
3.5
  0
CIRCLE
  5
425
330
1F
100
AcDbEntity
  8
0
100
AcDbCircle
 10
-125.2000400000015
 20
201.6558343915031
 30
0.0
 40
3.5
  0
LINE
  5
426
330
1F
100
AcDbEntity
  8
0
100
AcDbLine
 10
-31.30555500000264
 20
232.3558621915045
 30
0.0
 11
-27.55277800000295
 21
225.8558621915027
 31
0.0
  0
LINE
  5
427
330
1F
100
AcDbEntity
  8
0
100
AcDbLine
 10
-27.55278000000362
 20
238.8558601915038
 30
0.0
 11
-31.30555700000332
 21
232.3558621915045
 31
0.0
  0
LINE
  5
428
330
1F
100
AcDbEntity
  8
1
100
AcDbLine
 10
-120.3819093277507
 20
201.6558343915031
 30
0.0
 11
-130.0181706722524
 21
201.6558343915031
 31
0.0
  0
LINE
  5
429
330
1F
100
AcDbEntity
  8
1
100
AcDbLine
 10
-23.80000300000211
 20
223.0590276915037
 30
0.0
 11
-23.80000300000211
 21
241.6526966915056
 31
0.0
  0
LINE
  5
42A
330
1F
100
AcDbEntity
  8
1
100
AcDbLine
 10
-14.41087500000231
 20
232.3558621915045
 30
0.0
 11
-33.18913100000191
 21
232.3558621915047
 31
0.0
  0
LINE
  5
42B
330
1F
100
AcDbEntity
  8
2
100
AcDbLine
 10
-24.69996184992033
 20
218.5558591915042
 30
0.0
 11
-61.79997184992044
 21
218.5558591915042
 31
0.0
  0
LINE
  5
42C
330
1F
100
AcDbEntity
  8
2
100
AcDbLine
 10
-24.69996184992033
 20
242.5558591915042
 30
0.0
 11
-61.79997184992044
 21
242.5558591915042
 31
0.0
  0
LINE
  5
42D
330
1F
100
AcDbEntity
  8
2
100
AcDbLine
 10
-61.79997184992044
 20
210.555858791503
 30
0.0
 11
-129.49998184992
 21
210.555858791503
 31
0.0
  0
LINE
  5
42E
330
1F
100
AcDbEntity
  8
2
100
AcDbLine
 10
-61.79997184992044
 20
250.5558591915024
 30
0.0
 11
-129.49998184992
 21
250.5558591915024
 31
0.0
  0
LINE
  5
42F
330
1F
100
AcDbEntity
  8
2
100
AcDbLine
 10
-166.49998184992
 20
243.5558591915024
 30
0.0
 11
-129.49998184992
 21
243.5558591915024
 31
0.0
  0
LINE
  5
430
330
1F
100
AcDbEntity
  8
2
100
AcDbLine
 10
-166.49998184992
 20
217.555858791503
 30
0.0
 11
-129.49998184992
 21
217.555858791503
 31
0.0
  0
LINE
  5
431
330
1F
100
AcDbEntity
  8
2
100
AcDbLine
 10
-24.69996184992033
 20
242.5558591915042
 30
0.0
 11
-24.69996184992033
 21
218.5558591915042
 31
0.0
  0
LINE
  5
432
330
1F
100
AcDbEntity
  8
2
100
AcDbLine
 10
-61.79997184992044
 20
250.5558591915024
 30
0.0
 11
-61.79997184992044
 21
210.555858791503
 31
0.0
  0
LINE
  5
433
330
1F
100
AcDbEntity
  8
2
100
AcDbLine
 10
-129.49998184992
 20
250.5558591915024
 30
0.0
 11
-129.49998184992
 21
210.555858791503
 31
0.0
  0
LINE
  5
434
330
1F
100
AcDbEntity
  8
2
100
AcDbLine
 10
-166.49998184992
 20
243.5558591915024
 30
0.0
 11
-166.49998184992
 21
217.555858791503
 31
0.0
  0
CIRCLE
  5
435
330
1F
100
AcDbEntity
  8
0
100
AcDbCircle
 10
-66.50008400000115
 20
215.4555779915036
 30
0.0
 40
3.5
  0
CIRCLE
  5
436
330
1F
100
AcDbEntity
  8
0
100
AcDbCircle
 10
-125.2000400000015
 20
245.6556511915033
 30
0.0
 40
3.5
  0
LINE
  5
437
330
1F
100
AcDbEntity
  8
0
100
AcDbLine
 10
-31.30555359132677
 20
184.7558631915027
 30
0.0
 11
-27.55277999999953
 21
191.2558631915045
 31
0.0
  0
LINE
  5
438
330
1F
100
AcDbEntity
  8
1
100
AcDbLine
 10
-23.80000300000211
 20
175.4590286915018
 30
0.0
 11
-23.80000300000211
 21
194.0526976915037
 31
0.0
  0
LINE
  5
439
330
1F
100
AcDbEntity
  8
1
100
AcDbLine
 10
-14.41087500000231
 20
184.7558631915027
 30
0.0
 11
-33.18913100000191
 21
184.7558631915029
 31
0.0
  0
LINE
  5
43A
330
1F
100
AcDbEntity
  8
0
100
AcDbLine
 10
-49.49998184992001
 20
250.5555531915043
 30
0.0
 11
-49.49998184992001
 21
166.5555531915043
 31
0.0
  0
LINE
  5
43B
330
1F
100
AcDbEntity
  8
0
100
AcDbLine
 10
-41.99998184992
 20
250.5555531915043
 30
0.0
 11
-41.99998184992
 21
166.5555531915043
 31
0.0
  0
ARC
  5
43C
330
1F
100
AcDbEntity
  8
0
100
AcDbCircle
 10
26.00005435746471
 20
28.00000003009109
 30
0.0
 40
0.9999999699089133
100
AcDbArc
 50
359.9999982759077
 51
90.00000172411835
  0
ARC
  5
43D
330
1F
100
AcDbEntity
  8
0
100
AcDbCircle
 10
26.0000542891803
 20
20.00000003819332
 30
0.0
 40
1.000000038193264
100
AcDbArc
 50
270.000002188316
 51
359.9999978116839
  0
ARC
  5
43E
330
1F
100
AcDbEntity
  8
2
100
AcDbCircle
 10
-55.45527737187467
 20
13.49996499409394
 30
0.0
 40
1.499964994205584
100
AcDbArc
 50
269.9993009465115
 51
281.8208693712679
  0
ARC
  5
43F
330
1F
100
AcDbEntity
  8
2
100
AcDbCircle
 10
-55.35163847400963
 20
12.50003495979399
 30
0.0
 40
0.5000349605337034
100
AcDbArc
 50
269.9968834860658
 51
281.8184519108562
  0
ARC
  5
440
330
1F
100
AcDbEntity
  8
0
100
AcDbCircle
 10
29.42922432737396
 20
7.209045414676666
 30
0.0
 40
2.790960820725833
100
AcDbArc
 50
47.75442107406071
 51
132.2455789259392
  0
ARC
  5
441
330
1F
100
AcDbEntity
  8
0
100
AcDbCircle
 10
23.80003932737372
 20
-0.076473537139691
 30
0.0
 40
10.07649784977242
100
AcDbArc
 50
68.13453253156179
 51
111.8654674684382
  0
ARC
  5
442
330
1F
100
AcDbEntity
  8
0
100
AcDbCircle
 10
18.17089432737384
 20
7.209045414676893
 30
0.0
 40
2.790960820725636
100
AcDbArc
 50
47.75442107406071
 51
132.2455789259392
  0
ARC
  5
443
330
1F
100
AcDbEntity
  8
0
100
AcDbCircle
 10
-18.17078567262615
 20
7.209045414676893
 30
0.0
 40
2.790960820725636
100
AcDbArc
 50
47.75442107406071
 51
132.2455789259392
  0
ARC
  5
444
330
1F
100
AcDbEntity
  8
0
100
AcDbCircle
 10
-23.79996567262606
 20
-0.0764859967243865
 30
0.0
 40
10.07651127516817
100
AcDbArc
 50
68.13453253156179
 51
111.8654674684382
  0
ARC
  5
445
330
1F
100
AcDbEntity
  8
0
100
AcDbCircle
 10
-29.42911567262627
 20
7.209045414676666
 30
0.0
 40
2.790960820725823
100
AcDbArc
 50
47.75442107406071
 51
132.2455789259392
  0
ARC
  5
446
330
1F
100
AcDbEntity
  8
0
100
AcDbCircle
 10
-13.99994570271701
 20
37.00000003009109
 30
0.0
 40
0.9999999699089986
100
AcDbArc
 50
89.99999827593377
 51
180.0000017240922
  0
ARC
  5
447
330
1F
100
AcDbEntity
  8
0
100
AcDbCircle
 10
14.0000543574647
 20
37.00000003009109
 30
0.0
 40
0.9999999699089133
100
AcDbArc
 50
359.9999982759077
 51
90.00000172411835
  0
ARC
  5
448
330
1F
100
AcDbEntity
  8
0
100
AcDbCircle
 10
13.00005425098698
 20
13.50000007638664
 30
0.0
 40
2.000000076386529
100
AcDbArc
 50
270.000002188316
 51
359.9999978116839
  0
ARC
  5
449
330
1F
100
AcDbEntity
  8
0
100
AcDbCircle
 10
-12.99994573280855
 20
13.49999993981805
 30
0.0
 40
1.999999939818054
100
AcDbArc
 50
179.9999982759142
 51
270.0000017241184
  0
ARC
  5
44A
330
1F
100
AcDbEntity
  8
0
100
AcDbCircle
 10
-18.25132570767118
 20
21.5
 30
0.0
 40
6.448657039955021
100
AcDbArc
 50
157.1899290236329
 51
202.8100709763671
  0
ARC
  5
44B
330
1F
100
AcDbEntity
  8
0
100
AcDbCircle
 10
-18.25132570767118
 20
26.5
 30
0.0
 40
6.448657039955021
100
AcDbArc
 50
157.1899290236329
 51
202.8100709763671
  0
ARC
  5
44C
330
1F
100
AcDbEntity
  8
0
100
AcDbCircle
 10
-12.55130570767142
 20
21.5
 30
0.0
 40
6.448657039955021
100
AcDbArc
 50
157.1899290236329
 51
202.8100709763671
  0
ARC
  5
44D
330
1F
100
AcDbEntity
  8
0
100
AcDbCircle
 10
-12.55130570767142
 20
26.5
 30
0.0
 40
6.448657039955021
100
AcDbArc
 50
157.1899290236329
 51
202.8100709763671
  0
LINE
  5
44E
330
1F
100
AcDbEntity
  8
0
100
AcDbLine
 10
-43.03549567262598
 20
0.0
 30
0.0
 11
42.00005432737362
 21
0.0
 31
0.0
  0
LINE
  5
44F
330
1F
100
AcDbEntity
  8
0
100
AcDbLine
 10
27.00005432737362
 20
22.13201999999979
 30
0.0
 11
27.00005432737362
 21
20.0
 31
0.0
  0
LINE
  5
450
330
1F
100
AcDbEntity
  8
1
100
AcDbLine
 10
22.00029432737392
 20
31.29155999999989
 30
0.0
 11
22.00029432737392
 21
16.57286999999974
 31
0.0
  0
LINE
  5
451
330
1F
100
AcDbEntity
  8
1
100
AcDbLine
 10
28.6438043273738
 20
24.0
 30
0.0
 11
15.35678432737404
 21
24.0
 31
0.0
  0
LINE
  5
452
330
1F
100
AcDbEntity
  8
0
100
AcDbLine
 10
26.00005432737362
 20
29.00000000000006
 30
0.0
 11
-6.538305672625938
 21
29.0
 31
0.0
  0
LINE
  5
453
330
1F
100
AcDbEntity
  8
0
100
AcDbLine
 10
26.00005432737362
 20
19.0
 30
0.0
 11
0.0000243273734668
 21
19.0
 31
0.0
  0
LINE
  5
454
330
1F
100
AcDbEntity
  8
0
100
AcDbLine
 10
27.00005432737362
 20
28.0
 30
0.0
 11
27.00005432737362
 21
25.86797999999999
 31
0.0
  0
LINE
  5
455
330
1F
100
AcDbEntity
  8
1
100
AcDbLine
 10
23.80004432737405
 20
12.65666999999985
 30
0.0
 11
23.80004432737405
 21
0.0
 31
0.0
  0
LINE
  5
456
330
1F
100
AcDbEntity
  8
1
100
AcDbLine
 10
-23.79996567262606
 20
12.84313999999995
 30
0.0
 11
-23.79996567262606
 21
0.0
 31
0.0
  0
LINE
  5
457
330
1F
100
AcDbEntity
  8
1
100
AcDbLine
 10
-66.49994567262638
 20
15.47217558223247
 30
0.0
 11
-66.49994567262638
 21
0.0893499999999676
 31
0.0
  0
LINE
  5
458
330
1F
100
AcDbEntity
  8
1
100
AcDbLine
 10
-125.1999556726259
 20
15.47217558223247
 30
0.0
 11
-125.1999556726259
 21
0.0893499999999676
 31
0.0
  0
LINE
  5
459
330
1F
100
AcDbEntity
  8
0
100
AcDbLine
 10
42.00005432737362
 20
2.5
 30
0.0
 11
42.00005432737362
 21
0.0
 31
0.0
  0
LINE
  5
45A
330
1F
100
AcDbEntity
  8
0
100
AcDbLine
 10
7.250024327373466
 20
6.0
 30
0.0
 11
11.50002432737347
 21
6.0
 31
0.0
  0
LINE
  5
45B
330
1F
100
AcDbEntity
  8
0
100
AcDbLine
 10
-7.249975672626533
 20
11.5
 30
0.0
 11
-7.249975672626533
 21
6.0
 31
0.0
  0
LINE
  5
45C
330
1F
100
AcDbEntity
  8
0
100
AcDbLine
 10
7.250024327373466
 20
11.5
 30
0.0
 11
7.250024327373466
 21
6.0
 31
0.0
  0
LINE
  5
45D
330
1F
100
AcDbEntity
  8
0
100
AcDbLine
 10
-11.49997567262653
 20
6.0
 30
0.0
 11
-7.249975672626533
 21
6.0
 31
0.0
  0
LINE
  5
45E
330
1F
100
AcDbEntity
  8
0
100
AcDbLine
 10
-131.1999556726259
 20
10.0
 30
0.0
 11
-131.1999556726259
 21
7.5
 31
0.0
  0
LINE
  5
45F
330
1F
100
AcDbEntity
  8
0
100
AcDbLine
 10
-50.53552567262613
 20
7.500009999999974
 30
0.0
 11
-43.03551567262639
 21
-0.0000099999999748
 31
0.0
  0
LINE
  5
460
330
1F
100
AcDbEntity
  8
0
100
AcDbLine
 10
-131.1999556726259
 20
7.5
 30
0.0
 11
-50.53549567262598
 21
7.5
 31
0.0
  0
LINE
  5
461
330
1F
100
AcDbEntity
  8
0
100
AcDbLine
 10
-131.1999556726259
 20
10.0
 30
0.0
 11
-49.49997567262653
 21
10.0
 31
0.0
  0
LINE
  5
462
330
1F
100
AcDbEntity
  8
0
100
AcDbLine
 10
-49.49995567262613
 20
10.0
 30
0.0
 11
-41.99992567262597
 21
2.499990000000025
 31
0.0
  0
LINE
  5
463
330
1F
100
AcDbEntity
  8
2
100
AcDbLine
 10
-166.4999756726265
 20
8.988889999999855
 30
0.0
 11
-131.1999556726259
 21
8.988889999999855
 31
0.0
  0
LINE
  5
464
330
1F
100
AcDbEntity
  8
2
100
AcDbLine
 10
-166.4999756726265
 20
39.01110999999992
 30
0.0
 11
-129.4999756726265
 21
39.01110999999992
 31
0.0
  0
LINE
  5
465
330
1F
100
AcDbEntity
  8
2
100
AcDbLine
 10
-166.4999756726265
 20
39.01110999999992
 30
0.0
 11
-166.4999756726265
 21
8.988889999999855
 31
0.0
  0
LINE
  5
466
330
1F
100
AcDbEntity
  8
2
100
AcDbLine
 10
-24.69995567262595
 20
12.00011999999992
 30
0.0
 11
-60.79996567262606
 21
12.00011999999992
 31
0.0
  0
LINE
  5
467
330
1F
100
AcDbEntity
  8
2
100
AcDbLine
 10
-24.69995567262595
 20
36.0
 30
0.0
 11
-61.79996567262605
 21
36.0
 31
0.0
  0
LINE
  5
468
330
1F
100
AcDbEntity
  8
2
100
AcDbLine
 10
-61.79996567262605
 20
52.00000030149744
 30
0.0
 11
-61.79996567262605
 21
10.0
 31
0.0
  0
LINE
  5
469
330
1F
100
AcDbEntity
  8
2
100
AcDbLine
 10
-129.4999756726265
 20
52.00000030149744
 30
0.0
 11
-129.4999756726265
 21
10.0
 31
0.0
  0
LINE
  5
46A
330
1F
100
AcDbEntity
  8
0
100
AcDbLine
 10
16.10005432737398
 20
4.5
 30
0.0
 11
31.50005432737362
 21
4.5
 31
0.0
  0
LINE
  5
46B
330
1F
100
AcDbEntity
  8
0
100
AcDbLine
 10
16.10005432737398
 20
4.5
 30
0.0
 11
16.10005432737398
 21
2.5
 31
0.0
  0
LINE
  5
46C
330
1F
100
AcDbEntity
  8
0
100
AcDbLine
 10
31.50005432737362
 20
4.5
 30
0.0
 11
31.50005432737362
 21
2.5
 31
0.0
  0
LINE
  5
46D
330
1F
100
AcDbEntity
  8
0
100
AcDbLine
 10
-31.49994567262638
 20
4.5
 30
0.0
 11
-16.09995567262649
 21
4.5
 31
0.0
  0
LINE
  5
46E
330
1F
100
AcDbEntity
  8
0
100
AcDbLine
 10
-31.49994567262638
 20
4.5
 30
0.0
 11
-31.49994567262638
 21
2.5
 31
0.0
  0
LINE
  5
46F
330
1F
100
AcDbEntity
  8
0
100
AcDbLine
 10
-16.09995567262649
 20
4.5
 30
0.0
 11
-16.09995567262649
 21
2.5
 31
0.0
  0
LINE
  5
470
330
1F
100
AcDbEntity
  8
0
100
AcDbLine
 10
20.04726432737379
 20
9.275080000000116
 30
0.0
 11
20.04726432737379
 21
4.5
 31
0.0
  0
LINE
  5
471
330
1F
100
AcDbEntity
  8
0
100
AcDbLine
 10
27.55281432737411
 20
9.275080000000116
 30
0.0
 11
27.55281432737411
 21
4.5
 31
0.0
  0
LINE
  5
472
330
1F
100
AcDbEntity
  8
0
100
AcDbLine
 10
16.29448432737354
 20
9.275080000000116
 30
0.0
 11
16.29448432737354
 21
4.5
 31
0.0
  0
LINE
  5
473
330
1F
100
AcDbEntity
  8
0
100
AcDbLine
 10
31.30559432737391
 20
9.275080000000116
 30
0.0
 11
31.30559432737391
 21
4.5
 31
0.0
  0
LINE
  5
474
330
1F
100
AcDbEntity
  8
0
100
AcDbLine
 10
29.42922432737396
 20
10.0
 30
0.0
 11
18.17089432737384
 21
10.0
 31
0.0
  0
LINE
  5
475
330
1F
100
AcDbEntity
  8
0
100
AcDbLine
 10
-27.55274567262631
 20
9.275080000000116
 30
0.0
 11
-27.55274567262631
 21
4.5
 31
0.0
  0
LINE
  5
476
330
1F
100
AcDbEntity
  8
0
100
AcDbLine
 10
-20.04718567262626
 20
9.275080000000116
 30
0.0
 11
-20.04718567262626
 21
4.5
 31
0.0
  0
LINE
  5
477
330
1F
100
AcDbEntity
  8
0
100
AcDbLine
 10
-31.30551567262592
 20
9.275080000000116
 30
0.0
 11
-31.30551567262592
 21
4.5
 31
0.0
  0
LINE
  5
478
330
1F
100
AcDbEntity
  8
0
100
AcDbLine
 10
-16.2944156726262
 20
9.275080000000116
 30
0.0
 11
-16.2944156726262
 21
4.5
 31
0.0
  0
LINE
  5
479
330
1F
100
AcDbEntity
  8
0
100
AcDbLine
 10
-18.17078567262615
 20
10.0
 30
0.0
 11
-29.42911567262627
 21
10.0
 31
0.0
  0
LINE
  5
47A
330
1F
100
AcDbEntity
  8
0
100
AcDbLine
 10
-41.99997567262653
 20
2.5
 30
0.0
 11
42.00005432737362
 21
2.5
 31
0.0
  0
LINE
  5
47B
330
1F
100
AcDbEntity
  8
0
100
AcDbLine
 10
11.50005432737362
 20
2.5
 30
0.0
 11
11.50005432737362
 21
6.0
 31
0.0
  0
LINE
  5
47C
330
1F
100
AcDbEntity
  8
0
100
AcDbLine
 10
-11.49994567262638
 20
2.5
 30
0.0
 11
-11.49994567262638
 21
6.0
 31
0.0
  0
LINE
  5
47D
330
1F
100
AcDbEntity
  8
0
100
AcDbLine
 10
14.00005432737362
 20
38.0
 30
0.0
 11
-13.99994567262638
 21
38.0
 31
0.0
  0
LINE
  5
47E
330
1F
100
AcDbEntity
  8
0
100
AcDbLine
 10
-14.99994567262638
 20
37.0
 30
0.0
 11
-14.99994567262638
 21
13.5
 31
0.0
  0
LINE
  5
47F
330
1F
100
AcDbEntity
  8
0
100
AcDbLine
 10
15.00005432737362
 20
19.0
 30
0.0
 11
15.00005432737362
 21
13.5
 31
0.0
  0
LINE
  5
480
330
1F
100
AcDbEntity
  8
0
100
AcDbLine
 10
15.00005432737362
 20
37.0
 30
0.0
 11
15.00005432737362
 21
29.0
 31
0.0
  0
LINE
  5
481
330
1F
100
AcDbEntity
  8
0
100
AcDbLine
 10
8.421804327374047
 20
38.0
 30
0.0
 11
8.421804327374047
 21
29.0
 31
0.0
  0
LINE
  5
482
330
1F
100
AcDbEntity
  8
0
100
AcDbLine
 10
6.538384327373933
 20
38.0
 30
0.0
 11
6.538384327373933
 21
29.0
 31
0.0
  0
LINE
  5
483
330
1F
100
AcDbEntity
  8
0
100
AcDbLine
 10
13.00005432737362
 20
11.5
 30
0.0
 11
-12.99994567262638
 21
11.5
 31
0.0
  0
LINE
  5
484
330
1F
100
AcDbEntity
  8
0
100
AcDbLine
 10
-8.421725672626052
 20
38.0
 30
0.0
 11
-8.421725672626052
 21
29.0
 31
0.0
  0
LINE
  5
485
330
1F
100
AcDbEntity
  8
0
100
AcDbLine
 10
-6.538305672625938
 20
38.0
 30
0.0
 11
-6.538305672625938
 21
29.0
 31
0.0
  0
LINE
  5
486
330
1F
100
AcDbEntity
  8
0
100
AcDbLine
 10
-8.421695672625901
 20
29.0
 30
0.0
 11
-18.49564567262632
 21
29.0
 31
0.0
  0
LINE
  5
487
330
1F
100
AcDbEntity
  8
1
100
AcDbLine
 10
-3.760715672626247
 20
24.0
 30
0.0
 11
-24.69995567262595
 21
24.0
 31
0.0
  0
LINE
  5
488
330
1F
100
AcDbEntity
  8
0
100
AcDbLine
 10
-20.69995567262595
 20
21.59996999999998
 30
0.0
 11
-18.99994567262638
 21
21.59996999999998
 31
0.0
  0
LINE
  5
489
330
1F
100
AcDbEntity
  8
0
100
AcDbLine
 10
-24.69995567262595
 20
21.5
 30
0.0
 11
-24.69995567262595
 21
27.25018
 31
0.0
  0
LINE
  5
48A
330
1F
100
AcDbEntity
  8
0
100
AcDbLine
 10
-20.69995567262595
 20
26.40001999999981
 30
0.0
 11
-18.99994567262638
 21
26.40001999999981
 31
0.0
  0
LINE
  5
48B
330
1F
100
AcDbEntity
  8
0
100
AcDbLine
 10
-20.69995567262595
 20
21.0
 30
0.0
 11
-18.99994567262638
 21
21.0
 31
0.0
  0
LINE
  5
48C
330
1F
100
AcDbEntity
  8
0
100
AcDbLine
 10
-24.19565567262635
 20
19.0
 30
0.0
 11
-20.69995567262595
 21
19.0
 31
0.0
  0
LINE
  5
48D
330
1F
100
AcDbEntity
  8
0
100
AcDbLine
 10
-20.69995567262595
 20
27.0
 30
0.0
 11
-18.9805356726265
 21
27.0
 31
0.0
  0
LINE
  5
48E
330
1F
100
AcDbEntity
  8
0
100
AcDbLine
 10
-20.69995567262595
 20
19.0
 30
0.0
 11
-20.69995567262595
 21
29.0
 31
0.0
  0
LINE
  5
48F
330
1F
100
AcDbEntity
  8
0
100
AcDbLine
 10
-24.19565567262635
 20
29.0
 30
0.0
 11
-20.69995567262595
 21
29.0
 31
0.0
  0
LINE
  5
490
330
1F
100
AcDbEntity
  8
0
100
AcDbLine
 10
-18.49564567262632
 20
19.0
 30
0.0
 11
-14.99994567262638
 21
19.0
 31
0.0
  0
LINE
  5
491
330
1F
100
AcDbEntity
  8
0
100
AcDbLine
 10
-18.99994567262638
 20
21.5
 30
0.0
 11
-18.99994567262638
 21
26.5
 31
0.0
  0
CIRCLE
  5
492
330
1F
100
AcDbEntity
  8
0
100
AcDbCircle
 10
22.1321562774765
 20
24.00000344827572
 30
0.0
 40
4.899999999999998
  0
LINE
  5
493
330
1F
100
AcDbEntity
  8
0
100
AcDbLine
 10
25.01890627747662
 20
29.00000111702525
 30
0.0
 11
27.90565627747674
 21
24.00000344827572
 31
0.0
  0
LINE
  5
494
330
1F
100
AcDbEntity
  8
0
100
AcDbLine
 10
19.24540627747683
 20
19.00000577952642
 30
0.0
 11
16.35865627747671
 21
24.00000344827572
 31
0.0
  0
LINE
  5
495
330
1F
100
AcDbEntity
  8
0
100
AcDbLine
 10
27.90565627747674
 20
24.00000344827572
 30
0.0
 11
25.01890627747662
 21
19.00000577952642
 31
0.0
  0
LINE
  5
496
330
1F
100
AcDbEntity
  8
0
100
AcDbLine
 10
16.35865627747671
 20
24.00000344827572
 30
0.0
 11
19.24540627747683
 21
29.00000111702525
 31
0.0
  0
LINE
  5
497
330
1F
100
AcDbEntity
  8
2
100
AcDbLine
 10
-24.69995567262595
 20
12.00011999999992
 30
0.0
 11
-24.69995567262595
 21
36.0
 31
0.0
  0
LINE
  5
498
330
1F
100
AcDbEntity
  8
2
100
AcDbLine
 10
-129.4999756726265
 20
52.00000030149744
 30
0.0
 11
-61.79996567262605
 21
52.00000030149744
 31
0.0
  0
LINE
  5
49A
330
1F
100
AcDbEntity
  8
1
100
AcDbLine
 10
-125.2000400000015
 20
206.473965063754
 30
0.0
 11
-125.2000400000015
 21
196.8377037192522
 31
0.0
  0
LINE
  5
49B
330
1F
100
AcDbEntity
  8
1
100
AcDbLine
 10
-120.3819093277507
 20
245.6556511915033
 30
0.0
 11
-130.0181706722524
 21
245.6556511915033
 31
0.0
  0
LINE
  5
49C
330
1F
100
AcDbEntity
  8
1
100
AcDbLine
 10
-125.2000400000015
 20
250.4737818637541
 30
0.0
 11
-125.2000400000015
 21
240.8375205192525
 31
0.0
  0
LINE
  5
49D
330
1F
100
AcDbEntity
  8
1
100
AcDbLine
 10
-61.68195332775031
 20
215.4555779915036
 30
0.0
 11
-71.318214672252
 21
215.4555779915036
 31
0.0
  0
LINE
  5
49E
330
1F
100
AcDbEntity
  8
1
100
AcDbLine
 10
-66.50008400000115
 20
220.2737086637545
 30
0.0
 11
-66.50008400000115
 21
210.6374473192528
 31
0.0
  0
LINE
  5
49F
330
1F
100
AcDbEntity
  8
1
100
AcDbLine
 10
-61.68195332775031
 20
171.4557611915033
 30
0.0
 11
-71.318214672252
 21
171.4557611915033
 31
0.0
  0
LINE
  5
4A0
330
1F
100
AcDbEntity
  8
1
100
AcDbLine
 10
-66.50008400000115
 20
176.2738918637541
 30
0.0
 11
-66.50008400000115
 21
166.6376305192524
 31
0.0
  0
VIEWPORT
  5
71
330
55
100
AcDbEntity
 67
     1
  8
0
100
AcDbViewport
 10
133.3499908447266
 20
101.5999970436096
 30
0.0
 40
381.3957395593835
 41
218.2856291881582
 68
     1
 69
     1
 12
133.3499908447266
 22
101.5999970436096
 13
0.0
 23
0.0
 14
10.0
 24
10.0
 15
10.0
 25
10.0
 16
0.0
 26
0.0
 36
1.0
 17
0.0
 27
0.0
 37
0.0
 42
50.0
 43
0.0
 44
0.0
 45
218.2856291881582
 50
0.0
 51
0.0
 72
   100
 90
    32800
  1

281
     0
 71
     1
 74
     0
110
0.0
120
0.0
130
0.0
111
1.0
121
0.0
131
0.0
112
0.0
122
1.0
132
0.0
 79
     0
146
0.0
170
     0
 61
     5
348
4C7
292
     1
282
     1
141
0.0
142
0.0
 63
   250
421
  3355443
  0
VIEWPORT
  5
73
330
55
100
AcDbEntity
 67
     1
  8
0
100
AcDbViewport
 10
133.3499939441681
 20
101.5999939441681
 30
0.0
 40
213.3599903106689
 41
162.5599903106689
 68
     2
 69
     2
 12
210.0
 22
148.5
 13
0.0
 23
0.0
 14
10.0
 24
10.0
 15
10.0
 25
10.0
 16
0.0
 26
0.0
 36
1.0
 17
0.0
 27
0.0
 37
0.0
 42
50.0
 43
0.0
 44
0.0
 45
324.0677920111345
 50
0.0
 51
0.0
 72
   100
 90
    32864
  1

281
     0
 71
     1
 74
     0
110
0.0
120
0.0
130
0.0
111
1.0
121
0.0
131
0.0
112
0.0
122
1.0
132
0.0
 79
     0
146
0.0
170
     0
 61
     5
348
4C7
292
     1
282
     1
141
0.0
142
0.0
 63
   250
421
  3355443
  0
ENDSEC
  0
SECTION
  2
OBJECTS
  0
DICTIONARY
  5
C
330
0
100
AcDbDictionary
281
     1
  3
ACAD_COLOR
350
4D5
  3
ACAD_GROUP
350
D
  3
ACAD_LAYOUT
350
1A
  3
ACAD_MATERIAL
350
4A8
  3
ACAD_MLEADERSTYLE
350
4EA
  3
ACAD_MLINESTYLE
350
17
  3
ACAD_PLOTSETTINGS
350
19
  3
ACAD_PLOTSTYLENAME
350
E
  3
ACAD_SCALELIST
350
4D8
  3
ACAD_TABLESTYLE
350
4D6
  3
ACAD_VISUALSTYLE
350
4C1
  3
ACDB_RECOMPOSE_DATA
350
4F9
  3
AcDbVariableDictionary
350
5E
  0
DICTIONARY
  5
97
330
2
100
AcDbDictionary
280
     1
281
     1
  3
ACAD_LAYERSTATES
360
98
  0
DICTIONARY
  5
4EE
330
10
100
AcDbDictionary
280
     1
281
     1
  3
ADSK_XREC_LAYER_RECONCILED
360
4EF
  0
DICTIONARY
  5
90
330
8F
100
AcDbDictionary
280
     1
281
     1
  3
ADSK_XREC_LAYER_RECONCILED
360
91
  0
DICTIONARY
  5
93
330
92
100
AcDbDictionary
280
     1
281
     1
  3
ADSK_XREC_LAYER_RECONCILED
360
94
  0
DICTIONARY
  5
4D5
102
{ACAD_REACTORS
330
C
102
}
330
C
100
AcDbDictionary
281
     1
  0
DICTIONARY
  5
D
102
{ACAD_REACTORS
330
C
102
}
330
C
100
AcDbDictionary
281
     1
  0
DICTIONARY
  5
1A
102
{ACAD_REACTORS
330
C
102
}
330
C
100
AcDbDictionary
281
     1
  3
Model
350
22
  3
ﾚｲｱｳﾄ1
350
51
  3
ﾚｲｱｳﾄ2
350
56
  0
DICTIONARY
  5
4A8
102
{ACAD_REACTORS
330
C
102
}
330
C
100
AcDbDictionary
281
     1
  3
ByBlock
350
4B1
  3
ByLayer
350
4A9
  3
Global
350
4B9
  0
DICTIONARY
  5
4EA
102
{ACAD_REACTORS
330
C
102
}
330
C
100
AcDbDictionary
281
     1
  3
Standard
350
4EB
  0
DICTIONARY
  5
17
102
{ACAD_REACTORS
330
C
102
}
330
C
100
AcDbDictionary
281
     1
  3
Standard
350
18
  0
DICTIONARY
  5
19
102
{ACAD_REACTORS
330
C
102
}
330
C
100
AcDbDictionary
281
     1
  0
ACDBDICTIONARYWDFLT
  5
E
102
{ACAD_REACTORS
330
C
102
}
330
C
100
AcDbDictionary
281
     1
  3
Normal
350
F
100
AcDbDictionaryWithDefault
340
F
  0
DICTIONARY
  5
4D8
102
{ACAD_REACTORS
330
C
102
}
330
C
100
AcDbDictionary
281
     1
  3
A0
350
4D9
  3
A1
350
4DA
  3
A2
350
4DB
  3
A3
350
4DC
  3
A4
350
4DD
  3
A5
350
4DE
  3
A6
350
4DF
  3
A7
350
4E0
  3
A8
350
4E1
  3
A9
350
4E2
  3
B0
350
4E3
  3
B1
350
4E4
  3
B2
350
4E5
  3
B3
350
4E6
  3
B4
350
4E7
  3
B5
350
4E8
  3
B6
350
4E9
  0
DICTIONARY
  5
4D6
102
{ACAD_REACTORS
330
C
102
}
330
C
100
AcDbDictionary
281
     1
  3
Standard
350
4D7
  0
DICTIONARY
  5
4C1
102
{ACAD_REACTORS
330
C
102
}
330
C
100
AcDbDictionary
281
     1
  3
2dWireframe
350
4C7
  3
3D Hidden
350
4C9
  3
3dWireframe
350
4C8
  3
Basic
350
4C6
  3
Brighten
350
4CD
  3
ColorChange
350
4D1
  3
Conceptual
350
4CA
  3
Dim
350
4CC
  3
EdgeColorOff
350
4D4
  3
Facepattern
350
4D0
  3
Flat
350
4C2
  3
FlatWithEdges
350
4C3
  3
Gouraud
350
4C4
  3
GouraudWithEdges
350
4C5
  3
JitterOff
350
4D2
  3
Linepattern
350
4CF
  3
OverhangOff
350
4D3
  3
Realistic
350
4CB
  3
Thicken
350
4CE
  0
XRECORD
  5
4F9
102
{ACAD_REACTORS
330
C
102
}
330
C
100
AcDbXrecord
280
     1
 90
        1
330
4D7
  0
DICTIONARY
  5
5E
102
{ACAD_REACTORS
330
C
102
}
330
C
100
AcDbDictionary
281
     1
  3
CANNOSCALE
350
4F3
  3
CMLEADERSTYLE
350
4F1
  3
CTABLESTYLE
350
4F0
  3
DIMASSOC
350
5F
  3
HIDETEXT
350
63
  3
LAYEREVAL
350
4F5
  3
LAYERNOTIFY
350
4F6
  3
LIGHTINGUNITS
350
4F4
  3
MSLTSCALE
350
4F2
  0
DICTIONARY
  5
98
102
{ACAD_REACTORS
330
97
102
}
330
97
100
AcDbDictionary
281
     1
  0
XRECORD
  5
4EF
102
{ACAD_REACTORS
330
4EE
102
}
330
4EE
100
AcDbXrecord
280
     1
290
     1
  0
XRECORD
  5
91
102
{ACAD_REACTORS
330
90
102
}
330
90
100
AcDbXrecord
280
     1
290
     1
  0
XRECORD
  5
94
102
{ACAD_REACTORS
330
93
102
}
330
93
100
AcDbXrecord
280
     1
290
     1
  0
LAYOUT
  5
22
102
{ACAD_REACTORS
330
1A
102
}
330
1A
100
AcDbPlotSettings
  1

  2
none_device
  4
ANSI_A_(8.50_x_11.00_Inches)
  6

 40
6.349999904632568
 41
19.04999923706055
 42
6.350006103515625
 43
19.04998779296875
 44
215.8999938964844
 45
279.3999938964844
 46
0.0
 47
0.0
 48
0.0
 49
0.0
140
0.0
141
0.0
142
1.0
143
78.436453180766
 70
 11952
 72
     0
 73
     1
 74
     0
  7

 75
     0
147
0.0127491741332998
 76
     0
 77
     2
 78
   300
148
0.0
149
0.0
100
AcDbLayout
  1
Model
 70
     1
 71
     0
 10
0.0
 20
0.0
 11
12.0
 21
9.0
 12
0.0
 22
0.0
 32
0.0
 14
0.0
 24
0.0
 34
0.0
 15
0.0
 25
0.0
 35
0.0
146
0.0
 13
0.0
 23
0.0
 33
0.0
 16
1.0
 26
0.0
 36
0.0
 17
0.0
 27
1.0
 37
0.0
 76
     0
330
1F
331
4A6
  0
LAYOUT
  5
51
102
{ACAD_REACTORS
330
1A
102
}
330
1A
100
AcDbPlotSettings
  1

  2
none_device
  4
Letter_(8.50_x_11.00_Inches)
  6

 40
6.349999904632568
 41
6.349999904632568
 42
6.350006103515625
 43
6.350006103515625
 44
215.8999938964844
 45
279.3999938964844
 46
0.0
 47
0.0
 48
0.0
 49
0.0
140
0.0
141
0.0
142
1.0
143
1.0
 70
   688
 72
     1
 73
     1
 74
     5
  7

 75
    16
147
1.0
 76
     0
 77
     2
 78
   300
148
0.0
149
0.0
100
AcDbLayout
  1
ﾚｲｱｳﾄ1
 70
     1
 71
     1
 10
-6.350006103515625
 20
-6.349999904632568
 11
273.0499877929688
 21
209.5499939918518
 12
0.0
 22
0.0
 32
0.0
 14
26.66076962115563
 24
20.31135699206658
 34
-0.0015258207003583
 15
240.039213369355
 25
182.8886381005154
 35
0.0000000349246037
146
0.0
 13
0.0
 23
0.0
 33
0.0
 16
1.0
 26
0.0
 36
0.0
 17
0.0
 27
1.0
 37
0.0
 76
     0
330
50
331
6B
  0
LAYOUT
  5
56
102
{ACAD_REACTORS
330
1A
102
}
330
1A
100
AcDbPlotSettings
  1

  2
none_device
  4
Letter_(8.50_x_11.00_Inches)
  6

 40
6.349999904632568
 41
6.349999904632568
 42
6.350006103515625
 43
6.350006103515625
 44
215.8999938964844
 45
279.3999938964844
 46
0.0
 47
0.0
 48
0.0
 49
0.0
140
0.0
141
0.0
142
1.0
143
1.0
 70
   688
 72
     1
 73
     1
 74
     5
  7

 75
    16
147
1.0
 76
     0
 77
     2
 78
   300
148
0.0
149
0.0
100
AcDbLayout
  1
ﾚｲｱｳﾄ2
 70
     1
 71
     2
 10
-6.350006103515625
 20
-6.349999904632568
 11
273.0499877929688
 21
209.5499939918518
 12
0.0
 22
0.0
 32
0.0
 14
26.66076962115563
 24
20.31135699206658
 34
-0.0015258207003583
 15
240.039213369355
 25
182.8886381005154
 35
0.0000000349246037
146
0.0
 13
0.0
 23
0.0
 33
0.0
 16
1.0
 26
0.0
 36
0.0
 17
0.0
 27
1.0
 37
0.0
 76
     0
330
55
331
71
  0
MATERIAL
  5
4B1
102
{ACAD_XDICTIONARY
360
4B2
102
}
102
{ACAD_REACTORS
330
4A8
102
}
330
4A8
100
AcDbMaterial
  1
ByBlock
 72
     0
 43
0.0008202099737533
 43
0.0
 43
0.0
 43
0.0
 43
0.0
 43
0.0008202099737533
 43
0.0
 43
0.0
 43
0.0
 43
0.0
 43
1.0
 43
0.0
 43
0.0
 43
0.0
 43
0.0
 43
1.0
 77
     0
 47
0.0008202099737533
 47
0.0
 47
0.0
 47
0.0
 47
0.0
 47
0.0008202099737533
 47
0.0
 47
0.0
 47
0.0
 47
0.0
 47
1.0
 47
0.0
 47
0.0
 47
0.0
 47
0.0
 47
1.0
171
     0
 49
0.0008202099737533
 49
0.0
 49
0.0
 49
0.0
 49
0.0
 49
0.0008202099737533
 49
0.0
 49
0.0
 49
0.0
 49
0.0
 49
1.0
 49
0.0
 49
0.0
 49
0.0
 49
0.0
 49
1.0
175
     0
142
0.0008202099737533
142
0.0
142
0.0
142
0.0
142
0.0
142
0.0008202099737533
142
0.0
142
0.0
142
0.0
142
0.0
142
1.0
142
0.0
142
0.0
142
0.0
142
0.0
142
1.0
179
     0
144
0.0008202099737533
144
0.0
144
0.0
144
0.0
144
0.0
144
0.0008202099737533
144
0.0
144
0.0
144
0.0
144
0.0
144
1.0
144
0.0
144
0.0
144
0.0
144
0.0
144
1.0
147
0.0008202099737533
147
0.0
147
0.0
147
0.0
147
0.0
147
0.0008202099737533
147
0.0
147
0.0
147
0.0
147
0.0
147
1.0
147
0.0
147
0.0
147
0.0
147
0.0
147
1.0
  0
MATERIAL
  5
4A9
102
{ACAD_XDICTIONARY
360
4AA
102
}
102
{ACAD_REACTORS
330
4A8
102
}
330
4A8
100
AcDbMaterial
  1
ByLayer
 72
     0
 43
0.0008202099737533
 43
0.0
 43
0.0
 43
0.0
 43
0.0
 43
0.0008202099737533
 43
0.0
 43
0.0
 43
0.0
 43
0.0
 43
1.0
 43
0.0
 43
0.0
 43
0.0
 43
0.0
 43
1.0
 77
     0
 47
0.0008202099737533
 47
0.0
 47
0.0
 47
0.0
 47
0.0
 47
0.0008202099737533
 47
0.0
 47
0.0
 47
0.0
 47
0.0
 47
1.0
 47
0.0
 47
0.0
 47
0.0
 47
0.0
 47
1.0
171
     0
 49
0.0008202099737533
 49
0.0
 49
0.0
 49
0.0
 49
0.0
 49
0.0008202099737533
 49
0.0
 49
0.0
 49
0.0
 49
0.0
 49
1.0
 49
0.0
 49
0.0
 49
0.0
 49
0.0
 49
1.0
175
     0
142
0.0008202099737533
142
0.0
142
0.0
142
0.0
142
0.0
142
0.0008202099737533
142
0.0
142
0.0
142
0.0
142
0.0
142
1.0
142
0.0
142
0.0
142
0.0
142
0.0
142
1.0
179
     0
144
0.0008202099737533
144
0.0
144
0.0
144
0.0
144
0.0
144
0.0008202099737533
144
0.0
144
0.0
144
0.0
144
0.0
144
1.0
144
0.0
144
0.0
144
0.0
144
0.0
144
1.0
147
0.0008202099737533
147
0.0
147
0.0
147
0.0
147
0.0
147
0.0008202099737533
147
0.0
147
0.0
147
0.0
147
0.0
147
1.0
147
0.0
147
0.0
147
0.0
147
0.0
147
1.0
  0
MATERIAL
  5
4B9
102
{ACAD_XDICTIONARY
360
4BA
102
}
102
{ACAD_REACTORS
330
4A8
102
}
330
4A8
100
AcDbMaterial
  1
Global
 72
     0
 43
0.0008202099737533
 43
0.0
 43
0.0
 43
0.0
 43
0.0
 43
0.0008202099737533
 43
0.0
 43
0.0
 43
0.0
 43
0.0
 43
1.0
 43
0.0
 43
0.0
 43
0.0
 43
0.0
 43
1.0
 77
     0
 47
0.0008202099737533
 47
0.0
 47
0.0
 47
0.0
 47
0.0
 47
0.0008202099737533
 47
0.0
 47
0.0
 47
0.0
 47
0.0
 47
1.0
 47
0.0
 47
0.0
 47
0.0
 47
0.0
 47
1.0
171
     0
 49
0.0008202099737533
 49
0.0
 49
0.0
 49
0.0
 49
0.0
 49
0.0008202099737533
 49
0.0
 49
0.0
 49
0.0
 49
0.0
 49
1.0
 49
0.0
 49
0.0
 49
0.0
 49
0.0
 49
1.0
175
     0
142
0.0008202099737533
142
0.0
142
0.0
142
0.0
142
0.0
142
0.0008202099737533
142
0.0
142
0.0
142
0.0
142
0.0
142
1.0
142
0.0
142
0.0
142
0.0
142
0.0
142
1.0
179
     0
144
0.0008202099737533
144
0.0
144
0.0
144
0.0
144
0.0
144
0.0008202099737533
144
0.0
144
0.0
144
0.0
144
0.0
144
1.0
144
0.0
144
0.0
144
0.0
144
0.0
144
1.0
147
0.0008202099737533
147
0.0
147
0.0
147
0.0
147
0.0
147
0.0008202099737533
147
0.0
147
0.0
147
0.0
147
0.0
147
1.0
147
0.0
147
0.0
147
0.0
147
0.0
147
1.0
  0
MLEADERSTYLE
  5
4EB
102
{ACAD_REACTORS
330
4EA
102
}
330
4EA
100
AcDbMLeaderStyle
179
     2
170
     2
171
     1
172
     0
 90
        2
 40
0.0
 41
0.0
173
     1
 91
-1056964608
340
14
 92
       -2
290
     1
 42
2.0
291
     1
 43
0.36
  3
Standard
 44
4.0
300

342
11
174
     1
178
     6
175
     1
176
     0
 93
-1056964608
 45
4.0
292
     0
297
     0
 46
4.0
 94
-1056964608
 47
1.0
 49
1.0
140
1.0
293
     1
141
0.0
294
     1
177
     0
142
1.0
295
     1
296
     0
143
0.125
271
     0
272
     9
273
     9
  0
MLINESTYLE
  5
18
102
{ACAD_REACTORS
330
17
102
}
330
17
100
AcDbMlineStyle
  2
STANDARD
 70
     0
  3

 62
   256
 51
90.0
 52
90.0
 71
     2
 49
0.5
 62
   256
  6
BYLAYER
 49
-0.5
 62
   256
  6
BYLAYER
  0
ACDBPLACEHOLDER
  5
F
102
{ACAD_REACTORS
330
E
102
}
330
E
  0
SCALE
  5
4D9
102
{ACAD_REACTORS
330
4D8
102
}
330
4D8
100
AcDbScale
 70
     0
300
1:1
140
1.0
141
1.0
290
     1
  0
SCALE
  5
4DA
102
{ACAD_REACTORS
330
4D8
102
}
330
4D8
100
AcDbScale
 70
     0
300
1:2
140
1.0
141
2.0
290
     0
  0
SCALE
  5
4DB
102
{ACAD_REACTORS
330
4D8
102
}
330
4D8
100
AcDbScale
 70
     0
300
1:4
140
1.0
141
4.0
290
     0
  0
SCALE
  5
4DC
102
{ACAD_REACTORS
330
4D8
102
}
330
4D8
100
AcDbScale
 70
     0
300
1:5
140
1.0
141
5.0
290
     0
  0
SCALE
  5
4DD
102
{ACAD_REACTORS
330
4D8
102
}
330
4D8
100
AcDbScale
 70
     0
300
1:8
140
1.0
141
8.0
290
     0
  0
SCALE
  5
4DE
102
{ACAD_REACTORS
330
4D8
102
}
330
4D8
100
AcDbScale
 70
     0
300
1:10
140
1.0
141
10.0
290
     0
  0
SCALE
  5
4DF
102
{ACAD_REACTORS
330
4D8
102
}
330
4D8
100
AcDbScale
 70
     0
300
1:16
140
1.0
141
16.0
290
     0
  0
SCALE
  5
4E0
102
{ACAD_REACTORS
330
4D8
102
}
330
4D8
100
AcDbScale
 70
     0
300
1:20
140
1.0
141
20.0
290
     0
  0
SCALE
  5
4E1
102
{ACAD_REACTORS
330
4D8
102
}
330
4D8
100
AcDbScale
 70
     0
300
1:30
140
1.0
141
30.0
290
     0
  0
SCALE
  5
4E2
102
{ACAD_REACTORS
330
4D8
102
}
330
4D8
100
AcDbScale
 70
     0
300
1:40
140
1.0
141
40.0
290
     0
  0
SCALE
  5
4E3
102
{ACAD_REACTORS
330
4D8
102
}
330
4D8
100
AcDbScale
 70
     0
300
1:50
140
1.0
141
50.0
290
     0
  0
SCALE
  5
4E4
102
{ACAD_REACTORS
330
4D8
102
}
330
4D8
100
AcDbScale
 70
     0
300
1:100
140
1.0
141
100.0
290
     0
  0
SCALE
  5
4E5
102
{ACAD_REACTORS
330
4D8
102
}
330
4D8
100
AcDbScale
 70
     0
300
2:1
140
2.0
141
1.0
290
     0
  0
SCALE
  5
4E6
102
{ACAD_REACTORS
330
4D8
102
}
330
4D8
100
AcDbScale
 70
     0
300
4:1
140
4.0
141
1.0
290
     0
  0
SCALE
  5
4E7
102
{ACAD_REACTORS
330
4D8
102
}
330
4D8
100
AcDbScale
 70
     0
300
8:1
140
8.0
141
1.0
290
     0
  0
SCALE
  5
4E8
102
{ACAD_REACTORS
330
4D8
102
}
330
4D8
100
AcDbScale
 70
     0
300
10:1
140
10.0
141
1.0
290
     0
  0
SCALE
  5
4E9
102
{ACAD_REACTORS
330
4D8
102
}
330
4D8
100
AcDbScale
 70
     0
300
100:1
140
100.0
141
1.0
290
     0
  0
TABLESTYLE
  5
4D7
102
{ACAD_XDICTIONARY
360
4F7
102
}
102
{ACAD_REACTORS
330
4D6
102
}
330
4D6
100
AcDbTableStyle
280
     0
  3
Standard
 70
     0
 71
     0
 40
1.5
 41
1.5
280
     0
281
     0
  7
Standard
140
4.5
170
     2
 62
     0
 63
     7
283
     0
 90
      512
 91
        0
  1

274
    -2
284
     1
 64
     0
275
    -2
285
     1
 65
     0
276
    -2
286
     1
 66
     0
277
    -2
287
     1
 67
     0
278
    -2
288
     1
 68
     0
279
    -2
289
     1
 69
     0
  7
Standard
140
6.0
170
     5
 62
     0
 63
     7
283
     0
 90
      512
 91
        0
  1

274
    -2
284
     1
 64
     0
275
    -2
285
     1
 65
     0
276
    -2
286
     1
 66
     0
277
    -2
287
     1
 67
     0
278
    -2
288
     1
 68
     0
279
    -2
289
     1
 69
     0
  7
Standard
140
4.5
170
     5
 62
     0
 63
     7
283
     0
 90
      512
 91
        0
  1

274
    -2
284
     1
 64
     0
275
    -2
285
     1
 65
     0
276
    -2
286
     1
 66
     0
277
    -2
287
     1
 67
     0
278
    -2
288
     1
 68
     0
279
    -2
289
     1
 69
     0
  0
VISUALSTYLE
  5
4C7
102
{ACAD_REACTORS
330
4C1
102
}
330
4C1
100
AcDbVisualStyle
  2
2dWireframe
 70
     4
177
     2
291
     0
 71
     0
176
     1
 72
     2
176
     1
 73
     0
176
     1
 90
        0
176
     1
 40
0.6
176
     1
 41
30.0
176
     1
 63
     7
421
 16777215
176
     1
 74
     1
176
     1
 91
        4
176
     1
 64
     7
176
     1
 65
   257
176
     1
 75
     1
176
     1
175
     1
176
     1
 42
1.0
176
     1
 92
        0
176
     1
 66
   257
176
     1
 43
1.0
176
     1
 76
     1
176
     1
 77
     6
176
     1
 78
     2
176
     1
 67
     7
176
     1
 79
     5
176
     1
170
     0
176
     1
171
     0
176
     1
290
     0
176
     1
 93
        1
176
     1
 44
0.0
176
     1
173
     0
176
     1
  0
VISUALSTYLE
  5
4C9
102
{ACAD_REACTORS
330
4C1
102
}
330
4C1
100
AcDbVisualStyle
  2
3D Hidden
 70
     6
177
     2
291
     0
 71
     1
176
     1
 72
     2
176
     1
 73
     2
176
     1
 90
        0
176
     1
 40
0.6
176
     1
 41
30.0
176
     1
 63
     7
421
 16777215
176
     1
 74
     2
176
     1
 91
        2
176
     1
 64
     7
176
     1
 65
   257
176
     1
 75
     2
176
     1
175
     1
176
     1
 42
179.0
176
     1
 92
        0
176
     1
 66
   257
176
     1
 43
1.0
176
     1
 76
     1
176
     1
 77
     6
176
     1
 78
     2
176
     1
 67
     7
176
     1
 79
     3
176
     1
170
     0
176
     1
171
     0
176
     1
290
     0
176
     1
 93
        1
176
     1
 44
0.0
176
     1
173
     0
176
     1
  0
VISUALSTYLE
  5
4C8
102
{ACAD_REACTORS
330
4C1
102
}
330
4C1
100
AcDbVisualStyle
  2
3dWireframe
 70
     5
177
     2
291
     0
 71
     0
176
     1
 72
     2
176
     1
 73
     0
176
     1
 90
        0
176
     1
 40
0.6
176
     1
 41
30.0
176
     1
 63
     7
421
 16777215
176
     1
 74
     1
176
     1
 91
        4
176
     1
 64
     7
176
     1
 65
   257
176
     1
 75
     1
176
     1
175
     1
176
     1
 42
1.0
176
     1
 92
        0
176
     1
 66
   257
176
     1
 43
1.0
176
     1
 76
     1
176
     1
 77
     6
176
     1
 78
     2
176
     1
 67
     7
176
     1
 79
     5
176
     1
170
     0
176
     1
171
     0
176
     1
290
     0
176
     1
 93
        1
176
     1
 44
0.0
176
     1
173
     0
176
     1
  0
VISUALSTYLE
  5
4C6
102
{ACAD_REACTORS
330
4C1
102
}
330
4C1
100
AcDbVisualStyle
  2
Basic
 70
     7
177
     2
291
     1
 71
     1
176
     1
 72
     0
176
     1
 73
     1
176
     1
 90
        0
176
     1
 40
0.6
176
     1
 41
30.0
176
     1
 63
     7
421
 16777215
176
     1
 74
     0
176
     1
 91
        4
176
     1
 64
     7
176
     1
 65
   257
176
     1
 75
     1
176
     1
175
     1
176
     1
 42
1.0
176
     1
 92
        8
176
     1
 66
     7
176
     1
 43
1.0
176
     1
 76
     1
176
     1
 77
     6
176
     1
 78
     2
176
     1
 67
     7
176
     1
 79
     5
176
     1
170
     0
176
     1
171
     0
176
     1
290
     0
176
     1
 93
        1
176
     1
 44
0.0
176
     1
173
     0
176
     1
  0
VISUALSTYLE
  5
4CD
102
{ACAD_REACTORS
330
4C1
102
}
330
4C1
100
AcDbVisualStyle
  2
Brighten
 70
    12
177
     2
291
     1
 71
     2
176
     1
 72
     2
176
     1
 73
     0
176
     1
 90
        0
176
     1
 40
0.6
176
     1
 41
30.0
176
     1
 63
     7
421
 16777215
176
     1
 74
     1
176
     1
 91
        4
176
     1
 64
     7
176
     1
 65
   257
176
     1
 75
     1
176
     1
175
     1
176
     1
 42
1.0
176
     1
 92
        8
176
     1
 66
     7
176
     1
 43
1.0
176
     1
 76
     1
176
     1
 77
     6
176
     1
 78
     2
176
     1
 67
     7
176
     1
 79
     5
176
     1
170
     0
176
     1
171
     0
176
     1
290
     0
176
     1
 93
        1
176
     1
 44
50.0
176
     1
173
     0
176
     1
  0
VISUALSTYLE
  5
4D1
102
{ACAD_REACTORS
330
4C1
102
}
330
4C1
100
AcDbVisualStyle
  2
ColorChange
 70
    16
177
     2
291
     1
 71
     2
176
     1
 72
     2
176
     1
 73
     3
176
     1
 90
        0
176
     1
 40
0.6
176
     1
 41
30.0
176
     1
 63
     8
421
  8421504
176
     1
 74
     1
176
     1
 91
        4
176
     1
 64
     7
176
     1
 65
   257
176
     1
 75
     1
176
     1
175
     1
176
     1
 42
1.0
176
     1
 92
        8
176
     1
 66
     8
424
  8421504
176
     1
 43
1.0
176
     1
 76
     1
176
     1
 77
     6
176
     1
 78
     2
176
     1
 67
     7
176
     1
 79
     5
176
     1
170
     0
176
     1
171
     0
176
     1
290
     0
176
     1
 93
        1
176
     1
 44
0.0
176
     1
173
     0
176
     1
  0
VISUALSTYLE
  5
4CA
102
{ACAD_REACTORS
330
4C1
102
}
330
4C1
100
AcDbVisualStyle
  2
Conceptual
 70
     9
177
     2
291
     0
 71
     3
176
     1
 72
     2
176
     1
 73
     0
176
     1
 90
        0
176
     1
 40
0.6
176
     1
 41
30.0
176
     1
 63
     7
421
 16777215
176
     1
 74
     2
176
     1
 91
        2
176
     1
 64
     7
176
     1
 65
   257
176
     1
 75
     1
176
     1
175
     1
176
     1
 42
179.0
176
     1
 92
        8
176
     1
 66
     7
176
     1
 43
1.0
176
     1
 76
     1
176
     1
 77
     6
176
     1
 78
     2
176
     1
 67
     7
176
     1
 79
     3
176
     1
170
     0
176
     1
171
     0
176
     1
290
     0
176
     1
 93
        1
176
     1
 44
0.0
176
     1
173
     0
176
     1
  0
VISUALSTYLE
  5
4CC
102
{ACAD_REACTORS
330
4C1
102
}
330
4C1
100
AcDbVisualStyle
  2
Dim
 70
    11
177
     2
291
     1
 71
     2
176
     1
 72
     2
176
     1
 73
     0
176
     1
 90
        0
176
     1
 40
0.6
176
     1
 41
30.0
176
     1
 63
     7
421
 16777215
176
     1
 74
     1
176
     1
 91
        4
176
     1
 64
     7
176
     1
 65
   257
176
     1
 75
     1
176
     1
175
     1
176
     1
 42
1.0
176
     1
 92
        8
176
     1
 66
     7
176
     1
 43
1.0
176
     1
 76
     1
176
     1
 77
     6
176
     1
 78
     2
176
     1
 67
     7
176
     1
 79
     5
176
     1
170
     0
176
     1
171
     0
176
     1
290
     0
176
     1
 93
        1
176
     1
 44
-50.0
176
     1
173
     0
176
     1
  0
VISUALSTYLE
  5
4D4
102
{ACAD_REACTORS
330
4C1
102
}
330
4C1
100
AcDbVisualStyle
  2
EdgeColorOff
 70
    22
177
     2
291
     1
 71
     2
176
     0
 72
     2
176
     0
 73
     0
176
     0
 90
        0
176
     0
 40
0.6
176
     0
 41
30.0
176
     0
 63
     7
421
 16777215
176
     0
 74
     1
176
     0
 91
        4
176
     0
 64
     7
176
     0
 65
   257
176
     0
 75
     1
176
     0
175
     1
176
     0
 42
1.0
176
     0
 92
        8
176
     2
 66
     7
176
     0
 43
1.0
176
     0
 76
     1
176
     0
 77
     6
176
     0
 78
     2
176
     0
 67
     7
176
     0
 79
     5
176
     0
170
     0
176
     0
171
     0
176
     0
290
     0
176
     0
 93
        1
176
     0
 44
0.0
176
     0
173
     0
176
     0
  0
VISUALSTYLE
  5
4D0
102
{ACAD_REACTORS
330
4C1
102
}
330
4C1
100
AcDbVisualStyle
  2
Facepattern
 70
    15
177
     2
291
     1
 71
     2
176
     1
 72
     2
176
     1
 73
     0
176
     1
 90
        0
176
     1
 40
0.6
176
     1
 41
30.0
176
     1
 63
     7
421
 16777215
176
     1
 74
     1
176
     1
 91
        4
176
     1
 64
     7
176
     1
 65
   257
176
     1
 75
     1
176
     1
175
     1
176
     1
 42
1.0
176
     1
 92
        8
176
     1
 66
     7
176
     1
 43
1.0
176
     1
 76
     1
176
     1
 77
     6
176
     1
 78
     2
176
     1
 67
     7
176
     1
 79
     5
176
     1
170
     0
176
     1
171
     0
176
     1
290
     0
176
     1
 93
        1
176
     1
 44
0.0
176
     1
173
     0
176
     1
  0
VISUALSTYLE
  5
4C2
102
{ACAD_REACTORS
330
4C1
102
}
330
4C1
100
AcDbVisualStyle
  2
Flat
 70
     0
177
     2
291
     1
 71
     2
176
     1
 72
     1
176
     1
 73
     1
176
     1
 90
        2
176
     1
 40
0.6
176
     1
 41
30.0
176
     1
 63
     7
421
 16777215
176
     1
 74
     0
176
     1
 91
        4
176
     1
 64
     7
176
     1
 65
   257
176
     1
 75
     1
176
     1
175
     1
176
     1
 42
1.0
176
     1
 92
        8
176
     1
 66
     7
176
     1
 43
1.0
176
     1
 76
     1
176
     1
 77
     6
176
     1
 78
     2
176
     1
 67
     7
176
     1
 79
     5
176
     1
170
     0
176
     1
171
     0
176
     1
290
     0
176
     1
 93
       13
176
     1
 44
0.0
176
     1
173
     0
176
     1
  0
VISUALSTYLE
  5
4C3
102
{ACAD_REACTORS
330
4C1
102
}
330
4C1
100
AcDbVisualStyle
  2
FlatWithEdges
 70
     1
177
     2
291
     1
 71
     2
176
     1
 72
     1
176
     1
 73
     1
176
     1
 90
        2
176
     1
 40
0.6
176
     1
 41
30.0
176
     1
 63
     7
421
 16777215
176
     1
 74
     1
176
     1
 91
        4
176
     1
 64
     7
176
     1
 65
   257
176
     1
 75
     1
176
     1
175
     1
176
     1
 42
1.0
176
     1
 92
        0
176
     1
 66
   257
176
     1
 43
1.0
176
     1
 76
     1
176
     1
 77
     6
176
     1
 78
     2
176
     1
 67
     7
176
     1
 79
     5
176
     1
170
     0
176
     1
171
     0
176
     1
290
     0
176
     1
 93
       13
176
     1
 44
0.0
176
     1
173
     0
176
     1
  0
VISUALSTYLE
  5
4C4
102
{ACAD_REACTORS
330
4C1
102
}
330
4C1
100
AcDbVisualStyle
  2
Gouraud
 70
     2
177
     2
291
     1
 71
     2
176
     1
 72
     2
176
     1
 73
     1
176
     1
 90
        2
176
     1
 40
0.6
176
     1
 41
30.0
176
     1
 63
     7
421
 16777215
176
     1
 74
     0
176
     1
 91
        4
176
     1
 64
     7
176
     1
 65
   257
176
     1
 75
     1
176
     1
175
     1
176
     1
 42
1.0
176
     1
 92
        0
176
     1
 66
     7
176
     1
 43
1.0
176
     1
 76
     1
176
     1
 77
     6
176
     1
 78
     2
176
     1
 67
     7
176
     1
 79
     5
176
     1
170
     0
176
     1
171
     0
176
     1
290
     0
176
     1
 93
       13
176
     1
 44
0.0
176
     1
173
     0
176
     1
  0
VISUALSTYLE
  5
4C5
102
{ACAD_REACTORS
330
4C1
102
}
330
4C1
100
AcDbVisualStyle
  2
GouraudWithEdges
 70
     3
177
     2
291
     1
 71
     2
176
     1
 72
     2
176
     1
 73
     1
176
     1
 90
        2
176
     1
 40
0.6
176
     1
 41
30.0
176
     1
 63
     7
421
 16777215
176
     1
 74
     1
176
     1
 91
        4
176
     1
 64
     7
176
     1
 65
   257
176
     1
 75
     1
176
     1
175
     1
176
     1
 42
1.0
176
     1
 92
        0
176
     1
 66
   257
176
     1
 43
1.0
176
     1
 76
     1
176
     1
 77
     6
176
     1
 78
     2
176
     1
 67
     7
176
     1
 79
     5
176
     1
170
     0
176
     1
171
     0
176
     1
290
     0
176
     1
 93
       13
176
     1
 44
0.0
176
     1
173
     0
176
     1
  0
VISUALSTYLE
  5
4D2
102
{ACAD_REACTORS
330
4C1
102
}
330
4C1
100
AcDbVisualStyle
  2
JitterOff
 70
    20
177
     2
291
     1
 71
     2
176
     0
 72
     2
176
     0
 73
     0
176
     0
 90
        0
176
     0
 40
0.6
176
     0
 41
30.0
176
     0
 63
     7
421
 16777215
176
     0
 74
     1
176
     0
 91
        4
176
     0
 64
     7
176
     0
 65
   257
176
     0
 75
     1
176
     0
175
     1
176
     0
 42
1.0
176
     0
 92
       10
176
     2
 66
     7
176
     0
 43
1.0
176
     0
 76
     1
176
     0
 77
     6
176
     0
 78
     2
176
     0
 67
     7
176
     0
 79
     5
176
     0
170
     0
176
     0
171
     0
176
     0
290
     0
176
     0
 93
        1
176
     0
 44
0.0
176
     0
173
     0
176
     0
  0
VISUALSTYLE
  5
4CF
102
{ACAD_REACTORS
330
4C1
102
}
330
4C1
100
AcDbVisualStyle
  2
Linepattern
 70
    14
177
     2
291
     1
 71
     2
176
     1
 72
     2
176
     1
 73
     0
176
     1
 90
        0
176
     1
 40
0.6
176
     1
 41
30.0
176
     1
 63
     7
421
 16777215
176
     1
 74
     1
176
     1
 91
        4
176
     1
 64
     7
176
     1
 65
   257
176
     1
 75
     7
176
     1
175
     7
176
     1
 42
1.0
176
     1
 92
        8
176
     1
 66
     7
176
     1
 43
1.0
176
     1
 76
     1
176
     1
 77
     6
176
     1
 78
     2
176
     1
 67
     7
176
     1
 79
     5
176
     1
170
     0
176
     1
171
     0
176
     1
290
     0
176
     1
 93
        1
176
     1
 44
0.0
176
     1
173
     0
176
     1
  0
VISUALSTYLE
  5
4D3
102
{ACAD_REACTORS
330
4C1
102
}
330
4C1
100
AcDbVisualStyle
  2
OverhangOff
 70
    21
177
     2
291
     1
 71
     2
176
     0
 72
     2
176
     0
 73
     0
176
     0
 90
        0
176
     0
 40
0.6
176
     0
 41
30.0
176
     0
 63
     7
421
 16777215
176
     0
 74
     1
176
     0
 91
        4
176
     0
 64
     7
176
     0
 65
   257
176
     0
 75
     1
176
     0
175
     1
176
     0
 42
1.0
176
     0
 92
        9
176
     2
 66
     7
176
     0
 43
1.0
176
     0
 76
     1
176
     0
 77
     6
176
     0
 78
     2
176
     0
 67
     7
176
     0
 79
     5
176
     0
170
     0
176
     0
171
     0
176
     0
290
     0
176
     0
 93
        1
176
     0
 44
0.0
176
     0
173
     0
176
     0
  0
VISUALSTYLE
  5
4CB
102
{ACAD_REACTORS
330
4C1
102
}
330
4C1
100
AcDbVisualStyle
  2
Realistic
 70
     8
177
     2
291
     0
 71
     2
176
     1
 72
     2
176
     1
 73
     0
176
     1
 90
        0
176
     1
 40
0.6
176
     1
 41
30.0
176
     1
 63
     7
421
 16777215
176
     1
 74
     1
176
     1
 91
        0
176
     1
 64
     7
176
     1
 65
   257
176
     1
 75
     1
176
     1
175
     1
176
     1
 42
1.0
176
     1
 92
        8
176
     1
 66
     8
424
  7895160
176
     1
 43
1.0
176
     1
 76
     1
176
     1
 77
     6
176
     1
 78
     2
176
     1
 67
     7
176
     1
 79
     5
176
     1
170
     0
176
     1
171
     0
176
     1
290
     0
176
     1
 93
       13
176
     1
 44
0.0
176
     1
173
     0
176
     1
  0
VISUALSTYLE
  5
4CE
102
{ACAD_REACTORS
330
4C1
102
}
330
4C1
100
AcDbVisualStyle
  2
Thicken
 70
    13
177
     2
291
     1
 71
     2
176
     1
 72
     2
176
     1
 73
     0
176
     1
 90
        0
176
     1
 40
0.6
176
     1
 41
30.0
176
     1
 63
     7
421
 16777215
176
     1
 74
     1
176
     1
 91
        4
176
     1
 64
     7
176
     1
 65
   257
176
     1
 75
     1
176
     1
175
     1
176
     1
 42
1.0
176
     1
 92
       12
176
     1
 66
     7
176
     1
 43
1.0
176
     1
 76
     1
176
     1
 77
     6
176
     1
 78
     2
176
     1
 67
     7
176
     1
 79
     5
176
     1
170
     0
176
     1
171
     0
176
     1
290
     0
176
     1
 93
        1
176
     1
 44
0.0
176
     1
173
     0
176
     1
  0
DICTIONARYVAR
  5
4F3
102
{ACAD_REACTORS
330
5E
102
}
330
5E
100
DictionaryVariables
280
     0
  1
1:1
  0
DICTIONARYVAR
  5
4F1
102
{ACAD_REACTORS
330
5E
102
}
330
5E
100
DictionaryVariables
280
     0
  1
STANDARD
  0
DICTIONARYVAR
  5
4F0
102
{ACAD_REACTORS
330
5E
102
}
330
5E
100
DictionaryVariables
280
     0
  1
STANDARD
  0
DICTIONARYVAR
  5
5F
102
{ACAD_REACTORS
330
5E
102
}
330
5E
100
DictionaryVariables
280
     0
  1
2
  0
DICTIONARYVAR
  5
63
102
{ACAD_REACTORS
330
5E
102
}
330
5E
100
DictionaryVariables
280
     0
  1
1
  0
DICTIONARYVAR
  5
4F5
102
{ACAD_REACTORS
330
5E
102
}
330
5E
100
DictionaryVariables
280
     0
  1
1
  0
DICTIONARYVAR
  5
4F6
102
{ACAD_REACTORS
330
5E
102
}
330
5E
100
DictionaryVariables
280
     0
  1
15
  0
DICTIONARYVAR
  5
4F4
102
{ACAD_REACTORS
330
5E
102
}
330
5E
100
DictionaryVariables
280
     0
  1
0
  0
DICTIONARYVAR
  5
4F2
102
{ACAD_REACTORS
330
5E
102
}
330
5E
100
DictionaryVariables
280
     0
  1
0
  0
DICTIONARY
  5
4B2
330
4B1
100
AcDbDictionary
280
     1
281
     1
  3
BUMPTILE
360
4B4
  3
DIFFUSETILE
360
4B3
  3
OPACITYTILE
360
4B7
  3
REFLECTIONTILE
360
4B6
  3
REFRACTIONTILE
360
4B8
  3
SPECULARTILE
360
4B5
  0
DICTIONARY
  5
4AA
330
4A9
100
AcDbDictionary
280
     1
281
     1
  3
BUMPTILE
360
4AC
  3
DIFFUSETILE
360
4AB
  3
OPACITYTILE
360
4AF
  3
REFLECTIONTILE
360
4AE
  3
REFRACTIONTILE
360
4B0
  3
SPECULARTILE
360
4AD
  0
DICTIONARY
  5
4BA
330
4B9
100
AcDbDictionary
280
     1
281
     1
  3
BUMPTILE
360
4BC
  3
DIFFUSETILE
360
4BB
  3
OPACITYTILE
360
4BF
  3
REFLECTIONTILE
360
4BE
  3
REFRACTIONTILE
360
4C0
  3
SPECULARTILE
360
4BD
  0
DICTIONARY
  5
4F7
330
4D7
100
AcDbDictionary
280
     1
281
     1
  3
ACAD_ROUNDTRIP_2008_TABLESTYLE_CELLSTYLEMAP
360
4F8
  0
XRECORD
  5
4B4
102
{ACAD_REACTORS
330
4B2
102
}
330
4B2
100
AcDbXrecord
280
     1
270
     1
271
     1
  0
XRECORD
  5
4B3
102
{ACAD_REACTORS
330
4B2
102
}
330
4B2
100
AcDbXrecord
280
     1
270
     1
271
     1
  0
XRECORD
  5
4B7
102
{ACAD_REACTORS
330
4B2
102
}
330
4B2
100
AcDbXrecord
280
     1
270
     1
271
     1
  0
XRECORD
  5
4B6
102
{ACAD_REACTORS
330
4B2
102
}
330
4B2
100
AcDbXrecord
280
     1
270
     1
271
     1
  0
XRECORD
  5
4B8
102
{ACAD_REACTORS
330
4B2
102
}
330
4B2
100
AcDbXrecord
280
     1
270
     1
271
     1
  0
XRECORD
  5
4B5
102
{ACAD_REACTORS
330
4B2
102
}
330
4B2
100
AcDbXrecord
280
     1
270
     1
271
     1
  0
XRECORD
  5
4AC
102
{ACAD_REACTORS
330
4AA
102
}
330
4AA
100
AcDbXrecord
280
     1
270
     1
271
     1
  0
XRECORD
  5
4AB
102
{ACAD_REACTORS
330
4AA
102
}
330
4AA
100
AcDbXrecord
280
     1
270
     1
271
     1
  0
XRECORD
  5
4AF
102
{ACAD_REACTORS
330
4AA
102
}
330
4AA
100
AcDbXrecord
280
     1
270
     1
271
     1
  0
XRECORD
  5
4AE
102
{ACAD_REACTORS
330
4AA
102
}
330
4AA
100
AcDbXrecord
280
     1
270
     1
271
     1
  0
XRECORD
  5
4B0
102
{ACAD_REACTORS
330
4AA
102
}
330
4AA
100
AcDbXrecord
280
     1
270
     1
271
     1
  0
XRECORD
  5
4AD
102
{ACAD_REACTORS
330
4AA
102
}
330
4AA
100
AcDbXrecord
280
     1
270
     1
271
     1
  0
XRECORD
  5
4BC
102
{ACAD_REACTORS
330
4BA
102
}
330
4BA
100
AcDbXrecord
280
     1
270
     1
271
     1
  0
XRECORD
  5
4BB
102
{ACAD_REACTORS
330
4BA
102
}
330
4BA
100
AcDbXrecord
280
     1
270
     1
271
     1
  0
XRECORD
  5
4BF
102
{ACAD_REACTORS
330
4BA
102
}
330
4BA
100
AcDbXrecord
280
     1
270
     1
271
     1
  0
XRECORD
  5
4BE
102
{ACAD_REACTORS
330
4BA
102
}
330
4BA
100
AcDbXrecord
280
     1
270
     1
271
     1
  0
XRECORD
  5
4C0
102
{ACAD_REACTORS
330
4BA
102
}
330
4BA
100
AcDbXrecord
280
     1
270
     1
271
     1
  0
XRECORD
  5
4BD
102
{ACAD_REACTORS
330
4BA
102
}
330
4BA
100
AcDbXrecord
280
     1
270
     1
271
     1
  0
CELLSTYLEMAP
  5
4F8
102
{ACAD_REACTORS
330
4F7
102
}
330
4F7
100
AcDbCellStyleMap
 90
        3
300
CELLSTYLE
  1
TABLEFORMAT_BEGIN
 90
        5
170
     1
 91
        0
 92
    32768
 62
   257
 93
        1
300
CONTENTFORMAT
  1
CONTENTFORMAT_BEGIN
 90
        0
 91
        0
 92
      512
 93
        0
300

 40
0.0
140
1.0
 94
        5
 62
     0
340
11
144
6.0
309
CONTENTFORMAT_END
171
     1
301
MARGIN
  1
CELLMARGIN_BEGIN
 40
1.5
 40
1.5
 40
1.5
 40
1.5
 40
4.5
 40
4.5
309
CELLMARGIN_END
 94
        6
 95
        1
302
GRIDFORMAT
  1
GRIDFORMAT_BEGIN
 90
        0
 91
        1
 62
     0
 92
       -2
340
0
 93
        0
 40
1.125
309
GRIDFORMAT_END
 95
        2
302
GRIDFORMAT
  1
GRIDFORMAT_BEGIN
 90
        0
 91
        1
 62
     0
 92
       -2
340
0
 93
        0
 40
1.125
309
GRIDFORMAT_END
 95
        4
302
GRIDFORMAT
  1
GRIDFORMAT_BEGIN
 90
        0
 91
        1
 62
     0
 92
       -2
340
0
 93
        0
 40
1.125
309
GRIDFORMAT_END
 95
        8
302
GRIDFORMAT
  1
GRIDFORMAT_BEGIN
 90
        0
 91
        1
 62
     0
 92
       -2
340
0
 93
        0
 40
1.125
309
GRIDFORMAT_END
 95
       16
302
GRIDFORMAT
  1
GRIDFORMAT_BEGIN
 90
        0
 91
        1
 62
     0
 92
       -2
340
0
 93
        0
 40
1.125
309
GRIDFORMAT_END
 95
       32
302
GRIDFORMAT
  1
GRIDFORMAT_BEGIN
 90
        0
 91
        1
 62
     0
 92
       -2
340
0
 93
        0
 40
1.125
309
GRIDFORMAT_END
309
TABLEFORMAT_END
  1
CELLSTYLE_BEGIN
 90
        1
 91
        1
300
_TITLE
309
CELLSTYLE_END
300
CELLSTYLE
  1
TABLEFORMAT_BEGIN
 90
        5
170
     1
 91
        0
 92
        0
 62
   257
 93
        1
300
CONTENTFORMAT
  1
CONTENTFORMAT_BEGIN
 90
        0
 91
        0
 92
      512
 93
        0
300

 40
0.0
140
1.0
 94
        5
 62
     0
340
11
144
4.5
309
CONTENTFORMAT_END
171
     1
301
MARGIN
  1
CELLMARGIN_BEGIN
 40
1.5
 40
1.5
 40
1.5
 40
1.5
 40
4.5
 40
4.5
309
CELLMARGIN_END
 94
        6
 95
        1
302
GRIDFORMAT
  1
GRIDFORMAT_BEGIN
 90
        0
 91
        1
 62
     0
 92
       -2
340
0
 93
        0
 40
1.125
309
GRIDFORMAT_END
 95
        2
302
GRIDFORMAT
  1
GRIDFORMAT_BEGIN
 90
        0
 91
        1
 62
     0
 92
       -2
340
0
 93
        0
 40
1.125
309
GRIDFORMAT_END
 95
        4
302
GRIDFORMAT
  1
GRIDFORMAT_BEGIN
 90
        0
 91
        1
 62
     0
 92
       -2
340
0
 93
        0
 40
1.125
309
GRIDFORMAT_END
 95
        8
302
GRIDFORMAT
  1
GRIDFORMAT_BEGIN
 90
        0
 91
        1
 62
     0
 92
       -2
340
0
 93
        0
 40
1.125
309
GRIDFORMAT_END
 95
       16
302
GRIDFORMAT
  1
GRIDFORMAT_BEGIN
 90
        0
 91
        1
 62
     0
 92
       -2
340
0
 93
        0
 40
1.125
309
GRIDFORMAT_END
 95
       32
302
GRIDFORMAT
  1
GRIDFORMAT_BEGIN
 90
        0
 91
        1
 62
     0
 92
       -2
340
0
 93
        0
 40
1.125
309
GRIDFORMAT_END
309
TABLEFORMAT_END
  1
CELLSTYLE_BEGIN
 90
        2
 91
        1
300
_HEADER
309
CELLSTYLE_END
300
CELLSTYLE
  1
TABLEFORMAT_BEGIN
 90
        5
170
     1
 91
        0
 92
        0
 62
   257
 93
        1
300
CONTENTFORMAT
  1
CONTENTFORMAT_BEGIN
 90
        0
 91
        0
 92
      512
 93
        0
300

 40
0.0
140
1.0
 94
        2
 62
     0
340
11
144
4.5
309
CONTENTFORMAT_END
171
     1
301
MARGIN
  1
CELLMARGIN_BEGIN
 40
1.5
 40
1.5
 40
1.5
 40
1.5
 40
4.5
 40
4.5
309
CELLMARGIN_END
 94
        6
 95
        1
302
GRIDFORMAT
  1
GRIDFORMAT_BEGIN
 90
        0
 91
        1
 62
     0
 92
       -2
340
0
 93
        0
 40
1.125
309
GRIDFORMAT_END
 95
        2
302
GRIDFORMAT
  1
GRIDFORMAT_BEGIN
 90
        0
 91
        1
 62
     0
 92
       -2
340
0
 93
        0
 40
1.125
309
GRIDFORMAT_END
 95
        4
302
GRIDFORMAT
  1
GRIDFORMAT_BEGIN
 90
        0
 91
        1
 62
     0
 92
       -2
340
0
 93
        0
 40
1.125
309
GRIDFORMAT_END
 95
        8
302
GRIDFORMAT
  1
GRIDFORMAT_BEGIN
 90
        0
 91
        1
 62
     0
 92
       -2
340
0
 93
        0
 40
1.125
309
GRIDFORMAT_END
 95
       16
302
GRIDFORMAT
  1
GRIDFORMAT_BEGIN
 90
        0
 91
        1
 62
     0
 92
       -2
340
0
 93
        0
 40
1.125
309
GRIDFORMAT_END
 95
       32
302
GRIDFORMAT
  1
GRIDFORMAT_BEGIN
 90
        0
 91
        1
 62
     0
 92
       -2
340
0
 93
        0
 40
1.125
309
GRIDFORMAT_END
309
TABLEFORMAT_END
  1
CELLSTYLE_BEGIN
 90
        3
 91
        2
300
_DATA
309
CELLSTYLE_END
  0
ENDSEC
  0
EOF
