  0
SECTION
  2
HEADER
  9
$ACADVER
  1
AC1024
  9
$ACADMAINTVER
 70
     6
  9
$DWGCODEPAGE
  3
ANSI_932
  9
$LASTSAVEDBY
  1
kanatani
  9
$INSBASE
 10
0.0
 20
0.0
 30
0.0
  9
$EXTMIN
 10
-49.0
 20
-65.11552741013156
 30
0.0
  9
$EXTMAX
 10
65.5
 20
265.7908474445516
 30
0.0
  9
$LIMMIN
 10
0.0
 20
0.0
  9
$LIMMAX
 10
420.0
 20
297.0
  9
$ORTHOMODE
 70
     0
  9
$REGENMODE
 70
     1
  9
$FILLMODE
 70
     1
  9
$QTEXTMODE
 70
     0
  9
$MIRRTEXT
 70
     1
  9
$LTSCALE
 40
0.2
  9
$ATTMODE
 70
     1
  9
$TEXTSIZE
 40
2.5
  9
$TRACEWID
 40
1.0
  9
$TEXTSTYLE
  7
Standard
  9
$CLAYER
  8
0
  9
$CELTYPE
  6
ByLayer
  9
$CECOLOR
 62
   256
  9
$CELTSCALE
 40
1.0
  9
$DISPSILH
 70
     0
  9
$DIMSCALE
 40
1.0
  9
$DIMASZ
 40
2.5
  9
$DIMEXO
 40
0.625
  9
$DIMDLI
 40
3.75
  9
$DIMRND
 40
0.0
  9
$DIMDLE
 40
0.0
  9
$DIMEXE
 40
1.25
  9
$DIMTP
 40
0.0
  9
$DIMTM
 40
0.0
  9
$DIMTXT
 40
2.5
  9
$DIMCEN
 40
2.5
  9
$DIMTSZ
 40
0.0
  9
$DIMTOL
 70
     0
  9
$DIMLIM
 70
     0
  9
$DIMTIH
 70
     0
  9
$DIMTOH
 70
     0
  9
$DIMSE1
 70
     0
  9
$DIMSE2
 70
     0
  9
$DIMTAD
 70
     1
  9
$DIMZIN
 70
     8
  9
$DIMBLK
  1

  9
$DIMASO
 70
     1
  9
$DIMSHO
 70
     1
  9
$DIMPOST
  1

  9
$DIMAPOST
  1

  9
$DIMALT
 70
     0
  9
$DIMALTD
 70
     3
  9
$DIMALTF
 40
0.03937007874016
  9
$DIMLFAC
 40
1.0
  9
$DIMTOFL
 70
     1
  9
$DIMTVP
 40
0.0
  9
$DIMTIX
 70
     0
  9
$DIMSOXD
 70
     0
  9
$DIMSAH
 70
     0
  9
$DIMBLK1
  1

  9
$DIMBLK2
  1

  9
$DIMSTYLE
  2
ISO-25
  9
$DIMCLRD
 70
     0
  9
$DIMCLRE
 70
     0
  9
$DIMCLRT
 70
     0
  9
$DIMTFAC
 40
1.0
  9
$DIMGAP
 40
0.625
  9
$DIMJUST
 70
     0
  9
$DIMSD1
 70
     0
  9
$DIMSD2
 70
     0
  9
$DIMTOLJ
 70
     0
  9
$DIMTZIN
 70
     8
  9
$DIMALTZ
 70
     0
  9
$DIMALTTZ
 70
     0
  9
$DIMUPT
 70
     0
  9
$DIMDEC
 70
     2
  9
$DIMTDEC
 70
     2
  9
$DIMALTU
 70
     2
  9
$DIMALTTD
 70
     3
  9
$DIMTXSTY
  7
Standard
  9
$DIMAUNIT
 70
     0
  9
$DIMADEC
 70
     0
  9
$DIMALTRND
 40
0.0
  9
$DIMAZIN
 70
     0
  9
$DIMDSEP
 70
    44
  9
$DIMATFIT
 70
     3
  9
$DIMFRAC
 70
     0
  9
$DIMLDRBLK
  1

  9
$DIMLUNIT
 70
     2
  9
$DIMLWD
 70
    -2
  9
$DIMLWE
 70
    -2
  9
$DIMTMOVE
 70
     0
  9
$DIMFXL
 40
1.0
  9
$DIMFXLON
 70
     0
  9
$DIMJOGANG
 40
0.7853981633974483
  9
$DIMTFILL
 70
     0
  9
$DIMTFILLCLR
 70
     0
  9
$DIMARCSYM
 70
     0
  9
$DIMLTYPE
  6

  9
$DIMLTEX1
  6

  9
$DIMLTEX2
  6

  9
$DIMTXTDIRECTION
 70
     0
  9
$LUNITS
 70
     2
  9
$LUPREC
 70
     4
  9
$SKETCHINC
 40
1.0
  9
$FILLETRAD
 40
10.0
  9
$AUNITS
 70
     0
  9
$AUPREC
 70
     0
  9
$MENU
  1
.
  9
$ELEVATION
 40
0.0
  9
$PELEVATION
 40
0.0
  9
$THICKNESS
 40
0.0
  9
$LIMCHECK
 70
     0
  9
$CHAMFERA
 40
10.0
  9
$CHAMFERB
 40
10.0
  9
$CHAMFERC
 40
20.0
  9
$CHAMFERD
 40
0.0
  9
$SKPOLY
 70
     0
  9
$TDCREATE
 40
2456874.593217083
  9
$TDUCREATE
 40
2456874.218217083
  9
$TDUPDATE
 40
2456910.419919665
  9
$TDUUPDATE
 40
2456910.044919665
  9
$TDINDWG
 40
0.0050036227
  9
$TDUSRTIMER
 40
0.0050036111
  9
$USRTIMER
 70
     1
  9
$ANGBASE
 50
0.0
  9
$ANGDIR
 70
     0
  9
$PDMODE
 70
     0
  9
$PDSIZE
 40
0.0
  9
$PLINEWID
 40
0.0
  9
$SPLFRAME
 70
     0
  9
$SPLINETYPE
 70
     6
  9
$SPLINESEGS
 70
     8
  9
$HANDSEED
  5
459
  9
$SURFTAB1
 70
     6
  9
$SURFTAB2
 70
     6
  9
$SURFTYPE
 70
     6
  9
$SURFU
 70
     6
  9
$SURFV
 70
     6
  9
$UCSBASE
  2

  9
$UCSNAME
  2

  9
$UCSORG
 10
0.0
 20
0.0
 30
0.0
  9
$UCSXDIR
 10
1.0
 20
0.0
 30
0.0
  9
$UCSYDIR
 10
0.0
 20
1.0
 30
0.0
  9
$UCSORTHOREF
  2

  9
$UCSORTHOVIEW
 70
     0
  9
$UCSORGTOP
 10
0.0
 20
0.0
 30
0.0
  9
$UCSORGBOTTOM
 10
0.0
 20
0.0
 30
0.0
  9
$UCSORGLEFT
 10
0.0
 20
0.0
 30
0.0
  9
$UCSORGRIGHT
 10
0.0
 20
0.0
 30
0.0
  9
$UCSORGFRONT
 10
0.0
 20
0.0
 30
0.0
  9
$UCSORGBACK
 10
0.0
 20
0.0
 30
0.0
  9
$PUCSBASE
  2

  9
$PUCSNAME
  2

  9
$PUCSORG
 10
0.0
 20
0.0
 30
0.0
  9
$PUCSXDIR
 10
1.0
 20
0.0
 30
0.0
  9
$PUCSYDIR
 10
0.0
 20
1.0
 30
0.0
  9
$PUCSORTHOREF
  2

  9
$PUCSORTHOVIEW
 70
     0
  9
$PUCSORGTOP
 10
0.0
 20
0.0
 30
0.0
  9
$PUCSORGBOTTOM
 10
0.0
 20
0.0
 30
0.0
  9
$PUCSORGLEFT
 10
0.0
 20
0.0
 30
0.0
  9
$PUCSORGRIGHT
 10
0.0
 20
0.0
 30
0.0
  9
$PUCSORGFRONT
 10
0.0
 20
0.0
 30
0.0
  9
$PUCSORGBACK
 10
0.0
 20
0.0
 30
0.0
  9
$USERI1
 70
     0
  9
$USERI2
 70
     0
  9
$USERI3
 70
     0
  9
$USERI4
 70
     0
  9
$USERI5
 70
     0
  9
$USERR1
 40
0.0
  9
$USERR2
 40
0.0
  9
$USERR3
 40
0.0
  9
$USERR4
 40
0.0
  9
$USERR5
 40
0.0
  9
$WORLDVIEW
 70
     1
  9
$SHADEDGE
 70
     3
  9
$SHADEDIF
 70
    70
  9
$TILEMODE
 70
     1
  9
$MAXACTVP
 70
    64
  9
$PINSBASE
 10
0.0
 20
0.0
 30
0.0
  9
$PLIMCHECK
 70
     0
  9
$PEXTMIN
 10
26.66076962115563
 20
20.31135699206658
 30
-0.0015258207003583
  9
$PEXTMAX
 10
240.039213369355
 20
182.8886381005154
 30
0.0000000349246037
  9
$PLIMMIN
 10
-6.350006103515625
 20
-6.349999904632568
  9
$PLIMMAX
 10
273.0499877929688
 20
209.5499939918518
  9
$UNITMODE
 70
     0
  9
$VISRETAIN
 70
     1
  9
$PLINEGEN
 70
     0
  9
$PSLTSCALE
 70
     1
  9
$TREEDEPTH
 70
  3020
  9
$CMLSTYLE
  2
Standard
  9
$CMLJUST
 70
     0
  9
$CMLSCALE
 40
20.0
  9
$PROXYGRAPHICS
 70
     1
  9
$MEASUREMENT
 70
     1
  9
$CELWEIGHT
370
    -1
  9
$ENDCAPS
280
     0
  9
$JOINSTYLE
280
     0
  9
$LWDISPLAY
290
     0
  9
$INSUNITS
 70
     4
  9
$HYPERLINKBASE
  1

  9
$STYLESHEET
  1

  9
$XEDIT
290
     1
  9
$CEPSNTYPE
380
     0
  9
$PSTYLEMODE
290
     1
  9
$FINGERPRINTGUID
  2
{FDEAD578-A652-11D2-9A35-0060089B3A3F}
  9
$VERSIONGUID
  2
{0A53E155-B6A7-4E3D-8532-4A262ED2F565}
  9
$EXTNAMES
290
     1
  9
$PSVPSCALE
 40
0.0
  9
$OLESTARTUP
290
     0
  9
$SORTENTS
280
   127
  9
$INDEXCTL
280
     0
  9
$HIDETEXT
280
     1
  9
$XCLIPFRAME
280
     2
  9
$HALOGAP
280
     0
  9
$OBSCOLOR
 70
   257
  9
$OBSLTYPE
280
     0
  9
$INTERSECTIONDISPLAY
280
     0
  9
$INTERSECTIONCOLOR
 70
   257
  9
$DIMASSOC
280
     2
  9
$PROJECTNAME
  1

  9
$CAMERADISPLAY
290
     0
  9
$LENSLENGTH
 40
50.0
  9
$CAMERAHEIGHT
 40
0.0
  9
$STEPSPERSEC
 40
2.0
  9
$STEPSIZE
 40
6.0
  9
$3DDWFPREC
 40
2.0
  9
$PSOLWIDTH
 40
0.25
  9
$PSOLHEIGHT
 40
4.0
  9
$LOFTANG1
 40
1.570796326794896
  9
$LOFTANG2
 40
1.570796326794896
  9
$LOFTMAG1
 40
0.0
  9
$LOFTMAG2
 40
0.0
  9
$LOFTPARAM
 70
     7
  9
$LOFTNORMALS
280
     1
  9
$LATITUDE
 40
37.795
  9
$LONGITUDE
 40
-122.394
  9
$NORTHDIRECTION
 40
0.0
  9
$TIMEZONE
 70
 -8000
  9
$LIGHTGLYPHDISPLAY
280
     1
  9
$TILEMODELIGHTSYNCH
280
     1
  9
$CMATERIAL
347
408
  9
$SOLIDHIST
280
     1
  9
$SHOWHIST
280
     1
  9
$DWFFRAME
280
     2
  9
$DGNFRAME
280
     0
  9
$REALWORLDSCALE
290
     1
  9
$INTERFERECOLOR
 62
     1
  9
$INTERFEREOBJVS
345
42A
  9
$INTERFEREVPVS
346
427
  9
$CSHADOW
280
     0
  9
$SHADOWPLANELOCATION
 40
0.0
  0
ENDSEC
  0
SECTION
  2
CLASSES
  0
CLASS
  1
ACDBDICTIONARYWDFLT
  2
AcDbDictionaryWithDefault
  3
ObjectDBX Classes
 90
        0
 91
        1
280
     0
281
     0
  0
CLASS
  1
DICTIONARYVAR
  2
AcDbDictionaryVar
  3
ObjectDBX Classes
 90
        0
 91
        9
280
     0
281
     0
  0
CLASS
  1
MATERIAL
  2
AcDbMaterial
  3
ObjectDBX Classes
 90
     1153
 91
        3
280
     0
281
     0
  0
CLASS
  1
VISUALSTYLE
  2
AcDbVisualStyle
  3
ObjectDBX Classes
 90
     4095
 91
       19
280
     0
281
     0
  0
CLASS
  1
TABLESTYLE
  2
AcDbTableStyle
  3
ObjectDBX Classes
 90
     4095
 91
        1
280
     0
281
     0
  0
CLASS
  1
SCALE
  2
AcDbScale
  3
ObjectDBX Classes
 90
     1153
 91
       17
280
     0
281
     0
  0
CLASS
  1
MLEADERSTYLE
  2
AcDbMLeaderStyle
  3
ACDB_MLEADERSTYLE_CLASS
 90
     4095
 91
        1
280
     0
281
     0
  0
CLASS
  1
CELLSTYLEMAP
  2
AcDbCellStyleMap
  3
ObjectDBX Classes
 90
     1152
 91
        1
280
     0
281
     0
  0
ENDSEC
  0
SECTION
  2
TABLES
  0
TABLE
  2
VPORT
  5
8
330
0
100
AcDbSymbolTable
 70
     1
  0
VPORT
  5
405
330
8
100
AcDbSymbolTableRecord
100
AcDbViewportTableRecord
  2
*Active
 70
     0
 10
0.0
 20
0.0
 11
1.0
 21
1.0
 12
8.253506977034987
 22
108.9756756416871
 13
0.0
 23
0.0
 14
10.0
 24
10.0
 15
10.0
 25
10.0
 16
0.0
 26
0.0
 36
1.0
 17
0.0
 27
0.0
 37
0.0
 40
350.3053194961552
 41
1.857142857142857
 42
50.0
 43
0.0
 44
0.0
 50
0.0
 51
0.0
 71
     0
 72
   100
 73
     1
 74
     3
 75
     0
 76
     0
 77
     0
 78
     0
281
     0
 65
     1
110
0.0
120
0.0
130
0.0
111
1.0
121
0.0
131
0.0
112
0.0
122
1.0
132
0.0
 79
     0
146
0.0
348
426
 60
     3
 61
     5
292
     1
282
     1
141
0.0
142
0.0
 63
   250
421
  3355443
  0
ENDTAB
  0
TABLE
  2
LTYPE
  5
5
330
0
100
AcDbSymbolTable
 70
     3
  0
LTYPE
  5
14
330
5
100
AcDbSymbolTableRecord
100
AcDbLinetypeTableRecord
  2
ByBlock
 70
     0
  3

 72
    65
 73
     0
 40
0.0
  0
LTYPE
  5
15
330
5
100
AcDbSymbolTableRecord
100
AcDbLinetypeTableRecord
  2
ByLayer
 70
     0
  3

 72
    65
 73
     0
 40
0.0
  0
LTYPE
  5
16
330
5
100
AcDbSymbolTableRecord
100
AcDbLinetypeTableRecord
  2
Continuous
 70
     0
  3
Solid line
 72
    65
 73
     0
 40
0.0
  0
LTYPE
  5
8D
330
5
100
AcDbSymbolTableRecord
100
AcDbLinetypeTableRecord
  2
CENTER
 70
     0
  3
Center ____ _ ____ _ ____ _ ____ _ ____ _ ____
 72
    65
 73
     4
 40
50.8
 49
31.75
 74
     0
 49
-6.349999999999999
 74
     0
 49
6.349999999999999
 74
     0
 49
-6.349999999999999
 74
     0
  0
LTYPE
  5
8E
330
5
100
AcDbSymbolTableRecord
100
AcDbLinetypeTableRecord
  2
PHANTOM
 70
     0
  3
Phantom ______  __  __  ______  __  __  ______
 72
    65
 73
     6
 40
63.5
 49
31.75
 74
     0
 49
-6.349999999999999
 74
     0
 49
6.349999999999999
 74
     0
 49
-6.349999999999999
 74
     0
 49
6.349999999999999
 74
     0
 49
-6.349999999999999
 74
     0
  0
ENDTAB
  0
TABLE
  2
LAYER
  5
2
102
{ACAD_XDICTIONARY
360
9B
102
}
330
0
100
AcDbSymbolTable
 70
     3
  0
LAYER
  5
10
102
{ACAD_XDICTIONARY
360
44D
102
}
330
2
100
AcDbSymbolTableRecord
100
AcDbLayerTableRecord
  2
0
 70
     0
 62
     7
  6
Continuous
370
    -3
390
F
347
418
  0
LAYER
  5
8F
102
{ACAD_XDICTIONARY
360
90
102
}
330
2
100
AcDbSymbolTableRecord
100
AcDbLayerTableRecord
  2
2
 70
     0
 62
     2
  6
PHANTOM
370
    -3
390
F
347
418
1001
AcAecLayerStandard
1000

1000

1001
ACCMTRANSPARENCY
1071
        0
  0
LAYER
  5
92
102
{ACAD_XDICTIONARY
360
93
102
}
330
2
100
AcDbSymbolTableRecord
100
AcDbLayerTableRecord
  2
1
 70
     0
 62
     5
  6
CENTER
370
    -3
390
F
347
418
1001
AcAecLayerStandard
1000

1000

1001
ACCMTRANSPARENCY
1071
        0
  0
ENDTAB
  0
TABLE
  2
STYLE
  5
3
330
0
100
AcDbSymbolTable
 70
     1
  0
STYLE
  5
11
330
3
100
AcDbSymbolTableRecord
100
AcDbTextStyleTableRecord
  2
Standard
 70
     0
 40
0.0
 41
1.0
 50
0.0
 71
     0
 42
2.5
  3
txt
  4

  0
ENDTAB
  0
TABLE
  2
VIEW
  5
6
330
0
100
AcDbSymbolTable
 70
     0
  0
ENDTAB
  0
TABLE
  2
UCS
  5
7
330
0
100
AcDbSymbolTable
 70
     0
  0
ENDTAB
  0
TABLE
  2
APPID
  5
9
330
0
100
AcDbSymbolTable
 70
     7
  0
APPID
  5
12
330
9
100
AcDbSymbolTableRecord
100
AcDbRegAppTableRecord
  2
ACAD
 70
     0
  0
APPID
  5
95
330
9
100
AcDbSymbolTableRecord
100
AcDbRegAppTableRecord
  2
GENIUS_GENODEF_13
 70
     0
  0
APPID
  5
96
330
9
100
AcDbSymbolTableRecord
100
AcDbRegAppTableRecord
  2
AcAecLayerStandard
 70
     0
  0
APPID
  5
97
330
9
100
AcDbSymbolTableRecord
100
AcDbRegAppTableRecord
  2
ACCMTRANSPARENCY
 70
     0
  0
APPID
  5
98
330
9
100
AcDbSymbolTableRecord
100
AcDbRegAppTableRecord
  2
GENIUS_GENOBJ-N-FIL_13
 70
     0
  0
APPID
  5
99
330
9
100
AcDbSymbolTableRecord
100
AcDbRegAppTableRecord
  2
GENIUS_GENOBJ-N-CEN_13
 70
     0
  0
APPID
  5
9A
330
9
100
AcDbSymbolTableRecord
100
AcDbRegAppTableRecord
  2
GENIUS_GENCEN_19
 70
     0
  0
ENDTAB
  0
TABLE
  2
DIMSTYLE
  5
A
330
0
100
AcDbSymbolTable
 70
     1
100
AcDbDimStyleTable
 71
     0
  0
DIMSTYLE
105
27
330
A
100
AcDbSymbolTableRecord
100
AcDbDimStyleTableRecord
  2
ISO-25
 70
     0
 41
2.5
 42
0.625
 43
3.75
 44
1.25
 73
     0
 74
     0
 77
     1
 78
     8
140
2.5
141
2.5
143
0.03937007874016
147
0.625
171
     3
172
     1
271
     2
272
     2
274
     3
278
    44
283
     0
284
     8
340
11
  0
ENDTAB
  0
TABLE
  2
BLOCK_RECORD
  5
1
330
0
100
AcDbSymbolTable
 70
     1
  0
BLOCK_RECORD
  5
1F
330
1
100
AcDbSymbolTableRecord
100
AcDbBlockTableRecord
  2
*Model_Space
340
22
 70
     0
280
     1
281
     0
  0
BLOCK_RECORD
  5
55
330
1
100
AcDbSymbolTableRecord
100
AcDbBlockTableRecord
  2
*Paper_Space
340
56
 70
     0
280
     1
281
     0
  0
BLOCK_RECORD
  5
50
330
1
100
AcDbSymbolTableRecord
100
AcDbBlockTableRecord
  2
*Paper_Space0
340
51
 70
     0
280
     1
281
     0
  0
ENDTAB
  0
ENDSEC
  0
SECTION
  2
BLOCKS
  0
BLOCK
  5
20
330
1F
100
AcDbEntity
  8
0
100
AcDbBlockBegin
  2
*Model_Space
 70
     0
 10
0.0
 20
0.0
 30
0.0
  3
*Model_Space
  1

  0
ENDBLK
  5
21
330
1F
100
AcDbEntity
  8
0
100
AcDbBlockEnd
  0
BLOCK
  5
57
330
55
100
AcDbEntity
 67
     1
  8
0
100
AcDbBlockBegin
  2
*Paper_Space
 70
     0
 10
0.0
 20
0.0
 30
0.0
  3
*Paper_Space
  1

  0
ENDBLK
  5
58
330
55
100
AcDbEntity
 67
     1
  8
0
100
AcDbBlockEnd
  0
BLOCK
  5
52
330
50
100
AcDbEntity
 67
     1
  8
0
100
AcDbBlockBegin
  2
*Paper_Space0
 70
     0
 10
0.0
 20
0.0
 30
0.0
  3
*Paper_Space0
  1

  0
VIEWPORT
  5
6B
330
50
100
AcDbEntity
 67
     1
  8
0
100
AcDbViewport
 10
133.3499908447266
 20
101.5999970436096
 30
0.0
 40
381.3957395593835
 41
218.2856291881582
 68
     0
 69
     0
 12
133.3499908447266
 22
101.5999970436096
 13
0.0
 23
0.0
 14
10.0
 24
10.0
 15
10.0
 25
10.0
 16
0.0
 26
0.0
 36
1.0
 17
0.0
 27
0.0
 37
0.0
 42
50.0
 43
0.0
 44
0.0
 45
218.2856291881582
 50
0.0
 51
0.0
 72
   100
 90
    32800
  1

281
     0
 71
     1
 74
     0
110
0.0
120
0.0
130
0.0
111
1.0
121
0.0
131
0.0
112
0.0
122
1.0
132
0.0
 79
     0
146
0.0
170
     0
 61
     5
348
426
292
     1
282
     1
141
0.0
142
0.0
 63
   250
421
  3355443
  0
VIEWPORT
  5
6D
330
50
100
AcDbEntity
 67
     1
  8
0
100
AcDbViewport
 10
133.3499939441681
 20
101.5999939441681
 30
0.0
 40
213.3599903106689
 41
162.5599903106689
 68
     0
 69
     0
 12
210.0
 22
148.5
 13
0.0
 23
0.0
 14
10.0
 24
10.0
 15
10.0
 25
10.0
 16
0.0
 26
0.0
 36
1.0
 17
0.0
 27
0.0
 37
0.0
 42
50.0
 43
0.0
 44
0.0
 45
324.0677920111345
 50
0.0
 51
0.0
 72
   100
 90
    32864
  1

281
     0
 71
     1
 74
     0
110
0.0
120
0.0
130
0.0
111
1.0
121
0.0
131
0.0
112
0.0
122
1.0
132
0.0
 79
     0
146
0.0
170
     0
 61
     5
348
426
292
     1
282
     1
141
0.0
142
0.0
 63
   250
421
  3355443
  0
ENDBLK
  5
53
330
50
100
AcDbEntity
 67
     1
  8
0
100
AcDbBlockEnd
  0
ENDSEC
  0
SECTION
  2
ENTITIES
  0
LINE
  5
24C
330
1F
100
AcDbEntity
  8
0
100
AcDbLine
 10
43.0
 20
10.00001525878906
 30
0.0
 11
43.0
 21
7.000015258789062
 31
0.0
  0
LINE
  5
24D
330
1F
100
AcDbEntity
  8
0
100
AcDbLine
 10
-43.0
 20
10.00001525878906
 30
0.0
 11
-43.0
 21
7.000015258789062
 31
0.0
  0
LINE
  5
24E
330
1F
100
AcDbEntity
  8
0
100
AcDbLine
 10
-18.32688207416572
 20
217.7146426050317
 30
0.0
 11
-18.99998450330429
 21
217.7146426050317
 31
0.0
  0
LINE
  5
24F
330
1F
100
AcDbEntity
  8
0
100
AcDbLine
 10
-37.00003051757813
 20
0.0
 30
0.0
 11
37.00003051757813
 21
0.0
 31
0.0
  0
LINE
  5
250
330
1F
100
AcDbEntity
  8
2
100
AcDbLine
 10
-41.99566650390614
 20
-50.61325073242187
 30
0.0
 11
-38.49999999999989
 21
-50.61325073242187
 31
0.0
  0
LINE
  5
251
330
1F
100
AcDbEntity
  8
2
100
AcDbLine
 10
-41.99566650390614
 20
-56.38674926757812
 30
0.0
 11
-38.49999999999989
 21
-56.38674926757812
 31
0.0
  0
LINE
  5
252
330
1F
100
AcDbEntity
  8
2
100
AcDbLine
 10
-38.5
 20
-59.27349853515625
 30
0.0
 11
-38.5
 21
-47.72650146484375
 31
0.0
  0
LINE
  5
253
330
1F
100
AcDbEntity
  8
2
100
AcDbLine
 10
-39.20001220703113
 20
-23.80528259277344
 30
0.0
 11
-38.0
 21
-23.80528259277344
 31
0.0
  0
LINE
  5
254
330
1F
100
AcDbEntity
  8
2
100
AcDbLine
 10
-39.20001220703113
 20
-11.30528259277344
 30
0.0
 11
-38.0
 21
-11.30528259277344
 31
0.0
  0
LINE
  5
255
330
1F
100
AcDbEntity
  8
2
100
AcDbLine
 10
65.5
 20
-20.0137939453125
 30
0.0
 11
59.19999694824219
 21
-20.0137939453125
 31
0.0
  0
LINE
  5
256
330
1F
100
AcDbEntity
  8
2
100
AcDbLine
 10
65.5
 20
-15.09678649902344
 30
0.0
 11
59.19999694824219
 21
-15.09678649902344
 31
0.0
  0
LINE
  5
257
330
1F
100
AcDbEntity
  8
2
100
AcDbLine
 10
58.69572448730469
 20
-11.72650146484375
 30
0.0
 11
56.20426940917969
 21
-11.72650146484375
 31
0.0
  0
LINE
  5
258
330
1F
100
AcDbEntity
  8
2
100
AcDbLine
 10
55.69999694824218
 20
-23.80528259277344
 30
0.0
 11
54.5
 21
-23.80528259277344
 31
0.0
  0
LINE
  5
259
330
1F
100
AcDbEntity
  8
2
100
AcDbLine
 10
58.6956787109375
 20
-14.61325073242187
 30
0.0
 11
56.20433044433593
 21
-14.61325073242187
 31
0.0
  0
LINE
  5
25A
330
1F
100
AcDbEntity
  8
2
100
AcDbLine
 10
59.19999694824219
 20
-21.83013916015625
 30
0.0
 11
59.19999694824219
 21
-13.16989135742187
 31
0.0
  0
LINE
  5
25B
330
1F
100
AcDbEntity
  8
2
100
AcDbLine
 10
58.69573974609375
 20
-20.38677978515625
 30
0.0
 11
56.20433044433593
 21
-20.38677978515625
 31
0.0
  0
LINE
  5
25C
330
1F
100
AcDbEntity
  8
2
100
AcDbLine
 10
55.69999694824218
 20
-11.30528259277344
 30
0.0
 11
54.5
 21
-11.30528259277344
 31
0.0
  0
LINE
  5
25D
330
1F
100
AcDbEntity
  8
2
100
AcDbLine
 10
-49.0
 20
-20.5
 30
0.0
 11
-49.0
 21
-14.5
 31
0.0
  0
LINE
  5
25E
330
1F
100
AcDbEntity
  8
2
100
AcDbLine
 10
-39.20001220703125
 20
-23.80528259277344
 30
0.0
 11
-39.20001220703125
 21
-11.30528259277344
 31
0.0
  0
LINE
  5
25F
330
1F
100
AcDbEntity
  8
2
100
AcDbLine
 10
-48.99999999999988
 20
-14.5
 30
0.0
 11
-42.70001220703124
 21
-14.5
 31
0.0
  0
LINE
  5
260
330
1F
100
AcDbEntity
  8
2
100
AcDbLine
 10
-48.99999999999988
 20
-20.5
 30
0.0
 11
-42.70001220703124
 21
-20.5
 31
0.0
  0
LINE
  5
261
330
1F
100
AcDbEntity
  8
2
100
AcDbLine
 10
55.0
 20
-59.27349853515625
 30
0.0
 11
55.0
 21
-47.72650146484375
 31
0.0
  0
LINE
  5
262
330
1F
100
AcDbEntity
  8
2
100
AcDbLine
 10
-41.99566650390614
 20
-59.27349853515625
 30
0.0
 11
-38.0
 21
-59.27349853515625
 31
0.0
  0
LINE
  5
263
330
1F
100
AcDbEntity
  8
2
100
AcDbLine
 10
-41.99566650390614
 20
-47.72650146484375
 30
0.0
 11
-38.0
 21
-47.72650146484375
 31
0.0
  0
LINE
  5
264
330
1F
100
AcDbEntity
  8
2
100
AcDbLine
 10
-42.5
 20
-49.16987609863281
 30
0.0
 11
-42.5
 21
-57.83012390136718
 31
0.0
  0
LINE
  5
265
330
1F
100
AcDbEntity
  8
2
100
AcDbLine
 10
58.49566650390625
 20
-56.38674926757812
 30
0.0
 11
55.0
 21
-56.38674926757812
 31
0.0
  0
LINE
  5
266
330
1F
100
AcDbEntity
  8
2
100
AcDbLine
 10
65.5
 20
-20.5
 30
0.0
 11
59.19999694824219
 21
-20.5
 31
0.0
  0
LINE
  5
267
330
1F
100
AcDbEntity
  8
2
100
AcDbLine
 10
65.5
 20
-14.5
 30
0.0
 11
59.19999694824219
 21
-14.5
 31
0.0
  0
LINE
  5
268
330
1F
100
AcDbEntity
  8
2
100
AcDbLine
 10
55.69999694824218
 20
-23.80528259277344
 30
0.0
 11
55.69999694824218
 21
-11.30528259277344
 31
0.0
  0
LINE
  5
269
330
1F
100
AcDbEntity
  8
2
100
AcDbLine
 10
65.5
 20
-20.5
 30
0.0
 11
65.5
 21
-14.5
 31
0.0
  0
LINE
  5
26A
330
1F
100
AcDbEntity
  8
2
100
AcDbLine
 10
58.69566345214844
 20
-23.27352905273437
 30
0.0
 11
56.20433044433593
 21
-23.27352905273437
 31
0.0
  0
LINE
  5
26B
330
1F
100
AcDbEntity
  8
2
100
AcDbLine
 10
-48.99999999999988
 20
-15.09678649902344
 30
0.0
 11
-42.70001220703124
 21
-15.09678649902344
 31
0.0
  0
LINE
  5
26C
330
1F
100
AcDbEntity
  8
2
100
AcDbLine
 10
-48.99999999999988
 20
-20.0137939453125
 30
0.0
 11
-42.70001220703124
 21
-20.0137939453125
 31
0.0
  0
LINE
  5
26D
330
1F
100
AcDbEntity
  8
2
100
AcDbLine
 10
43.5
 20
-44.0
 30
0.0
 11
43.5
 21
-53.0
 31
0.0
  0
LINE
  5
26E
330
1F
100
AcDbEntity
  8
2
100
AcDbLine
 10
42.5
 20
-43.0
 30
0.0
 11
24.5
 21
-43.0
 31
0.0
  0
LINE
  5
26F
330
1F
100
AcDbEntity
  8
2
100
AcDbLine
 10
23.5
 20
-44.0
 30
0.0
 11
23.5
 21
-53.0
 31
0.0
  0
LINE
  5
270
330
1F
100
AcDbEntity
  8
2
100
AcDbLine
 10
42.5
 20
-54.0
 30
0.0
 11
24.5
 21
-54.0
 31
0.0
  0
LINE
  5
271
330
1F
100
AcDbEntity
  8
2
100
AcDbLine
 10
54.5
 20
-59.0
 30
0.0
 11
-38.0
 21
-59.0
 31
0.0
  0
LINE
  5
272
330
1F
100
AcDbEntity
  8
2
100
AcDbLine
 10
59.0
 20
-49.16987609863281
 30
0.0
 11
59.0
 21
-57.83012390136718
 31
0.0
  0
LINE
  5
273
330
1F
100
AcDbEntity
  8
2
100
AcDbLine
 10
58.49566650390625
 20
-50.61325073242187
 30
0.0
 11
55.0
 21
-50.61325073242187
 31
0.0
  0
LINE
  5
274
330
1F
100
AcDbEntity
  8
2
100
AcDbLine
 10
58.49566650390625
 20
-59.27349853515625
 30
0.0
 11
54.5
 21
-59.27349853515625
 31
0.0
  0
LINE
  5
275
330
1F
100
AcDbEntity
  8
2
100
AcDbLine
 10
58.49566650390625
 20
-47.72650146484375
 30
0.0
 11
54.5
 21
-47.72650146484375
 31
0.0
  0
LINE
  5
276
330
1F
100
AcDbEntity
  8
2
100
AcDbLine
 10
58.49566650390625
 20
0.27349853515625
 30
0.0
 11
54.5
 21
0.27349853515625
 31
0.0
  0
LINE
  5
277
330
1F
100
AcDbEntity
  8
2
100
AcDbLine
 10
55.0
 20
0.27349853515625
 30
0.0
 11
55.0
 21
-11.27349853515625
 31
0.0
  0
LINE
  5
278
330
1F
100
AcDbEntity
  8
2
100
AcDbLine
 10
-42.1956787109375
 20
-23.27352905273437
 30
0.0
 11
-39.704345703125
 21
-23.27352905273437
 31
0.0
  0
LINE
  5
279
330
1F
100
AcDbEntity
  8
2
100
AcDbLine
 10
58.49566650390625
 20
-2.613250732421875
 30
0.0
 11
55.0
 21
-2.613250732421875
 31
0.0
  0
LINE
  5
27A
330
1F
100
AcDbEntity
  8
2
100
AcDbLine
 10
58.49566650390625
 20
-8.386749267578125
 30
0.0
 11
55.0
 21
-8.386749267578125
 31
0.0
  0
LINE
  5
27B
330
1F
100
AcDbEntity
  8
2
100
AcDbLine
 10
58.49566650390625
 20
-11.27349853515625
 30
0.0
 11
54.5
 21
-11.27349853515625
 31
0.0
  0
LINE
  5
27C
330
1F
100
AcDbEntity
  8
2
100
AcDbLine
 10
-41.99566650390614
 20
-8.386749267578125
 30
0.0
 11
-38.49999999999989
 21
-8.386749267578125
 31
0.0
  0
LINE
  5
27D
330
1F
100
AcDbEntity
  8
2
100
AcDbLine
 10
59.0
 20
-9.830123901367187
 30
0.0
 11
59.0
 21
-1.169876098632812
 31
0.0
  0
LINE
  5
27E
330
1F
100
AcDbEntity
  8
2
100
AcDbLine
 10
-38.5
 20
0.27349853515625
 30
0.0
 11
-38.5
 21
-11.27349853515625
 31
0.0
  0
LINE
  5
27F
330
1F
100
AcDbEntity
  8
2
100
AcDbLine
 10
-41.99566650390614
 20
-2.613250732421875
 30
0.0
 11
-38.49999999999989
 21
-2.613250732421875
 31
0.0
  0
LINE
  5
280
330
1F
100
AcDbEntity
  8
2
100
AcDbLine
 10
-41.99566650390614
 20
0.27349853515625
 30
0.0
 11
-38.0
 21
0.27349853515625
 31
0.0
  0
LINE
  5
281
330
1F
100
AcDbEntity
  8
2
100
AcDbLine
 10
-41.99566650390614
 20
-11.27349853515625
 30
0.0
 11
-38.0
 21
-11.27349853515625
 31
0.0
  0
LINE
  5
282
330
1F
100
AcDbEntity
  8
2
100
AcDbLine
 10
-42.5
 20
-9.830123901367187
 30
0.0
 11
-42.5
 21
-1.169876098632812
 31
0.0
  0
LINE
  5
283
330
1F
100
AcDbEntity
  8
2
100
AcDbLine
 10
49.0
 20
-39.0
 30
0.0
 11
-32.49999999999989
 21
-39.0
 31
0.0
  0
LINE
  5
284
330
1F
100
AcDbEntity
  8
2
100
AcDbLine
 10
49.0
 20
-20.0
 30
0.0
 11
-32.49999999999989
 21
-20.0
 31
0.0
  0
LINE
  5
285
330
1F
100
AcDbEntity
  8
2
100
AcDbLine
 10
-42.19577026367187
 20
-20.38677978515625
 30
0.0
 11
-39.704345703125
 21
-20.38677978515625
 31
0.0
  0
LINE
  5
286
330
1F
100
AcDbEntity
  8
2
100
AcDbLine
 10
-42.70001220703124
 20
-21.83013916015625
 30
0.0
 11
-42.70001220703124
 21
-13.16989135742187
 31
0.0
  0
LINE
  5
287
330
1F
100
AcDbEntity
  8
2
100
AcDbLine
 10
-42.1956787109375
 20
-14.61325073242187
 30
0.0
 11
-39.704345703125
 21
-14.61325073242187
 31
0.0
  0
LINE
  5
288
330
1F
100
AcDbEntity
  8
2
100
AcDbLine
 10
-42.19573974609375
 20
-11.72650146484375
 30
0.0
 11
-39.70428466796864
 21
-11.72650146484375
 31
0.0
  0
LINE
  5
289
330
1F
100
AcDbEntity
  8
2
100
AcDbLine
 10
-34.5
 20
0.0
 30
0.0
 11
-34.5
 21
-59.0
 31
0.0
  0
LINE
  5
28A
330
1F
100
AcDbEntity
  8
2
100
AcDbLine
 10
54.5
 20
0.0
 30
0.0
 11
-38.0
 21
0.0
 31
0.0
  0
LINE
  5
28B
330
1F
100
AcDbEntity
  8
2
100
AcDbLine
 10
51.0
 20
0.0
 30
0.0
 11
51.0
 21
-59.0
 31
0.0
  0
LINE
  5
28C
330
1F
100
AcDbEntity
  8
2
100
AcDbLine
 10
54.5
 20
0.27349853515625
 30
0.0
 11
54.5
 21
-59.27349853515625
 31
0.0
  0
LINE
  5
28D
330
1F
100
AcDbEntity
  8
2
100
AcDbLine
 10
-38.0
 20
0.27349853515625
 30
0.0
 11
-38.0
 21
-59.27349853515625
 31
0.0
  0
LINE
  5
28E
330
1F
100
AcDbEntity
  8
1
100
AcDbLine
 10
0.0
 20
29.5
 30
0.0
 11
0.0
 21
-65.11552741013156
 31
0.0
  0
LINE
  5
28F
330
1F
100
AcDbEntity
  8
0
100
AcDbLine
 10
-42.99999999999989
 20
10.00001525878906
 30
0.0
 11
43.0
 21
10.00001525878906
 31
0.0
  0
LINE
  5
290
330
1F
100
AcDbEntity
  8
0
100
AcDbLine
 10
-42.99999999999989
 20
7.000015258789062
 30
0.0
 11
43.0
 21
7.000015258789062
 31
0.0
  0
LINE
  5
291
330
1F
100
AcDbEntity
  8
0
100
AcDbLine
 10
-37.00003051757813
 20
7.000015258789062
 30
0.0
 11
-37.00003051757813
 21
0.0
 31
0.0
  0
LINE
  5
292
330
1F
100
AcDbEntity
  8
0
100
AcDbLine
 10
37.00003051757813
 20
7.000015258789062
 30
0.0
 11
37.00003051757813
 21
0.0
 31
0.0
  0
LINE
  5
293
330
1F
100
AcDbEntity
  8
2
100
AcDbLine
 10
55.0
 20
219.7013439048815
 30
0.0
 11
54.5
 21
219.7013439048815
 31
0.0
  0
LINE
  5
294
330
1F
100
AcDbEntity
  8
2
100
AcDbLine
 10
59.0
 20
211.4278453697252
 30
0.0
 11
59.0
 21
216.4278453697252
 31
0.0
  0
LINE
  5
295
330
1F
100
AcDbEntity
  8
2
100
AcDbLine
 10
55.0
 20
259.7013439048815
 30
0.0
 11
55.0
 21
248.154346834569
 31
0.0
  0
LINE
  5
296
330
1F
100
AcDbEntity
  8
2
100
AcDbLine
 10
55.0
 20
248.154346834569
 30
0.0
 11
54.5
 21
248.154346834569
 31
0.0
  0
LINE
  5
297
330
1F
100
AcDbEntity
  8
2
100
AcDbLine
 10
58.49568319320678
 20
213.9278453697252
 30
0.0
 11
55.0
 21
213.9278453697252
 31
0.0
  0
LINE
  5
298
330
1F
100
AcDbEntity
  8
2
100
AcDbLine
 10
-42.5
 20
251.4278453697252
 30
0.0
 11
-42.5
 21
256.4278453697252
 31
0.0
  0
LINE
  5
299
330
1F
100
AcDbEntity
  8
2
100
AcDbLine
 10
58.49568319320678
 20
218.9278453697252
 30
0.0
 11
55.0
 21
218.9278453697252
 31
0.0
  0
LINE
  5
29A
330
1F
100
AcDbEntity
  8
2
100
AcDbLine
 10
55.0
 20
208.154346834569
 30
0.0
 11
54.5
 21
208.154346834569
 31
0.0
  0
LINE
  5
29B
330
1F
100
AcDbEntity
  8
2
100
AcDbLine
 10
55.0
 20
219.7013439048815
 30
0.0
 11
55.0
 21
208.154346834569
 31
0.0
  0
LINE
  5
29C
330
1F
100
AcDbEntity
  8
2
100
AcDbLine
 10
58.49568319320678
 20
248.9278453697252
 30
0.0
 11
55.0
 21
248.9278453697252
 31
0.0
  0
LINE
  5
29D
330
1F
100
AcDbEntity
  8
2
100
AcDbLine
 10
58.49568319320678
 20
253.9278453697252
 30
0.0
 11
55.0
 21
253.9278453697252
 31
0.0
  0
LINE
  5
29E
330
1F
100
AcDbEntity
  8
2
100
AcDbLine
 10
58.49568319320678
 20
258.9278453697252
 30
0.0
 11
55.0
 21
258.9278453697252
 31
0.0
  0
LINE
  5
29F
330
1F
100
AcDbEntity
  8
2
100
AcDbLine
 10
59.0
 20
251.4278453697252
 30
0.0
 11
59.0
 21
256.4278453697252
 31
0.0
  0
LINE
  5
2A0
330
1F
100
AcDbEntity
  8
2
100
AcDbLine
 10
-39.20000002384211
 20
239.6225627769518
 30
0.0
 11
-38.0
 21
239.6225627769518
 31
0.0
  0
LINE
  5
2A1
330
1F
100
AcDbEntity
  8
2
100
AcDbLine
 10
-41.99568319320678
 20
218.9278453697252
 30
0.0
 11
-38.49999999999989
 21
218.9278453697252
 31
0.0
  0
LINE
  5
2A2
330
1F
100
AcDbEntity
  8
2
100
AcDbLine
 10
-41.99568319320678
 20
213.9278453697252
 30
0.0
 11
-38.49999999999989
 21
213.9278453697252
 31
0.0
  0
LINE
  5
2A3
330
1F
100
AcDbEntity
  8
2
100
AcDbLine
 10
-38.49999999999989
 20
248.154346834569
 30
0.0
 11
-38.0
 21
248.154346834569
 31
0.0
  0
LINE
  5
2A4
330
1F
100
AcDbEntity
  8
2
100
AcDbLine
 10
-38.49999999999989
 20
259.7013439048815
 30
0.0
 11
-38.0
 21
259.7013439048815
 31
0.0
  0
LINE
  5
2A5
330
1F
100
AcDbEntity
  8
2
100
AcDbLine
 10
-42.195683217049
 20
245.9278453697252
 30
0.0
 11
-39.70431657759025
 21
245.9278453697252
 31
0.0
  0
LINE
  5
2A6
330
1F
100
AcDbEntity
  8
2
100
AcDbLine
 10
65.5
 20
242.9278453697252
 30
0.0
 11
59.20000002384222
 21
242.9278453697252
 31
0.0
  0
LINE
  5
2A7
330
1F
100
AcDbEntity
  8
2
100
AcDbLine
 10
58.49568319320678
 20
208.9278453697252
 30
0.0
 11
55.0
 21
208.9278453697252
 31
0.0
  0
LINE
  5
2A8
330
1F
100
AcDbEntity
  8
2
100
AcDbLine
 10
-42.70000002384222
 20
243.4278453697252
 30
0.0
 11
-42.70000002384222
 21
248.4278453697252
 31
0.0
  0
LINE
  5
2A9
330
1F
100
AcDbEntity
  8
2
100
AcDbLine
 10
55.70000002384222
 20
239.6225627769518
 30
0.0
 11
54.5
 21
239.6225627769518
 31
0.0
  0
LINE
  5
2AA
330
1F
100
AcDbEntity
  8
2
100
AcDbLine
 10
-38.5
 20
259.7013439048815
 30
0.0
 11
-38.5
 21
248.154346834569
 31
0.0
  0
LINE
  5
2AB
330
1F
100
AcDbEntity
  8
2
100
AcDbLine
 10
59.20000002384222
 20
243.4278453697252
 30
0.0
 11
59.20000002384222
 21
248.4278453697252
 31
0.0
  0
LINE
  5
2AC
330
1F
100
AcDbEntity
  8
2
100
AcDbLine
 10
-48.99999999999988
 20
242.9278453697252
 30
0.0
 11
-42.70000002384222
 21
242.9278453697252
 31
0.0
  0
LINE
  5
2AD
330
1F
100
AcDbEntity
  8
2
100
AcDbLine
 10
-42.195683217049
 20
240.9278453697252
 30
0.0
 11
-39.70431657759025
 21
240.9278453697252
 31
0.0
  0
LINE
  5
2AE
330
1F
100
AcDbEntity
  8
2
100
AcDbLine
 10
-39.20000002384222
 20
239.6225627769518
 30
0.0
 11
-39.20000002384222
 21
248.4278453697252
 31
0.0
  0
LINE
  5
2AF
330
1F
100
AcDbEntity
  8
2
100
AcDbLine
 10
-41.99568319320678
 20
258.9278453697252
 30
0.0
 11
-38.49999999999989
 21
258.9278453697252
 31
0.0
  0
LINE
  5
2B0
330
1F
100
AcDbEntity
  8
2
100
AcDbLine
 10
58.69568321704901
 20
245.9278453697252
 30
0.0
 11
56.20431657759036
 21
245.9278453697252
 31
0.0
  0
LINE
  5
2B1
330
1F
100
AcDbEntity
  8
2
100
AcDbLine
 10
-41.99568319320678
 20
253.9278453697252
 30
0.0
 11
-38.49999999999989
 21
253.9278453697252
 31
0.0
  0
LINE
  5
2B2
330
1F
100
AcDbEntity
  8
2
100
AcDbLine
 10
58.69568321704901
 20
240.9278453697252
 30
0.0
 11
56.20431657759036
 21
240.9278453697252
 31
0.0
  0
LINE
  5
2B3
330
1F
100
AcDbEntity
  8
2
100
AcDbLine
 10
-42.5
 20
211.4278453697252
 30
0.0
 11
-42.5
 21
216.4278453697252
 31
0.0
  0
LINE
  5
2B4
330
1F
100
AcDbEntity
  8
2
100
AcDbLine
 10
-41.99568319320678
 20
208.9278453697252
 30
0.0
 11
-38.49999999999989
 21
208.9278453697252
 31
0.0
  0
LINE
  5
2B5
330
1F
100
AcDbEntity
  8
2
100
AcDbLine
 10
55.70000002384222
 20
239.6225627769518
 30
0.0
 11
55.70000002384222
 21
248.4278453697252
 31
0.0
  0
LINE
  5
2B6
330
1F
100
AcDbEntity
  8
2
100
AcDbLine
 10
55.0
 20
259.7013439048815
 30
0.0
 11
54.5
 21
259.7013439048815
 31
0.0
  0
LINE
  5
2B7
330
1F
100
AcDbEntity
  8
2
100
AcDbLine
 10
-41.99568319320678
 20
248.9278453697252
 30
0.0
 11
-38.49999999999989
 21
248.9278453697252
 31
0.0
  0
LINE
  5
2B8
330
1F
100
AcDbEntity
  8
1
100
AcDbLine
 10
-26.99998450330713
 20
260.9278453697277
 30
0.0
 11
-15.88457911659975
 21
249.8124399830203
 31
0.0
  0
LINE
  5
2B9
330
1F
100
AcDbEntity
  8
2
100
AcDbLine
 10
-48.99999999999988
 20
248.9278453697252
 30
0.0
 11
-42.70000002384222
 21
248.9278453697252
 31
0.0
  0
LINE
  5
2BA
330
1F
100
AcDbEntity
  8
2
100
AcDbLine
 10
-48.99999999999988
 20
248.3310627769518
 30
0.0
 11
-42.70000002384222
 21
248.3310627769518
 31
0.0
  0
LINE
  5
2BB
330
1F
100
AcDbEntity
  8
2
100
AcDbLine
 10
-48.99999999999988
 20
243.4140627769518
 30
0.0
 11
-42.70000002384222
 21
243.4140627769518
 31
0.0
  0
LINE
  5
2BC
330
1F
100
AcDbEntity
  8
2
100
AcDbLine
 10
-49.0
 20
242.9278453697252
 30
0.0
 11
-49.0
 21
248.9278453697252
 31
0.0
  0
LINE
  5
2BD
330
1F
100
AcDbEntity
  8
2
100
AcDbLine
 10
65.5
 20
248.3310627769518
 30
0.0
 11
59.20000002384222
 21
248.3310627769518
 31
0.0
  0
LINE
  5
2BE
330
1F
100
AcDbEntity
  8
2
100
AcDbLine
 10
65.5
 20
248.9278453697252
 30
0.0
 11
59.20000002384222
 21
248.9278453697252
 31
0.0
  0
LINE
  5
2BF
330
1F
100
AcDbEntity
  8
2
100
AcDbLine
 10
65.5
 20
242.9278453697252
 30
0.0
 11
65.5
 21
248.9278453697252
 31
0.0
  0
LINE
  5
2C0
330
1F
100
AcDbEntity
  8
2
100
AcDbLine
 10
65.5
 20
243.4140627769518
 30
0.0
 11
59.20000002384222
 21
243.4140627769518
 31
0.0
  0
LINE
  5
2C1
330
1F
100
AcDbEntity
  8
1
100
AcDbLine
 10
62.35000001192111
 20
233.9278453697252
 30
0.0
 11
-45.85000001192111
 21
233.9278453697252
 31
0.0
  0
LINE
  5
2C2
330
1F
100
AcDbEntity
  8
2
100
AcDbLine
 10
-38.49999999999989
 20
208.154346834569
 30
0.0
 11
-38.0
 21
208.154346834569
 31
0.0
  0
LINE
  5
2C3
330
1F
100
AcDbEntity
  8
2
100
AcDbLine
 10
-38.49999999999989
 20
219.7013439048815
 30
0.0
 11
-38.0
 21
219.7013439048815
 31
0.0
  0
LINE
  5
2C4
330
1F
100
AcDbEntity
  8
2
100
AcDbLine
 10
-38.0
 20
260.9278453697252
 30
0.0
 11
-38.0
 21
206.9278453697252
 31
0.0
  0
LINE
  5
2C5
330
1F
100
AcDbEntity
  8
2
100
AcDbLine
 10
-34.5
 20
260.9278453697252
 30
0.0
 11
-34.5
 21
218.4839085968133
 31
0.0
  0
LINE
  5
2C6
330
1F
100
AcDbEntity
  8
2
100
AcDbLine
 10
51.0
 20
260.9278453697252
 30
0.0
 11
51.0
 21
206.9278453697252
 31
0.0
  0
LINE
  5
2C7
330
1F
100
AcDbEntity
  8
2
100
AcDbLine
 10
54.5
 20
260.9278453697252
 30
0.0
 11
54.5
 21
206.9278453697252
 31
0.0
  0
LINE
  5
2C8
330
1F
100
AcDbEntity
  8
2
100
AcDbLine
 10
54.5
 20
259.4278309100198
 30
0.0
 11
23.84622407162476
 21
259.4278309100198
 31
0.0
  0
LINE
  5
2C9
330
1F
100
AcDbEntity
  8
0
100
AcDbLine
 10
20.0
 20
259.4278309100198
 30
0.0
 11
15.60000610351562
 21
259.4278309100198
 31
0.0
  0
LINE
  5
2CA
330
1F
100
AcDbEntity
  8
2
100
AcDbLine
 10
54.5
 20
208.4278435431595
 30
0.0
 11
37.00003051757813
 21
208.4278435431595
 31
0.0
  0
LINE
  5
2CB
330
1F
100
AcDbEntity
  8
2
100
AcDbLine
 10
54.5
 20
260.9278453697252
 30
0.0
 11
23.9010865021429
 21
260.9278453697255
 31
0.0
  0
LINE
  5
2CC
330
1F
100
AcDbEntity
  8
0
100
AcDbLine
 10
20.0
 20
260.9278453697252
 30
0.0
 11
15.50579441239676
 21
260.9278453697252
 31
0.0
  0
LINE
  5
2CD
330
1F
100
AcDbEntity
  8
2
100
AcDbLine
 10
54.5
 20
206.9278453697252
 30
0.0
 11
37.00003051757813
 21
206.9278453697252
 31
0.0
  0
LINE
  5
2CE
330
1F
100
AcDbEntity
  8
2
100
AcDbLine
 10
-38.5
 20
219.7013439048815
 30
0.0
 11
-38.5
 21
208.154346834569
 31
0.0
  0
LINE
  5
2CF
330
1F
100
AcDbEntity
  8
2
100
AcDbLine
 10
-37.00003051757813
 20
208.4278435431595
 30
0.0
 11
-38.0
 21
208.4278435431595
 31
0.0
  0
LINE
  5
2D0
330
1F
100
AcDbEntity
  8
2
100
AcDbLine
 10
-37.00003051757813
 20
206.9278453697252
 30
0.0
 11
-38.0
 21
206.9278453697252
 31
0.0
  0
LINE
  5
2D1
330
1F
100
AcDbEntity
  8
2
100
AcDbLine
 10
12.17057416569582
 20
208.4278435431595
 30
0.0
 11
-12.17057416569651
 21
208.4278435431595
 31
0.0
  0
LINE
  5
2D2
330
1F
100
AcDbEntity
  8
2
100
AcDbLine
 10
12.71652887182949
 20
206.9278453697252
 30
0.0
 11
-12.71652887182995
 21
206.9278453697252
 31
0.0
  0
LINE
  5
2D3
330
1F
100
AcDbEntity
  8
2
100
AcDbLine
 10
6.0
 20
259.4278309100198
 30
0.0
 11
-38.0
 21
259.4278309100198
 31
0.0
  0
LINE
  5
2D4
330
1F
100
AcDbEntity
  8
2
100
AcDbLine
 10
6.0
 20
260.9278453697252
 30
0.0
 11
-38.0
 21
260.9278453697252
 31
0.0
  0
LINE
  5
2D5
330
1F
100
AcDbEntity
  8
0
100
AcDbLine
 10
20.0
 20
252.9278453697252
 30
0.0
 11
15.60000610351562
 21
252.9278453697252
 31
0.0
  0
LINE
  5
2D6
330
1F
100
AcDbEntity
  8
0
100
AcDbLine
 10
3.999918323882411
 20
232.1957103287405
 30
0.0
 11
3.999922244353683
 21
232.6777354752089
 31
0.0
  0
LINE
  5
2D7
330
1F
100
AcDbEntity
  8
0
100
AcDbLine
 10
3.99994880525935
 20
232.1957119553092
 30
0.0
 11
6.999971359877235
 21
233.9277431228772
 31
0.0
  0
LINE
  5
2D8
330
1F
100
AcDbEntity
  8
0
100
AcDbLine
 10
3.99992224435266
 20
232.6777354752094
 30
0.0
 11
-4.000077755382676
 21
232.6778005418792
 31
0.0
  0
LINE
  5
2D9
330
1F
100
AcDbEntity
  8
0
100
AcDbLine
 10
-27.0
 20
221.9278453697252
 30
0.0
 11
0.0
 21
221.9278453697252
 31
0.0
  0
LINE
  5
2DA
330
1F
100
AcDbEntity
  8
0
100
AcDbLine
 10
-15.5
 20
227.9278453697252
 30
0.0
 11
-15.5
 21
221.9278453697252
 31
0.0
  0
LINE
  5
2DB
330
1F
100
AcDbEntity
  8
0
100
AcDbLine
 10
-12.0
 20
228.5158275474596
 30
0.0
 11
-12.0
 21
221.9278453697252
 31
0.0
  0
LINE
  5
2DC
330
1F
100
AcDbEntity
  8
0
100
AcDbLine
 10
5.412033081054687
 20
245.9278453697252
 30
0.0
 11
12.0
 21
245.9278453697252
 31
0.0
  0
LINE
  5
2DD
330
1F
100
AcDbEntity
  8
0
100
AcDbLine
 10
6.0
 20
260.9278453697252
 30
0.0
 11
12.0
 21
260.9278453697252
 31
0.0
  0
LINE
  5
2DE
330
1F
100
AcDbEntity
  8
0
100
AcDbLine
 10
12.0
 20
260.9278453697252
 30
0.0
 11
12.0
 21
233.9278453697252
 31
0.0
  0
LINE
  5
2DF
330
1F
100
AcDbEntity
  8
0
100
AcDbLine
 10
6.0
 20
260.9278453697252
 30
0.0
 11
6.0
 21
247.3442577232408
 31
0.0
  0
LINE
  5
2E0
330
1F
100
AcDbEntity
  8
0
100
AcDbLine
 10
6.0
 20
249.4278453697252
 30
0.0
 11
12.0
 21
249.4278453697252
 31
0.0
  0
LINE
  5
2E1
330
1F
100
AcDbEntity
  8
1
100
AcDbLine
 10
-2.0
 20
255.9278453697252
 30
0.0
 11
27.44135888002177
 21
255.9278453697252
 31
0.0
  0
LINE
  5
2E2
330
1F
100
AcDbEntity
  8
0
100
AcDbLine
 10
-27.0
 20
227.9278453697252
 30
0.0
 11
-27.0
 21
221.9278453697252
 31
0.0
  0
LINE
  5
2E3
330
1F
100
AcDbEntity
  8
0
100
AcDbLine
 10
-4.000081675854289
 20
232.1957753954102
 30
0.0
 11
-4.000077755382903
 21
232.6778005418787
 31
0.0
  0
LINE
  5
2E4
330
1F
100
AcDbEntity
  8
0
100
AcDbLine
 10
-6.999961057120117
 20
233.9278881238699
 30
0.0
 11
-3.999965027944767
 21
235.6599041996992
 31
0.0
  0
LINE
  5
2E5
330
1F
100
AcDbEntity
  8
0
100
AcDbLine
 10
-4.00005742180042
 20
235.1778310593743
 30
0.0
 11
-4.000053501080856
 21
235.6598867234209
 31
0.0
  0
LINE
  5
2E6
330
1F
100
AcDbEntity
  8
0
100
AcDbLine
 10
3.99994257793628
 20
235.1777659927043
 30
0.0
 11
3.999946498655845
 21
235.6598216567509
 31
0.0
  0
LINE
  5
2E7
330
1F
100
AcDbEntity
  8
0
100
AcDbLine
 10
4.000011625404908
 20
235.6597742046422
 30
0.0
 11
7.000009860601949
 21
233.9276919142978
 31
0.0
  0
LINE
  5
2E8
330
1F
100
AcDbEntity
  8
0
100
AcDbLine
 10
-7.000042472705331
 20
233.9278358852116
 30
0.0
 11
-4.00002500947005
 21
232.1957424933458
 31
0.0
  0
LINE
  5
2E9
330
1F
100
AcDbEntity
  8
0
100
AcDbLine
 10
3.999942577935257
 20
235.1777659927045
 30
0.0
 11
-4.000057421800079
 21
235.1778310593745
 31
0.0
  0
LINE
  5
2EA
330
1F
100
AcDbEntity
  8
0
100
AcDbLine
 10
15.12448120117187
 20
258.8145946373034
 30
0.0
 11
12.47554016113281
 21
258.8145946373034
 31
0.0
  0
LINE
  5
2EB
330
1F
100
AcDbEntity
  8
0
100
AcDbLine
 10
15.60000610351562
 20
260.2579845298815
 30
0.0
 11
15.60000610351562
 21
251.5977367271471
 31
0.0
  0
LINE
  5
2EC
330
1F
100
AcDbEntity
  8
0
100
AcDbLine
 10
15.12448120117187
 20
261.7013439048815
 30
0.0
 11
12.47554016113281
 21
261.7013439048815
 31
0.0
  0
LINE
  5
2ED
330
1F
100
AcDbEntity
  8
0
100
AcDbLine
 10
15.095703125
 20
250.154346834569
 30
0.0
 11
12.47554016113281
 21
250.154346834569
 31
0.0
  0
LINE
  5
2EE
330
1F
100
AcDbEntity
  8
0
100
AcDbLine
 10
15.12448120117187
 20
253.0410961021471
 30
0.0
 11
12.47554016113281
 21
253.0410961021471
 31
0.0
  0
LINE
  5
2EF
330
1F
100
AcDbEntity
  8
0
100
AcDbLine
 10
6.0
 20
252.9278453697252
 30
0.0
 11
1.000015258789062
 21
252.9278453697252
 31
0.0
  0
LINE
  5
2F0
330
1F
100
AcDbEntity
  8
0
100
AcDbLine
 10
20.0
 20
261.7013439048815
 30
0.0
 11
20.0
 21
250.154346834569
 31
0.0
  0
LINE
  5
2F1
330
1F
100
AcDbEntity
  8
0
100
AcDbLine
 10
0.0
 20
257.9278453697252
 30
0.0
 11
0.0
 21
253.9278453697252
 31
0.0
  0
LINE
  5
2F2
330
1F
100
AcDbEntity
  8
0
100
AcDbLine
 10
1.0
 20
258.9278453697252
 30
0.0
 11
1.0
 21
252.9278453697252
 31
0.0
  0
LINE
  5
2F3
330
1F
100
AcDbEntity
  8
0
100
AcDbLine
 10
1.000001756602387
 20
252.9278501867195
 30
0.0
 11
0.0000006778986972
 21
253.9278512654232
 31
0.0
  0
LINE
  5
2F4
330
1F
100
AcDbEntity
  8
0
100
AcDbLine
 10
1.000012546196444
 20
258.92784586935
 30
0.0
 11
0.0000114674926408
 21
257.9278447906463
 31
0.0
  0
LINE
  5
2F5
330
1F
100
AcDbEntity
  8
0
100
AcDbLine
 10
23.49569702148437
 20
261.7013439048815
 30
0.0
 11
20.0
 21
261.7013439048815
 31
0.0
  0
LINE
  5
2F6
330
1F
100
AcDbEntity
  8
0
100
AcDbLine
 10
23.49569702148437
 20
258.8145946373034
 30
0.0
 11
20.0
 21
258.8145946373034
 31
0.0
  0
LINE
  5
2F7
330
1F
100
AcDbEntity
  8
0
100
AcDbLine
 10
23.49569702148437
 20
250.154346834569
 30
0.0
 11
20.0
 21
250.154346834569
 31
0.0
  0
LINE
  5
2F8
330
1F
100
AcDbEntity
  8
0
100
AcDbLine
 10
24.0
 20
260.2579845298815
 30
0.0
 11
24.0
 21
251.5977367271471
 31
0.0
  0
LINE
  5
2F9
330
1F
100
AcDbEntity
  8
0
100
AcDbLine
 10
23.49569702148437
 20
253.0410961021471
 30
0.0
 11
20.0
 21
253.0410961021471
 31
0.0
  0
LINE
  5
2FA
330
1F
100
AcDbEntity
  8
0
100
AcDbLine
 10
6.0
 20
258.3278392662096
 30
0.0
 11
0.4000091552734375
 21
258.3278392662096
 31
0.0
  0
LINE
  5
2FB
330
1F
100
AcDbEntity
  8
0
100
AcDbLine
 10
6.0
 20
253.5278514732409
 30
0.0
 11
0.4000091552734375
 21
253.5278514732409
 31
0.0
  0
LINE
  5
2FC
330
1F
100
AcDbEntity
  8
0
100
AcDbLine
 10
6.0
 20
258.9278453697252
 30
0.0
 11
1.000015258789062
 21
258.9278453697252
 31
0.0
  0
LINE
  5
2FD
330
1F
100
AcDbEntity
  8
0
100
AcDbLine
 10
20.0
 20
258.3278392662096
 30
0.0
 11
15.60000610351562
 21
258.3278392662096
 31
0.0
  0
LINE
  5
2FE
330
1F
100
AcDbEntity
  8
0
100
AcDbLine
 10
20.0
 20
253.5278514732409
 30
0.0
 11
15.60000610351562
 21
253.5278514732409
 31
0.0
  0
LINE
  5
2FF
330
1F
100
AcDbEntity
  8
0
100
AcDbLine
 10
20.0
 20
258.9278453697252
 30
0.0
 11
15.60000610351562
 21
258.9278453697252
 31
0.0
  0
ARC
  5
300
330
1F
100
AcDbEntity
  8
2
100
AcDbCircle
 10
42.5
 20
-53.0
 30
0.0
 40
1.0
100
AcDbArc
 50
269.9999974955182
 51
0.0
  0
ARC
  5
301
330
1F
100
AcDbEntity
  8
2
100
AcDbCircle
 10
24.5
 20
-53.0
 30
0.0
 40
1.0
100
AcDbArc
 50
179.9999949910365
 51
269.9999974955182
  0
ARC
  5
302
330
1F
100
AcDbEntity
  8
2
100
AcDbCircle
 10
42.5
 20
-44.0
 30
0.0
 40
1.0
100
AcDbArc
 50
0.0
 51
90.0000025044752
  0
ARC
  5
303
330
1F
100
AcDbEntity
  8
2
100
AcDbCircle
 10
24.5
 20
-44.0
 30
0.0
 40
1.0
100
AcDbArc
 50
90.0000025044752
 51
180.0000050089504
  0
ARC
  5
304
330
1F
100
AcDbEntity
  8
2
100
AcDbCircle
 10
56.88236999511719
 20
-13.16984558105469
 30
0.0
 40
2.317657947540283
100
AcDbArc
 50
321.4810491379791
 51
38.51894403183519
  0
ARC
  5
305
330
1F
100
AcDbEntity
  8
2
100
AcDbCircle
 10
64.21415710449219
 20
-17.5
 30
0.0
 40
8.514156341552734
100
AcDbArc
 50
160.1808041131974
 51
199.8192059047257
  0
ARC
  5
306
330
1F
100
AcDbEntity
  8
2
100
AcDbCircle
 10
56.88236999511719
 20
-21.83010864257813
 30
0.0
 40
2.317657947540283
100
AcDbArc
 50
321.4810491379791
 51
38.51894403183519
  0
ARC
  5
307
330
1F
100
AcDbEntity
  8
2
100
AcDbCircle
 10
58.01762390136719
 20
-21.83010864257813
 30
0.0
 40
2.317657947540283
100
AcDbArc
 50
141.481057562024
 51
218.5189524558933
  0
ARC
  5
308
330
1F
100
AcDbEntity
  8
2
100
AcDbCircle
 10
58.01762390136719
 20
-13.16984558105469
 30
0.0
 40
2.317657947540283
100
AcDbArc
 50
141.481057562024
 51
218.5189524558933
  0
ARC
  5
309
330
1F
100
AcDbEntity
  8
2
100
AcDbCircle
 10
-40.38238525390625
 20
-13.16984558105469
 30
0.0
 40
2.317657947540283
100
AcDbArc
 50
141.481057562024
 51
218.5189524558933
  0
ARC
  5
30A
330
1F
100
AcDbEntity
  8
2
100
AcDbCircle
 10
-34.18585205078125
 20
-17.5
 30
0.0
 40
8.514156341552734
100
AcDbArc
 50
160.1808041131974
 51
199.8192059047257
  0
ARC
  5
30B
330
1F
100
AcDbEntity
  8
2
100
AcDbCircle
 10
-40.38238525390625
 20
-21.83010864257813
 30
0.0
 40
2.317657947540283
100
AcDbArc
 50
141.481057562024
 51
218.5189524558933
  0
ARC
  5
30C
330
1F
100
AcDbEntity
  8
2
100
AcDbCircle
 10
-41.51763916015625
 20
-13.16984558105469
 30
0.0
 40
2.317657947540283
100
AcDbArc
 50
321.4810491379791
 51
38.51894403183519
  0
ARC
  5
30D
330
1F
100
AcDbEntity
  8
2
100
AcDbCircle
 10
-47.71417236328125
 20
-17.5
 30
0.0
 40
8.514156341552734
100
AcDbArc
 50
340.1807939815943
 51
19.81919577311408
  0
ARC
  5
30E
330
1F
100
AcDbEntity
  8
2
100
AcDbCircle
 10
-41.51763916015625
 20
-21.83010864257813
 30
0.0
 40
2.317657947540283
100
AcDbArc
 50
321.4810491379791
 51
38.51894403183519
  0
ARC
  5
30F
330
1F
100
AcDbEntity
  8
2
100
AcDbCircle
 10
-40.18231201171874
 20
-1.169876098632812
 30
0.0
 40
2.317657947540283
100
AcDbArc
 50
141.481057562024
 51
218.5189524558933
  0
ARC
  5
310
330
1F
100
AcDbEntity
  8
2
100
AcDbCircle
 10
-33.98583984375
 20
-5.5
 30
0.0
 40
8.514156341552734
100
AcDbArc
 50
160.1808041131974
 51
199.8192059047257
  0
ARC
  5
311
330
1F
100
AcDbEntity
  8
2
100
AcDbCircle
 10
-40.18231201171874
 20
-9.830123901367187
 30
0.0
 40
2.317657947540283
100
AcDbArc
 50
141.481057562024
 51
218.5189524558933
  0
ARC
  5
312
330
1F
100
AcDbEntity
  8
2
100
AcDbCircle
 10
56.68231201171875
 20
-1.169876098632812
 30
0.0
 40
2.317657947540283
100
AcDbArc
 50
321.4810491379791
 51
38.51894403183519
  0
ARC
  5
313
330
1F
100
AcDbEntity
  8
2
100
AcDbCircle
 10
50.68583679199218
 20
-17.5
 30
0.0
 40
8.514156341552734
100
AcDbArc
 50
340.1807939815943
 51
19.81919577311408
  0
ARC
  5
314
330
1F
100
AcDbEntity
  8
2
100
AcDbCircle
 10
50.48583984375
 20
-5.5
 30
0.0
 40
8.514156341552734
100
AcDbArc
 50
340.1808076419771
 51
19.81919577311408
  0
ARC
  5
315
330
1F
100
AcDbEntity
  8
2
100
AcDbCircle
 10
56.68231201171875
 20
-9.830123901367187
 30
0.0
 40
2.317657947540283
100
AcDbArc
 50
321.4810491379791
 51
38.51894403183519
  0
ARC
  5
316
330
1F
100
AcDbEntity
  8
2
100
AcDbCircle
 10
56.68231201171875
 20
-57.83012390136718
 30
0.0
 40
2.317657947540283
100
AcDbArc
 50
321.4810627983531
 51
38.51894403183519
  0
ARC
  5
317
330
1F
100
AcDbEntity
  8
2
100
AcDbCircle
 10
50.48583984375
 20
-53.5
 30
0.0
 40
8.514156341552734
100
AcDbArc
 50
340.1808076419771
 51
19.81919577311408
  0
ARC
  5
318
330
1F
100
AcDbEntity
  8
2
100
AcDbCircle
 10
56.68231201171875
 20
-49.16987609863281
 30
0.0
 40
2.317657947540283
100
AcDbArc
 50
321.4810627983531
 51
38.51894403183519
  0
ARC
  5
319
330
1F
100
AcDbEntity
  8
2
100
AcDbCircle
 10
-40.18231201171874
 20
-57.83012390136718
 30
0.0
 40
2.317657947540283
100
AcDbArc
 50
141.481057562024
 51
218.5189387955165
  0
ARC
  5
31A
330
1F
100
AcDbEntity
  8
2
100
AcDbCircle
 10
-33.98583984375
 20
-53.5
 30
0.0
 40
8.514156341552734
100
AcDbArc
 50
160.1808041131974
 51
199.8191922443477
  0
ARC
  5
31B
330
1F
100
AcDbEntity
  8
2
100
AcDbCircle
 10
-40.18231201171874
 20
-49.16987609863281
 30
0.0
 40
2.317657947540283
100
AcDbArc
 50
141.481057562024
 51
218.5189387955165
  0
ARC
  5
31C
330
1F
100
AcDbEntity
  8
2
100
AcDbCircle
 10
-36.051340341568
 20
251.4278453697252
 30
0.0
 40
6.448659420013426
100
AcDbArc
 50
157.1899369032443
 51
202.810061275516
  0
ARC
  5
31D
330
1F
100
AcDbEntity
  8
2
100
AcDbCircle
 10
52.551340341568
 20
251.4278453697252
 30
0.0
 40
6.448659420013426
100
AcDbArc
 50
337.189938724484
 51
22.81006309675595
  0
ARC
  5
31E
330
1F
100
AcDbEntity
  8
2
100
AcDbCircle
 10
52.75133988857305
 20
248.4278453697252
 30
0.0
 40
6.448660373687744
100
AcDbArc
 50
337.189938724484
 51
7.275611288554689
  0
ARC
  5
31F
330
1F
100
AcDbEntity
  8
2
100
AcDbCircle
 10
62.14866015911138
 20
248.4278453697252
 30
0.0
 40
6.448660373687744
100
AcDbArc
 50
180.0
 51
202.8100562665539
  0
ARC
  5
320
330
1F
100
AcDbEntity
  8
2
100
AcDbCircle
 10
-36.25133988857306
 20
243.4278453697252
 30
0.0
 40
6.448660373687744
100
AcDbArc
 50
157.1899437334461
 51
202.810061275516
  0
ARC
  5
321
330
1F
100
AcDbEntity
  8
2
100
AcDbCircle
 10
-36.25133988857306
 20
248.4278453697252
 30
0.0
 40
6.448660373687744
100
AcDbArc
 50
172.7243887114453
 51
202.810061275516
  0
ARC
  5
322
330
1F
100
AcDbEntity
  8
2
100
AcDbCircle
 10
-45.64866015911138
 20
248.4278453697252
 30
0.0
 40
6.448660373687744
100
AcDbArc
 50
337.1899437334461
 51
0.0
  0
ARC
  5
323
330
1F
100
AcDbEntity
  8
2
100
AcDbCircle
 10
52.551340341568
 20
211.4278453697252
 30
0.0
 40
6.448659420013426
100
AcDbArc
 50
337.189938724484
 51
22.81006309675595
  0
ARC
  5
324
330
1F
100
AcDbEntity
  8
2
100
AcDbCircle
 10
52.551340341568
 20
256.4278453697252
 30
0.0
 40
6.448659420013426
100
AcDbArc
 50
337.189938724484
 51
22.81006309675595
  0
ARC
  5
325
330
1F
100
AcDbEntity
  8
2
100
AcDbCircle
 10
62.14866015911138
 20
243.4278453697252
 30
0.0
 40
6.448660373687744
100
AcDbArc
 50
157.189938724484
 51
202.8100562665539
  0
ARC
  5
326
330
1F
100
AcDbEntity
  8
2
100
AcDbCircle
 10
-36.051340341568
 20
211.4278453697252
 30
0.0
 40
6.448659420013426
100
AcDbArc
 50
157.1899369032443
 51
202.810061275516
  0
ARC
  5
327
330
1F
100
AcDbEntity
  8
2
100
AcDbCircle
 10
52.551340341568
 20
216.4278453697252
 30
0.0
 40
6.448659420013426
100
AcDbArc
 50
337.189938724484
 51
22.81006309675595
  0
ARC
  5
328
330
1F
100
AcDbEntity
  8
2
100
AcDbCircle
 10
-36.051340341568
 20
216.4278453697252
 30
0.0
 40
6.448659420013426
100
AcDbArc
 50
157.1899369032443
 51
202.810061275516
  0
ARC
  5
329
330
1F
100
AcDbEntity
  8
2
100
AcDbCircle
 10
-36.051340341568
 20
256.4278453697252
 30
0.0
 40
6.448659420013426
100
AcDbArc
 50
157.1899369032443
 51
202.810061275516
  0
ARC
  5
32A
330
1F
100
AcDbEntity
  8
2
100
AcDbCircle
 10
-45.64866015911138
 20
243.4278453697252
 30
0.0
 40
6.448660373687744
100
AcDbArc
 50
337.1899437334461
 51
22.81006127551601
  0
ARC
  5
32B
330
1F
100
AcDbEntity
  8
1
100
AcDbCircle
 10
0.0
 20
233.9278453697252
 30
0.0
 40
30.0
100
AcDbArc
 50
117.6319292507552
 51
245.5603882540493
  0
ARC
  5
32C
330
1F
100
AcDbEntity
  8
2
100
AcDbCircle
 10
52.75133988857305
 20
243.4278453697252
 30
0.0
 40
6.448660373687744
100
AcDbArc
 50
337.189938724484
 51
22.81005626655388
  0
CIRCLE
  5
32D
330
1F
100
AcDbEntity
  8
2
100
AcDbCircle
 10
-21.2132120845331
 20
255.1410401563814
 30
0.0
 40
2.5
  0
ARC
  5
32E
330
1F
100
AcDbEntity
  8
0
100
AcDbCircle
 10
-13.41639709472656
 20
229.9278453697252
 30
0.0
 40
2.0
100
AcDbArc
 50
269.9999993167505
 51
16.60154841032345
  0
CIRCLE
  5
32F
330
1F
100
AcDbEntity
  8
0
100
AcDbCircle
 10
0.0
 20
233.9278453697252
 30
0.0
 40
12.0
  0
CIRCLE
  5
330
330
1F
100
AcDbEntity
  8
0
100
AcDbCircle
 10
0.0
 20
233.9278453697252
 30
0.0
 40
6.999999999999999
  0
CIRCLE
  5
331
330
1F
100
AcDbEntity
  8
0
100
AcDbCircle
 10
0.0
 20
233.9278453697252
 30
0.0
 40
8.0
  0
ARC
  5
332
330
1F
100
AcDbEntity
  8
0
100
AcDbCircle
 10
4.0
 20
247.3442577232408
 30
0.0
 40
2.0
100
AcDbArc
 50
253.3984490851981
 51
0.0000050089504314
  0
ARC
  5
333
330
1F
100
AcDbEntity
  8
0
100
AcDbCircle
 10
21.0
 20
255.9278453697252
 30
0.0
 40
9.0
100
AcDbArc
 50
161.291703759542
 51
198.7082996555621
  0
ARC
  5
334
330
1F
100
AcDbEntity
  8
0
100
AcDbCircle
 10
14.4283447265625
 20
260.2579845298815
 30
0.0
 40
2.428322076797485
100
AcDbArc
 50
143.5306830399579
 51
216.469313544943
  0
ARC
  5
335
330
1F
100
AcDbEntity
  8
0
100
AcDbCircle
 10
14.4283447265625
 20
251.5977367271471
 30
0.0
 40
2.428322076797485
100
AcDbArc
 50
143.5306830399579
 51
216.469313544943
  0
ARC
  5
336
330
1F
100
AcDbEntity
  8
0
100
AcDbCircle
 10
6.600006103515625
 20
255.9278453697252
 30
0.0
 40
9.0
100
AcDbArc
 50
341.2916970430267
 51
18.70829293906073
  0
ARC
  5
337
330
1F
100
AcDbEntity
  8
0
100
AcDbCircle
 10
13.17169189453125
 20
251.5977367271471
 30
0.0
 40
2.428322076797485
100
AcDbArc
 50
323.5306916913814
 51
36.46931195108465
  0
ARC
  5
338
330
1F
100
AcDbEntity
  8
0
100
AcDbCircle
 10
13.17169189453125
 20
260.2579845298815
 30
0.0
 40
2.428322076797485
100
AcDbArc
 50
323.5306916913814
 51
36.46931195108465
  0
ARC
  5
339
330
1F
100
AcDbEntity
  8
0
100
AcDbCircle
 10
0.0
 20
233.9278453697252
 30
0.0
 40
14.0
100
AcDbArc
 50
238.9972789004526
 51
305.5688391884104
  0
ARC
  5
33A
330
1F
100
AcDbEntity
  8
0
100
AcDbCircle
 10
0.0
 20
233.9278453697252
 30
0.0
 40
14.0
100
AcDbArc
 50
324.4392893137199
 51
31.00271540734993
  0
ARC
  5
33B
330
1F
100
AcDbEntity
  8
0
100
AcDbCircle
 10
21.68234252929687
 20
251.5977367271471
 30
0.0
 40
2.317657947540283
100
AcDbArc
 50
321.4810612044835
 51
38.51894243797602
  0
ARC
  5
33C
330
1F
100
AcDbEntity
  8
0
100
AcDbCircle
 10
15.48583984375
 20
255.9278453697252
 30
0.0
 40
8.514156341552734
100
AcDbArc
 50
340.1808077556523
 51
19.81919588680261
  0
ARC
  5
33D
330
1F
100
AcDbEntity
  8
0
100
AcDbCircle
 10
21.68234252929687
 20
260.2579845298815
 30
0.0
 40
2.317657947540283
100
AcDbArc
 50
321.4810612044835
 51
38.51894243797602
  0
ARC
  5
33E
330
1F
100
AcDbEntity
  8
2
100
AcDbCircle
 10
0.0
 20
233.9278453697252
 30
0.0
 40
14.0
100
AcDbArc
 50
65.2063629970501
 51
204.7936413286601
  0
LINE
  5
33F
330
1F
100
AcDbEntity
  8
0
100
AcDbLine
 10
-18.99998450330429
 20
213.9278608664203
 30
0.0
 11
-18.99998450330429
 21
218.3278547629047
 31
0.0
  0
LINE
  5
340
330
1F
100
AcDbEntity
  8
1
100
AcDbLine
 10
-21.99998450330452
 20
235.9278608664204
 30
0.0
 11
-21.99998450330452
 21
213.5997160894754
 31
0.0
  0
LINE
  5
341
330
1F
100
AcDbEntity
  8
0
100
AcDbLine
 10
-24.88673377088242
 20
218.8033796652485
 30
0.0
 11
-24.88673377088242
 21
221.4523207052875
 31
0.0
  0
LINE
  5
342
330
1F
100
AcDbEntity
  8
0
100
AcDbLine
 10
-26.33012366346054
 20
218.3278547629047
 30
0.0
 11
-17.66987586072616
 21
218.327854762905
 31
0.0
  0
LINE
  5
343
330
1F
100
AcDbEntity
  8
0
100
AcDbLine
 10
-27.77348303846054
 20
218.8033796652485
 30
0.0
 11
-27.77348303846054
 21
221.4523207052875
 31
0.0
  0
LINE
  5
344
330
1F
100
AcDbEntity
  8
0
100
AcDbLine
 10
-16.22648596814804
 20
218.8321577414206
 30
0.0
 11
-16.22648596814804
 21
221.4523207052878
 31
0.0
  0
LINE
  5
345
330
1F
100
AcDbEntity
  8
0
100
AcDbLine
 10
-19.11323523572616
 20
218.8033796652485
 30
0.0
 11
-19.11323523572616
 21
221.4523207052875
 31
0.0
  0
LINE
  5
346
330
1F
100
AcDbEntity
  8
0
100
AcDbLine
 10
-18.99998450330452
 20
227.9278608664204
 30
0.0
 11
-18.99998450330452
 21
232.9278456076313
 31
0.0
  0
LINE
  5
347
330
1F
100
AcDbEntity
  8
0
100
AcDbLine
 10
-27.77348303846054
 20
213.9278608664203
 30
0.0
 11
-16.22648596814804
 21
213.9278608664206
 31
0.0
  0
LINE
  5
348
330
1F
100
AcDbEntity
  8
0
100
AcDbLine
 10
-23.99998450330452
 20
233.9278608664204
 30
0.0
 11
-19.99998450330451
 21
233.9278608664204
 31
0.0
  0
LINE
  5
349
330
1F
100
AcDbEntity
  8
0
100
AcDbLine
 10
-24.99998450330452
 20
232.9278608664203
 30
0.0
 11
-18.99998450330452
 21
232.9278608664203
 31
0.0
  0
LINE
  5
34A
330
1F
100
AcDbEntity
  8
0
100
AcDbLine
 10
-18.99998932029882
 20
232.927859109818
 30
0.0
 11
-19.99999039900251
 21
233.9278601885219
 31
0.0
  0
LINE
  5
34B
330
1F
100
AcDbEntity
  8
0
100
AcDbLine
 10
-24.99998500292929
 20
232.927848320224
 30
0.0
 11
-23.9999839242256
 21
233.9278493989277
 31
0.0
  0
LINE
  5
34C
330
1F
100
AcDbEntity
  8
0
100
AcDbLine
 10
-27.77348303846054
 20
210.432163844936
 30
0.0
 11
-27.77348303846054
 21
213.9278608664203
 31
0.0
  0
LINE
  5
34D
330
1F
100
AcDbEntity
  8
0
100
AcDbLine
 10
-24.88673377088242
 20
210.432163844936
 30
0.0
 11
-24.88673377088242
 21
213.9278608664203
 31
0.0
  0
LINE
  5
34E
330
1F
100
AcDbEntity
  8
0
100
AcDbLine
 10
-16.22648596814804
 20
210.4321638449362
 30
0.0
 11
-16.22648596814804
 21
213.9278608664206
 31
0.0
  0
LINE
  5
34F
330
1F
100
AcDbEntity
  8
0
100
AcDbLine
 10
-26.33012366346054
 20
209.9278608664203
 30
0.0
 11
-17.66987586072616
 21
209.9278608664206
 31
0.0
  0
LINE
  5
350
330
1F
100
AcDbEntity
  8
0
100
AcDbLine
 10
-19.11323523572616
 20
210.432163844936
 30
0.0
 11
-19.11323523572616
 21
213.9278608664203
 31
0.0
  0
LINE
  5
351
330
1F
100
AcDbEntity
  8
0
100
AcDbLine
 10
-24.39997839978889
 20
227.9278608664204
 30
0.0
 11
-24.39997839978889
 21
233.5278517111469
 31
0.0
  0
LINE
  5
352
330
1F
100
AcDbEntity
  8
0
100
AcDbLine
 10
-19.59999060682014
 20
227.9278608664204
 30
0.0
 11
-19.59999060682014
 21
233.5278517111469
 31
0.0
  0
LINE
  5
353
330
1F
100
AcDbEntity
  8
0
100
AcDbLine
 10
-24.99998450330452
 20
227.9278608664204
 30
0.0
 11
-24.99998450330452
 21
232.9278456076313
 31
0.0
  0
LINE
  5
354
330
1F
100
AcDbEntity
  8
0
100
AcDbLine
 10
-24.39997839978867
 20
213.9278608664203
 30
0.0
 11
-24.39997839978867
 21
218.3278547629047
 31
0.0
  0
LINE
  5
355
330
1F
100
AcDbEntity
  8
0
100
AcDbLine
 10
-19.59999060681991
 20
213.9278608664203
 30
0.0
 11
-19.59999060681991
 21
218.3278547629047
 31
0.0
  0
LINE
  5
356
330
1F
100
AcDbEntity
  8
0
100
AcDbLine
 10
-24.99998450330429
 20
213.9278608664203
 30
0.0
 11
-24.99998450330429
 21
218.3278547629047
 31
0.0
  0
ARC
  5
357
330
1F
100
AcDbEntity
  8
0
100
AcDbCircle
 10
-21.99998450330429
 20
212.9278608664204
 30
0.0
 40
9.0
100
AcDbArc
 50
71.29170034443709
 51
108.7082962404647
  0
ARC
  5
358
330
1F
100
AcDbEntity
  8
0
100
AcDbCircle
 10
-26.33012366346054
 20
219.4995161398578
 30
0.0
 40
2.428322076797485
100
AcDbArc
 50
53.53068645505588
 51
126.4693169600508
  0
ARC
  5
359
330
1F
100
AcDbEntity
  8
0
100
AcDbCircle
 10
-17.66987586072616
 20
219.4995161398581
 30
0.0
 40
2.428322076797485
100
AcDbArc
 50
53.53068645505588
 51
126.4693169600508
  0
ARC
  5
35A
330
1F
100
AcDbEntity
  8
0
100
AcDbCircle
 10
-21.99998450330452
 20
227.3278547629047
 30
0.0
 40
9.0
100
AcDbArc
 50
251.2917070609452
 51
288.7083029569726
  0
ARC
  5
35B
330
1F
100
AcDbEntity
  8
0
100
AcDbCircle
 10
-17.66987586072616
 20
220.7561689718893
 30
0.0
 40
2.428322076797485
100
AcDbArc
 50
233.5306880489151
 51
306.4693083086281
  0
ARC
  5
35C
330
1F
100
AcDbEntity
  8
0
100
AcDbCircle
 10
-26.33012366346054
 20
220.7561689718891
 30
0.0
 40
2.428322076797485
100
AcDbArc
 50
233.5306880489151
 51
306.4693083086281
  0
ARC
  5
35D
330
1F
100
AcDbEntity
  8
0
100
AcDbCircle
 10
-17.66987586072616
 20
212.2455183371237
 30
0.0
 40
2.317657947540283
100
AcDbArc
 50
231.4810575620233
 51
308.5189387955194
  0
ARC
  5
35E
330
1F
100
AcDbEntity
  8
0
100
AcDbCircle
 10
-21.99998450330429
 20
218.4420210226704
 30
0.0
 40
8.514156341552734
100
AcDbArc
 50
250.1808041131981
 51
289.819192244341
  0
ARC
  5
35F
330
1F
100
AcDbEntity
  8
0
100
AcDbCircle
 10
-26.33012366346054
 20
212.2455183371235
 30
0.0
 40
2.317657947540283
100
AcDbArc
 50
231.4810575620233
 51
308.5189387955194
  0
LINE
  5
360
330
1F
100
AcDbEntity
  8
0
100
AcDbLine
 10
-14.49999999999988
 20
7.000015258789062
 30
0.0
 11
-14.49999999999988
 21
0.0
 31
0.0
  0
LINE
  5
361
330
1F
100
AcDbEntity
  8
0
100
AcDbLine
 10
14.50000000000011
 20
7.000015258789062
 30
0.0
 11
14.50000000000011
 21
0.0
 31
0.0
  0
LINE
  5
362
330
1F
100
AcDbEntity
  8
0
100
AcDbLine
 10
7.904768961433205
 20
2.999981877969275
 30
0.0
 11
7.904768961433205
 21
0.0
 31
0.0
  0
LINE
  5
363
330
1F
100
AcDbEntity
  8
0
100
AcDbLine
 10
7.904768961433205
 20
2.999981877969275
 30
0.0
 11
14.50000000000011
 21
3.0
 31
0.0
  0
LINE
  5
364
330
1F
100
AcDbEntity
  8
0
100
AcDbLine
 10
-7.904768961433092
 20
2.999981877969275
 30
0.0
 11
-7.904768961433092
 21
0.0
 31
0.0
  0
LINE
  5
365
330
1F
100
AcDbEntity
  8
0
100
AcDbLine
 10
-7.904768961433092
 20
2.999981877969275
 30
0.0
 11
-14.49999999999988
 21
3.0
 31
0.0
  0
LINE
  5
366
330
1F
100
AcDbEntity
  8
0
100
AcDbLine
 10
-27.0
 20
227.9278453697252
 30
0.0
 11
-13.41639709472656
 21
227.9278453697252
 31
0.0
  0
LINE
  5
367
330
1F
100
AcDbEntity
  8
0
100
AcDbLine
 10
14.49926194962063
 20
202.0231347444433
 30
0.0
 11
14.49925762975977
 21
196.1363952672154
 31
0.0
1001
GENIUS_GENODEF_13
1002
{
1000
HIER
1070
     0
1002
}
1002
{
1000
MANEDIT
1070
     0
1002
}
1002
{
1000
NOSEL
1070
     0
1002
}
1002
{
1000
BEHIND
1070
     0
1002
}
1002
{
1000
OTHER
1070
     0
1002
}
1002
{
1000
REACTOR
1002
}
1001
GENIUS_GENOBJ-N-CEN_13
1002
{
1000
OWNER
1000
GEN
1002
}
1001
GENIUS_GENCEN_19
1002
{
1040
3.0
1002
}
  0
LINE
  5
368
330
1F
100
AcDbEntity
  8
1
100
AcDbLine
 10
-7.000005750418267
 20
116.5731466131665
 30
0.0
 11
-7.000005750418267
 21
104.0731466131665
 31
0.0
1001
GENIUS_GENODEF_13
1002
{
1000
HIER
1070
     0
1002
}
1002
{
1000
MANEDIT
1070
     0
1002
}
1002
{
1000
NOSEL
1070
     0
1002
}
1002
{
1000
BEHIND
1070
     0
1002
}
1002
{
1000
OTHER
1070
     0
1002
}
1002
{
1000
REACTOR
1002
}
1001
GENIUS_GENOBJ-N-CEN_13
1002
{
1000
OWNER
1000
GEN
1002
}
1001
GENIUS_GENCEN_19
1002
{
1040
3.0
1002
}
  0
LINE
  5
369
330
1F
100
AcDbEntity
  8
1
100
AcDbLine
 10
-13.25000575041827
 20
110.3231466131665
 30
0.0
 11
-0.7500057504182678
 21
110.3231466131665
 31
0.0
1001
GENIUS_GENOBJ-N-CEN_13
1002
{
1000
OWNER
1000
GEN
1002
}
1001
GENIUS_GENODEF_13
1002
{
1000
HIER
1070
     0
1002
}
1002
{
1000
MANEDIT
1070
     0
1002
}
1002
{
1000
NOSEL
1070
     0
1002
}
1002
{
1000
BEHIND
1070
     0
1002
}
1002
{
1000
OTHER
1070
     0
1002
}
1002
{
1000
REACTOR
1002
}
1001
GENIUS_GENCEN_19
1002
{
1040
3.0
1002
}
  0
LINE
  5
36A
330
1F
100
AcDbEntity
  8
1
100
AcDbLine
 10
-37.20000575041832
 20
175.2731466131665
 30
0.0
 11
-37.20000575041832
 21
162.7731466131665
 31
0.0
1001
GENIUS_GENODEF_13
1002
{
1000
HIER
1070
     0
1002
}
1002
{
1000
MANEDIT
1070
     0
1002
}
1002
{
1000
NOSEL
1070
     0
1002
}
1002
{
1000
BEHIND
1070
     0
1002
}
1002
{
1000
OTHER
1070
     0
1002
}
1002
{
1000
REACTOR
1002
}
1001
GENIUS_GENOBJ-N-CEN_13
1002
{
1000
OWNER
1000
GEN
1002
}
1001
GENIUS_GENCEN_19
1002
{
1040
3.0
1002
}
  0
LINE
  5
36B
330
1F
100
AcDbEntity
  8
1
100
AcDbLine
 10
-43.45000575041831
 20
169.0231466131665
 30
0.0
 11
-30.95000575041832
 21
169.0231466131665
 31
0.0
1001
GENIUS_GENOBJ-N-CEN_13
1002
{
1000
OWNER
1000
GEN
1002
}
1001
GENIUS_GENODEF_13
1002
{
1000
HIER
1070
     0
1002
}
1002
{
1000
MANEDIT
1070
     0
1002
}
1002
{
1000
NOSEL
1070
     0
1002
}
1002
{
1000
BEHIND
1070
     0
1002
}
1002
{
1000
OTHER
1070
     0
1002
}
1002
{
1000
REACTOR
1002
}
1001
GENIUS_GENCEN_19
1002
{
1040
3.0
1002
}
  0
LINE
  5
36C
330
1F
100
AcDbEntity
  8
1
100
AcDbLine
 10
6.999994249581732
 20
116.5731466131665
 30
0.0
 11
6.999994249581732
 21
104.0731466131665
 31
0.0
1001
GENIUS_GENODEF_13
1002
{
1000
HIER
1070
     0
1002
}
1002
{
1000
MANEDIT
1070
     0
1002
}
1002
{
1000
NOSEL
1070
     0
1002
}
1002
{
1000
BEHIND
1070
     0
1002
}
1002
{
1000
OTHER
1070
     0
1002
}
1002
{
1000
REACTOR
1002
}
1001
GENIUS_GENOBJ-N-CEN_13
1002
{
1000
OWNER
1000
GEN
1002
}
1001
GENIUS_GENCEN_19
1002
{
1040
3.0
1002
}
  0
LINE
  5
36D
330
1F
100
AcDbEntity
  8
1
100
AcDbLine
 10
13.24999424958173
 20
110.3231466131665
 30
0.0
 11
0.7499942495817323
 21
110.3231466131665
 31
0.0
1001
GENIUS_GENOBJ-N-CEN_13
1002
{
1000
OWNER
1000
GEN
1002
}
1001
GENIUS_GENODEF_13
1002
{
1000
HIER
1070
     0
1002
}
1002
{
1000
MANEDIT
1070
     0
1002
}
1002
{
1000
NOSEL
1070
     0
1002
}
1002
{
1000
BEHIND
1070
     0
1002
}
1002
{
1000
OTHER
1070
     0
1002
}
1002
{
1000
REACTOR
1002
}
1001
GENIUS_GENCEN_19
1002
{
1040
3.0
1002
}
  0
LINE
  5
36E
330
1F
100
AcDbEntity
  8
1
100
AcDbLine
 10
37.19999424958155
 20
175.2731466131665
 30
0.0
 11
37.19999424958155
 21
162.7731466131665
 31
0.0
1001
GENIUS_GENODEF_13
1002
{
1000
HIER
1070
     0
1002
}
1002
{
1000
MANEDIT
1070
     0
1002
}
1002
{
1000
NOSEL
1070
     0
1002
}
1002
{
1000
BEHIND
1070
     0
1002
}
1002
{
1000
OTHER
1070
     0
1002
}
1002
{
1000
REACTOR
1002
}
1001
GENIUS_GENOBJ-N-CEN_13
1002
{
1000
OWNER
1000
GEN
1002
}
1001
GENIUS_GENCEN_19
1002
{
1040
3.0
1002
}
  0
LINE
  5
36F
330
1F
100
AcDbEntity
  8
1
100
AcDbLine
 10
43.44999424958155
 20
169.0231466131665
 30
0.0
 11
30.94999424958155
 21
169.0231466131665
 31
0.0
1001
GENIUS_GENOBJ-N-CEN_13
1002
{
1000
OWNER
1000
GEN
1002
}
1001
GENIUS_GENODEF_13
1002
{
1000
HIER
1070
     0
1002
}
1002
{
1000
MANEDIT
1070
     0
1002
}
1002
{
1000
NOSEL
1070
     0
1002
}
1002
{
1000
BEHIND
1070
     0
1002
}
1002
{
1000
OTHER
1070
     0
1002
}
1002
{
1000
REACTOR
1002
}
1001
GENIUS_GENCEN_19
1002
{
1040
3.0
1002
}
  0
LINE
  5
370
330
1F
100
AcDbEntity
  8
0
100
AcDbLine
 10
37.00001328438771
 20
216.1736479608851
 30
0.0
 11
37.00001321075547
 21
193.6419887052604
 31
0.0
  0
LINE
  5
371
330
1F
100
AcDbEntity
  8
0
100
AcDbLine
 10
-36.99998671561275
 20
216.1736479608837
 30
0.0
 11
-36.999987330355
 21
193.6419559363555
 31
0.0
  0
ARC
  5
372
330
1F
100
AcDbEntity
  8
0
100
AcDbCircle
 10
-34.99998671561275
 20
216.1736479608837
 30
0.0
 40
2.0
100
AcDbArc
 50
110.0000000000037
 51
180.0
1001
GENIUS_GENODEF_13
1002
{
1000
HIER
1070
     0
1002
}
1002
{
1000
MANEDIT
1070
     0
1002
}
1002
{
1000
NOSEL
1070
     0
1002
}
1002
{
1000
BEHIND
1070
     0
1002
}
1002
{
1000
OTHER
1070
     0
1002
}
1002
{
1000
REACTOR
1002
}
1001
GENIUS_GENOBJ-N-FIL_13
1002
{
1000
OWNER
1000
GEN
1002
}
  0
LINE
  5
373
330
1F
100
AcDbEntity
  8
1
100
AcDbLine
 10
9.015624744557271
 20
224.9122339096882
 30
0.0
 11
28.71049702409789
 21
205.217361630151
 31
0.0
1001
GENIUS_GENOBJ-N-CEN_13
1002
{
1000
OWNER
1000
GEN
1002
}
1001
GENIUS_GENODEF_13
1002
{
1000
HIER
1070
     0
1002
}
1002
{
1000
MANEDIT
1070
     0
1002
}
1002
{
1000
NOSEL
1070
     0
1002
}
1002
{
1000
BEHIND
1070
     0
1002
}
1002
{
1000
OTHER
1070
     0
1002
}
1002
{
1000
REACTOR
1002
}
1001
GENIUS_GENCEN_19
1002
{
1040
3.0
1002
}
  0
LINE
  5
374
330
1F
100
AcDbEntity
  8
1
100
AcDbLine
 10
-9.015598175694549
 20
224.9122339096882
 30
0.0
 11
-27.91225046995339
 21
206.0155816154327
 31
0.0
1001
GENIUS_GENOBJ-N-CEN_13
1002
{
1000
OWNER
1000
GEN
1002
}
1001
GENIUS_GENODEF_13
1002
{
1000
HIER
1070
     0
1002
}
1002
{
1000
MANEDIT
1070
     0
1002
}
1002
{
1000
NOSEL
1070
     0
1002
}
1002
{
1000
BEHIND
1070
     0
1002
}
1002
{
1000
OTHER
1070
     0
1002
}
1002
{
1000
REACTOR
1002
}
1001
GENIUS_GENCEN_19
1002
{
1040
3.0
1002
}
  0
ARC
  5
375
330
1F
100
AcDbEntity
  8
0
100
AcDbCircle
 10
-12.90468547222167
 20
221.0231466131629
 30
0.0
 40
5.000000000000635
100
AcDbArc
 50
339.9999999999965
 51
10.42450243770632
  0
LINE
  5
376
330
1F
100
AcDbEntity
  8
0
100
AcDbLine
 10
14.61481275770848
 20
225.721609717096
 30
0.0
 11
35.68405357103916
 21
218.0530332024571
 31
0.0
  0
ARC
  5
377
330
1F
100
AcDbEntity
  8
0
100
AcDbCircle
 10
35.0000132843877
 20
216.1736479608851
 30
0.0
 40
2.0
100
AcDbArc
 50
0.0
 51
69.99999999999629
1001
GENIUS_GENODEF_13
1002
{
1000
HIER
1070
     0
1002
}
1002
{
1000
MANEDIT
1070
     0
1002
}
1002
{
1000
NOSEL
1070
     0
1002
}
1002
{
1000
BEHIND
1070
     0
1002
}
1002
{
1000
OTHER
1070
     0
1002
}
1002
{
1000
REACTOR
1002
}
1001
GENIUS_GENOBJ-N-FIL_13
1002
{
1000
OWNER
1000
GEN
1002
}
  0
LINE
  5
378
330
1F
100
AcDbEntity
  8
0
100
AcDbLine
 10
-27.77348303846054
 20
220.9322357421352
 30
0.0
 11
-35.68402700226443
 21
218.0530332024557
 31
0.0
  0
LINE
  5
379
330
1F
100
AcDbEntity
  8
0
100
AcDbLine
 10
8.206248937150576
 20
219.3130458965381
 30
0.0
 11
14.49926194962063
 21
202.0231347444433
 31
0.0
  0
ARC
  5
37A
330
1F
100
AcDbEntity
  8
0
100
AcDbCircle
 10
12.90471204108007
 20
221.0231466131665
 30
0.0
 40
5.0
100
AcDbArc
 50
69.99999999999629
 51
200.0000000000035
1001
GENIUS_GENODEF_13
1002
{
1000
HIER
1070
     0
1002
}
1002
{
1000
MANEDIT
1070
     0
1002
}
1002
{
1000
NOSEL
1070
     0
1002
}
1002
{
1000
BEHIND
1070
     0
1002
}
1002
{
1000
OTHER
1070
     0
1002
}
1002
{
1000
REACTOR
1002
}
1001
GENIUS_GENOBJ-N-FIL_13
1002
{
1000
OWNER
1000
GEN
1002
}
  0
LINE
  5
37B
330
1F
100
AcDbEntity
  8
0
100
AcDbLine
 10
-8.2062223682899
 20
219.3130458965322
 30
0.0
 11
-14.49921784865796
 21
202.0231466131306
 31
0.0
  0
CIRCLE
  5
37D
330
1F
100
AcDbEntity
  8
0
100
AcDbCircle
 10
12.90471204108939
 20
221.023146613159
 30
0.0
 40
3.0
  0
ARC
  5
37E
330
1F
100
AcDbEntity
  8
0
100
AcDbCircle
 10
-12.90467584511384
 20
221.0231369859614
 30
0.0
 40
3.0
100
AcDbArc
 50
162.4481069865726
 51
17.55189301342739
  0
LINE
  5
37F
330
1F
100
AcDbEntity
  8
0
100
AcDbLine
 10
41.99999424958173
 20
189.6005477681719
 30
0.0
 11
38.00001321075547
 21
191.9099378976916
 31
0.0
  0
ARC
  5
380
330
1F
100
AcDbEntity
  8
0
100
AcDbCircle
 10
39.00001321075547
 20
193.6419887052604
 30
0.0
 40
2.0
100
AcDbArc
 50
180.0
 51
239.9999999999987
1001
GENIUS_GENODEF_13
1002
{
1000
HIER
1070
     0
1002
}
1002
{
1000
MANEDIT
1070
     0
1002
}
1002
{
1000
NOSEL
1070
     0
1002
}
1002
{
1000
BEHIND
1070
     0
1002
}
1002
{
1000
OTHER
1070
     0
1002
}
1002
{
1000
REACTOR
1002
}
1001
GENIUS_GENOBJ-N-FIL_13
1002
{
1000
OWNER
1000
GEN
1002
}
  0
LINE
  5
381
330
1F
100
AcDbEntity
  8
0
100
AcDbLine
 10
-42.00000485014721
 20
189.6004967090985
 30
0.0
 11
-37.99998823062629
 21
191.909904609015
 31
0.0
  0
ARC
  5
382
330
1F
100
AcDbEntity
  8
0
100
AcDbCircle
 10
-38.999987330355
 20
193.6419559363555
 30
0.0
 40
2.0
100
AcDbArc
 50
299.9999702192777
 51
359.9999986178289
1001
GENIUS_GENOBJ-N-FIL_13
1002
{
1000
OWNER
1000
GEN
1002
}
1001
GENIUS_GENODEF_13
1002
{
1000
HIER
1070
     0
1002
}
1002
{
1000
MANEDIT
1070
     0
1002
}
1002
{
1000
NOSEL
1070
     0
1002
}
1002
{
1000
BEHIND
1070
     0
1002
}
1002
{
1000
OTHER
1070
     0
1002
}
1002
{
1000
REACTOR
1002
}
  0
LINE
  5
383
330
1F
100
AcDbEntity
  8
0
100
AcDbLine
 10
37.00001328438771
 20
202.0231466131636
 30
0.0
 11
14.49926194962063
 21
202.023134744441
 31
0.0
  0
LINE
  5
384
330
1F
100
AcDbEntity
  8
0
100
AcDbLine
 10
-14.49921784865796
 20
202.0231466131304
 30
0.0
 11
-14.49921784870253
 21
196.1363242700933
 31
0.0
1001
GENIUS_GENODEF_13
1002
{
1000
HIER
1070
     0
1002
}
1002
{
1000
MANEDIT
1070
     0
1002
}
1002
{
1000
NOSEL
1070
     0
1002
}
1002
{
1000
BEHIND
1070
     0
1002
}
1002
{
1000
OTHER
1070
     0
1002
}
1002
{
1000
REACTOR
1002
}
1001
GENIUS_GENOBJ-N-CEN_13
1002
{
1000
OWNER
1000
GEN
1002
}
1001
GENIUS_GENCEN_19
1002
{
1040
3.0
1002
}
  0
LINE
  5
385
330
1F
100
AcDbEntity
  8
0
100
AcDbLine
 10
11.49925762975977
 20
193.1363952672154
 30
0.0
 11
-11.49920146799241
 21
193.1363952672154
 31
0.0
  0
ARC
  5
386
330
1F
100
AcDbEntity
  8
0
100
AcDbCircle
 10
11.49925762975977
 20
196.1363952672154
 30
0.0
 40
3.0
100
AcDbArc
 50
270.0
 51
0.0
1001
GENIUS_GENODEF_13
1002
{
1000
HIER
1070
     0
1002
}
1002
{
1000
MANEDIT
1070
     0
1002
}
1002
{
1000
NOSEL
1070
     0
1002
}
1002
{
1000
BEHIND
1070
     0
1002
}
1002
{
1000
OTHER
1070
     0
1002
}
1002
{
1000
REACTOR
1002
}
1001
GENIUS_GENOBJ-N-FIL_13
1002
{
1000
OWNER
1000
GEN
1002
}
  0
ARC
  5
387
330
1F
100
AcDbEntity
  8
0
100
AcDbCircle
 10
-11.49921784870253
 20
196.1363324784004
 30
0.0
 40
3.0
100
AcDbArc
 50
180.0003128485184
 51
270.0003128485185
1001
GENIUS_GENODEF_13
1002
{
1000
HIER
1070
     0
1002
}
1002
{
1000
MANEDIT
1070
     0
1002
}
1002
{
1000
NOSEL
1070
     0
1002
}
1002
{
1000
BEHIND
1070
     0
1002
}
1002
{
1000
OTHER
1070
     0
1002
}
1002
{
1000
REACTOR
1002
}
1001
GENIUS_GENOBJ-N-FIL_13
1002
{
1000
OWNER
1000
GEN
1002
}
  0
LINE
  5
388
330
1F
100
AcDbEntity
  8
0
100
AcDbLine
 10
-14.49921784865796
 20
202.0231466131304
 30
0.0
 11
-36.99991097135103
 21
202.023134744441
 31
0.0
  0
LINE
  5
389
330
1F
100
AcDbEntity
  8
0
100
AcDbLine
 10
42.99999424958173
 20
187.8684969606031
 30
0.0
 11
42.99999424958173
 21
108.0231466131665
 31
0.0
  0
ARC
  5
38A
330
1F
100
AcDbEntity
  8
0
100
AcDbCircle
 10
40.99999424958173
 20
187.8684969606031
 30
0.0
 40
2.0
100
AcDbArc
 50
0.0
 51
59.99999999999875
1001
GENIUS_GENOBJ-N-FIL_13
1002
{
1000
OWNER
1000
GEN
1002
}
1001
GENIUS_GENODEF_13
1002
{
1000
HIER
1070
     0
1002
}
1002
{
1000
MANEDIT
1070
     0
1002
}
1002
{
1000
NOSEL
1070
     0
1002
}
1002
{
1000
BEHIND
1070
     0
1002
}
1002
{
1000
OTHER
1070
     0
1002
}
1002
{
1000
REACTOR
1002
}
  0
LINE
  5
38B
330
1F
100
AcDbEntity
  8
0
100
AcDbLine
 10
39.99999424958173
 20
105.0231466131665
 30
0.0
 11
-40.00000575041826
 21
105.0231466131665
 31
0.0
  0
ARC
  5
38C
330
1F
100
AcDbEntity
  8
0
100
AcDbCircle
 10
39.99999424958173
 20
108.0231466131665
 30
0.0
 40
3.0
100
AcDbArc
 50
270.0
 51
0.0
1001
GENIUS_GENOBJ-N-FIL_13
1002
{
1000
OWNER
1000
GEN
1002
}
1001
GENIUS_GENODEF_13
1002
{
1000
HIER
1070
     0
1002
}
1002
{
1000
MANEDIT
1070
     0
1002
}
1002
{
1000
NOSEL
1070
     0
1002
}
1002
{
1000
BEHIND
1070
     0
1002
}
1002
{
1000
OTHER
1070
     0
1002
}
1002
{
1000
REACTOR
1002
}
  0
LINE
  5
38D
330
1F
100
AcDbEntity
  8
0
100
AcDbLine
 10
-43.00000575041827
 20
108.0231466131665
 30
0.0
 11
-43.00000575041827
 21
187.8684453817582
 31
0.0
  0
ARC
  5
38E
330
1F
100
AcDbEntity
  8
0
100
AcDbCircle
 10
-40.00000575041826
 20
108.0231466131665
 30
0.0
 40
3.0
100
AcDbArc
 50
180.0
 51
270.0
1001
GENIUS_GENOBJ-N-FIL_13
1002
{
1000
OWNER
1000
GEN
1002
}
1001
GENIUS_GENODEF_13
1002
{
1000
HIER
1070
     0
1002
}
1002
{
1000
MANEDIT
1070
     0
1002
}
1002
{
1000
NOSEL
1070
     0
1002
}
1002
{
1000
BEHIND
1070
     0
1002
}
1002
{
1000
OTHER
1070
     0
1002
}
1002
{
1000
REACTOR
1002
}
  0
ARC
  5
38F
330
1F
100
AcDbEntity
  8
0
100
AcDbCircle
 10
-41.00000575041827
 20
187.8684453817582
 30
0.0
 40
2.0
100
AcDbArc
 50
119.9999702192777
 51
180.0
1001
GENIUS_GENOBJ-N-FIL_13
1002
{
1000
OWNER
1000
GEN
1002
}
1001
GENIUS_GENODEF_13
1002
{
1000
HIER
1070
     0
1002
}
1002
{
1000
MANEDIT
1070
     0
1002
}
1002
{
1000
NOSEL
1070
     0
1002
}
1002
{
1000
BEHIND
1070
     0
1002
}
1002
{
1000
OTHER
1070
     0
1002
}
1002
{
1000
REACTOR
1002
}
  0
CIRCLE
  5
390
330
1F
100
AcDbEntity
  8
0
100
AcDbCircle
 10
-37.20000575041832
 20
169.0231466131665
 30
0.0
 40
3.25
  0
CIRCLE
  5
391
330
1F
100
AcDbEntity
  8
0
100
AcDbCircle
 10
37.19999424958155
 20
169.0231466131665
 30
0.0
 40
3.25
  0
CIRCLE
  5
392
330
1F
100
AcDbEntity
  8
0
100
AcDbCircle
 10
6.999994249581732
 20
110.3231466131665
 30
0.0
 40
3.25
  0
CIRCLE
  5
393
330
1F
100
AcDbEntity
  8
0
100
AcDbCircle
 10
-7.000005750418267
 20
110.3231466131665
 30
0.0
 40
3.25
  0
LINE
  5
394
330
1F
100
AcDbEntity
  8
0
100
AcDbLine
 10
-36.99998721195198
 20
197.9816947288361
 30
0.0
 11
-14.49921784868843
 21
197.9816947288361
 31
0.0
  0
LINE
  5
395
330
1F
100
AcDbEntity
  8
0
100
AcDbLine
 10
37.00001577687476
 20
197.9817801334168
 30
0.0
 11
14.49924641367124
 21
197.9817281964251
 31
0.0
  0
LINE
  5
396
330
1F
100
AcDbEntity
  8
2
100
AcDbLine
 10
-10.10028695041865
 20
210.8230337632485
 30
0.0
 11
-10.10028695041887
 21
173.7230237632484
 31
0.0
  0
LINE
  5
397
330
1F
100
AcDbEntity
  8
2
100
AcDbLine
 10
-34.10028695041865
 20
210.8230337632485
 30
0.0
 11
-34.10028695041888
 21
173.7230237632484
 31
0.0
  0
LINE
  5
398
330
1F
100
AcDbEntity
  8
2
100
AcDbLine
 10
-2.100286550417649
 20
173.7230237632484
 30
0.0
 11
-2.100286550417649
 21
106.0230137632484
 31
0.0
  0
LINE
  5
399
330
1F
100
AcDbEntity
  8
2
100
AcDbLine
 10
-42.10028695041706
 20
173.7230237632484
 30
0.0
 11
-42.10028695041706
 21
106.0230137632484
 31
0.0
  0
LINE
  5
39A
330
1F
100
AcDbEntity
  8
2
100
AcDbLine
 10
-35.10028695041706
 20
69.0230137632484
 30
0.0
 11
-35.10028695041706
 21
106.0230137632484
 31
0.0
  0
LINE
  5
39B
330
1F
100
AcDbEntity
  8
2
100
AcDbLine
 10
-9.100286550417649
 20
69.0230137632484
 30
0.0
 11
-9.100286550417649
 21
106.0230137632484
 31
0.0
  0
LINE
  5
39C
330
1F
100
AcDbEntity
  8
2
100
AcDbLine
 10
-34.10028695041865
 20
210.8230337632485
 30
0.0
 11
-10.10028695041865
 21
210.8230337632485
 31
0.0
  0
LINE
  5
39D
330
1F
100
AcDbEntity
  8
2
100
AcDbLine
 10
-42.10028695041706
 20
173.7230237632484
 30
0.0
 11
-2.100286550417649
 21
173.7230237632484
 31
0.0
  0
LINE
  5
39E
330
1F
100
AcDbEntity
  8
2
100
AcDbLine
 10
-42.10028695041706
 20
106.0230137632484
 30
0.0
 11
-2.100286550417649
 21
106.0230137632484
 31
0.0
  0
LINE
  5
39F
330
1F
100
AcDbEntity
  8
2
100
AcDbLine
 10
-35.10028695041706
 20
69.0230137632484
 30
0.0
 11
-9.100286550417649
 21
69.0230137632484
 31
0.0
  0
LINE
  5
3A0
330
1F
100
AcDbEntity
  8
2
100
AcDbLine
 10
10.10027544958211
 20
210.8230337632485
 30
0.0
 11
10.10027544958234
 21
173.7230237632484
 31
0.0
  0
LINE
  5
3A1
330
1F
100
AcDbEntity
  8
2
100
AcDbLine
 10
34.10027544958211
 20
210.8230337632485
 30
0.0
 11
34.10027544958234
 21
173.7230237632484
 31
0.0
  0
LINE
  5
3A2
330
1F
100
AcDbEntity
  8
2
100
AcDbLine
 10
2.100275049581114
 20
173.7230237632484
 30
0.0
 11
2.100275049581114
 21
106.0230137632484
 31
0.0
  0
LINE
  5
3A3
330
1F
100
AcDbEntity
  8
2
100
AcDbLine
 10
42.10027544958052
 20
173.7230237632484
 30
0.0
 11
42.10027544958052
 21
106.0230137632484
 31
0.0
  0
LINE
  5
3A4
330
1F
100
AcDbEntity
  8
2
100
AcDbLine
 10
35.10027544958052
 20
69.0230137632484
 30
0.0
 11
35.10027544958052
 21
106.0230137632484
 31
0.0
  0
LINE
  5
3A5
330
1F
100
AcDbEntity
  8
2
100
AcDbLine
 10
9.100275049581114
 20
69.0230137632484
 30
0.0
 11
9.100275049581114
 21
106.0230137632484
 31
0.0
  0
LINE
  5
3A6
330
1F
100
AcDbEntity
  8
2
100
AcDbLine
 10
34.10027544958211
 20
210.8230337632485
 30
0.0
 11
10.10027544958211
 21
210.8230337632485
 31
0.0
  0
LINE
  5
3A7
330
1F
100
AcDbEntity
  8
2
100
AcDbLine
 10
42.10027544958052
 20
173.7230237632484
 30
0.0
 11
2.100275049581114
 21
173.7230237632484
 31
0.0
  0
LINE
  5
3A8
330
1F
100
AcDbEntity
  8
2
100
AcDbLine
 10
42.10027544958052
 20
106.0230137632484
 30
0.0
 11
2.100275049581114
 21
106.0230137632484
 31
0.0
  0
LINE
  5
3A9
330
1F
100
AcDbEntity
  8
2
100
AcDbLine
 10
35.10027544958052
 20
69.0230137632484
 30
0.0
 11
9.100275049581114
 21
69.0230137632484
 31
0.0
  0
LINE
  5
3AA
330
1F
100
AcDbEntity
  8
1
100
AcDbLine
 10
0.0
 20
80.17232321965094
 30
0.0
 11
0.0
 21
265.7908474445516
 31
0.0
  0
LINE
  5
3AB
330
1F
100
AcDbEntity
  8
2
100
AcDbLine
 10
-42.10028695041706
 20
52.00001525878906
 30
0.0
 11
-42.10028695041706
 21
10.00001525878906
 31
0.0
  0
LINE
  5
3AC
330
1F
100
AcDbEntity
  8
2
100
AcDbLine
 10
-42.10028695041706
 20
52.00001525878906
 30
0.0
 11
-2.10003662109375
 21
52.00001525878906
 31
0.0
  0
LINE
  5
3AD
330
1F
100
AcDbEntity
  8
2
100
AcDbLine
 10
-2.10003662109375
 20
52.00001525878906
 30
0.0
 11
-2.10003662109375
 21
10.00001525878906
 31
0.0
  0
LINE
  5
3AE
330
1F
100
AcDbEntity
  8
2
100
AcDbLine
 10
-35.10028695041706
 20
39.01112525878898
 30
0.0
 11
-35.10028695041706
 21
8.988905258788918
 31
0.0
  0
LINE
  5
3AF
330
1F
100
AcDbEntity
  8
2
100
AcDbLine
 10
-9.100286550417649
 20
8.988905258788918
 30
0.0
 11
-9.100286550417649
 21
39.01112525878898
 31
0.0
  0
LINE
  5
3B0
330
1F
100
AcDbEntity
  8
2
100
AcDbLine
 10
-35.10028695041706
 20
8.988905258788918
 30
0.0
 11
-9.100286550417649
 21
8.988905258788918
 31
0.0
  0
LINE
  5
3B1
330
1F
100
AcDbEntity
  8
2
100
AcDbLine
 10
-35.10028695041706
 20
39.01112525878898
 30
0.0
 11
-9.100286550417649
 21
39.01112525878898
 31
0.0
  0
LINE
  5
3B2
330
1F
100
AcDbEntity
  8
2
100
AcDbLine
 10
42.10003662109374
 20
50.00001525878906
 30
0.0
 11
42.10003662109374
 21
10.00003051757812
 31
0.0
  0
LINE
  5
3B3
330
1F
100
AcDbEntity
  8
2
100
AcDbLine
 10
42.10028695041706
 20
52.00001525878906
 30
0.0
 11
42.10028695041706
 21
10.00001525878906
 31
0.0
  0
LINE
  5
3B4
330
1F
100
AcDbEntity
  8
2
100
AcDbLine
 10
42.10028695041706
 20
52.00001525878906
 30
0.0
 11
2.10003662109375
 21
52.00001525878906
 31
0.0
  0
LINE
  5
3B5
330
1F
100
AcDbEntity
  8
2
100
AcDbLine
 10
2.10003662109375
 20
52.00001525878906
 30
0.0
 11
2.10003662109375
 21
10.00001525878906
 31
0.0
  0
LINE
  5
3B6
330
1F
100
AcDbEntity
  8
2
100
AcDbLine
 10
35.10028695041706
 20
39.01112525878898
 30
0.0
 11
35.10028695041706
 21
8.988905258788918
 31
0.0
  0
LINE
  5
3B7
330
1F
100
AcDbEntity
  8
2
100
AcDbLine
 10
9.100286550417649
 20
8.988905258788918
 30
0.0
 11
9.100286550417649
 21
39.01112525878898
 31
0.0
  0
LINE
  5
3B8
330
1F
100
AcDbEntity
  8
2
100
AcDbLine
 10
35.10028695041706
 20
8.988905258788918
 30
0.0
 11
9.100286550417649
 21
8.988905258788918
 31
0.0
  0
LINE
  5
3B9
330
1F
100
AcDbEntity
  8
2
100
AcDbLine
 10
35.10028695041706
 20
39.01112525878898
 30
0.0
 11
9.100286550417649
 21
39.01112525878898
 31
0.0
  0
LINE
  5
3BA
330
1F
100
AcDbEntity
  8
0
100
AcDbLine
 10
-18.10285873976249
 20
17.0
 30
0.0
 11
0.0
 21
17.0
 31
0.0
  0
LINE
  5
3BB
330
1F
100
AcDbEntity
  8
0
100
AcDbLine
 10
-18.10285475803584
 20
23.5000000000008
 30
0.0
 11
0.0
 21
23.50000000000023
 31
0.0
  0
LINE
  5
3BC
330
1F
100
AcDbEntity
  8
0
100
AcDbLine
 10
12.0
 20
24.49999999999989
 30
0.0
 11
-12.0
 21
24.50000000000034
 31
0.0
  0
LINE
  5
3BD
330
1F
100
AcDbEntity
  8
0
100
AcDbLine
 10
12.0
 20
25.15000344827683
 30
0.0
 11
12.0
 21
10.00001525878895
 31
0.0
  0
LINE
  5
3BE
330
1F
100
AcDbEntity
  8
0
100
AcDbLine
 10
12.0
 20
7.000015258788948
 30
0.0
 11
12.0
 21
2.999990938984751
 31
0.0
  0
LINE
  5
3BF
330
1F
100
AcDbEntity
  8
0
100
AcDbLine
 10
-12.0
 20
24.50000000000034
 30
0.0
 11
-12.0
 21
23.50000000000068
 31
0.0
  0
LINE
  5
3C0
330
1F
100
AcDbEntity
  8
0
100
AcDbLine
 10
-12.0
 20
17.0
 30
0.0
 11
-11.99999999999988
 21
10.00001525878906
 31
0.0
  0
LINE
  5
3C1
330
1F
100
AcDbEntity
  8
0
100
AcDbLine
 10
-11.99999999999988
 20
7.000015258789062
 30
0.0
 11
-12.0
 21
2.999993130630741
 31
0.0
  0
LINE
  5
3C2
330
1F
100
AcDbEntity
  8
0
100
AcDbLine
 10
-19.11321837403261
 20
25.25000111702627
 30
0.0
 11
-24.88671837403263
 21
25.25000111702627
 31
0.0
  0
LINE
  5
3C3
330
1F
100
AcDbEntity
  8
0
100
AcDbLine
 10
-24.88671837403263
 20
15.25000577952744
 30
0.0
 11
-19.11321837403261
 21
15.25000577952744
 31
0.0
  0
CIRCLE
  5
3C4
330
1F
100
AcDbEntity
  8
0
100
AcDbCircle
 10
-21.99996837403262
 20
20.25000344827686
 30
0.0
 40
4.899999999999998
  0
LINE
  5
3C5
330
1F
100
AcDbEntity
  8
0
100
AcDbLine
 10
-24.88671837403263
 20
25.25000111702627
 30
0.0
 11
-27.77346837403263
 21
20.25000344827686
 31
0.0
  0
LINE
  5
3C6
330
1F
100
AcDbEntity
  8
0
100
AcDbLine
 10
-27.77346837403263
 20
20.25000344827686
 30
0.0
 11
-24.88671837403263
 21
15.25000577952744
 31
0.0
  0
LINE
  5
3C7
330
1F
100
AcDbEntity
  8
0
100
AcDbLine
 10
-16.2264683740326
 20
20.25000344827686
 30
0.0
 11
-19.11321837403261
 21
25.25000111702627
 31
0.0
  0
LINE
  5
3C8
330
1F
100
AcDbEntity
  8
0
100
AcDbLine
 10
-19.11321837403261
 20
15.25000577952744
 30
0.0
 11
-16.2264683740326
 21
20.25000344827686
 31
0.0
  0
LINE
  5
3C9
330
1F
100
AcDbEntity
  8
0
100
AcDbLine
 10
19.99999618530273
 20
17.85000344827688
 30
0.0
 11
15.59999999999991
 21
17.85000344827688
 31
0.0
  0
LINE
  5
3CA
330
1F
100
AcDbEntity
  8
0
100
AcDbLine
 10
19.99999618530273
 20
22.65000344827683
 30
0.0
 11
15.59999999999991
 21
22.65000344827683
 31
0.0
  0
LINE
  5
3CB
330
1F
100
AcDbEntity
  8
0
100
AcDbLine
 10
19.99999618530273
 20
17.25000344827686
 30
0.0
 11
15.59999999999991
 21
17.25000344827686
 31
0.0
  0
LINE
  5
3CC
330
1F
100
AcDbEntity
  8
0
100
AcDbLine
 10
19.99999618530273
 20
23.25000344827686
 30
0.0
 11
15.59999999999991
 21
23.25000344827686
 31
0.0
  0
LINE
  5
3CD
330
1F
100
AcDbEntity
  8
0
100
AcDbLine
 10
19.99999618530273
 20
20.25000344827686
 30
0.0
 11
23.49568096030271
 21
20.25000344827686
 31
0.0
  0
ARC
  5
3CE
330
1F
100
AcDbEntity
  8
0
100
AcDbCircle
 10
16.7213110586548
 20
17.75000344827686
 30
0.0
 40
7.220950126647949
100
AcDbArc
 50
339.7444344830269
 51
20.25541343158133
  0
ARC
  5
3CF
330
1F
100
AcDbEntity
  8
0
100
AcDbCircle
 10
16.7213110586548
 20
22.75000344827686
 30
0.0
 40
7.220950126647949
100
AcDbArc
 50
339.7444344830269
 51
20.25541343158133
  0
LINE
  5
3D0
330
1F
100
AcDbEntity
  8
0
100
AcDbLine
 10
23.99999618530273
 20
15.35000344827688
 30
0.0
 11
23.99999618530273
 21
25.15000344827683
 31
0.0
  0
LINE
  5
3D1
330
1F
100
AcDbEntity
  8
0
100
AcDbLine
 10
23.8999961853026
 20
15.25000344827686
 30
0.0
 11
23.99999618530273
 21
15.35000344827688
 31
0.0
  0
LINE
  5
3D2
330
1F
100
AcDbEntity
  8
0
100
AcDbLine
 10
23.8999961853026
 20
25.25000344827686
 30
0.0
 11
23.99999618530273
 21
25.15000344827683
 31
0.0
  0
LINE
  5
3D3
330
1F
100
AcDbEntity
  8
0
100
AcDbLine
 10
19.99999618530273
 20
15.25000344827686
 30
0.0
 11
23.8999961853026
 21
15.25000344827686
 31
0.0
  0
LINE
  5
3D4
330
1F
100
AcDbEntity
  8
0
100
AcDbLine
 10
19.99999618530273
 20
25.25000344827686
 30
0.0
 11
23.8999961853026
 21
25.25000344827686
 31
0.0
  0
LINE
  5
3D5
330
1F
100
AcDbEntity
  8
0
100
AcDbLine
 10
19.99999618530273
 20
15.25000344827686
 30
0.0
 11
19.99999618530273
 21
25.25000344827686
 31
0.0
  0
LINE
  5
3D6
330
1F
100
AcDbEntity
  8
0
100
AcDbLine
 10
15.59999999999991
 20
15.35000344827688
 30
0.0
 11
15.59999999999991
 21
25.15000344827683
 31
0.0
  0
ARC
  5
3D7
330
1F
100
AcDbEntity
  8
0
100
AcDbCircle
 10
8.321314873351866
 20
17.75000344827686
 30
0.0
 40
7.220950126647949
100
AcDbArc
 50
339.7444458007813
 51
20.25555419921869
  0
ARC
  5
3D8
330
1F
100
AcDbEntity
  8
0
100
AcDbCircle
 10
19.27868512664793
 20
17.75000344827686
 30
0.0
 40
7.220950126647949
100
AcDbArc
 50
159.7440290212179
 51
200.2555541992187
  0
ARC
  5
3D9
330
1F
100
AcDbEntity
  8
0
100
AcDbCircle
 10
8.32131487335198
 20
22.75000344827686
 30
0.0
 40
7.220950126647949
100
AcDbArc
 50
339.7444458007813
 51
20.25555419921869
  0
ARC
  5
3DA
330
1F
100
AcDbEntity
  8
0
100
AcDbCircle
 10
19.27868512664793
 20
22.75000344827686
 30
0.0
 40
7.220950126647949
100
AcDbArc
 50
159.7444458007813
 51
200.255970978782
  0
LINE
  5
3DB
330
1F
100
AcDbEntity
  8
0
100
AcDbLine
 10
12.05773499999998
 20
25.25000344827686
 30
0.0
 11
15.54226499999993
 21
25.25000344827686
 31
0.0
  0
LINE
  5
3DC
330
1F
100
AcDbEntity
  8
0
100
AcDbLine
 10
15.54226499999993
 20
25.25000344827686
 30
0.0
 11
15.59999999999991
 21
25.15000344827683
 31
0.0
  0
LINE
  5
3DD
330
1F
100
AcDbEntity
  8
0
100
AcDbLine
 10
12.05773499999998
 20
25.25000344827686
 30
0.0
 11
12.0
 21
25.15000344827683
 31
0.0
  0
LINE
  5
3DE
330
1F
100
AcDbEntity
  8
0
100
AcDbLine
 10
12.50431277701011
 20
20.25000344827686
 30
0.0
 11
15.09568477499988
 21
20.25000344827686
 31
0.0
  0
LINE
  5
3DF
330
1F
100
AcDbEntity
  8
0
100
AcDbLine
 10
12.05773499999986
 20
15.25000344827686
 30
0.0
 11
15.54226499999993
 21
15.25000344827686
 31
0.0
  0
LINE
  5
3E0
330
1F
100
AcDbEntity
  8
0
100
AcDbLine
 10
15.54226499999993
 20
15.25000344827686
 30
0.0
 11
15.59999999999991
 21
15.35000344827688
 31
0.0
  0
LINE
  5
3E1
330
1F
100
AcDbEntity
  8
0
100
AcDbLine
 10
12.05773499999986
 20
15.25000344827686
 30
0.0
 11
12.0
 21
15.35000344827688
 31
0.0
  0
LINE
  5
3E2
330
1F
100
AcDbEntity
  8
1
100
AcDbLine
 10
27.1354149252519
 20
20.25000344827686
 30
0.0
 11
7.648783404844721
 21
20.25000344827686
 31
0.0
  0
LINE
  5
3E3
330
1F
100
AcDbEntity
  8
1
100
AcDbLine
 10
-29.46681610513463
 20
20.2500034482764
 30
0.0
 11
-14.53312064293015
 21
20.2500034482764
 31
0.0
  0
LINE
  5
3E4
330
1F
100
AcDbEntity
  8
0
100
AcDbLine
 10
7.904768961433092
 20
2.000000000000113
 30
0.0
 11
-7.904768961433092
 21
2.000000000000113
 31
0.0
  0
LINE
  5
3E5
330
1F
100
AcDbEntity
  8
0
100
AcDbLine
 10
24.09999879897032
 20
217.7146396028813
 30
0.0
 11
18.32649879897042
 21
217.7146396028813
 31
0.0
  0
LINE
  5
3E6
330
1F
100
AcDbEntity
  8
0
100
AcDbLine
 10
18.32649879897042
 20
207.7146442653825
 30
0.0
 11
24.09999879897032
 21
207.7146442653825
 31
0.0
  0
CIRCLE
  5
3E7
330
1F
100
AcDbEntity
  8
0
100
AcDbCircle
 10
21.21324879897043
 20
212.7146419341318
 30
0.0
 40
4.899999999999998
  0
LINE
  5
3E8
330
1F
100
AcDbEntity
  8
0
100
AcDbLine
 10
18.32649879897042
 20
217.7146396028813
 30
0.0
 11
15.43974879897041
 21
212.7146419341318
 31
0.0
  0
LINE
  5
3E9
330
1F
100
AcDbEntity
  8
0
100
AcDbLine
 10
15.43974879897041
 20
212.7146419341318
 30
0.0
 11
18.32649879897042
 21
207.7146442653825
 31
0.0
  0
LINE
  5
3EA
330
1F
100
AcDbEntity
  8
0
100
AcDbLine
 10
26.98674879897044
 20
212.7146419341318
 30
0.0
 11
24.09999879897032
 21
217.7146396028813
 31
0.0
  0
LINE
  5
3EB
330
1F
100
AcDbEntity
  8
0
100
AcDbLine
 10
24.09999879897032
 20
207.7146442653825
 30
0.0
 11
26.98674879897044
 21
212.7146419341318
 31
0.0
  0
CIRCLE
  5
3EC
330
1F
100
AcDbEntity
  8
0
100
AcDbCircle
 10
21.21324879897043
 20
212.7146419341318
 30
0.0
 40
6.099999999999999
  0
LINE
  5
3ED
330
1F
100
AcDbEntity
  8
0
100
AcDbLine
 10
-18.32645640465762
 20
217.7146237773267
 30
0.0
 11
-18.99998450330429
 21
217.7146237773267
 31
0.0
  0
LINE
  5
3EE
330
1F
100
AcDbEntity
  8
0
100
AcDbLine
 10
-24.09995640465752
 20
207.7146284398279
 30
0.0
 11
-18.32645640465762
 21
207.7146284398279
 31
0.0
  0
ARC
  5
3EF
330
1F
100
AcDbEntity
  8
0
100
AcDbCircle
 10
-21.21320640465751
 20
212.7146261085772
 30
0.0
 40
4.899999999999998
100
AcDbArc
 50
214.6615450428071
 51
326.2023872329333
  0
LINE
  5
3F0
330
1F
100
AcDbEntity
  8
0
100
AcDbLine
 10
-24.99998450330429
 20
216.1557293822309
 30
0.0
 11
-26.28624499062658
 21
213.9278608664204
 31
0.0
  0
LINE
  5
3F1
330
1F
100
AcDbEntity
  8
0
100
AcDbLine
 10
-25.37776674192993
 20
209.9278608664204
 30
0.0
 11
-24.09995640465752
 21
207.7146284398279
 31
0.0
  0
LINE
  5
3F2
330
1F
100
AcDbEntity
  8
0
100
AcDbLine
 10
-15.4397064046575
 20
212.7146261085772
 30
0.0
 11
-18.32645640465762
 21
217.7146237773267
 31
0.0
  0
LINE
  5
3F3
330
1F
100
AcDbEntity
  8
0
100
AcDbLine
 10
-18.32645640465762
 20
207.7146284398279
 30
0.0
 11
-16.98973065025373
 21
210.0299053622411
 31
0.0
  0
ARC
  5
3F4
330
1F
100
AcDbEntity
  8
0
100
AcDbCircle
 10
-21.21320640465751
 20
212.7146261085772
 30
0.0
 40
6.099999999999999
100
AcDbArc
 50
206.9486535906147
 51
66.95554575963647
  0
ARC
  5
3F5
330
1F
100
AcDbEntity
  8
1
100
AcDbCircle
 10
0.0
 20
233.9278453697252
 30
0.0
 40
30.0
100
AcDbArc
 50
294.4396117459508
 51
62.3680707492506
  0
ARC
  5
3FC
330
1F
100
AcDbEntity
  8
0
100
AcDbCircle
 10
-21.21320640465751
 20
212.7146261085772
 30
0.0
 40
4.899999999999998
100
AcDbArc
 50
14.33547460741578
 51
63.14861015673327
  0
LINE
  5
3FD
330
1F
100
AcDbEntity
  8
0
100
AcDbLine
 10
-16.22648596814804
 20
211.3518839302548
 30
0.0
 11
-15.4397064046575
 21
212.7146261085772
 31
0.0
  0
ARC
  5
3FE
330
1F
100
AcDbEntity
  8
0
100
AcDbCircle
 10
-21.21320640465751
 20
212.7146261085772
 30
0.0
 40
4.899999999999998
100
AcDbArc
 50
140.6070670046083
 51
165.6645253925866
  0
ARC
  5
3FF
330
1F
100
AcDbEntity
  8
0
100
AcDbCircle
 10
-21.21320640465751
 20
212.7146261085772
 30
0.0
 40
6.099999999999999
100
AcDbArc
 50
128.3733574026114
 51
168.527888051833
  0
VIEWPORT
  5
71
330
55
100
AcDbEntity
 67
     1
  8
0
100
AcDbViewport
 10
133.3499908447266
 20
101.5999970436096
 30
0.0
 40
381.3957395593835
 41
218.2856291881582
 68
     1
 69
     1
 12
133.3499908447266
 22
101.5999970436096
 13
0.0
 23
0.0
 14
10.0
 24
10.0
 15
10.0
 25
10.0
 16
0.0
 26
0.0
 36
1.0
 17
0.0
 27
0.0
 37
0.0
 42
50.0
 43
0.0
 44
0.0
 45
218.2856291881582
 50
0.0
 51
0.0
 72
   100
 90
    32800
  1

281
     0
 71
     1
 74
     0
110
0.0
120
0.0
130
0.0
111
1.0
121
0.0
131
0.0
112
0.0
122
1.0
132
0.0
 79
     0
146
0.0
170
     0
 61
     5
348
426
292
     1
282
     1
141
0.0
142
0.0
 63
   250
421
  3355443
  0
VIEWPORT
  5
73
330
55
100
AcDbEntity
 67
     1
  8
0
100
AcDbViewport
 10
133.3499939441681
 20
101.5999939441681
 30
0.0
 40
213.3599903106689
 41
162.5599903106689
 68
     2
 69
     2
 12
210.0
 22
148.5
 13
0.0
 23
0.0
 14
10.0
 24
10.0
 15
10.0
 25
10.0
 16
0.0
 26
0.0
 36
1.0
 17
0.0
 27
0.0
 37
0.0
 42
50.0
 43
0.0
 44
0.0
 45
324.0677920111345
 50
0.0
 51
0.0
 72
   100
 90
    32864
  1

281
     0
 71
     1
 74
     0
110
0.0
120
0.0
130
0.0
111
1.0
121
0.0
131
0.0
112
0.0
122
1.0
132
0.0
 79
     0
146
0.0
170
     0
 61
     5
348
426
292
     1
282
     1
141
0.0
142
0.0
 63
   250
421
  3355443
  0
ENDSEC
  0
SECTION
  2
OBJECTS
  0
DICTIONARY
  5
C
330
0
100
AcDbDictionary
281
     1
  3
ACAD_COLOR
350
434
  3
ACAD_GROUP
350
D
  3
ACAD_LAYOUT
350
1A
  3
ACAD_MATERIAL
350
407
  3
ACAD_MLEADERSTYLE
350
449
  3
ACAD_MLINESTYLE
350
17
  3
ACAD_PLOTSETTINGS
350
19
  3
ACAD_PLOTSTYLENAME
350
E
  3
ACAD_SCALELIST
350
437
  3
ACAD_TABLESTYLE
350
435
  3
ACAD_VISUALSTYLE
350
420
  3
ACDB_RECOMPOSE_DATA
350
458
  3
AcDbVariableDictionary
350
5E
  0
DICTIONARY
  5
9B
330
2
100
AcDbDictionary
280
     1
281
     1
  3
ACAD_LAYERSTATES
360
9C
  0
DICTIONARY
  5
44D
330
10
100
AcDbDictionary
280
     1
281
     1
  3
ADSK_XREC_LAYER_RECONCILED
360
44E
  0
DICTIONARY
  5
90
330
8F
100
AcDbDictionary
280
     1
281
     1
  3
ADSK_XREC_LAYER_RECONCILED
360
91
  0
DICTIONARY
  5
93
330
92
100
AcDbDictionary
280
     1
281
     1
  3
ADSK_XREC_LAYER_RECONCILED
360
94
  0
DICTIONARY
  5
434
102
{ACAD_REACTORS
330
C
102
}
330
C
100
AcDbDictionary
281
     1
  0
DICTIONARY
  5
D
102
{ACAD_REACTORS
330
C
102
}
330
C
100
AcDbDictionary
281
     1
  0
DICTIONARY
  5
1A
102
{ACAD_REACTORS
330
C
102
}
330
C
100
AcDbDictionary
281
     1
  3
Model
350
22
  3
ﾚｲｱｳﾄ1
350
51
  3
ﾚｲｱｳﾄ2
350
56
  0
DICTIONARY
  5
407
102
{ACAD_REACTORS
330
C
102
}
330
C
100
AcDbDictionary
281
     1
  3
ByBlock
350
410
  3
ByLayer
350
408
  3
Global
350
418
  0
DICTIONARY
  5
449
102
{ACAD_REACTORS
330
C
102
}
330
C
100
AcDbDictionary
281
     1
  3
Standard
350
44A
  0
DICTIONARY
  5
17
102
{ACAD_REACTORS
330
C
102
}
330
C
100
AcDbDictionary
281
     1
  3
Standard
350
18
  0
DICTIONARY
  5
19
102
{ACAD_REACTORS
330
C
102
}
330
C
100
AcDbDictionary
281
     1
  0
ACDBDICTIONARYWDFLT
  5
E
102
{ACAD_REACTORS
330
C
102
}
330
C
100
AcDbDictionary
281
     1
  3
Normal
350
F
100
AcDbDictionaryWithDefault
340
F
  0
DICTIONARY
  5
437
102
{ACAD_REACTORS
330
C
102
}
330
C
100
AcDbDictionary
281
     1
  3
A0
350
438
  3
A1
350
439
  3
A2
350
43A
  3
A3
350
43B
  3
A4
350
43C
  3
A5
350
43D
  3
A6
350
43E
  3
A7
350
43F
  3
A8
350
440
  3
A9
350
441
  3
B0
350
442
  3
B1
350
443
  3
B2
350
444
  3
B3
350
445
  3
B4
350
446
  3
B5
350
447
  3
B6
350
448
  0
DICTIONARY
  5
435
102
{ACAD_REACTORS
330
C
102
}
330
C
100
AcDbDictionary
281
     1
  3
Standard
350
436
  0
DICTIONARY
  5
420
102
{ACAD_REACTORS
330
C
102
}
330
C
100
AcDbDictionary
281
     1
  3
2dWireframe
350
426
  3
3D Hidden
350
428
  3
3dWireframe
350
427
  3
Basic
350
425
  3
Brighten
350
42C
  3
ColorChange
350
430
  3
Conceptual
350
429
  3
Dim
350
42B
  3
EdgeColorOff
350
433
  3
Facepattern
350
42F
  3
Flat
350
421
  3
FlatWithEdges
350
422
  3
Gouraud
350
423
  3
GouraudWithEdges
350
424
  3
JitterOff
350
431
  3
Linepattern
350
42E
  3
OverhangOff
350
432
  3
Realistic
350
42A
  3
Thicken
350
42D
  0
XRECORD
  5
458
102
{ACAD_REACTORS
330
C
102
}
330
C
100
AcDbXrecord
280
     1
 90
        1
330
436
  0
DICTIONARY
  5
5E
102
{ACAD_REACTORS
330
C
102
}
330
C
100
AcDbDictionary
281
     1
  3
CANNOSCALE
350
452
  3
CMLEADERSTYLE
350
450
  3
CTABLESTYLE
350
44F
  3
DIMASSOC
350
5F
  3
HIDETEXT
350
63
  3
LAYEREVAL
350
454
  3
LAYERNOTIFY
350
455
  3
LIGHTINGUNITS
350
453
  3
MSLTSCALE
350
451
  0
DICTIONARY
  5
9C
102
{ACAD_REACTORS
330
9B
102
}
330
9B
100
AcDbDictionary
281
     1
  0
XRECORD
  5
44E
102
{ACAD_REACTORS
330
44D
102
}
330
44D
100
AcDbXrecord
280
     1
290
     1
  0
XRECORD
  5
91
102
{ACAD_REACTORS
330
90
102
}
330
90
100
AcDbXrecord
280
     1
290
     1
  0
XRECORD
  5
94
102
{ACAD_REACTORS
330
93
102
}
330
93
100
AcDbXrecord
280
     1
290
     1
  0
LAYOUT
  5
22
102
{ACAD_REACTORS
330
1A
102
}
330
1A
100
AcDbPlotSettings
  1

  2
none_device
  4
ANSI_A_(8.50_x_11.00_Inches)
  6

 40
6.349999904632568
 41
19.04999923706055
 42
6.350006103515625
 43
19.04998779296875
 44
215.8999938964844
 45
279.3999938964844
 46
0.0
 47
0.0
 48
0.0
 49
0.0
140
0.0
141
0.0
142
1.0
143
78.436453180766
 70
 11952
 72
     0
 73
     1
 74
     0
  7

 75
     0
147
0.0127491741332998
 76
     0
 77
     2
 78
   300
148
0.0
149
0.0
100
AcDbLayout
  1
Model
 70
     1
 71
     0
 10
0.0
 20
0.0
 11
12.0
 21
9.0
 12
0.0
 22
0.0
 32
0.0
 14
0.0
 24
0.0
 34
0.0
 15
0.0
 25
0.0
 35
0.0
146
0.0
 13
0.0
 23
0.0
 33
0.0
 16
1.0
 26
0.0
 36
0.0
 17
0.0
 27
1.0
 37
0.0
 76
     0
330
1F
331
405
  0
LAYOUT
  5
51
102
{ACAD_REACTORS
330
1A
102
}
330
1A
100
AcDbPlotSettings
  1

  2
none_device
  4
Letter_(8.50_x_11.00_Inches)
  6

 40
6.349999904632568
 41
6.349999904632568
 42
6.350006103515625
 43
6.350006103515625
 44
215.8999938964844
 45
279.3999938964844
 46
0.0
 47
0.0
 48
0.0
 49
0.0
140
0.0
141
0.0
142
1.0
143
1.0
 70
   688
 72
     1
 73
     1
 74
     5
  7

 75
    16
147
1.0
 76
     0
 77
     2
 78
   300
148
0.0
149
0.0
100
AcDbLayout
  1
ﾚｲｱｳﾄ1
 70
     1
 71
     1
 10
-6.350006103515625
 20
-6.349999904632568
 11
273.0499877929688
 21
209.5499939918518
 12
0.0
 22
0.0
 32
0.0
 14
26.66076962115563
 24
20.31135699206658
 34
-0.0015258207003583
 15
240.039213369355
 25
182.8886381005154
 35
0.0000000349246037
146
0.0
 13
0.0
 23
0.0
 33
0.0
 16
1.0
 26
0.0
 36
0.0
 17
0.0
 27
1.0
 37
0.0
 76
     0
330
50
331
6B
  0
LAYOUT
  5
56
102
{ACAD_REACTORS
330
1A
102
}
330
1A
100
AcDbPlotSettings
  1

  2
none_device
  4
Letter_(8.50_x_11.00_Inches)
  6

 40
6.349999904632568
 41
6.349999904632568
 42
6.350006103515625
 43
6.350006103515625
 44
215.8999938964844
 45
279.3999938964844
 46
0.0
 47
0.0
 48
0.0
 49
0.0
140
0.0
141
0.0
142
1.0
143
1.0
 70
   688
 72
     1
 73
     1
 74
     5
  7

 75
    16
147
1.0
 76
     0
 77
     2
 78
   300
148
0.0
149
0.0
100
AcDbLayout
  1
ﾚｲｱｳﾄ2
 70
     1
 71
     2
 10
-6.350006103515625
 20
-6.349999904632568
 11
273.0499877929688
 21
209.5499939918518
 12
0.0
 22
0.0
 32
0.0
 14
26.66076962115563
 24
20.31135699206658
 34
-0.0015258207003583
 15
240.039213369355
 25
182.8886381005154
 35
0.0000000349246037
146
0.0
 13
0.0
 23
0.0
 33
0.0
 16
1.0
 26
0.0
 36
0.0
 17
0.0
 27
1.0
 37
0.0
 76
     0
330
55
331
71
  0
MATERIAL
  5
410
102
{ACAD_XDICTIONARY
360
411
102
}
102
{ACAD_REACTORS
330
407
102
}
330
407
100
AcDbMaterial
  1
ByBlock
 72
     0
 43
0.0008202099737533
 43
0.0
 43
0.0
 43
0.0
 43
0.0
 43
0.0008202099737533
 43
0.0
 43
0.0
 43
0.0
 43
0.0
 43
1.0
 43
0.0
 43
0.0
 43
0.0
 43
0.0
 43
1.0
 77
     0
 47
0.0008202099737533
 47
0.0
 47
0.0
 47
0.0
 47
0.0
 47
0.0008202099737533
 47
0.0
 47
0.0
 47
0.0
 47
0.0
 47
1.0
 47
0.0
 47
0.0
 47
0.0
 47
0.0
 47
1.0
171
     0
 49
0.0008202099737533
 49
0.0
 49
0.0
 49
0.0
 49
0.0
 49
0.0008202099737533
 49
0.0
 49
0.0
 49
0.0
 49
0.0
 49
1.0
 49
0.0
 49
0.0
 49
0.0
 49
0.0
 49
1.0
175
     0
142
0.0008202099737533
142
0.0
142
0.0
142
0.0
142
0.0
142
0.0008202099737533
142
0.0
142
0.0
142
0.0
142
0.0
142
1.0
142
0.0
142
0.0
142
0.0
142
0.0
142
1.0
179
     0
144
0.0008202099737533
144
0.0
144
0.0
144
0.0
144
0.0
144
0.0008202099737533
144
0.0
144
0.0
144
0.0
144
0.0
144
1.0
144
0.0
144
0.0
144
0.0
144
0.0
144
1.0
147
0.0008202099737533
147
0.0
147
0.0
147
0.0
147
0.0
147
0.0008202099737533
147
0.0
147
0.0
147
0.0
147
0.0
147
1.0
147
0.0
147
0.0
147
0.0
147
0.0
147
1.0
  0
MATERIAL
  5
408
102
{ACAD_XDICTIONARY
360
409
102
}
102
{ACAD_REACTORS
330
407
102
}
330
407
100
AcDbMaterial
  1
ByLayer
 72
     0
 43
0.0008202099737533
 43
0.0
 43
0.0
 43
0.0
 43
0.0
 43
0.0008202099737533
 43
0.0
 43
0.0
 43
0.0
 43
0.0
 43
1.0
 43
0.0
 43
0.0
 43
0.0
 43
0.0
 43
1.0
 77
     0
 47
0.0008202099737533
 47
0.0
 47
0.0
 47
0.0
 47
0.0
 47
0.0008202099737533
 47
0.0
 47
0.0
 47
0.0
 47
0.0
 47
1.0
 47
0.0
 47
0.0
 47
0.0
 47
0.0
 47
1.0
171
     0
 49
0.0008202099737533
 49
0.0
 49
0.0
 49
0.0
 49
0.0
 49
0.0008202099737533
 49
0.0
 49
0.0
 49
0.0
 49
0.0
 49
1.0
 49
0.0
 49
0.0
 49
0.0
 49
0.0
 49
1.0
175
     0
142
0.0008202099737533
142
0.0
142
0.0
142
0.0
142
0.0
142
0.0008202099737533
142
0.0
142
0.0
142
0.0
142
0.0
142
1.0
142
0.0
142
0.0
142
0.0
142
0.0
142
1.0
179
     0
144
0.0008202099737533
144
0.0
144
0.0
144
0.0
144
0.0
144
0.0008202099737533
144
0.0
144
0.0
144
0.0
144
0.0
144
1.0
144
0.0
144
0.0
144
0.0
144
0.0
144
1.0
147
0.0008202099737533
147
0.0
147
0.0
147
0.0
147
0.0
147
0.0008202099737533
147
0.0
147
0.0
147
0.0
147
0.0
147
1.0
147
0.0
147
0.0
147
0.0
147
0.0
147
1.0
  0
MATERIAL
  5
418
102
{ACAD_XDICTIONARY
360
419
102
}
102
{ACAD_REACTORS
330
407
102
}
330
407
100
AcDbMaterial
  1
Global
 72
     0
 43
0.0008202099737533
 43
0.0
 43
0.0
 43
0.0
 43
0.0
 43
0.0008202099737533
 43
0.0
 43
0.0
 43
0.0
 43
0.0
 43
1.0
 43
0.0
 43
0.0
 43
0.0
 43
0.0
 43
1.0
 77
     0
 47
0.0008202099737533
 47
0.0
 47
0.0
 47
0.0
 47
0.0
 47
0.0008202099737533
 47
0.0
 47
0.0
 47
0.0
 47
0.0
 47
1.0
 47
0.0
 47
0.0
 47
0.0
 47
0.0
 47
1.0
171
     0
 49
0.0008202099737533
 49
0.0
 49
0.0
 49
0.0
 49
0.0
 49
0.0008202099737533
 49
0.0
 49
0.0
 49
0.0
 49
0.0
 49
1.0
 49
0.0
 49
0.0
 49
0.0
 49
0.0
 49
1.0
175
     0
142
0.0008202099737533
142
0.0
142
0.0
142
0.0
142
0.0
142
0.0008202099737533
142
0.0
142
0.0
142
0.0
142
0.0
142
1.0
142
0.0
142
0.0
142
0.0
142
0.0
142
1.0
179
     0
144
0.0008202099737533
144
0.0
144
0.0
144
0.0
144
0.0
144
0.0008202099737533
144
0.0
144
0.0
144
0.0
144
0.0
144
1.0
144
0.0
144
0.0
144
0.0
144
0.0
144
1.0
147
0.0008202099737533
147
0.0
147
0.0
147
0.0
147
0.0
147
0.0008202099737533
147
0.0
147
0.0
147
0.0
147
0.0
147
1.0
147
0.0
147
0.0
147
0.0
147
0.0
147
1.0
  0
MLEADERSTYLE
  5
44A
102
{ACAD_REACTORS
330
449
102
}
330
449
100
AcDbMLeaderStyle
179
     2
170
     2
171
     1
172
     0
 90
        2
 40
0.0
 41
0.0
173
     1
 91
-1056964608
340
14
 92
       -2
290
     1
 42
2.0
291
     1
 43
0.36
  3
Standard
 44
4.0
300

342
11
174
     1
178
     6
175
     1
176
     0
 93
-1056964608
 45
4.0
292
     0
297
     0
 46
4.0
 94
-1056964608
 47
1.0
 49
1.0
140
1.0
293
     1
141
0.0
294
     1
177
     0
142
1.0
295
     1
296
     0
143
0.125
271
     0
272
     9
273
     9
  0
MLINESTYLE
  5
18
102
{ACAD_REACTORS
330
17
102
}
330
17
100
AcDbMlineStyle
  2
STANDARD
 70
     0
  3

 62
   256
 51
90.0
 52
90.0
 71
     2
 49
0.5
 62
   256
  6
BYLAYER
 49
-0.5
 62
   256
  6
BYLAYER
  0
ACDBPLACEHOLDER
  5
F
102
{ACAD_REACTORS
330
E
102
}
330
E
  0
SCALE
  5
438
102
{ACAD_REACTORS
330
437
102
}
330
437
100
AcDbScale
 70
     0
300
1:1
140
1.0
141
1.0
290
     1
  0
SCALE
  5
439
102
{ACAD_REACTORS
330
437
102
}
330
437
100
AcDbScale
 70
     0
300
1:2
140
1.0
141
2.0
290
     0
  0
SCALE
  5
43A
102
{ACAD_REACTORS
330
437
102
}
330
437
100
AcDbScale
 70
     0
300
1:4
140
1.0
141
4.0
290
     0
  0
SCALE
  5
43B
102
{ACAD_REACTORS
330
437
102
}
330
437
100
AcDbScale
 70
     0
300
1:5
140
1.0
141
5.0
290
     0
  0
SCALE
  5
43C
102
{ACAD_REACTORS
330
437
102
}
330
437
100
AcDbScale
 70
     0
300
1:8
140
1.0
141
8.0
290
     0
  0
SCALE
  5
43D
102
{ACAD_REACTORS
330
437
102
}
330
437
100
AcDbScale
 70
     0
300
1:10
140
1.0
141
10.0
290
     0
  0
SCALE
  5
43E
102
{ACAD_REACTORS
330
437
102
}
330
437
100
AcDbScale
 70
     0
300
1:16
140
1.0
141
16.0
290
     0
  0
SCALE
  5
43F
102
{ACAD_REACTORS
330
437
102
}
330
437
100
AcDbScale
 70
     0
300
1:20
140
1.0
141
20.0
290
     0
  0
SCALE
  5
440
102
{ACAD_REACTORS
330
437
102
}
330
437
100
AcDbScale
 70
     0
300
1:30
140
1.0
141
30.0
290
     0
  0
SCALE
  5
441
102
{ACAD_REACTORS
330
437
102
}
330
437
100
AcDbScale
 70
     0
300
1:40
140
1.0
141
40.0
290
     0
  0
SCALE
  5
442
102
{ACAD_REACTORS
330
437
102
}
330
437
100
AcDbScale
 70
     0
300
1:50
140
1.0
141
50.0
290
     0
  0
SCALE
  5
443
102
{ACAD_REACTORS
330
437
102
}
330
437
100
AcDbScale
 70
     0
300
1:100
140
1.0
141
100.0
290
     0
  0
SCALE
  5
444
102
{ACAD_REACTORS
330
437
102
}
330
437
100
AcDbScale
 70
     0
300
2:1
140
2.0
141
1.0
290
     0
  0
SCALE
  5
445
102
{ACAD_REACTORS
330
437
102
}
330
437
100
AcDbScale
 70
     0
300
4:1
140
4.0
141
1.0
290
     0
  0
SCALE
  5
446
102
{ACAD_REACTORS
330
437
102
}
330
437
100
AcDbScale
 70
     0
300
8:1
140
8.0
141
1.0
290
     0
  0
SCALE
  5
447
102
{ACAD_REACTORS
330
437
102
}
330
437
100
AcDbScale
 70
     0
300
10:1
140
10.0
141
1.0
290
     0
  0
SCALE
  5
448
102
{ACAD_REACTORS
330
437
102
}
330
437
100
AcDbScale
 70
     0
300
100:1
140
100.0
141
1.0
290
     0
  0
TABLESTYLE
  5
436
102
{ACAD_XDICTIONARY
360
456
102
}
102
{ACAD_REACTORS
330
435
102
}
330
435
100
AcDbTableStyle
280
     0
  3
Standard
 70
     0
 71
     0
 40
1.5
 41
1.5
280
     0
281
     0
  7
Standard
140
4.5
170
     2
 62
     0
 63
     7
283
     0
 90
      512
 91
        0
  1

274
    -2
284
     1
 64
     0
275
    -2
285
     1
 65
     0
276
    -2
286
     1
 66
     0
277
    -2
287
     1
 67
     0
278
    -2
288
     1
 68
     0
279
    -2
289
     1
 69
     0
  7
Standard
140
6.0
170
     5
 62
     0
 63
     7
283
     0
 90
      512
 91
        0
  1

274
    -2
284
     1
 64
     0
275
    -2
285
     1
 65
     0
276
    -2
286
     1
 66
     0
277
    -2
287
     1
 67
     0
278
    -2
288
     1
 68
     0
279
    -2
289
     1
 69
     0
  7
Standard
140
4.5
170
     5
 62
     0
 63
     7
283
     0
 90
      512
 91
        0
  1

274
    -2
284
     1
 64
     0
275
    -2
285
     1
 65
     0
276
    -2
286
     1
 66
     0
277
    -2
287
     1
 67
     0
278
    -2
288
     1
 68
     0
279
    -2
289
     1
 69
     0
  0
VISUALSTYLE
  5
426
102
{ACAD_REACTORS
330
420
102
}
330
420
100
AcDbVisualStyle
  2
2dWireframe
 70
     4
177
     2
291
     0
 71
     0
176
     1
 72
     2
176
     1
 73
     0
176
     1
 90
        0
176
     1
 40
0.6
176
     1
 41
30.0
176
     1
 63
     7
421
 16777215
176
     1
 74
     1
176
     1
 91
        4
176
     1
 64
     7
176
     1
 65
   257
176
     1
 75
     1
176
     1
175
     1
176
     1
 42
1.0
176
     1
 92
        0
176
     1
 66
   257
176
     1
 43
1.0
176
     1
 76
     1
176
     1
 77
     6
176
     1
 78
     2
176
     1
 67
     7
176
     1
 79
     5
176
     1
170
     0
176
     1
171
     0
176
     1
290
     0
176
     1
 93
        1
176
     1
 44
0.0
176
     1
173
     0
176
     1
  0
VISUALSTYLE
  5
428
102
{ACAD_REACTORS
330
420
102
}
330
420
100
AcDbVisualStyle
  2
3D Hidden
 70
     6
177
     2
291
     0
 71
     1
176
     1
 72
     2
176
     1
 73
     2
176
     1
 90
        0
176
     1
 40
0.6
176
     1
 41
30.0
176
     1
 63
     7
421
 16777215
176
     1
 74
     2
176
     1
 91
        2
176
     1
 64
     7
176
     1
 65
   257
176
     1
 75
     2
176
     1
175
     1
176
     1
 42
179.0
176
     1
 92
        0
176
     1
 66
   257
176
     1
 43
1.0
176
     1
 76
     1
176
     1
 77
     6
176
     1
 78
     2
176
     1
 67
     7
176
     1
 79
     3
176
     1
170
     0
176
     1
171
     0
176
     1
290
     0
176
     1
 93
        1
176
     1
 44
0.0
176
     1
173
     0
176
     1
  0
VISUALSTYLE
  5
427
102
{ACAD_REACTORS
330
420
102
}
330
420
100
AcDbVisualStyle
  2
3dWireframe
 70
     5
177
     2
291
     0
 71
     0
176
     1
 72
     2
176
     1
 73
     0
176
     1
 90
        0
176
     1
 40
0.6
176
     1
 41
30.0
176
     1
 63
     7
421
 16777215
176
     1
 74
     1
176
     1
 91
        4
176
     1
 64
     7
176
     1
 65
   257
176
     1
 75
     1
176
     1
175
     1
176
     1
 42
1.0
176
     1
 92
        0
176
     1
 66
   257
176
     1
 43
1.0
176
     1
 76
     1
176
     1
 77
     6
176
     1
 78
     2
176
     1
 67
     7
176
     1
 79
     5
176
     1
170
     0
176
     1
171
     0
176
     1
290
     0
176
     1
 93
        1
176
     1
 44
0.0
176
     1
173
     0
176
     1
  0
VISUALSTYLE
  5
425
102
{ACAD_REACTORS
330
420
102
}
330
420
100
AcDbVisualStyle
  2
Basic
 70
     7
177
     2
291
     1
 71
     1
176
     1
 72
     0
176
     1
 73
     1
176
     1
 90
        0
176
     1
 40
0.6
176
     1
 41
30.0
176
     1
 63
     7
421
 16777215
176
     1
 74
     0
176
     1
 91
        4
176
     1
 64
     7
176
     1
 65
   257
176
     1
 75
     1
176
     1
175
     1
176
     1
 42
1.0
176
     1
 92
        8
176
     1
 66
     7
176
     1
 43
1.0
176
     1
 76
     1
176
     1
 77
     6
176
     1
 78
     2
176
     1
 67
     7
176
     1
 79
     5
176
     1
170
     0
176
     1
171
     0
176
     1
290
     0
176
     1
 93
        1
176
     1
 44
0.0
176
     1
173
     0
176
     1
  0
VISUALSTYLE
  5
42C
102
{ACAD_REACTORS
330
420
102
}
330
420
100
AcDbVisualStyle
  2
Brighten
 70
    12
177
     2
291
     1
 71
     2
176
     1
 72
     2
176
     1
 73
     0
176
     1
 90
        0
176
     1
 40
0.6
176
     1
 41
30.0
176
     1
 63
     7
421
 16777215
176
     1
 74
     1
176
     1
 91
        4
176
     1
 64
     7
176
     1
 65
   257
176
     1
 75
     1
176
     1
175
     1
176
     1
 42
1.0
176
     1
 92
        8
176
     1
 66
     7
176
     1
 43
1.0
176
     1
 76
     1
176
     1
 77
     6
176
     1
 78
     2
176
     1
 67
     7
176
     1
 79
     5
176
     1
170
     0
176
     1
171
     0
176
     1
290
     0
176
     1
 93
        1
176
     1
 44
50.0
176
     1
173
     0
176
     1
  0
VISUALSTYLE
  5
430
102
{ACAD_REACTORS
330
420
102
}
330
420
100
AcDbVisualStyle
  2
ColorChange
 70
    16
177
     2
291
     1
 71
     2
176
     1
 72
     2
176
     1
 73
     3
176
     1
 90
        0
176
     1
 40
0.6
176
     1
 41
30.0
176
     1
 63
     8
421
  8421504
176
     1
 74
     1
176
     1
 91
        4
176
     1
 64
     7
176
     1
 65
   257
176
     1
 75
     1
176
     1
175
     1
176
     1
 42
1.0
176
     1
 92
        8
176
     1
 66
     8
424
  8421504
176
     1
 43
1.0
176
     1
 76
     1
176
     1
 77
     6
176
     1
 78
     2
176
     1
 67
     7
176
     1
 79
     5
176
     1
170
     0
176
     1
171
     0
176
     1
290
     0
176
     1
 93
        1
176
     1
 44
0.0
176
     1
173
     0
176
     1
  0
VISUALSTYLE
  5
429
102
{ACAD_REACTORS
330
420
102
}
330
420
100
AcDbVisualStyle
  2
Conceptual
 70
     9
177
     2
291
     0
 71
     3
176
     1
 72
     2
176
     1
 73
     0
176
     1
 90
        0
176
     1
 40
0.6
176
     1
 41
30.0
176
     1
 63
     7
421
 16777215
176
     1
 74
     2
176
     1
 91
        2
176
     1
 64
     7
176
     1
 65
   257
176
     1
 75
     1
176
     1
175
     1
176
     1
 42
179.0
176
     1
 92
        8
176
     1
 66
     7
176
     1
 43
1.0
176
     1
 76
     1
176
     1
 77
     6
176
     1
 78
     2
176
     1
 67
     7
176
     1
 79
     3
176
     1
170
     0
176
     1
171
     0
176
     1
290
     0
176
     1
 93
        1
176
     1
 44
0.0
176
     1
173
     0
176
     1
  0
VISUALSTYLE
  5
42B
102
{ACAD_REACTORS
330
420
102
}
330
420
100
AcDbVisualStyle
  2
Dim
 70
    11
177
     2
291
     1
 71
     2
176
     1
 72
     2
176
     1
 73
     0
176
     1
 90
        0
176
     1
 40
0.6
176
     1
 41
30.0
176
     1
 63
     7
421
 16777215
176
     1
 74
     1
176
     1
 91
        4
176
     1
 64
     7
176
     1
 65
   257
176
     1
 75
     1
176
     1
175
     1
176
     1
 42
1.0
176
     1
 92
        8
176
     1
 66
     7
176
     1
 43
1.0
176
     1
 76
     1
176
     1
 77
     6
176
     1
 78
     2
176
     1
 67
     7
176
     1
 79
     5
176
     1
170
     0
176
     1
171
     0
176
     1
290
     0
176
     1
 93
        1
176
     1
 44
-50.0
176
     1
173
     0
176
     1
  0
VISUALSTYLE
  5
433
102
{ACAD_REACTORS
330
420
102
}
330
420
100
AcDbVisualStyle
  2
EdgeColorOff
 70
    22
177
     2
291
     1
 71
     2
176
     0
 72
     2
176
     0
 73
     0
176
     0
 90
        0
176
     0
 40
0.6
176
     0
 41
30.0
176
     0
 63
     7
421
 16777215
176
     0
 74
     1
176
     0
 91
        4
176
     0
 64
     7
176
     0
 65
   257
176
     0
 75
     1
176
     0
175
     1
176
     0
 42
1.0
176
     0
 92
        8
176
     2
 66
     7
176
     0
 43
1.0
176
     0
 76
     1
176
     0
 77
     6
176
     0
 78
     2
176
     0
 67
     7
176
     0
 79
     5
176
     0
170
     0
176
     0
171
     0
176
     0
290
     0
176
     0
 93
        1
176
     0
 44
0.0
176
     0
173
     0
176
     0
  0
VISUALSTYLE
  5
42F
102
{ACAD_REACTORS
330
420
102
}
330
420
100
AcDbVisualStyle
  2
Facepattern
 70
    15
177
     2
291
     1
 71
     2
176
     1
 72
     2
176
     1
 73
     0
176
     1
 90
        0
176
     1
 40
0.6
176
     1
 41
30.0
176
     1
 63
     7
421
 16777215
176
     1
 74
     1
176
     1
 91
        4
176
     1
 64
     7
176
     1
 65
   257
176
     1
 75
     1
176
     1
175
     1
176
     1
 42
1.0
176
     1
 92
        8
176
     1
 66
     7
176
     1
 43
1.0
176
     1
 76
     1
176
     1
 77
     6
176
     1
 78
     2
176
     1
 67
     7
176
     1
 79
     5
176
     1
170
     0
176
     1
171
     0
176
     1
290
     0
176
     1
 93
        1
176
     1
 44
0.0
176
     1
173
     0
176
     1
  0
VISUALSTYLE
  5
421
102
{ACAD_REACTORS
330
420
102
}
330
420
100
AcDbVisualStyle
  2
Flat
 70
     0
177
     2
291
     1
 71
     2
176
     1
 72
     1
176
     1
 73
     1
176
     1
 90
        2
176
     1
 40
0.6
176
     1
 41
30.0
176
     1
 63
     7
421
 16777215
176
     1
 74
     0
176
     1
 91
        4
176
     1
 64
     7
176
     1
 65
   257
176
     1
 75
     1
176
     1
175
     1
176
     1
 42
1.0
176
     1
 92
        8
176
     1
 66
     7
176
     1
 43
1.0
176
     1
 76
     1
176
     1
 77
     6
176
     1
 78
     2
176
     1
 67
     7
176
     1
 79
     5
176
     1
170
     0
176
     1
171
     0
176
     1
290
     0
176
     1
 93
       13
176
     1
 44
0.0
176
     1
173
     0
176
     1
  0
VISUALSTYLE
  5
422
102
{ACAD_REACTORS
330
420
102
}
330
420
100
AcDbVisualStyle
  2
FlatWithEdges
 70
     1
177
     2
291
     1
 71
     2
176
     1
 72
     1
176
     1
 73
     1
176
     1
 90
        2
176
     1
 40
0.6
176
     1
 41
30.0
176
     1
 63
     7
421
 16777215
176
     1
 74
     1
176
     1
 91
        4
176
     1
 64
     7
176
     1
 65
   257
176
     1
 75
     1
176
     1
175
     1
176
     1
 42
1.0
176
     1
 92
        0
176
     1
 66
   257
176
     1
 43
1.0
176
     1
 76
     1
176
     1
 77
     6
176
     1
 78
     2
176
     1
 67
     7
176
     1
 79
     5
176
     1
170
     0
176
     1
171
     0
176
     1
290
     0
176
     1
 93
       13
176
     1
 44
0.0
176
     1
173
     0
176
     1
  0
VISUALSTYLE
  5
423
102
{ACAD_REACTORS
330
420
102
}
330
420
100
AcDbVisualStyle
  2
Gouraud
 70
     2
177
     2
291
     1
 71
     2
176
     1
 72
     2
176
     1
 73
     1
176
     1
 90
        2
176
     1
 40
0.6
176
     1
 41
30.0
176
     1
 63
     7
421
 16777215
176
     1
 74
     0
176
     1
 91
        4
176
     1
 64
     7
176
     1
 65
   257
176
     1
 75
     1
176
     1
175
     1
176
     1
 42
1.0
176
     1
 92
        0
176
     1
 66
     7
176
     1
 43
1.0
176
     1
 76
     1
176
     1
 77
     6
176
     1
 78
     2
176
     1
 67
     7
176
     1
 79
     5
176
     1
170
     0
176
     1
171
     0
176
     1
290
     0
176
     1
 93
       13
176
     1
 44
0.0
176
     1
173
     0
176
     1
  0
VISUALSTYLE
  5
424
102
{ACAD_REACTORS
330
420
102
}
330
420
100
AcDbVisualStyle
  2
GouraudWithEdges
 70
     3
177
     2
291
     1
 71
     2
176
     1
 72
     2
176
     1
 73
     1
176
     1
 90
        2
176
     1
 40
0.6
176
     1
 41
30.0
176
     1
 63
     7
421
 16777215
176
     1
 74
     1
176
     1
 91
        4
176
     1
 64
     7
176
     1
 65
   257
176
     1
 75
     1
176
     1
175
     1
176
     1
 42
1.0
176
     1
 92
        0
176
     1
 66
   257
176
     1
 43
1.0
176
     1
 76
     1
176
     1
 77
     6
176
     1
 78
     2
176
     1
 67
     7
176
     1
 79
     5
176
     1
170
     0
176
     1
171
     0
176
     1
290
     0
176
     1
 93
       13
176
     1
 44
0.0
176
     1
173
     0
176
     1
  0
VISUALSTYLE
  5
431
102
{ACAD_REACTORS
330
420
102
}
330
420
100
AcDbVisualStyle
  2
JitterOff
 70
    20
177
     2
291
     1
 71
     2
176
     0
 72
     2
176
     0
 73
     0
176
     0
 90
        0
176
     0
 40
0.6
176
     0
 41
30.0
176
     0
 63
     7
421
 16777215
176
     0
 74
     1
176
     0
 91
        4
176
     0
 64
     7
176
     0
 65
   257
176
     0
 75
     1
176
     0
175
     1
176
     0
 42
1.0
176
     0
 92
       10
176
     2
 66
     7
176
     0
 43
1.0
176
     0
 76
     1
176
     0
 77
     6
176
     0
 78
     2
176
     0
 67
     7
176
     0
 79
     5
176
     0
170
     0
176
     0
171
     0
176
     0
290
     0
176
     0
 93
        1
176
     0
 44
0.0
176
     0
173
     0
176
     0
  0
VISUALSTYLE
  5
42E
102
{ACAD_REACTORS
330
420
102
}
330
420
100
AcDbVisualStyle
  2
Linepattern
 70
    14
177
     2
291
     1
 71
     2
176
     1
 72
     2
176
     1
 73
     0
176
     1
 90
        0
176
     1
 40
0.6
176
     1
 41
30.0
176
     1
 63
     7
421
 16777215
176
     1
 74
     1
176
     1
 91
        4
176
     1
 64
     7
176
     1
 65
   257
176
     1
 75
     7
176
     1
175
     7
176
     1
 42
1.0
176
     1
 92
        8
176
     1
 66
     7
176
     1
 43
1.0
176
     1
 76
     1
176
     1
 77
     6
176
     1
 78
     2
176
     1
 67
     7
176
     1
 79
     5
176
     1
170
     0
176
     1
171
     0
176
     1
290
     0
176
     1
 93
        1
176
     1
 44
0.0
176
     1
173
     0
176
     1
  0
VISUALSTYLE
  5
432
102
{ACAD_REACTORS
330
420
102
}
330
420
100
AcDbVisualStyle
  2
OverhangOff
 70
    21
177
     2
291
     1
 71
     2
176
     0
 72
     2
176
     0
 73
     0
176
     0
 90
        0
176
     0
 40
0.6
176
     0
 41
30.0
176
     0
 63
     7
421
 16777215
176
     0
 74
     1
176
     0
 91
        4
176
     0
 64
     7
176
     0
 65
   257
176
     0
 75
     1
176
     0
175
     1
176
     0
 42
1.0
176
     0
 92
        9
176
     2
 66
     7
176
     0
 43
1.0
176
     0
 76
     1
176
     0
 77
     6
176
     0
 78
     2
176
     0
 67
     7
176
     0
 79
     5
176
     0
170
     0
176
     0
171
     0
176
     0
290
     0
176
     0
 93
        1
176
     0
 44
0.0
176
     0
173
     0
176
     0
  0
VISUALSTYLE
  5
42A
102
{ACAD_REACTORS
330
420
102
}
330
420
100
AcDbVisualStyle
  2
Realistic
 70
     8
177
     2
291
     0
 71
     2
176
     1
 72
     2
176
     1
 73
     0
176
     1
 90
        0
176
     1
 40
0.6
176
     1
 41
30.0
176
     1
 63
     7
421
 16777215
176
     1
 74
     1
176
     1
 91
        0
176
     1
 64
     7
176
     1
 65
   257
176
     1
 75
     1
176
     1
175
     1
176
     1
 42
1.0
176
     1
 92
        8
176
     1
 66
     8
424
  7895160
176
     1
 43
1.0
176
     1
 76
     1
176
     1
 77
     6
176
     1
 78
     2
176
     1
 67
     7
176
     1
 79
     5
176
     1
170
     0
176
     1
171
     0
176
     1
290
     0
176
     1
 93
       13
176
     1
 44
0.0
176
     1
173
     0
176
     1
  0
VISUALSTYLE
  5
42D
102
{ACAD_REACTORS
330
420
102
}
330
420
100
AcDbVisualStyle
  2
Thicken
 70
    13
177
     2
291
     1
 71
     2
176
     1
 72
     2
176
     1
 73
     0
176
     1
 90
        0
176
     1
 40
0.6
176
     1
 41
30.0
176
     1
 63
     7
421
 16777215
176
     1
 74
     1
176
     1
 91
        4
176
     1
 64
     7
176
     1
 65
   257
176
     1
 75
     1
176
     1
175
     1
176
     1
 42
1.0
176
     1
 92
       12
176
     1
 66
     7
176
     1
 43
1.0
176
     1
 76
     1
176
     1
 77
     6
176
     1
 78
     2
176
     1
 67
     7
176
     1
 79
     5
176
     1
170
     0
176
     1
171
     0
176
     1
290
     0
176
     1
 93
        1
176
     1
 44
0.0
176
     1
173
     0
176
     1
  0
DICTIONARYVAR
  5
452
102
{ACAD_REACTORS
330
5E
102
}
330
5E
100
DictionaryVariables
280
     0
  1
1:1
  0
DICTIONARYVAR
  5
450
102
{ACAD_REACTORS
330
5E
102
}
330
5E
100
DictionaryVariables
280
     0
  1
STANDARD
  0
DICTIONARYVAR
  5
44F
102
{ACAD_REACTORS
330
5E
102
}
330
5E
100
DictionaryVariables
280
     0
  1
STANDARD
  0
DICTIONARYVAR
  5
5F
102
{ACAD_REACTORS
330
5E
102
}
330
5E
100
DictionaryVariables
280
     0
  1
2
  0
DICTIONARYVAR
  5
63
102
{ACAD_REACTORS
330
5E
102
}
330
5E
100
DictionaryVariables
280
     0
  1
1
  0
DICTIONARYVAR
  5
454
102
{ACAD_REACTORS
330
5E
102
}
330
5E
100
DictionaryVariables
280
     0
  1
1
  0
DICTIONARYVAR
  5
455
102
{ACAD_REACTORS
330
5E
102
}
330
5E
100
DictionaryVariables
280
     0
  1
15
  0
DICTIONARYVAR
  5
453
102
{ACAD_REACTORS
330
5E
102
}
330
5E
100
DictionaryVariables
280
     0
  1
0
  0
DICTIONARYVAR
  5
451
102
{ACAD_REACTORS
330
5E
102
}
330
5E
100
DictionaryVariables
280
     0
  1
0
  0
DICTIONARY
  5
411
330
410
100
AcDbDictionary
280
     1
281
     1
  3
BUMPTILE
360
413
  3
DIFFUSETILE
360
412
  3
OPACITYTILE
360
416
  3
REFLECTIONTILE
360
415
  3
REFRACTIONTILE
360
417
  3
SPECULARTILE
360
414
  0
DICTIONARY
  5
409
330
408
100
AcDbDictionary
280
     1
281
     1
  3
BUMPTILE
360
40B
  3
DIFFUSETILE
360
40A
  3
OPACITYTILE
360
40E
  3
REFLECTIONTILE
360
40D
  3
REFRACTIONTILE
360
40F
  3
SPECULARTILE
360
40C
  0
DICTIONARY
  5
419
330
418
100
AcDbDictionary
280
     1
281
     1
  3
BUMPTILE
360
41B
  3
DIFFUSETILE
360
41A
  3
OPACITYTILE
360
41E
  3
REFLECTIONTILE
360
41D
  3
REFRACTIONTILE
360
41F
  3
SPECULARTILE
360
41C
  0
DICTIONARY
  5
456
330
436
100
AcDbDictionary
280
     1
281
     1
  3
ACAD_ROUNDTRIP_2008_TABLESTYLE_CELLSTYLEMAP
360
457
  0
XRECORD
  5
413
102
{ACAD_REACTORS
330
411
102
}
330
411
100
AcDbXrecord
280
     1
270
     1
271
     1
  0
XRECORD
  5
412
102
{ACAD_REACTORS
330
411
102
}
330
411
100
AcDbXrecord
280
     1
270
     1
271
     1
  0
XRECORD
  5
416
102
{ACAD_REACTORS
330
411
102
}
330
411
100
AcDbXrecord
280
     1
270
     1
271
     1
  0
XRECORD
  5
415
102
{ACAD_REACTORS
330
411
102
}
330
411
100
AcDbXrecord
280
     1
270
     1
271
     1
  0
XRECORD
  5
417
102
{ACAD_REACTORS
330
411
102
}
330
411
100
AcDbXrecord
280
     1
270
     1
271
     1
  0
XRECORD
  5
414
102
{ACAD_REACTORS
330
411
102
}
330
411
100
AcDbXrecord
280
     1
270
     1
271
     1
  0
XRECORD
  5
40B
102
{ACAD_REACTORS
330
409
102
}
330
409
100
AcDbXrecord
280
     1
270
     1
271
     1
  0
XRECORD
  5
40A
102
{ACAD_REACTORS
330
409
102
}
330
409
100
AcDbXrecord
280
     1
270
     1
271
     1
  0
XRECORD
  5
40E
102
{ACAD_REACTORS
330
409
102
}
330
409
100
AcDbXrecord
280
     1
270
     1
271
     1
  0
XRECORD
  5
40D
102
{ACAD_REACTORS
330
409
102
}
330
409
100
AcDbXrecord
280
     1
270
     1
271
     1
  0
XRECORD
  5
40F
102
{ACAD_REACTORS
330
409
102
}
330
409
100
AcDbXrecord
280
     1
270
     1
271
     1
  0
XRECORD
  5
40C
102
{ACAD_REACTORS
330
409
102
}
330
409
100
AcDbXrecord
280
     1
270
     1
271
     1
  0
XRECORD
  5
41B
102
{ACAD_REACTORS
330
419
102
}
330
419
100
AcDbXrecord
280
     1
270
     1
271
     1
  0
XRECORD
  5
41A
102
{ACAD_REACTORS
330
419
102
}
330
419
100
AcDbXrecord
280
     1
270
     1
271
     1
  0
XRECORD
  5
41E
102
{ACAD_REACTORS
330
419
102
}
330
419
100
AcDbXrecord
280
     1
270
     1
271
     1
  0
XRECORD
  5
41D
102
{ACAD_REACTORS
330
419
102
}
330
419
100
AcDbXrecord
280
     1
270
     1
271
     1
  0
XRECORD
  5
41F
102
{ACAD_REACTORS
330
419
102
}
330
419
100
AcDbXrecord
280
     1
270
     1
271
     1
  0
XRECORD
  5
41C
102
{ACAD_REACTORS
330
419
102
}
330
419
100
AcDbXrecord
280
     1
270
     1
271
     1
  0
CELLSTYLEMAP
  5
457
102
{ACAD_REACTORS
330
456
102
}
330
456
100
AcDbCellStyleMap
 90
        3
300
CELLSTYLE
  1
TABLEFORMAT_BEGIN
 90
        5
170
     1
 91
        0
 92
    32768
 62
   257
 93
        1
300
CONTENTFORMAT
  1
CONTENTFORMAT_BEGIN
 90
        0
 91
        0
 92
      512
 93
        0
300

 40
0.0
140
1.0
 94
        5
 62
     0
340
11
144
6.0
309
CONTENTFORMAT_END
171
     1
301
MARGIN
  1
CELLMARGIN_BEGIN
 40
1.5
 40
1.5
 40
1.5
 40
1.5
 40
4.5
 40
4.5
309
CELLMARGIN_END
 94
        6
 95
        1
302
GRIDFORMAT
  1
GRIDFORMAT_BEGIN
 90
        0
 91
        1
 62
     0
 92
       -2
340
0
 93
        0
 40
1.125
309
GRIDFORMAT_END
 95
        2
302
GRIDFORMAT
  1
GRIDFORMAT_BEGIN
 90
        0
 91
        1
 62
     0
 92
       -2
340
0
 93
        0
 40
1.125
309
GRIDFORMAT_END
 95
        4
302
GRIDFORMAT
  1
GRIDFORMAT_BEGIN
 90
        0
 91
        1
 62
     0
 92
       -2
340
0
 93
        0
 40
1.125
309
GRIDFORMAT_END
 95
        8
302
GRIDFORMAT
  1
GRIDFORMAT_BEGIN
 90
        0
 91
        1
 62
     0
 92
       -2
340
0
 93
        0
 40
1.125
309
GRIDFORMAT_END
 95
       16
302
GRIDFORMAT
  1
GRIDFORMAT_BEGIN
 90
        0
 91
        1
 62
     0
 92
       -2
340
0
 93
        0
 40
1.125
309
GRIDFORMAT_END
 95
       32
302
GRIDFORMAT
  1
GRIDFORMAT_BEGIN
 90
        0
 91
        1
 62
     0
 92
       -2
340
0
 93
        0
 40
1.125
309
GRIDFORMAT_END
309
TABLEFORMAT_END
  1
CELLSTYLE_BEGIN
 90
        1
 91
        1
300
_TITLE
309
CELLSTYLE_END
300
CELLSTYLE
  1
TABLEFORMAT_BEGIN
 90
        5
170
     1
 91
        0
 92
        0
 62
   257
 93
        1
300
CONTENTFORMAT
  1
CONTENTFORMAT_BEGIN
 90
        0
 91
        0
 92
      512
 93
        0
300

 40
0.0
140
1.0
 94
        5
 62
     0
340
11
144
4.5
309
CONTENTFORMAT_END
171
     1
301
MARGIN
  1
CELLMARGIN_BEGIN
 40
1.5
 40
1.5
 40
1.5
 40
1.5
 40
4.5
 40
4.5
309
CELLMARGIN_END
 94
        6
 95
        1
302
GRIDFORMAT
  1
GRIDFORMAT_BEGIN
 90
        0
 91
        1
 62
     0
 92
       -2
340
0
 93
        0
 40
1.125
309
GRIDFORMAT_END
 95
        2
302
GRIDFORMAT
  1
GRIDFORMAT_BEGIN
 90
        0
 91
        1
 62
     0
 92
       -2
340
0
 93
        0
 40
1.125
309
GRIDFORMAT_END
 95
        4
302
GRIDFORMAT
  1
GRIDFORMAT_BEGIN
 90
        0
 91
        1
 62
     0
 92
       -2
340
0
 93
        0
 40
1.125
309
GRIDFORMAT_END
 95
        8
302
GRIDFORMAT
  1
GRIDFORMAT_BEGIN
 90
        0
 91
        1
 62
     0
 92
       -2
340
0
 93
        0
 40
1.125
309
GRIDFORMAT_END
 95
       16
302
GRIDFORMAT
  1
GRIDFORMAT_BEGIN
 90
        0
 91
        1
 62
     0
 92
       -2
340
0
 93
        0
 40
1.125
309
GRIDFORMAT_END
 95
       32
302
GRIDFORMAT
  1
GRIDFORMAT_BEGIN
 90
        0
 91
        1
 62
     0
 92
       -2
340
0
 93
        0
 40
1.125
309
GRIDFORMAT_END
309
TABLEFORMAT_END
  1
CELLSTYLE_BEGIN
 90
        2
 91
        1
300
_HEADER
309
CELLSTYLE_END
300
CELLSTYLE
  1
TABLEFORMAT_BEGIN
 90
        5
170
     1
 91
        0
 92
        0
 62
   257
 93
        1
300
CONTENTFORMAT
  1
CONTENTFORMAT_BEGIN
 90
        0
 91
        0
 92
      512
 93
        0
300

 40
0.0
140
1.0
 94
        2
 62
     0
340
11
144
4.5
309
CONTENTFORMAT_END
171
     1
301
MARGIN
  1
CELLMARGIN_BEGIN
 40
1.5
 40
1.5
 40
1.5
 40
1.5
 40
4.5
 40
4.5
309
CELLMARGIN_END
 94
        6
 95
        1
302
GRIDFORMAT
  1
GRIDFORMAT_BEGIN
 90
        0
 91
        1
 62
     0
 92
       -2
340
0
 93
        0
 40
1.125
309
GRIDFORMAT_END
 95
        2
302
GRIDFORMAT
  1
GRIDFORMAT_BEGIN
 90
        0
 91
        1
 62
     0
 92
       -2
340
0
 93
        0
 40
1.125
309
GRIDFORMAT_END
 95
        4
302
GRIDFORMAT
  1
GRIDFORMAT_BEGIN
 90
        0
 91
        1
 62
     0
 92
       -2
340
0
 93
        0
 40
1.125
309
GRIDFORMAT_END
 95
        8
302
GRIDFORMAT
  1
GRIDFORMAT_BEGIN
 90
        0
 91
        1
 62
     0
 92
       -2
340
0
 93
        0
 40
1.125
309
GRIDFORMAT_END
 95
       16
302
GRIDFORMAT
  1
GRIDFORMAT_BEGIN
 90
        0
 91
        1
 62
     0
 92
       -2
340
0
 93
        0
 40
1.125
309
GRIDFORMAT_END
 95
       32
302
GRIDFORMAT
  1
GRIDFORMAT_BEGIN
 90
        0
 91
        1
 62
     0
 92
       -2
340
0
 93
        0
 40
1.125
309
GRIDFORMAT_END
309
TABLEFORMAT_END
  1
CELLSTYLE_BEGIN
 90
        3
 91
        2
300
_DATA
309
CELLSTYLE_END
  0
ENDSEC
  0
EOF
