  0
SECTION
  2
HEADER
  9
$ACADVER
  1
AC1024
  9
$ACADMAINTVER
 70
     6
  9
$DWGCODEPAGE
  3
ANSI_932
  9
$LASTSAVEDBY
  1
kanatani
  9
$INSBASE
 10
0.0
 20
0.0
 30
0.0
  9
$EXTMIN
 10
-200.5271072387695
 20
-253.0172741967615
 30
-0.0000000000000012
  9
$EXTMAX
 10
203.5000085830688
 20
390.2978551591821
 30
0.0
  9
$LIMMIN
 10
0.0
 20
0.0
  9
$LIMMAX
 10
420.0
 20
297.0
  9
$ORTHOMODE
 70
     0
  9
$REGENMODE
 70
     1
  9
$FILLMODE
 70
     1
  9
$QTEXTMODE
 70
     0
  9
$MIRRTEXT
 70
     1
  9
$LTSCALE
 40
0.2
  9
$ATTMODE
 70
     1
  9
$TEXTSIZE
 40
2.5
  9
$TRACEWID
 40
1.0
  9
$TEXTSTYLE
  7
Standard
  9
$CLAYER
  8
0
  9
$CELTYPE
  6
ByLayer
  9
$CECOLOR
 62
   256
  9
$CELTSCALE
 40
1.0
  9
$DISPSILH
 70
     0
  9
$DIMSCALE
 40
1.0
  9
$DIMASZ
 40
2.5
  9
$DIMEXO
 40
0.625
  9
$DIMDLI
 40
3.75
  9
$DIMRND
 40
0.0
  9
$DIMDLE
 40
0.0
  9
$DIMEXE
 40
1.25
  9
$DIMTP
 40
0.0
  9
$DIMTM
 40
0.0
  9
$DIMTXT
 40
2.5
  9
$DIMCEN
 40
2.5
  9
$DIMTSZ
 40
0.0
  9
$DIMTOL
 70
     0
  9
$DIMLIM
 70
     0
  9
$DIMTIH
 70
     0
  9
$DIMTOH
 70
     0
  9
$DIMSE1
 70
     0
  9
$DIMSE2
 70
     0
  9
$DIMTAD
 70
     1
  9
$DIMZIN
 70
     8
  9
$DIMBLK
  1

  9
$DIMASO
 70
     1
  9
$DIMSHO
 70
     1
  9
$DIMPOST
  1

  9
$DIMAPOST
  1

  9
$DIMALT
 70
     0
  9
$DIMALTD
 70
     3
  9
$DIMALTF
 40
0.03937007874016
  9
$DIMLFAC
 40
1.0
  9
$DIMTOFL
 70
     1
  9
$DIMTVP
 40
0.0
  9
$DIMTIX
 70
     0
  9
$DIMSOXD
 70
     0
  9
$DIMSAH
 70
     0
  9
$DIMBLK1
  1

  9
$DIMBLK2
  1

  9
$DIMSTYLE
  2
ISO-25
  9
$DIMCLRD
 70
     0
  9
$DIMCLRE
 70
     0
  9
$DIMCLRT
 70
     0
  9
$DIMTFAC
 40
1.0
  9
$DIMGAP
 40
0.625
  9
$DIMJUST
 70
     0
  9
$DIMSD1
 70
     0
  9
$DIMSD2
 70
     0
  9
$DIMTOLJ
 70
     0
  9
$DIMTZIN
 70
     8
  9
$DIMALTZ
 70
     0
  9
$DIMALTTZ
 70
     0
  9
$DIMUPT
 70
     0
  9
$DIMDEC
 70
     2
  9
$DIMTDEC
 70
     2
  9
$DIMALTU
 70
     2
  9
$DIMALTTD
 70
     3
  9
$DIMTXSTY
  7
Standard
  9
$DIMAUNIT
 70
     0
  9
$DIMADEC
 70
     0
  9
$DIMALTRND
 40
0.0
  9
$DIMAZIN
 70
     0
  9
$DIMDSEP
 70
    44
  9
$DIMATFIT
 70
     3
  9
$DIMFRAC
 70
     0
  9
$DIMLDRBLK
  1

  9
$DIMLUNIT
 70
     2
  9
$DIMLWD
 70
    -2
  9
$DIMLWE
 70
    -2
  9
$DIMTMOVE
 70
     0
  9
$DIMFXL
 40
1.0
  9
$DIMFXLON
 70
     0
  9
$DIMJOGANG
 40
0.7853981633974483
  9
$DIMTFILL
 70
     0
  9
$DIMTFILLCLR
 70
     0
  9
$DIMARCSYM
 70
     0
  9
$DIMLTYPE
  6

  9
$DIMLTEX1
  6

  9
$DIMLTEX2
  6

  9
$DIMTXTDIRECTION
 70
     0
  9
$LUNITS
 70
     2
  9
$LUPREC
 70
     4
  9
$SKETCHINC
 40
1.0
  9
$FILLETRAD
 40
10.0
  9
$AUNITS
 70
     0
  9
$AUPREC
 70
     0
  9
$MENU
  1
.
  9
$ELEVATION
 40
0.0
  9
$PELEVATION
 40
0.0
  9
$THICKNESS
 40
0.0
  9
$LIMCHECK
 70
     0
  9
$CHAMFERA
 40
10.0
  9
$CHAMFERB
 40
10.0
  9
$CHAMFERC
 40
20.0
  9
$CHAMFERD
 40
0.0
  9
$SKPOLY
 70
     0
  9
$TDCREATE
 40
2456874.593217083
  9
$TDUCREATE
 40
2456874.218217083
  9
$TDUPDATE
 40
2456910.418692755
  9
$TDUUPDATE
 40
2456910.043692755
  9
$TDINDWG
 40
0.0060224190
  9
$TDUSRTIMER
 40
0.0060224074
  9
$USRTIMER
 70
     1
  9
$ANGBASE
 50
0.0
  9
$ANGDIR
 70
     0
  9
$PDMODE
 70
     0
  9
$PDSIZE
 40
0.0
  9
$PLINEWID
 40
0.0
  9
$SPLFRAME
 70
     0
  9
$SPLINETYPE
 70
     6
  9
$SPLINESEGS
 70
     8
  9
$HANDSEED
  5
53F
  9
$SURFTAB1
 70
     6
  9
$SURFTAB2
 70
     6
  9
$SURFTYPE
 70
     6
  9
$SURFU
 70
     6
  9
$SURFV
 70
     6
  9
$UCSBASE
  2

  9
$UCSNAME
  2

  9
$UCSORG
 10
0.0
 20
0.0
 30
0.0
  9
$UCSXDIR
 10
1.0
 20
0.0
 30
0.0
  9
$UCSYDIR
 10
0.0
 20
1.0
 30
0.0
  9
$UCSORTHOREF
  2

  9
$UCSORTHOVIEW
 70
     0
  9
$UCSORGTOP
 10
0.0
 20
0.0
 30
0.0
  9
$UCSORGBOTTOM
 10
0.0
 20
0.0
 30
0.0
  9
$UCSORGLEFT
 10
0.0
 20
0.0
 30
0.0
  9
$UCSORGRIGHT
 10
0.0
 20
0.0
 30
0.0
  9
$UCSORGFRONT
 10
0.0
 20
0.0
 30
0.0
  9
$UCSORGBACK
 10
0.0
 20
0.0
 30
0.0
  9
$PUCSBASE
  2

  9
$PUCSNAME
  2

  9
$PUCSORG
 10
0.0
 20
0.0
 30
0.0
  9
$PUCSXDIR
 10
1.0
 20
0.0
 30
0.0
  9
$PUCSYDIR
 10
0.0
 20
1.0
 30
0.0
  9
$PUCSORTHOREF
  2

  9
$PUCSORTHOVIEW
 70
     0
  9
$PUCSORGTOP
 10
0.0
 20
0.0
 30
0.0
  9
$PUCSORGBOTTOM
 10
0.0
 20
0.0
 30
0.0
  9
$PUCSORGLEFT
 10
0.0
 20
0.0
 30
0.0
  9
$PUCSORGRIGHT
 10
0.0
 20
0.0
 30
0.0
  9
$PUCSORGFRONT
 10
0.0
 20
0.0
 30
0.0
  9
$PUCSORGBACK
 10
0.0
 20
0.0
 30
0.0
  9
$USERI1
 70
     0
  9
$USERI2
 70
     0
  9
$USERI3
 70
     0
  9
$USERI4
 70
     0
  9
$USERI5
 70
     0
  9
$USERR1
 40
0.0
  9
$USERR2
 40
0.0
  9
$USERR3
 40
0.0
  9
$USERR4
 40
0.0
  9
$USERR5
 40
0.0
  9
$WORLDVIEW
 70
     1
  9
$SHADEDGE
 70
     3
  9
$SHADEDIF
 70
    70
  9
$TILEMODE
 70
     1
  9
$MAXACTVP
 70
    64
  9
$PINSBASE
 10
0.0
 20
0.0
 30
0.0
  9
$PLIMCHECK
 70
     0
  9
$PEXTMIN
 10
26.66076962115563
 20
20.31135699206658
 30
-0.0015258207003583
  9
$PEXTMAX
 10
240.039213369355
 20
182.8886381005154
 30
0.0000000349246037
  9
$PLIMMIN
 10
-6.350006103515625
 20
-6.349999904632568
  9
$PLIMMAX
 10
273.0499877929688
 20
209.5499939918518
  9
$UNITMODE
 70
     0
  9
$VISRETAIN
 70
     1
  9
$PLINEGEN
 70
     0
  9
$PSLTSCALE
 70
     1
  9
$TREEDEPTH
 70
  3020
  9
$CMLSTYLE
  2
Standard
  9
$CMLJUST
 70
     0
  9
$CMLSCALE
 40
20.0
  9
$PROXYGRAPHICS
 70
     1
  9
$MEASUREMENT
 70
     1
  9
$CELWEIGHT
370
    -1
  9
$ENDCAPS
280
     0
  9
$JOINSTYLE
280
     0
  9
$LWDISPLAY
290
     0
  9
$INSUNITS
 70
     4
  9
$HYPERLINKBASE
  1

  9
$STYLESHEET
  1

  9
$XEDIT
290
     1
  9
$CEPSNTYPE
380
     0
  9
$PSTYLEMODE
290
     1
  9
$FINGERPRINTGUID
  2
{FDEAD578-A652-11D2-9A35-0060089B3A3F}
  9
$VERSIONGUID
  2
{2C3E4B00-2A19-476E-B4EE-2547EC957201}
  9
$EXTNAMES
290
     1
  9
$PSVPSCALE
 40
0.0
  9
$OLESTARTUP
290
     0
  9
$SORTENTS
280
   127
  9
$INDEXCTL
280
     0
  9
$HIDETEXT
280
     1
  9
$XCLIPFRAME
280
     2
  9
$HALOGAP
280
     0
  9
$OBSCOLOR
 70
   257
  9
$OBSLTYPE
280
     0
  9
$INTERSECTIONDISPLAY
280
     0
  9
$INTERSECTIONCOLOR
 70
   257
  9
$DIMASSOC
280
     2
  9
$PROJECTNAME
  1

  9
$CAMERADISPLAY
290
     0
  9
$LENSLENGTH
 40
50.0
  9
$CAMERAHEIGHT
 40
0.0
  9
$STEPSPERSEC
 40
2.0
  9
$STEPSIZE
 40
6.0
  9
$3DDWFPREC
 40
2.0
  9
$PSOLWIDTH
 40
0.25
  9
$PSOLHEIGHT
 40
4.0
  9
$LOFTANG1
 40
1.570796326794896
  9
$LOFTANG2
 40
1.570796326794896
  9
$LOFTMAG1
 40
0.0
  9
$LOFTMAG2
 40
0.0
  9
$LOFTPARAM
 70
     7
  9
$LOFTNORMALS
280
     1
  9
$LATITUDE
 40
37.795
  9
$LONGITUDE
 40
-122.394
  9
$NORTHDIRECTION
 40
0.0
  9
$TIMEZONE
 70
 -8000
  9
$LIGHTGLYPHDISPLAY
280
     1
  9
$TILEMODELIGHTSYNCH
280
     1
  9
$CMATERIAL
347
4ED
  9
$SOLIDHIST
280
     1
  9
$SHOWHIST
280
     1
  9
$DWFFRAME
280
     2
  9
$DGNFRAME
280
     0
  9
$REALWORLDSCALE
290
     1
  9
$INTERFERECOLOR
 62
     1
  9
$INTERFEREOBJVS
345
50F
  9
$INTERFEREVPVS
346
50C
  9
$CSHADOW
280
     0
  9
$SHADOWPLANELOCATION
 40
0.0
  0
ENDSEC
  0
SECTION
  2
CLASSES
  0
CLASS
  1
ACDBDICTIONARYWDFLT
  2
AcDbDictionaryWithDefault
  3
ObjectDBX Classes
 90
        0
 91
        1
280
     0
281
     0
  0
CLASS
  1
DICTIONARYVAR
  2
AcDbDictionaryVar
  3
ObjectDBX Classes
 90
        0
 91
        9
280
     0
281
     0
  0
CLASS
  1
MATERIAL
  2
AcDbMaterial
  3
ObjectDBX Classes
 90
     1153
 91
        3
280
     0
281
     0
  0
CLASS
  1
VISUALSTYLE
  2
AcDbVisualStyle
  3
ObjectDBX Classes
 90
     4095
 91
       19
280
     0
281
     0
  0
CLASS
  1
TABLESTYLE
  2
AcDbTableStyle
  3
ObjectDBX Classes
 90
     4095
 91
        1
280
     0
281
     0
  0
CLASS
  1
SCALE
  2
AcDbScale
  3
ObjectDBX Classes
 90
     1153
 91
       17
280
     0
281
     0
  0
CLASS
  1
MLEADERSTYLE
  2
AcDbMLeaderStyle
  3
ACDB_MLEADERSTYLE_CLASS
 90
     4095
 91
        1
280
     0
281
     0
  0
CLASS
  1
CELLSTYLEMAP
  2
AcDbCellStyleMap
  3
ObjectDBX Classes
 90
     1152
 91
        1
280
     0
281
     0
  0
ENDSEC
  0
SECTION
  2
TABLES
  0
TABLE
  2
VPORT
  5
8
330
0
100
AcDbSymbolTable
 70
     1
  0
VPORT
  5
4EA
330
8
100
AcDbSymbolTableRecord
100
AcDbViewportTableRecord
  2
*Active
 70
     0
 10
0.0
 20
0.0
 11
1.0
 21
1.0
 12
1.489596097652679
 22
85.40141204863974
 13
0.0
 23
0.0
 14
10.0
 24
10.0
 15
10.0
 25
10.0
 16
0.0
 26
0.0
 36
1.0
 17
0.0
 27
0.0
 37
0.0
 40
681.0119108526809
 41
1.857142857142857
 42
50.0
 43
0.0
 44
0.0
 50
0.0
 51
0.0
 71
     0
 72
   100
 73
     1
 74
     3
 75
     0
 76
     0
 77
     0
 78
     0
281
     0
 65
     1
110
0.0
120
0.0
130
0.0
111
1.0
121
0.0
131
0.0
112
0.0
122
1.0
132
0.0
 79
     0
146
0.0
348
50B
 60
     3
 61
     5
292
     1
282
     1
141
0.0
142
0.0
 63
   250
421
  3355443
  0
ENDTAB
  0
TABLE
  2
LTYPE
  5
5
330
0
100
AcDbSymbolTable
 70
     4
  0
LTYPE
  5
14
330
5
100
AcDbSymbolTableRecord
100
AcDbLinetypeTableRecord
  2
ByBlock
 70
     0
  3

 72
    65
 73
     0
 40
0.0
  0
LTYPE
  5
15
330
5
100
AcDbSymbolTableRecord
100
AcDbLinetypeTableRecord
  2
ByLayer
 70
     0
  3

 72
    65
 73
     0
 40
0.0
  0
LTYPE
  5
16
330
5
100
AcDbSymbolTableRecord
100
AcDbLinetypeTableRecord
  2
Continuous
 70
     0
  3
Solid line
 72
    65
 73
     0
 40
0.0
  0
LTYPE
  5
8D
330
5
100
AcDbSymbolTableRecord
100
AcDbLinetypeTableRecord
  2
CENTER
 70
     0
  3
Center ____ _ ____ _ ____ _ ____ _ ____ _ ____
 72
    65
 73
     4
 40
50.8
 49
31.75
 74
     0
 49
-6.349999999999999
 74
     0
 49
6.349999999999999
 74
     0
 49
-6.349999999999999
 74
     0
  0
LTYPE
  5
8E
330
5
100
AcDbSymbolTableRecord
100
AcDbLinetypeTableRecord
  2
PHANTOM
 70
     0
  3
Phantom ______  __  __  ______  __  __  ______
 72
    65
 73
     6
 40
63.5
 49
31.75
 74
     0
 49
-6.349999999999999
 74
     0
 49
6.349999999999999
 74
     0
 49
-6.349999999999999
 74
     0
 49
6.349999999999999
 74
     0
 49
-6.349999999999999
 74
     0
  0
LTYPE
  5
8F
330
5
100
AcDbSymbolTableRecord
100
AcDbLinetypeTableRecord
  2
DASHED
 70
     0
  3
Dashed __ __ __ __ __ __ __ __ __ __ __ __ __ _
 72
    65
 73
     2
 40
19.05
 49
12.7
 74
     0
 49
-6.349999999999999
 74
     0
  0
ENDTAB
  0
TABLE
  2
LAYER
  5
2
102
{ACAD_XDICTIONARY
360
9A
102
}
330
0
100
AcDbSymbolTable
 70
     4
  0
LAYER
  5
10
102
{ACAD_XDICTIONARY
360
532
102
}
330
2
100
AcDbSymbolTableRecord
100
AcDbLayerTableRecord
  2
0
 70
     0
 62
     7
  6
Continuous
370
    -3
390
F
347
4FD
  0
LAYER
  5
90
102
{ACAD_XDICTIONARY
360
91
102
}
330
2
100
AcDbSymbolTableRecord
100
AcDbLayerTableRecord
  2
2
 70
     0
 62
     2
  6
PHANTOM
370
    -3
390
F
347
4FD
1001
AcAecLayerStandard
1000

1000

1001
ACCMTRANSPARENCY
1071
        0
  0
LAYER
  5
93
102
{ACAD_XDICTIONARY
360
94
102
}
330
2
100
AcDbSymbolTableRecord
100
AcDbLayerTableRecord
  2
1
 70
     0
 62
     5
  6
CENTER
370
    -3
390
F
347
4FD
1001
AcAecLayerStandard
1000

1000

1001
ACCMTRANSPARENCY
1071
        0
  0
LAYER
  5
96
102
{ACAD_XDICTIONARY
360
97
102
}
330
2
100
AcDbSymbolTableRecord
100
AcDbLayerTableRecord
  2
LAYER000
 70
     0
 62
     7
  6
Continuous
370
    -3
390
F
347
4FD
  0
ENDTAB
  0
TABLE
  2
STYLE
  5
3
330
0
100
AcDbSymbolTable
 70
     1
  0
STYLE
  5
11
330
3
100
AcDbSymbolTableRecord
100
AcDbTextStyleTableRecord
  2
Standard
 70
     0
 40
0.0
 41
1.0
 50
0.0
 71
     0
 42
2.5
  3
txt
  4

  0
ENDTAB
  0
TABLE
  2
VIEW
  5
6
330
0
100
AcDbSymbolTable
 70
     0
  0
ENDTAB
  0
TABLE
  2
UCS
  5
7
330
0
100
AcDbSymbolTable
 70
     0
  0
ENDTAB
  0
TABLE
  2
APPID
  5
9
330
0
100
AcDbSymbolTable
 70
     3
  0
APPID
  5
12
330
9
100
AcDbSymbolTableRecord
100
AcDbRegAppTableRecord
  2
ACAD
 70
     0
  0
APPID
  5
98
330
9
100
AcDbSymbolTableRecord
100
AcDbRegAppTableRecord
  2
AcAecLayerStandard
 70
     0
  0
APPID
  5
99
330
9
100
AcDbSymbolTableRecord
100
AcDbRegAppTableRecord
  2
ACCMTRANSPARENCY
 70
     0
  0
ENDTAB
  0
TABLE
  2
DIMSTYLE
  5
A
330
0
100
AcDbSymbolTable
 70
     1
100
AcDbDimStyleTable
 71
     0
  0
DIMSTYLE
105
27
330
A
100
AcDbSymbolTableRecord
100
AcDbDimStyleTableRecord
  2
ISO-25
 70
     0
 41
2.5
 42
0.625
 43
3.75
 44
1.25
 73
     0
 74
     0
 77
     1
 78
     8
140
2.5
141
2.5
143
0.03937007874016
147
0.625
171
     3
172
     1
271
     2
272
     2
274
     3
278
    44
283
     0
284
     8
340
11
  0
ENDTAB
  0
TABLE
  2
BLOCK_RECORD
  5
1
330
0
100
AcDbSymbolTable
 70
     1
  0
BLOCK_RECORD
  5
1F
330
1
100
AcDbSymbolTableRecord
100
AcDbBlockTableRecord
  2
*Model_Space
340
22
 70
     0
280
     1
281
     0
  0
BLOCK_RECORD
  5
55
330
1
100
AcDbSymbolTableRecord
100
AcDbBlockTableRecord
  2
*Paper_Space
340
56
 70
     0
280
     1
281
     0
  0
BLOCK_RECORD
  5
50
330
1
100
AcDbSymbolTableRecord
100
AcDbBlockTableRecord
  2
*Paper_Space0
340
51
 70
     0
280
     1
281
     0
  0
ENDTAB
  0
ENDSEC
  0
SECTION
  2
BLOCKS
  0
BLOCK
  5
20
330
1F
100
AcDbEntity
  8
0
100
AcDbBlockBegin
  2
*Model_Space
 70
     0
 10
0.0
 20
0.0
 30
0.0
  3
*Model_Space
  1

  0
ENDBLK
  5
21
330
1F
100
AcDbEntity
  8
0
100
AcDbBlockEnd
  0
BLOCK
  5
57
330
55
100
AcDbEntity
 67
     1
  8
0
100
AcDbBlockBegin
  2
*Paper_Space
 70
     0
 10
0.0
 20
0.0
 30
0.0
  3
*Paper_Space
  1

  0
ENDBLK
  5
58
330
55
100
AcDbEntity
 67
     1
  8
0
100
AcDbBlockEnd
  0
BLOCK
  5
52
330
50
100
AcDbEntity
 67
     1
  8
0
100
AcDbBlockBegin
  2
*Paper_Space0
 70
     0
 10
0.0
 20
0.0
 30
0.0
  3
*Paper_Space0
  1

  0
VIEWPORT
  5
6B
330
50
100
AcDbEntity
 67
     1
  8
0
100
AcDbViewport
 10
133.3499908447266
 20
101.5999970436096
 30
0.0
 40
381.3957395593835
 41
218.2856291881582
 68
     0
 69
     0
 12
133.3499908447266
 22
101.5999970436096
 13
0.0
 23
0.0
 14
10.0
 24
10.0
 15
10.0
 25
10.0
 16
0.0
 26
0.0
 36
1.0
 17
0.0
 27
0.0
 37
0.0
 42
50.0
 43
0.0
 44
0.0
 45
218.2856291881582
 50
0.0
 51
0.0
 72
   100
 90
    32800
  1

281
     0
 71
     1
 74
     0
110
0.0
120
0.0
130
0.0
111
1.0
121
0.0
131
0.0
112
0.0
122
1.0
132
0.0
 79
     0
146
0.0
170
     0
 61
     5
348
50B
292
     1
282
     1
141
0.0
142
0.0
 63
   250
421
  3355443
  0
VIEWPORT
  5
6D
330
50
100
AcDbEntity
 67
     1
  8
0
100
AcDbViewport
 10
133.3499939441681
 20
101.5999939441681
 30
0.0
 40
213.3599903106689
 41
162.5599903106689
 68
     0
 69
     0
 12
210.0
 22
148.5
 13
0.0
 23
0.0
 14
10.0
 24
10.0
 15
10.0
 25
10.0
 16
0.0
 26
0.0
 36
1.0
 17
0.0
 27
0.0
 37
0.0
 42
50.0
 43
0.0
 44
0.0
 45
324.0677920111345
 50
0.0
 51
0.0
 72
   100
 90
    32864
  1

281
     0
 71
     1
 74
     0
110
0.0
120
0.0
130
0.0
111
1.0
121
0.0
131
0.0
112
0.0
122
1.0
132
0.0
 79
     0
146
0.0
170
     0
 61
     5
348
50B
292
     1
282
     1
141
0.0
142
0.0
 63
   250
421
  3355443
  0
ENDBLK
  5
53
330
50
100
AcDbEntity
 67
     1
  8
0
100
AcDbBlockEnd
  0
ENDSEC
  0
SECTION
  2
ENTITIES
  0
LINE
  5
2C0
330
1F
100
AcDbEntity
  8
2
100
AcDbLine
 10
86.47620391845704
 20
271.2978360856957
 30
0.0
 11
149.2499771118164
 21
271.2978360856957
 31
0.0
  0
LINE
  5
2C1
330
1F
100
AcDbEntity
  8
2
100
AcDbLine
 10
86.47620391845704
 20
241.2978360856957
 30
0.0
 11
149.2499771118164
 21
241.2978360856957
 31
0.0
  0
LINE
  5
2C2
330
1F
100
AcDbEntity
  8
1
100
AcDbLine
 10
-200.5271072387695
 20
256.2978360856957
 30
0.0
 11
203.5000085830688
 21
256.2978360856957
 31
0.0
  0
LINE
  5
2C3
330
1F
100
AcDbEntity
  8
2
100
AcDbLine
 10
-148.2499465942383
 20
152.7978360856957
 30
0.0
 11
148.2500381469726
 21
152.7978360856957
 31
0.0
  0
LINE
  5
2C4
330
1F
100
AcDbEntity
  8
2
100
AcDbLine
 10
-149.2499771118164
 20
178.7978055681176
 30
0.0
 11
149.2499771118164
 21
178.7978055681176
 31
0.0
  0
LINE
  5
2C5
330
1F
100
AcDbEntity
  8
1
100
AcDbLine
 10
0.0000228881835938
 20
68.00006103515602
 30
0.0
 11
0.0000228881835938
 21
-78.00000014700299
 31
0.0
  0
LINE
  5
2C6
330
1F
100
AcDbEntity
  8
0
370
    -3
100
AcDbLine
 10
73.00000762939453
 20
2.999999999999772
 30
0.0
 11
73.00000762939453
 21
-0.0000000000002274
 31
0.0
  0
LINE
  5
2C7
330
1F
100
AcDbEntity
  8
2
100
AcDbLine
 10
32.50005340576172
 20
2.999999999999772
 30
0.0
 11
32.50005340576172
 21
-0.0000000000002274
 31
0.0
  0
LINE
  5
2C8
330
1F
100
AcDbEntity
  8
1
100
AcDbLine
 10
64.99999237060547
 20
17.37744140624977
 30
0.0
 11
64.99999237060547
 21
-6.953063964843977
 31
0.0
  0
LINE
  5
2C9
330
1F
100
AcDbEntity
  8
2
100
AcDbLine
 10
-32.50000762939453
 20
2.999999999999772
 30
0.0
 11
-32.50000762939453
 21
-0.0000000000002274
 31
0.0
  0
LINE
  5
2CA
330
1F
100
AcDbEntity
  8
0
370
    -3
100
AcDbLine
 10
-73.00000762939453
 20
2.999999999999772
 30
0.0
 11
-73.00000762939453
 21
-0.0000000000002274
 31
0.0
  0
LINE
  5
2CB
330
1F
100
AcDbEntity
  8
1
100
AcDbLine
 10
-64.99994659423828
 20
16.37741088867165
 30
0.0
 11
-64.99994659423828
 21
-7.953002929687727
 31
0.0
  0
LINE
  5
2CC
330
1F
100
AcDbEntity
  8
2
100
AcDbLine
 10
-32.50000762939453
 20
1.000030517578125
 30
0.0
 11
32.50005340576172
 21
1.000030517578125
 31
0.0
  0
LINE
  5
2CD
330
1F
100
AcDbEntity
  8
0
370
    -3
100
AcDbLine
 10
-85.00000762939453
 20
0.0
 30
0.0
 11
85.00000762939453
 21
0.0
 31
0.0
  0
LINE
  5
2CE
330
1F
100
AcDbEntity
  8
0
370
    -3
100
AcDbLine
 10
-13.99994659423828
 20
53.00006103515602
 30
0.0
 11
13.99999237060547
 21
53.00006103515602
 31
0.0
  0
LINE
  5
2CF
330
1F
100
AcDbEntity
  8
1
100
AcDbLine
 10
-7.710153677891867
 20
39.00004577636696
 30
0.0
 11
33.81487094017302
 21
39.00004577636673
 31
0.0
  0
LINE
  5
2D0
330
1F
100
AcDbEntity
  8
0
370
    -3
100
AcDbLine
 10
9.000022888183593
 20
34.0000305175779
 30
0.0
 11
15.00002288818359
 21
34.0000305175779
 31
0.0
  0
LINE
  5
2D1
330
1F
100
AcDbEntity
  8
2
100
AcDbLine
 10
18.00002288818359
 20
29.99999999999977
 30
0.0
 11
1.999992370605468
 21
29.99999999999977
 31
0.0
  0
LINE
  5
2D2
330
1F
100
AcDbEntity
  8
2
100
AcDbLine
 10
-32.50000762939453
 20
3.0
 30
0.0
 11
32.50005340576172
 21
3.0
 31
0.0
  0
LINE
  5
2D3
330
1F
100
AcDbEntity
  8
0
370
    -3
100
AcDbLine
 10
-4.999946594238281
 20
36.00004577636696
 30
0.0
 11
-4.999946594238281
 21
42.00004577636696
 31
0.0
  0
CIRCLE
  5
2D4
330
1F
100
AcDbEntity
  8
0
370
    -3
100
AcDbCircle
 10
-22.00019073486328
 20
39.00004577636696
 30
0.0
 40
3.0
  0
LINE
  5
2D5
330
1F
100
AcDbEntity
  8
0
370
    -3
100
AcDbLine
 10
9.000022888183593
 20
44.00006103515602
 30
0.0
 11
9.000022888183593
 21
34.0000305175779
 31
0.0
  0
LINE
  5
2D6
330
1F
100
AcDbEntity
  8
0
370
    -3
100
AcDbLine
 10
-26.99997711181641
 20
43.0000305175779
 30
0.0
 11
-26.99997711181641
 21
35.00006103515602
 31
0.0
  0
LINE
  5
2D7
330
1F
100
AcDbEntity
  8
0
370
    -3
100
AcDbLine
 10
-14.9999771118164
 20
52.00003051757789
 30
0.0
 11
-14.9999771118164
 21
29.99999999999977
 31
0.0
  0
LINE
  5
2D8
330
1F
100
AcDbEntity
  8
0
370
    -3
100
AcDbLine
 10
-60.75025177001953
 20
8.999816894531022
 30
0.0
 11
-60.75025177001953
 21
4.299865722656022
 31
0.0
  0
LINE
  5
2D9
330
1F
100
AcDbEntity
  8
0
370
    -3
100
AcDbLine
 10
-61.26995220167646
 20
9.299910985769884
 30
0.0
 11
-60.75030524694011
 21
8.999892671184625
 31
0.0
  0
LINE
  5
2DA
330
1F
100
AcDbEntity
  8
0
370
    -3
100
AcDbLine
 10
-61.99500274658203
 20
8.999816894531022
 30
0.0
 11
-61.99500274658203
 21
4.999877929687272
 31
0.0
  0
LINE
  5
2DB
330
1F
100
AcDbEntity
  8
0
370
    -3
100
AcDbLine
 10
-60.89508819580078
 20
8.999816894531022
 30
0.0
 11
-60.89508819580078
 21
4.999877929687272
 31
0.0
  0
LINE
  5
2DC
330
1F
100
AcDbEntity
  8
0
370
    -3
100
AcDbLine
 10
-61.31970977783203
 20
8.999816894531022
 30
0.0
 11
-61.31970977783203
 21
4.999877929687272
 31
0.0
  0
LINE
  5
2DD
330
1F
100
AcDbEntity
  8
0
370
    -3
100
AcDbLine
 10
-69.25019073486328
 20
8.999816894531022
 30
0.0
 11
-69.25019073486328
 21
4.299865722656022
 31
0.0
  0
LINE
  5
2DE
330
1F
100
AcDbEntity
  8
0
370
    -3
100
AcDbLine
 10
-69.25019846570376
 20
8.999923364253163
 30
0.0
 11
-68.73063079796065
 21
9.29989590247078
 31
0.0
  0
LINE
  5
2DF
330
1F
100
AcDbEntity
  8
0
370
    -3
100
AcDbLine
 10
-65.00031280517578
 20
8.999816894531022
 30
0.0
 11
-65.00031280517578
 21
4.999877929687272
 31
0.0
  0
LINE
  5
2E0
330
1F
100
AcDbEntity
  8
0
370
    -3
100
AcDbLine
 10
-69.10535430908203
 20
8.999816894531022
 30
0.0
 11
-69.10535430908203
 21
4.999877929687272
 31
0.0
  0
LINE
  5
2E1
330
1F
100
AcDbEntity
  8
0
370
    -3
100
AcDbLine
 10
-68.68073272705078
 20
8.999816894531022
 30
0.0
 11
-68.68073272705078
 21
4.999877929687272
 31
0.0
  0
LINE
  5
2E2
330
1F
100
AcDbEntity
  8
0
370
    -3
100
AcDbLine
 10
-68.00543975830078
 20
8.999816894531022
 30
0.0
 11
-68.00543975830078
 21
4.999877929687272
 31
0.0
  0
LINE
  5
2E3
330
1F
100
AcDbEntity
  8
0
370
    -3
100
AcDbLine
 10
-67.12525177001953
 20
8.999816894531022
 30
0.0
 11
-67.12525177001953
 21
4.999877929687272
 31
0.0
  0
LINE
  5
2E4
330
1F
100
AcDbEntity
  8
0
370
    -3
100
AcDbLine
 10
-66.10022735595703
 20
8.999816894531022
 30
0.0
 11
-66.10022735595703
 21
4.999877929687272
 31
0.0
  0
LINE
  5
2E5
330
1F
100
AcDbEntity
  8
0
370
    -3
100
AcDbLine
 10
-63.90021514892578
 20
8.999816894531022
 30
0.0
 11
-63.90021514892578
 21
4.999877929687272
 31
0.0
  0
LINE
  5
2E6
330
1F
100
AcDbEntity
  8
0
370
    -3
100
AcDbLine
 10
-62.87519073486328
 20
8.999816894531022
 30
0.0
 11
-62.87519073486328
 21
4.999877929687272
 31
0.0
  0
LINE
  5
2E7
330
1F
100
AcDbEntity
  8
0
370
    -3
100
AcDbLine
 10
-61.26990509033203
 20
9.299835205078125
 30
0.0
 11
-68.73053741455078
 21
9.299835205078125
 31
0.0
  0
LINE
  5
2E8
330
1F
100
AcDbEntity
  8
0
370
    -3
100
AcDbLine
 10
-60.75025177001953
 20
4.9998779296875
 30
0.0
 11
-69.25019073486328
 21
4.9998779296875
 31
0.0
  0
LINE
  5
2E9
330
1F
100
AcDbEntity
  8
0
370
    -3
100
AcDbLine
 10
-60.75025177001953
 20
8.99981689453125
 30
0.0
 11
-69.25019073486328
 21
8.99981689453125
 31
0.0
  0
LINE
  5
2EA
330
1F
100
AcDbEntity
  8
0
370
    -3
100
AcDbLine
 10
-54.99945831298828
 20
30.00009155273415
 30
0.0
 11
-54.99945831298828
 21
2.999999999999772
 31
0.0
  0
LINE
  5
2EB
330
1F
100
AcDbEntity
  8
0
370
    -3
100
AcDbLine
 10
9.000022888183593
 20
36.00004577636696
 30
0.0
 11
-4.999946594238281
 21
36.00004577636696
 31
0.0
  0
LINE
  5
2EC
330
1F
100
AcDbEntity
  8
0
370
    -3
100
AcDbLine
 10
-25.99994659423828
 20
34.0000305175779
 30
0.0
 11
-14.9999771118164
 21
34.0000305175779
 31
0.0
  0
ARC
  5
2ED
330
1F
100
AcDbEntity
  8
0
370
    -3
100
AcDbCircle
 10
-25.99994659423828
 20
35.00006103515602
 30
0.0
 40
1.000000029802322
100
AcDbArc
 50
180.0000086514148
 51
270.0000043257205
  0
LINE
  5
2EE
330
1F
100
AcDbEntity
  8
2
100
AcDbLine
 10
-17.9999771118164
 20
29.99999999999977
 30
0.0
 11
-1.999946594238281
 21
29.99999999999977
 31
0.0
  0
LINE
  5
2EF
330
1F
100
AcDbEntity
  8
2
100
AcDbLine
 10
-2.049934387207031
 20
25.99996948242165
 30
0.0
 11
2.049980163574218
 21
25.99996948242165
 31
0.0
  0
LINE
  5
2F0
330
1F
100
AcDbEntity
  8
0
370
    -3
100
AcDbLine
 10
-1.999946594238281
 20
26.5000305175779
 30
0.0
 11
1.999992370605468
 21
26.5000305175779
 31
0.0
  0
LINE
  5
2F1
330
1F
100
AcDbEntity
  8
2
100
AcDbLine
 10
-27.50003814697266
 20
19.99996948242165
 30
0.0
 11
-17.9999771118164
 21
19.99996948242165
 31
0.0
  0
LINE
  5
2F2
330
1F
100
AcDbEntity
  8
2
100
AcDbLine
 10
2.049980163574218
 20
29.99999999999977
 30
0.0
 11
2.049980163574218
 21
25.99996948242165
 31
0.0
  0
LINE
  5
2F3
330
1F
100
AcDbEntity
  8
0
370
    -3
100
AcDbLine
 10
-1.999946594238281
 20
29.99999999999977
 30
0.0
 11
-1.999946594238281
 21
26.5000305175779
 31
0.0
  0
LINE
  5
2F4
330
1F
100
AcDbEntity
  8
0
370
    -3
100
AcDbLine
 10
1.999992370605468
 20
29.99999999999977
 30
0.0
 11
1.999992370605468
 21
26.5000305175779
 31
0.0
  0
LINE
  5
2F5
330
1F
100
AcDbEntity
  8
2
100
AcDbLine
 10
-17.9999771118164
 20
29.99999999999977
 30
0.0
 11
-17.9999771118164
 21
19.99996948242165
 31
0.0
  0
LINE
  5
2F6
330
1F
100
AcDbEntity
  8
2
100
AcDbLine
 10
-2.049934387207031
 20
29.99999999999977
 30
0.0
 11
-2.049934387207031
 21
25.99996948242165
 31
0.0
  0
LINE
  5
2F7
330
1F
100
AcDbEntity
  8
2
100
AcDbLine
 10
-27.50003814697266
 20
19.99996948242165
 30
0.0
 11
-27.50003814697266
 21
2.999999999999772
 31
0.0
  0
LINE
  5
2F8
330
1F
100
AcDbEntity
  8
0
370
    -3
100
AcDbLine
 10
8.421775817871093
 20
53.00006103515602
 30
0.0
 11
8.421775817871093
 21
44.00006103515602
 31
0.0
  0
LINE
  5
2F9
330
1F
100
AcDbEntity
  8
0
370
    -3
100
AcDbLine
 10
6.538352966308593
 20
53.00006103515602
 30
0.0
 11
6.538352966308593
 21
44.00006103515602
 31
0.0
  0
ARC
  5
2FA
330
1F
100
AcDbEntity
  8
0
370
    -3
100
AcDbCircle
 10
-13.99994659423828
 20
52.00003051757789
 30
0.0
 40
1.000000029802322
100
AcDbArc
 50
90.00000250446868
 51
180.0000050089504
  0
LINE
  5
2FB
330
1F
100
AcDbEntity
  8
0
370
    -3
100
AcDbLine
 10
-25.99994659423828
 20
44.00006103515602
 30
0.0
 11
15.00002288818359
 21
44.00006103515602
 31
0.0
  0
ARC
  5
2FC
330
1F
100
AcDbEntity
  8
0
370
    -3
100
AcDbCircle
 10
-25.99994659423828
 20
43.0000305175779
 30
0.0
 40
1.000000029802322
100
AcDbArc
 50
90.00000250446868
 51
180.0000050089504
  0
LINE
  5
2FD
330
1F
100
AcDbEntity
  8
0
370
    -3
100
AcDbLine
 10
-8.421730041503906
 20
53.00006103515602
 30
0.0
 11
-8.421730041503906
 21
44.00006103515602
 31
0.0
  0
LINE
  5
2FE
330
1F
100
AcDbEntity
  8
0
370
    -3
100
AcDbLine
 10
-6.538307189941406
 20
53.00006103515602
 30
0.0
 11
-6.538307189941406
 21
44.00006103515602
 31
0.0
  0
LINE
  5
2FF
330
1F
100
AcDbEntity
  8
0
370
    -3
100
AcDbLine
 10
9.000022888183593
 20
42.00004577636696
 30
0.0
 11
-4.999946594238281
 21
42.00004577636696
 31
0.0
  0
ARC
  5
300
330
1F
100
AcDbEntity
  8
0
370
    -3
100
AcDbCircle
 10
20.48586273193359
 20
39.00004577636696
 30
0.0
 40
8.514156818389892
100
AcDbArc
 50
340.1808008117862
 51
19.81919577311589
  0
ARC
  5
301
330
1F
100
AcDbEntity
  8
0
370
    -3
100
AcDbCircle
 10
9.599967956542968
 20
39.00004577636696
 30
0.0
 40
9.0
100
AcDbArc
 50
341.2917037595245
 51
18.70829965556215
  0
LINE
  5
302
330
1F
100
AcDbEntity
  8
0
370
    -3
100
AcDbLine
 10
28.99999237060547
 20
34.66992187499978
 30
0.0
 11
28.99999237060547
 21
43.33016967773414
 31
0.0
  0
LINE
  5
303
330
1F
100
AcDbEntity
  8
0
370
    -3
100
AcDbLine
 10
25.00000762939453
 20
33.22654724121071
 30
0.0
 11
25.00000762939453
 21
44.77354431152321
 31
0.0
  0
LINE
  5
304
330
1F
100
AcDbEntity
  8
0
370
    -3
100
AcDbLine
 10
18.59996795654297
 20
34.66992187499978
 30
0.0
 11
18.59996795654297
 21
43.33012390136696
 31
0.0
  0
LINE
  5
305
330
1F
100
AcDbEntity
  8
0
370
    -3
100
AcDbLine
 10
15.00002288818359
 20
52.00003051757789
 30
0.0
 11
15.00002288818359
 21
29.99999999999977
 31
0.0
  0
LINE
  5
306
330
1F
100
AcDbEntity
  8
0
370
    -3
100
AcDbLine
 10
68.73003387451172
 20
9.299835205078125
 30
0.0
 11
61.26940155029297
 21
9.299835205078125
 31
0.0
  0
LINE
  5
307
330
1F
100
AcDbEntity
  8
0
370
    -3
100
AcDbLine
 10
69.24968719482421
 20
4.9998779296875
 30
0.0
 11
60.74974822998047
 21
4.9998779296875
 31
0.0
  0
LINE
  5
308
330
1F
100
AcDbEntity
  8
0
370
    -3
100
AcDbLine
 10
69.24968719482421
 20
8.99981689453125
 30
0.0
 11
60.74974822998047
 21
8.99981689453125
 31
0.0
  0
LINE
  5
309
330
1F
100
AcDbEntity
  8
0
370
    -3
100
AcDbLine
 10
-73.00000762939453
 20
3.0
 30
0.0
 11
73.00000762939453
 21
3.0
 31
0.0
  0
LINE
  5
30A
330
1F
100
AcDbEntity
  8
0
370
    -3
100
AcDbLine
 10
28.49567413330078
 20
36.11329650878906
 30
0.0
 11
25.00000762939453
 21
36.11329650878906
 31
0.0
  0
LINE
  5
30B
330
1F
100
AcDbEntity
  8
0
370
    -3
100
AcDbLine
 10
18.09569549560547
 20
36.11325073242165
 30
0.0
 11
15.00002288818359
 21
36.11325073242165
 31
0.0
  0
LINE
  5
30C
330
1F
100
AcDbEntity
  8
0
370
    -3
100
AcDbLine
 10
25.00000762939453
 20
36.00004577636696
 30
0.0
 11
18.59996795654297
 21
36.00004577636696
 31
0.0
  0
LINE
  5
30D
330
1F
100
AcDbEntity
  8
0
370
    -3
100
AcDbLine
 10
28.49567413330078
 20
33.22654724121094
 30
0.0
 11
25.00000762939453
 21
33.22654724121094
 31
0.0
  0
LINE
  5
30E
330
1F
100
AcDbEntity
  8
0
370
    -3
100
AcDbLine
 10
60.74974822998047
 20
8.999816894531022
 30
0.0
 11
60.74974822998047
 21
4.299865722656022
 31
0.0
  0
LINE
  5
30F
330
1F
100
AcDbEntity
  8
0
370
    -3
100
AcDbLine
 10
60.74971607857879
 20
8.999910275370893
 30
0.0
 11
61.26928374632189
 21
9.29988281358851
 31
0.0
  0
LINE
  5
310
330
1F
100
AcDbEntity
  8
0
370
    -3
100
AcDbLine
 10
64.99962615966797
 20
8.999816894531022
 30
0.0
 11
64.99962615966797
 21
4.999877929687272
 31
0.0
  0
LINE
  5
311
330
1F
100
AcDbEntity
  8
0
370
    -3
100
AcDbLine
 10
60.89458465576171
 20
8.999816894531022
 30
0.0
 11
60.89458465576171
 21
4.999877929687272
 31
0.0
  0
LINE
  5
312
330
1F
100
AcDbEntity
  8
0
370
    -3
100
AcDbLine
 10
61.31920623779297
 20
8.999816894531022
 30
0.0
 11
61.31920623779297
 21
4.999877929687272
 31
0.0
  0
LINE
  5
313
330
1F
100
AcDbEntity
  8
0
370
    -3
100
AcDbLine
 10
61.99449920654297
 20
8.999816894531022
 30
0.0
 11
61.99449920654297
 21
4.999877929687272
 31
0.0
  0
LINE
  5
314
330
1F
100
AcDbEntity
  8
0
370
    -3
100
AcDbLine
 10
62.87468719482422
 20
8.999816894531022
 30
0.0
 11
62.87468719482422
 21
4.999877929687272
 31
0.0
  0
LINE
  5
315
330
1F
100
AcDbEntity
  8
0
370
    -3
100
AcDbLine
 10
63.89971160888672
 20
8.999816894531022
 30
0.0
 11
63.89971160888672
 21
4.999877929687272
 31
0.0
  0
LINE
  5
316
330
1F
100
AcDbEntity
  8
0
370
    -3
100
AcDbLine
 10
54.99945831298828
 20
30.00009155273415
 30
0.0
 11
54.99945831298828
 21
2.999999999999772
 31
0.0
  0
LINE
  5
317
330
1F
100
AcDbEntity
  8
2
100
AcDbLine
 10
27.50003814697266
 20
19.99996948242165
 30
0.0
 11
27.50003814697266
 21
2.999999999999772
 31
0.0
  0
LINE
  5
318
330
1F
100
AcDbEntity
  8
0
370
    -3
100
AcDbLine
 10
18.12444305419922
 20
33.22654724121094
 30
0.0
 11
15.00002288818359
 21
33.22654724121094
 31
0.0
  0
LINE
  5
319
330
1F
100
AcDbEntity
  8
2
100
AcDbLine
 10
18.00002288818359
 20
29.99999999999977
 30
0.0
 11
18.00002288818359
 21
19.99996948242165
 31
0.0
  0
LINE
  5
31A
330
1F
100
AcDbEntity
  8
2
100
AcDbLine
 10
18.00002288818359
 20
19.99996948242165
 30
0.0
 11
27.50003814697266
 21
19.99996948242165
 31
0.0
  0
ARC
  5
31B
330
1F
100
AcDbEntity
  8
0
370
    -3
100
AcDbCircle
 10
26.68233489990234
 20
34.66992187499978
 30
0.0
 40
2.317658007144928
100
AcDbArc
 50
321.4810525530695
 51
38.51894403184842
  0
ARC
  5
31C
330
1F
100
AcDbEntity
  8
0
370
    -3
100
AcDbCircle
 10
16.17171478271484
 20
34.66992187499978
 30
0.0
 40
2.428322017192841
100
AcDbArc
 50
323.5306830399439
 51
36.46931354496106
  0
LINE
  5
31D
330
1F
100
AcDbEntity
  8
0
370
    -3
100
AcDbLine
 10
69.24968719482421
 20
8.999816894531022
 30
0.0
 11
69.24968719482421
 21
4.299865722656022
 31
0.0
  0
LINE
  5
31E
330
1F
100
AcDbEntity
  8
0
370
    -3
100
AcDbLine
 10
68.7299623426079
 20
9.299924074651926
 30
0.0
 11
69.24960929734425
 21
8.99990576006644
 31
0.0
  0
LINE
  5
31F
330
1F
100
AcDbEntity
  8
0
370
    -3
100
AcDbLine
 10
66.09972381591797
 20
8.999816894531022
 30
0.0
 11
66.09972381591797
 21
4.999877929687272
 31
0.0
  0
LINE
  5
320
330
1F
100
AcDbEntity
  8
0
370
    -3
100
AcDbLine
 10
67.12474822998046
 20
8.999816894531022
 30
0.0
 11
67.12474822998046
 21
4.999877929687272
 31
0.0
  0
LINE
  5
321
330
1F
100
AcDbEntity
  8
0
370
    -3
100
AcDbLine
 10
68.00493621826172
 20
8.999816894531022
 30
0.0
 11
68.00493621826172
 21
4.999877929687272
 31
0.0
  0
LINE
  5
322
330
1F
100
AcDbEntity
  8
0
370
    -3
100
AcDbLine
 10
69.10485076904297
 20
8.999816894531022
 30
0.0
 11
69.10485076904297
 21
4.999877929687272
 31
0.0
  0
LINE
  5
323
330
1F
100
AcDbEntity
  8
0
370
    -3
100
AcDbLine
 10
68.68022918701171
 20
8.999816894531022
 30
0.0
 11
68.68022918701171
 21
4.999877929687272
 31
0.0
  0
LINE
  5
324
330
1F
100
AcDbEntity
  8
0
370
    -3
100
AcDbLine
 10
28.49567413330078
 20
44.77354431152344
 30
0.0
 11
25.00000762939453
 21
44.77354431152344
 31
0.0
  0
LINE
  5
325
330
1F
100
AcDbEntity
  8
0
370
    -3
100
AcDbLine
 10
28.49567413330078
 20
41.88679504394531
 30
0.0
 11
25.00000762939453
 21
41.88679504394531
 31
0.0
  0
ARC
  5
326
330
1F
100
AcDbEntity
  8
0
370
    -3
100
AcDbCircle
 10
26.68233489990234
 20
43.33016967773414
 30
0.0
 40
2.317658007144928
100
AcDbArc
 50
321.4810525530695
 51
38.51894403184842
  0
ARC
  5
327
330
1F
100
AcDbEntity
  8
0
370
    -3
100
AcDbCircle
 10
13.99999237060547
 20
52.00003051757789
 30
0.0
 40
1.000000029802322
100
AcDbArc
 50
359.9999974955182
 51
90.00000250446868
  0
LINE
  5
328
330
1F
100
AcDbEntity
  8
0
370
    -3
100
AcDbLine
 10
18.09569549560547
 20
44.77354431152344
 30
0.0
 11
15.00002288818359
 21
44.77354431152344
 31
0.0
  0
LINE
  5
329
330
1F
100
AcDbEntity
  8
0
370
    -3
100
AcDbLine
 10
18.09569549560547
 20
41.8867492675779
 30
0.0
 11
15.00002288818359
 21
41.8867492675779
 31
0.0
  0
ARC
  5
32A
330
1F
100
AcDbEntity
  8
0
370
    -3
100
AcDbCircle
 10
16.17171478271484
 20
43.33012390136696
 30
0.0
 40
2.428322017192841
100
AcDbArc
 50
323.5306830399439
 51
36.46931354496106
  0
LINE
  5
32B
330
1F
100
AcDbEntity
  8
0
370
    -3
100
AcDbLine
 10
25.00000762939453
 20
42.00004577636696
 30
0.0
 11
18.59996795654297
 21
42.00004577636696
 31
0.0
  0
LINE
  5
32C
330
1F
100
AcDbEntity
  8
2
100
AcDbLine
 10
87.00002514270455
 20
256.2979565406158
 30
0.0
 11
85.56339884537283
 21
297.4375529880531
 31
0.0
  0
LINE
  5
32D
330
1F
100
AcDbEntity
  8
0
370
    -3
100
AcDbLine
 10
-14.9999771118164
 20
256.2978360856957
 30
0.0
 11
-14.9999771118164
 21
264.7978666032738
 31
0.0
  0
CIRCLE
  5
32E
330
1F
100
AcDbEntity
  8
0
370
    -3
100
AcDbCircle
 10
0.0000228881835938
 20
256.2978360856957
 30
0.0
 40
7.74999976158142
  0
LINE
  5
32F
330
1F
100
AcDbEntity
  8
0
370
    -3
100
AcDbLine
 10
-25.00019073486328
 20
265.2978360856957
 30
0.0
 11
-25.00019073486328
 21
251.2978666032739
 31
0.0
  0
LINE
  5
330
330
1F
100
AcDbEntity
  8
0
370
    -3
100
AcDbLine
 10
-19.00019073486328
 20
265.2978360856957
 30
0.0
 11
-19.00019073486328
 21
251.2978666032739
 31
0.0
  0
LINE
  5
331
330
1F
100
AcDbEntity
  8
0
370
    -3
100
AcDbLine
 10
8.422048062790963
 20
268.7105469031264
 30
0.0
 11
14.96051555803297
 21
257.3855892009924
 31
0.0
  0
LINE
  5
332
330
1F
100
AcDbEntity
  8
0
370
    -3
100
AcDbLine
 10
-8.421991491111839
 20
268.710182909746
 30
0.0
 11
-14.96032165725046
 21
257.3854630685923
 31
0.0
  0
CIRCLE
  5
333
330
1F
100
AcDbEntity
  8
0
370
    -3
100
AcDbCircle
 10
0.0000228881835938
 20
256.2978360856957
 30
0.0
 40
15.0
  0
CIRCLE
  5
334
330
1F
100
AcDbEntity
  8
0
370
    -3
100
AcDbCircle
 10
0.0000228881835938
 20
256.2978360856957
 30
0.0
 40
13.5
  0
LINE
  5
335
330
1F
100
AcDbEntity
  8
2
100
AcDbLine
 10
-17.9999771118164
 20
265.2978360856957
 30
0.0
 11
-17.9999771118164
 21
235.507125636477
 31
0.0
  0
ARC
  5
336
330
1F
100
AcDbEntity
  8
2
100
AcDbCircle
 10
0.0000228881835938
 20
256.2978360856957
 30
0.0
 40
27.50002956390381
100
AcDbArc
 50
160.8967035608657
 51
289.1033021313414
  0
ARC
  5
337
330
1F
100
AcDbEntity
  8
2
100
AcDbCircle
 10
0.0000228881835938
 20
256.2978360856957
 30
0.0
 40
32.50003051757814
100
AcDbArc
 50
151.2737760313937
 51
301.2870755351033
  0
LINE
  5
338
330
1F
100
AcDbEntity
  8
2
100
AcDbLine
 10
-181.0000076293945
 20
267.5215604509301
 30
0.0
 11
-181.0000076293945
 21
245.0741117204614
 31
0.0
  0
ARC
  5
339
330
1F
100
AcDbEntity
  8
2
100
AcDbCircle
 10
-155.0798721313476
 20
256.2978360856957
 30
0.0
 40
25.92012977600098
100
AcDbArc
 50
163.2213447845082
 51
196.7786515730394
  0
LINE
  5
33A
330
1F
100
AcDbEntity
  8
2
100
AcDbLine
 10
-166.2499465942383
 20
271.2978360856957
 30
0.0
 11
-166.2499465942383
 21
241.2978360856957
 31
0.0
  0
LINE
  5
33B
330
1F
100
AcDbEntity
  8
2
100
AcDbLine
 10
-167.2499771118164
 20
271.2978360856957
 30
0.0
 11
-167.2499771118164
 21
241.2978360856957
 31
0.0
  0
ARC
  5
33C
330
1F
100
AcDbEntity
  8
2
100
AcDbCircle
 10
-181.0000076293945
 20
256.2978360856957
 30
0.0
 40
12.50000095367432
100
AcDbArc
 50
90.00000250446868
 51
269.9777130656522
  0
LINE
  5
33D
330
1F
100
AcDbEntity
  8
2
100
AcDbLine
 10
18.00002288818359
 20
277.0885465349145
 30
0.0
 11
18.00002288818359
 21
240.0711209978049
 31
0.0
  0
LINE
  5
33E
330
1F
100
AcDbEntity
  8
1
100
AcDbLine
 10
-22.00019073486328
 20
249.732955714602
 30
0.0
 11
-22.00019073486328
 21
289.3242032731962
 31
0.0
  0
ARC
  5
33F
330
1F
100
AcDbEntity
  8
2
100
AcDbCircle
 10
0.0000228881835938
 20
256.2978360856957
 30
0.0
 40
27.50002956390381
100
AcDbArc
 50
316.2972429164201
 51
129.5217225310138
  0
ARC
  5
340
330
1F
100
AcDbEntity
  8
2
100
AcDbCircle
 10
0.0000228881835938
 20
256.2978360856957
 30
0.0
 40
32.50003051757814
100
AcDbArc
 50
330.0473665270725
 51
119.9526291472332
  0
LINE
  5
341
330
1F
100
AcDbEntity
  8
2
100
AcDbLine
 10
-87.00000321885545
 20
256.2978405650715
 30
0.0
 11
-85.56337372637882
 21
297.4375285094711
 31
0.0
  0
LINE
  5
342
330
1F
100
AcDbEntity
  8
2
100
AcDbLine
 10
-149.2499771118164
 20
358.7978971208522
 30
0.0
 11
-149.2499771118164
 21
153.7977750505395
 31
0.0
  0
LINE
  5
343
330
1F
100
AcDbEntity
  8
2
100
AcDbLine
 10
-135.2500076293945
 20
359.7978360856962
 30
0.0
 11
-135.2500076293945
 21
152.7978360856957
 31
0.0
  0
LINE
  5
344
330
1F
100
AcDbEntity
  8
2
100
AcDbLine
 10
-161.2499771118164
 20
333.2978055681171
 30
0.0
 11
-161.2499771118164
 21
179.2978666032738
 31
0.0
  0
LINE
  5
345
330
1F
100
AcDbEntity
  8
1
100
AcDbLine
 10
0.0000228881835938
 20
390.2978551591821
 30
0.0
 11
0.0000228881835938
 21
121.0148465837426
 31
0.0
  0
LINE
  5
346
330
1F
100
AcDbEntity
  8
2
100
AcDbLine
 10
-149.2499771118164
 20
241.2978360856957
 30
0.0
 11
-86.47620391845704
 21
241.2978360856957
 31
0.0
  0
LINE
  5
347
330
1F
100
AcDbEntity
  8
2
100
AcDbLine
 10
-150.6108169555664
 20
178.2265165056176
 30
0.0
 11
-150.6108169555664
 21
196.3705289567895
 31
0.0
  0
LINE
  5
348
330
1F
100
AcDbEntity
  8
2
100
AcDbLine
 10
-159.909553527832
 20
178.2265165056176
 30
0.0
 11
-159.909553527832
 21
196.3705289567895
 31
0.0
  0
LINE
  5
349
330
1F
100
AcDbEntity
  8
2
100
AcDbLine
 10
-160.589973449707
 20
179.4049833024926
 30
0.0
 11
-160.589973449707
 21
195.1920621599145
 31
0.0
  0
LINE
  5
34A
330
1F
100
AcDbEntity
  8
2
100
AcDbLine
 10
-161.2499094293216
 20
179.2978787278578
 30
0.0
 11
-166.2499099511405
 21
241.2978864960264
 31
0.0
  0
LINE
  5
34B
330
1F
100
AcDbEntity
  8
2
100
AcDbLine
 10
-159.909553527832
 20
179.4419706071801
 30
0.0
 11
-150.6108169555664
 21
179.4419706071801
 31
0.0
  0
LINE
  5
34C
330
1F
100
AcDbEntity
  8
2
100
AcDbLine
 10
-159.909553527832
 20
178.535690089602
 30
0.0
 11
-150.6108169555664
 21
178.535690089602
 31
0.0
  0
LINE
  5
34D
330
1F
100
AcDbEntity
  8
2
100
AcDbLine
 10
-159.909553527832
 20
182.762496730227
 30
0.0
 11
-150.6108169555664
 21
182.762496730227
 31
0.0
  0
LINE
  5
34E
330
1F
100
AcDbEntity
  8
2
100
AcDbLine
 10
-159.909553527832
 20
180.8836515153832
 30
0.0
 11
-150.6108169555664
 21
180.8836515153832
 31
0.0
  0
LINE
  5
34F
330
1F
100
AcDbEntity
  8
2
100
AcDbLine
 10
-159.909553527832
 20
178.2265165056176
 30
0.0
 11
-149.2499771118164
 21
178.2265165056176
 31
0.0
  0
ARC
  5
350
330
1F
100
AcDbEntity
  8
2
100
AcDbCircle
 10
-155.2499771118164
 20
179.2978666032738
 30
0.0
 40
6.0
100
AcDbArc
 50
179.999991348572
 51
270.0000006832169
  0
LINE
  5
351
330
1F
100
AcDbEntity
  8
2
100
AcDbLine
 10
-160.5900448491975
 20
179.4050185061348
 30
0.0
 11
-159.909624918163
 21
178.2264966362536
 31
0.0
  0
ARC
  5
352
330
1F
100
AcDbEntity
  8
2
100
AcDbCircle
 10
-155.2499771118164
 20
167.2978666032738
 30
0.0
 40
6.0
100
AcDbArc
 50
0.0
 51
90.00000250446868
  0
ARC
  5
353
330
1F
100
AcDbEntity
  8
2
100
AcDbCircle
 10
-148.2499465942383
 20
153.7977750505395
 30
0.0
 40
1.000000029802322
100
AcDbArc
 50
179.999991348572
 51
270.0000006832169
  0
LINE
  5
354
330
1F
100
AcDbEntity
  8
2
100
AcDbLine
 10
-159.909553527832
 20
195.155074855227
 30
0.0
 11
-150.6108169555664
 21
195.155074855227
 31
0.0
  0
LINE
  5
355
330
1F
100
AcDbEntity
  8
2
100
AcDbLine
 10
-159.909553527832
 20
196.0614469255395
 30
0.0
 11
-150.6108169555664
 21
196.0614469255395
 31
0.0
  0
LINE
  5
356
330
1F
100
AcDbEntity
  8
2
100
AcDbLine
 10
-159.909553527832
 20
196.3705289567895
 30
0.0
 11
-149.2499771118164
 21
196.3705289567895
 31
0.0
  0
LINE
  5
357
330
1F
100
AcDbEntity
  8
2
100
AcDbLine
 10
-159.909553527832
 20
193.7133939470238
 30
0.0
 11
-150.6108169555664
 21
193.7133939470238
 31
0.0
  0
LINE
  5
358
330
1F
100
AcDbEntity
  8
2
100
AcDbLine
 10
-159.909553527832
 20
184.9505155290549
 30
0.0
 11
-150.6108169555664
 21
184.9505155290549
 31
0.0
  0
LINE
  5
359
330
1F
100
AcDbEntity
  8
2
100
AcDbLine
 10
-159.909553527832
 20
189.6465299333519
 30
0.0
 11
-150.6108169555664
 21
189.6465299333519
 31
0.0
  0
LINE
  5
35A
330
1F
100
AcDbEntity
  8
2
100
AcDbLine
 10
-159.909553527832
 20
191.8345487321801
 30
0.0
 11
-150.6108169555664
 21
191.8345487321801
 31
0.0
  0
LINE
  5
35B
330
1F
100
AcDbEntity
  8
2
100
AcDbLine
 10
-168.258430480957
 20
187.2985685075705
 30
0.0
 11
-145.0548477172851
 21
187.2985685075705
 31
0.0
  0
LINE
  5
35C
330
1F
100
AcDbEntity
  8
2
100
AcDbLine
 10
-160.5899876842759
 20
195.1921010887186
 30
0.0
 11
-159.9096135296095
 21
196.3705436716066
 31
0.0
  0
LINE
  5
35D
330
1F
100
AcDbEntity
  8
2
100
AcDbLine
 10
-166.2499465942383
 20
241.2978360856957
 30
0.0
 11
-167.2499771118164
 21
241.2978360856957
 31
0.0
  0
ARC
  5
35E
330
1F
100
AcDbEntity
  8
2
100
AcDbCircle
 10
-174.1061782836914
 20
245.0741117204614
 30
0.0
 40
6.893842935562133
100
AcDbArc
 50
147.1327658926313
 51
212.8672304649024
  0
LINE
  5
35F
330
1F
100
AcDbEntity
  8
2
100
AcDbLine
 10
-179.8965225219726
 20
248.8153226579614
 30
0.0
 11
-167.2499771118164
 21
248.8153226579614
 31
0.0
  0
LINE
  5
360
330
1F
100
AcDbEntity
  8
2
100
AcDbLine
 10
-179.8965225219726
 20
241.332809230227
 30
0.0
 11
-167.2499771118164
 21
241.332809230227
 31
0.0
  0
LINE
  5
361
330
1F
100
AcDbEntity
  8
0
370
    -3
100
AcDbLine
 10
14.96053573216159
 20
255.2102742807556
 30
0.0
 11
8.422205566022967
 21
243.8855544396022
 31
0.0
  0
LINE
  5
362
330
1F
100
AcDbEntity
  8
0
370
    -3
100
AcDbLine
 10
8.184013366699218
 20
234.2976224626489
 30
0.0
 11
19.33229827880859
 21
234.2976224626489
 31
0.0
  0
LINE
  5
363
330
1F
100
AcDbEntity
  8
0
370
    -3
100
AcDbLine
 10
9.000022888183593
 20
229.2978360856957
 30
0.0
 11
18.49577412159851
 21
229.2977053494851
 31
0.0
  0
LINE
  5
364
330
1F
100
AcDbEntity
  8
1
100
AcDbLine
 10
-7.665962219238281
 20
234.2976224626489
 30
0.0
 11
34.62517547607422
 21
234.2976224626489
 31
0.0
  0
ARC
  5
365
330
1F
100
AcDbEntity
  8
2
100
AcDbCircle
 10
0.0000228881835938
 20
256.2978360856957
 30
0.0
 40
55.00000190734863
100
AcDbArc
 50
234.9032002189883
 51
305.0968050173119
  0
LINE
  5
366
330
1F
100
AcDbEntity
  8
2
100
AcDbLine
 10
-81.56577301025391
 20
211.2978360856957
 30
0.0
 11
81.56577301025391
 21
211.2978360856957
 31
0.0
  0
LINE
  5
367
330
1F
100
AcDbEntity
  8
2
100
AcDbLine
 10
-86.9999985585755
 20
256.2979533345601
 30
0.0
 11
-85.56337226124288
 21
215.1583568871229
 31
0.0
  0
ARC
  5
368
330
1F
100
AcDbEntity
  8
2
100
AcDbCircle
 10
-81.56577301025391
 20
215.2978666032739
 30
0.0
 40
4.00000011920929
100
AcDbArc
 50
181.999997323439
 51
269.9999974955313
  0
LINE
  5
369
330
1F
100
AcDbEntity
  8
2
100
AcDbLine
 10
-72.49994659423828
 20
241.2979276384301
 30
0.0
 11
-57.49994659423828
 21
241.2979276384301
 31
0.0
  0
CIRCLE
  5
36A
330
1F
100
AcDbEntity
  8
2
100
AcDbCircle
 10
-64.99994659423828
 20
241.2979276384301
 30
0.0
 40
2.000000059604645
  0
CIRCLE
  5
36B
330
1F
100
AcDbEntity
  8
2
100
AcDbCircle
 10
-64.99994659423828
 20
241.2979276384301
 30
0.0
 40
2.499999940395354
  0
LINE
  5
36C
330
1F
100
AcDbEntity
  8
2
100
AcDbLine
 10
-64.99994659423828
 20
233.7979276384301
 30
0.0
 11
-64.99994659423828
 21
248.7979276384301
 31
0.0
  0
LINE
  5
36D
330
1F
100
AcDbEntity
  8
0
370
    -3
100
AcDbLine
 10
-4.499977111816406
 20
255.0478666032739
 30
0.0
 11
4.500022888183593
 21
255.0478666032739
 31
0.0
  0
LINE
  5
36E
330
1F
100
AcDbEntity
  8
0
370
    -3
100
AcDbLine
 10
-4.499977111816406
 20
257.5478055681176
 30
0.0
 11
4.500022888183593
 21
257.5478055681176
 31
0.0
  0
LINE
  5
36F
330
1F
100
AcDbEntity
  8
0
370
    -3
100
AcDbLine
 10
-4.499977111816406
 20
254.2978666032738
 30
0.0
 11
-4.499977111816406
 21
255.0478666032739
 31
0.0
  0
LINE
  5
370
330
1F
100
AcDbEntity
  8
0
370
    -3
100
AcDbLine
 10
4.500022888183593
 20
254.2978666032738
 30
0.0
 11
4.500022888183593
 21
255.0478666032739
 31
0.0
  0
LINE
  5
371
330
1F
100
AcDbEntity
  8
0
370
    -3
100
AcDbLine
 10
-6.999879591049648
 20
256.2978012378908
 30
0.0
 11
-4.499922187721494
 21
254.2978353152289
 31
0.0
  0
LINE
  5
372
330
1F
100
AcDbEntity
  8
0
370
    -3
100
AcDbLine
 10
-6.999942560789349
 20
256.2978430850694
 30
0.0
 11
-4.499913614426077
 21
258.2978662421601
 31
0.0
  0
LINE
  5
373
330
1F
100
AcDbEntity
  8
0
370
    -3
100
AcDbLine
 10
4.500022888183593
 20
257.5478055681176
 30
0.0
 11
4.500022888183593
 21
258.2978055681176
 31
0.0
  0
LINE
  5
374
330
1F
100
AcDbEntity
  8
0
370
    -3
100
AcDbLine
 10
-4.499977111816406
 20
257.5478055681176
 30
0.0
 11
-4.499977111816406
 21
258.2978055681176
 31
0.0
  0
LINE
  5
375
330
1F
100
AcDbEntity
  8
0
370
    -3
100
AcDbLine
 10
4.499961773453833
 20
254.2978487197306
 30
0.0
 11
6.999919176781077
 21
256.2978146423925
 31
0.0
  0
LINE
  5
376
330
1F
100
AcDbEntity
  8
0
370
    -3
100
AcDbLine
 10
6.999981954530085
 20
256.2978298341609
 30
0.0
 11
4.499953060527332
 21
258.297852949363
 31
0.0
  0
ARC
  5
377
330
1F
100
AcDbEntity
  8
0
370
    -3
100
AcDbCircle
 10
8.500053405761718
 20
240.7978666032739
 30
0.0
 40
0.5000000149011612
100
AcDbArc
 50
0.0
 51
90.00000250446868
  0
LINE
  5
378
330
1F
100
AcDbEntity
  8
0
370
    -3
100
AcDbLine
 10
-19.00019073486328
 20
251.2978666032739
 30
0.0
 11
-25.00019073486328
 21
251.2978666032739
 31
0.0
  0
LINE
  5
379
330
1F
100
AcDbEntity
  8
0
370
    -3
100
AcDbLine
 10
0.0000228881835938
 20
241.2978360856957
 30
0.0
 11
8.500053405761718
 21
241.2978360856957
 31
0.0
  0
LINE
  5
37A
330
1F
100
AcDbEntity
  8
0
370
    -3
100
AcDbLine
 10
6.538078308105468
 20
242.7978360856958
 30
0.0
 11
-6.538581848144531
 21
242.7978360856958
 31
0.0
  0
LINE
  5
37B
330
1F
100
AcDbEntity
  8
0
370
    -3
100
AcDbLine
 10
-14.96061791272041
 20
255.2105581654926
 30
0.0
 11
-8.422150417478405
 21
243.8856004633585
 31
0.0
  0
LINE
  5
37C
330
1F
100
AcDbEntity
  8
0
370
    -3
100
AcDbLine
 10
-4.999946594238281
 20
231.2976224626488
 30
0.0
 11
-4.999946594238281
 21
237.2976224626488
 31
0.0
  0
LINE
  5
37D
330
1F
100
AcDbEntity
  8
0
370
    -3
100
AcDbLine
 10
9.000022888183593
 20
237.2976224626488
 30
0.0
 11
-4.999946594238281
 21
237.2976224626488
 31
0.0
  0
LINE
  5
37E
330
1F
100
AcDbEntity
  8
0
370
    -3
100
AcDbLine
 10
9.000022888183593
 20
231.2976224626488
 30
0.0
 11
-4.999946594238281
 21
231.2976224626488
 31
0.0
  0
LINE
  5
37F
330
1F
100
AcDbEntity
  8
0
370
    -3
100
AcDbLine
 10
-1.999946594238281
 20
231.2976224626488
 30
0.0
 11
-1.999946594238281
 21
228.870651027102
 31
0.0
  0
LINE
  5
380
330
1F
100
AcDbEntity
  8
0
370
    -3
100
AcDbLine
 10
1.999992370605468
 20
231.2976224626488
 30
0.0
 11
1.999992370605468
 21
228.870651027102
 31
0.0
  0
LINE
  5
381
330
1F
100
AcDbEntity
  8
0
370
    -3
100
AcDbLine
 10
-1.999946594238281
 20
241.4317777360864
 30
0.0
 11
-1.999946594238281
 21
237.2976224626488
 31
0.0
  0
LINE
  5
382
330
1F
100
AcDbEntity
  8
0
370
    -3
100
AcDbLine
 10
1.999992370605468
 20
241.2978360856957
 30
0.0
 11
1.999992370605468
 21
237.2976224626488
 31
0.0
  0
LINE
  5
383
330
1F
100
AcDbEntity
  8
0
370
    -3
100
AcDbLine
 10
9.000022888183593
 20
229.2978360856957
 30
0.0
 11
9.000022888183593
 21
240.7978666032739
 31
0.0
  0
LINE
  5
384
330
1F
100
AcDbEntity
  8
2
100
AcDbLine
 10
87.0000204824255
 20
256.2978373590159
 30
0.0
 11
85.56339418509287
 21
215.1582409115786
 31
0.0
  0
ARC
  5
385
330
1F
100
AcDbEntity
  8
2
100
AcDbCircle
 10
81.56577301025391
 20
215.2978666032739
 30
0.0
 40
4.00000011920929
100
AcDbArc
 50
269.9999974955313
 51
358.0000000154825
  0
LINE
  5
386
330
1F
100
AcDbEntity
  8
2
100
AcDbLine
 10
72.49994659423828
 20
241.2979276384301
 30
0.0
 11
57.49994659423828
 21
241.2979276384301
 31
0.0
  0
CIRCLE
  5
387
330
1F
100
AcDbEntity
  8
2
100
AcDbCircle
 10
64.99994659423828
 20
241.2979276384301
 30
0.0
 40
2.499999940395354
  0
CIRCLE
  5
388
330
1F
100
AcDbEntity
  8
2
100
AcDbCircle
 10
64.99994659423828
 20
241.2979276384301
 30
0.0
 40
2.000000059604645
  0
LINE
  5
389
330
1F
100
AcDbEntity
  8
0
370
    -3
100
AcDbLine
 10
29.00008392333985
 20
236.7975810192306
 30
0.0
 11
29.00008392333985
 21
231.7976639060671
 31
0.0
  0
LINE
  5
38A
330
1F
100
AcDbEntity
  8
0
370
    -3
100
AcDbLine
 10
28.49580463917664
 20
234.2976224626489
 30
0.0
 11
25.00005340576172
 21
234.2976224626489
 31
0.0
  0
LINE
  5
38B
330
1F
100
AcDbEntity
  8
0
370
    -3
100
AcDbLine
 10
28.49580463917664
 20
239.2975395758128
 30
0.0
 11
25.00005340576172
 21
239.2975395758128
 31
0.0
  0
ARC
  5
38C
330
1F
100
AcDbEntity
  8
0
370
    -3
100
AcDbCircle
 10
22.55118686835976
 20
236.7975810192306
 30
0.0
 40
6.448897054980518
100
AcDbArc
 50
337.1912252976165
 51
22.80877470238346
  0
LINE
  5
38D
330
1F
100
AcDbEntity
  8
0
370
    -3
100
AcDbLine
 10
28.49571990966797
 20
229.2977053494851
 30
0.0
 11
25.00005340576172
 21
229.2977053494851
 31
0.0
  0
LINE
  5
38E
330
1F
100
AcDbEntity
  8
0
370
    -3
100
AcDbLine
 10
25.00005340576172
 20
239.2975395758128
 30
0.0
 11
25.00005340576172
 21
229.2977053494851
 31
0.0
  0
ARC
  5
38F
330
1F
100
AcDbEntity
  8
0
370
    -3
100
AcDbCircle
 10
22.55118686835976
 20
231.7976639060671
 30
0.0
 40
6.448897054980518
100
AcDbArc
 50
337.1912252976165
 51
22.80877470238346
  0
LINE
  5
390
330
1F
100
AcDbEntity
  8
0
370
    -3
100
AcDbLine
 10
18.49577412159851
 20
239.2975395758128
 30
0.0
 11
15.00002288818359
 21
239.2975395758128
 31
0.0
  0
LINE
  5
391
330
1F
100
AcDbEntity
  8
0
370
    -3
100
AcDbLine
 10
19.00005340576172
 20
236.7975810192306
 30
0.0
 11
19.00005340576172
 21
231.7976639060671
 31
0.0
  0
ARC
  5
392
330
1F
100
AcDbEntity
  8
0
370
    -3
100
AcDbCircle
 10
12.55115635078164
 20
236.7975810192306
 30
0.0
 40
6.448897054980518
100
AcDbArc
 50
337.1912252976165
 51
22.80877470238346
  0
ARC
  5
393
330
1F
100
AcDbEntity
  8
0
370
    -3
100
AcDbCircle
 10
0.0000228881835938
 20
256.2978360856957
 30
0.0
 40
32.50003051757814
100
AcDbArc
 50
304.8606614720546
 51
309.714528575504
  0
ARC
  5
394
330
1F
100
AcDbEntity
  8
0
370
    -3
100
AcDbCircle
 10
12.55115635078164
 20
231.7976639060671
 30
0.0
 40
6.448897054980518
100
AcDbArc
 50
337.1912252976165
 51
22.80877470238346
  0
LINE
  5
395
330
1F
100
AcDbEntity
  8
0
370
    -3
100
AcDbLine
 10
25.00005340576172
 20
231.2976224626488
 30
0.0
 11
18.98063780581378
 21
231.2976224626488
 31
0.0
  0
LINE
  5
396
330
1F
100
AcDbEntity
  8
0
370
    -3
100
AcDbLine
 10
25.00005340576172
 20
237.2976224626488
 30
0.0
 11
18.98063780581378
 21
237.2976224626488
 31
0.0
  0
LINE
  5
397
330
1F
100
AcDbEntity
  8
2
100
AcDbLine
 10
64.99994659423828
 20
233.7979276384301
 30
0.0
 11
64.99994659423828
 21
248.7979276384301
 31
0.0
  0
LINE
  5
398
330
1F
100
AcDbEntity
  8
0
370
    -3
100
AcDbLine
 10
15.00002288818359
 20
229.2978360856957
 30
0.0
 11
15.00002288818359
 21
256.2978360856957
 31
0.0
  0
LINE
  5
399
330
1F
100
AcDbEntity
  8
2
100
AcDbLine
 10
-149.2499771118164
 20
333.7978666032732
 30
0.0
 11
-63.09986952841246
 21
333.7978666032732
 31
0.0
  0
LINE
  5
39A
330
1F
100
AcDbEntity
  8
2
100
AcDbLine
 10
-148.2499465942383
 20
359.797836085695
 30
0.0
 11
148.2500381469726
 21
359.797836085695
 31
0.0
  0
LINE
  5
39B
330
1F
100
AcDbEntity
  8
2
100
AcDbLine
 10
-149.2499771118164
 20
271.2978360856957
 30
0.0
 11
-86.47620391845704
 21
271.2978360856957
 31
0.0
  0
ARC
  5
39C
330
1F
100
AcDbEntity
  8
2
100
AcDbCircle
 10
-155.2499771118164
 20
333.2978055681171
 30
0.0
 40
6.0
100
AcDbArc
 50
90.00000250446868
 51
180.0000050089504
  0
ARC
  5
39D
330
1F
100
AcDbEntity
  8
2
100
AcDbCircle
 10
-155.2499771118164
 20
345.2978055681171
 30
0.0
 40
6.0
100
AcDbArc
 50
269.9999974955313
 51
0.0
  0
LINE
  5
39E
330
1F
100
AcDbEntity
  8
2
100
AcDbLine
 10
-161.2499657478374
 20
333.2979536942903
 30
0.0
 11
-166.2499662696555
 21
271.2979459261214
 31
0.0
  0
LINE
  5
39F
330
1F
100
AcDbEntity
  8
2
100
AcDbLine
 10
-166.2499465942383
 20
271.2978360856957
 30
0.0
 11
-167.2499771118164
 21
271.2978360856957
 31
0.0
  0
LINE
  5
3A0
330
1F
100
AcDbEntity
  8
2
100
AcDbLine
 10
-179.8965225219726
 20
271.2628629411645
 30
0.0
 11
-167.2499771118164
 21
271.2628629411645
 31
0.0
  0
LINE
  5
3A1
330
1F
100
AcDbEntity
  8
2
100
AcDbLine
 10
-179.8965225219726
 20
263.7803495134301
 30
0.0
 11
-167.2499771118164
 21
263.7803495134301
 31
0.0
  0
ARC
  5
3A2
330
1F
100
AcDbEntity
  8
2
100
AcDbCircle
 10
-174.1061782836914
 20
267.5215604509301
 30
0.0
 40
6.893842935562133
100
AcDbArc
 50
147.1327658926313
 51
212.8672304649024
  0
LINE
  5
3A3
330
1F
100
AcDbEntity
  8
2
100
AcDbLine
 10
-159.909553527832
 20
334.3691556657732
 30
0.0
 11
-149.2499771118164
 21
334.3691556657732
 31
0.0
  0
LINE
  5
3A4
330
1F
100
AcDbEntity
  8
2
100
AcDbLine
 10
-159.909553527832
 20
316.2251432146022
 30
0.0
 11
-149.2499771118164
 21
316.2251432146022
 31
0.0
  0
LINE
  5
3A5
330
1F
100
AcDbEntity
  8
2
100
AcDbLine
 10
-160.5900536961244
 20
333.1907031569392
 30
0.0
 11
-159.9096566532744
 21
334.3691853833243
 31
0.0
  0
LINE
  5
3A6
330
1F
100
AcDbEntity
  8
2
100
AcDbLine
 10
-160.5899704596922
 20
317.4036518401963
 30
0.0
 11
-159.9095963050258
 21
316.225209257308
 31
0.0
  0
LINE
  5
3A7
330
1F
100
AcDbEntity
  8
2
100
AcDbLine
 10
-160.589973449707
 20
333.1906888688991
 30
0.0
 11
-160.589973449707
 21
317.4036100114772
 31
0.0
  0
LINE
  5
3A8
330
1F
100
AcDbEntity
  8
2
100
AcDbLine
 10
-159.909553527832
 20
334.3691556657741
 30
0.0
 11
-159.909553527832
 21
316.2251432146022
 31
0.0
  0
LINE
  5
3A9
330
1F
100
AcDbEntity
  8
2
100
AcDbLine
 10
-150.6108169555664
 20
334.3691556657741
 30
0.0
 11
-150.6108169555664
 21
316.2251432146022
 31
0.0
  0
ARC
  5
3AA
330
1F
100
AcDbEntity
  8
2
100
AcDbCircle
 10
-148.2499465942383
 20
358.7978971208522
 30
0.0
 40
1.000000029802322
100
AcDbArc
 50
90.00000250446868
 51
180.0000050089504
  0
ARC
  5
3AB
330
1F
100
AcDbEntity
  8
2
100
AcDbCircle
 10
-81.56577301025391
 20
297.2978055681172
 30
0.0
 40
4.00000011920929
100
AcDbArc
 50
90.00000250446868
 51
178.0000026765741
  0
LINE
  5
3AC
330
1F
100
AcDbEntity
  8
2
100
AcDbLine
 10
-81.56577301025391
 20
301.2978360856962
 30
0.0
 11
-59.17499542236328
 21
301.2978360856962
 31
0.0
  0
LINE
  5
3AD
330
1F
100
AcDbEntity
  8
0
370
    -3
100
AcDbLine
 10
-19.50023217828129
 20
285.2978971208522
 30
0.0
 11
-24.50014929144527
 21
285.2978971208522
 31
0.0
  0
LINE
  5
3AE
330
1F
100
AcDbEntity
  8
0
370
    -3
100
AcDbLine
 10
-17.00027362169931
 20
281.2978666032741
 30
0.0
 11
-27.00010784802726
 21
281.2978666032741
 31
0.0
  0
LINE
  5
3AF
330
1F
100
AcDbEntity
  8
0
370
    -3
100
AcDbLine
 10
-27.00010784802726
 20
284.7936178366881
 30
0.0
 11
-27.00010784802726
 21
281.2978666032741
 31
0.0
  0
LINE
  5
3B0
330
1F
100
AcDbEntity
  8
0
370
    -3
100
AcDbLine
 10
-21.999870441854
 20
284.7937525230404
 30
0.0
 11
-22.00019073486328
 21
281.2978666032741
 31
0.0
  0
LINE
  5
3B1
330
1F
100
AcDbEntity
  8
0
370
    -3
100
AcDbLine
 10
-17.00027362169931
 20
284.7936178366881
 30
0.0
 11
-17.00027362169931
 21
281.2978666032741
 31
0.0
  0
ARC
  5
3B2
330
1F
100
AcDbEntity
  8
0
370
    -3
100
AcDbCircle
 10
-24.50014929144527
 20
278.8490000658712
 30
0.0
 40
6.448897054980518
100
AcDbArc
 50
67.19122529760928
 51
112.8087747023907
  0
ARC
  5
3B3
330
1F
100
AcDbEntity
  8
0
370
    -3
100
AcDbCircle
 10
-19.50023217828129
 20
278.8490000658712
 30
0.0
 40
6.448897054980518
100
AcDbArc
 50
67.19122529760928
 51
112.8087747023907
  0
LINE
  5
3B4
330
1F
100
AcDbEntity
  8
0
370
    -3
100
AcDbLine
 10
-19.50023217828129
 20
275.2978666032738
 30
0.0
 11
-24.50014929144527
 21
275.2978666032738
 31
0.0
  0
LINE
  5
3B5
330
1F
100
AcDbEntity
  8
0
370
    -3
100
AcDbLine
 10
-17.00027362169931
 20
274.79358731911
 30
0.0
 11
-17.00027362169931
 21
271.2978360856957
 31
0.0
  0
LINE
  5
3B6
330
1F
100
AcDbEntity
  8
0
370
    -3
100
AcDbLine
 10
-22.00019073486328
 20
274.79358731911
 30
0.0
 11
-22.00019073486328
 21
271.2978360856957
 31
0.0
  0
ARC
  5
3B7
330
1F
100
AcDbEntity
  8
0
370
    -3
100
AcDbCircle
 10
-19.50023217828129
 20
268.8489695482935
 30
0.0
 40
6.448897054980518
100
AcDbArc
 50
67.19122529760928
 51
112.8087747023907
  0
ARC
  5
3B8
330
1F
100
AcDbEntity
  8
0
370
    -3
100
AcDbCircle
 10
-24.50014929144527
 20
268.8489695482935
 30
0.0
 40
6.448897054980518
100
AcDbArc
 50
67.19122529760928
 51
112.8087747023907
  0
LINE
  5
3B9
330
1F
100
AcDbEntity
  8
0
370
    -3
100
AcDbLine
 10
-26.99997711181641
 20
271.2978360856957
 30
0.0
 11
0.0000228881835938
 21
271.2978360856957
 31
0.0
  0
LINE
  5
3BA
330
1F
100
AcDbEntity
  8
0
370
    -3
100
AcDbLine
 10
-6.538581848144531
 20
269.7978360856957
 30
0.0
 11
6.538078308105468
 21
269.7978360856957
 31
0.0
  0
LINE
  5
3BB
330
1F
100
AcDbEntity
  8
0
370
    -3
100
AcDbLine
 10
-26.99997711181641
 20
265.2978360856957
 30
0.0
 11
-15.49994659423828
 21
265.2978360856957
 31
0.0
  0
ARC
  5
3BC
330
1F
100
AcDbEntity
  8
0
370
    -3
100
AcDbCircle
 10
-15.49994659423828
 20
264.7978666032738
 30
0.0
 40
0.5000000149011612
100
AcDbArc
 50
0.0
 51
90.00000250446868
  0
LINE
  5
3BD
330
1F
100
AcDbEntity
  8
0
370
    -3
100
AcDbLine
 10
-26.99997711181641
 20
265.2978360856957
 30
0.0
 11
-27.00010784802726
 21
274.793502589602
 31
0.0
  0
LINE
  5
3BE
330
1F
100
AcDbEntity
  8
2
100
AcDbLine
 10
-1.999946594238281
 20
283.7250211442892
 30
0.0
 11
-1.999946594238281
 21
271.2978360856957
 31
0.0
  0
LINE
  5
3BF
330
1F
100
AcDbEntity
  8
2
100
AcDbLine
 10
1.999992370605468
 20
283.7250211442892
 30
0.0
 11
1.999992370605468
 21
271.1638944353049
 31
0.0
  0
LINE
  5
3C0
330
1F
100
AcDbEntity
  8
0
370
    -3
100
AcDbLine
 10
-19.00019073486328
 20
281.2978666032741
 30
0.0
 11
-19.00019073486328
 21
275.2784510033255
 31
0.0
  0
LINE
  5
3C1
330
1F
100
AcDbEntity
  8
0
370
    -3
100
AcDbLine
 10
-25.00019073486328
 20
281.2978666032741
 30
0.0
 11
-25.00019073486328
 21
275.2784510033255
 31
0.0
  0
ARC
  5
3C2
330
1F
100
AcDbEntity
  8
2
100
AcDbCircle
 10
81.56577301025391
 20
297.2978055681172
 30
0.0
 40
4.00000011920929
100
AcDbArc
 50
1.999999984517496
 51
90.00000250446868
  0
LINE
  5
3C3
330
1F
100
AcDbEntity
  8
2
100
AcDbLine
 10
59.17508697509766
 20
301.2978360856962
 30
0.0
 11
81.56577301025391
 21
301.2978360856962
 31
0.0
  0
LINE
  5
3C4
330
1F
100
AcDbEntity
  8
2
100
AcDbLine
 10
181.0000076293945
 20
267.5215604509301
 30
0.0
 11
181.0000076293945
 21
245.0741117204614
 31
0.0
  0
ARC
  5
3C5
330
1F
100
AcDbEntity
  8
2
100
AcDbCircle
 10
155.0798721313476
 20
256.2978360856957
 30
0.0
 40
25.92012977600098
100
AcDbArc
 50
343.2213414830922
 51
16.77865510182368
  0
LINE
  5
3C6
330
1F
100
AcDbEntity
  8
2
100
AcDbLine
 10
167.2499771118164
 20
271.2978360856957
 30
0.0
 11
167.2499771118164
 21
241.2978360856957
 31
0.0
  0
LINE
  5
3C7
330
1F
100
AcDbEntity
  8
2
100
AcDbLine
 10
166.2500381469726
 20
271.2978360856957
 30
0.0
 11
166.2500381469726
 21
241.2978360856957
 31
0.0
  0
LINE
  5
3C8
330
1F
100
AcDbEntity
  8
2
100
AcDbLine
 10
149.2499771118164
 20
358.8088834489772
 30
0.0
 11
149.2499771118164
 21
153.7867887224145
 31
0.0
  0
LINE
  5
3C9
330
1F
100
AcDbEntity
  8
2
100
AcDbLine
 10
135.2500076293945
 20
359.7978360856962
 30
0.0
 11
135.2500076293945
 21
152.7978360856957
 31
0.0
  0
LINE
  5
3CA
330
1F
100
AcDbEntity
  8
2
100
AcDbLine
 10
161.2499771118164
 20
333.2978055681171
 30
0.0
 11
161.2499771118164
 21
179.2978666032738
 31
0.0
  0
LINE
  5
3CB
330
1F
100
AcDbEntity
  8
2
100
AcDbLine
 10
160.589973449707
 20
179.4049833024926
 30
0.0
 11
160.589973449707
 21
195.1920621599145
 31
0.0
  0
LINE
  5
3CC
330
1F
100
AcDbEntity
  8
2
100
AcDbLine
 10
150.6108169555664
 20
178.2265165056176
 30
0.0
 11
150.6108169555664
 21
196.3705289567895
 31
0.0
  0
LINE
  5
3CD
330
1F
100
AcDbEntity
  8
2
100
AcDbLine
 10
159.909553527832
 20
178.2265165056176
 30
0.0
 11
159.909553527832
 21
196.3705289567895
 31
0.0
  0
LINE
  5
3CE
330
1F
100
AcDbEntity
  8
2
100
AcDbLine
 10
161.2500513237492
 20
179.297972493704
 30
0.0
 11
166.2500518455681
 21
241.2979802618725
 31
0.0
  0
LINE
  5
3CF
330
1F
100
AcDbEntity
  8
2
100
AcDbLine
 10
160.5900405324964
 20
179.4050068146543
 30
0.0
 11
159.9096206014619
 21
178.2264849447729
 31
0.0
  0
ARC
  5
3D0
330
1F
100
AcDbEntity
  8
2
100
AcDbCircle
 10
155.2499771118164
 20
179.2978666032738
 30
0.0
 40
6.0
100
AcDbArc
 50
269.9999974955313
 51
0.0
  0
LINE
  5
3D1
330
1F
100
AcDbEntity
  8
2
100
AcDbLine
 10
159.909553527832
 20
178.2265165056176
 30
0.0
 11
149.2499771118164
 21
178.2265165056176
 31
0.0
  0
LINE
  5
3D2
330
1F
100
AcDbEntity
  8
2
100
AcDbLine
 10
159.909553527832
 20
178.535690089602
 30
0.0
 11
150.6108169555664
 21
178.535690089602
 31
0.0
  0
ARC
  5
3D3
330
1F
100
AcDbEntity
  8
2
100
AcDbCircle
 10
155.2499771118164
 20
167.2978666032738
 30
0.0
 40
6.0
100
AcDbArc
 50
90.00000250446868
 51
180.0000050089504
  0
ARC
  5
3D4
330
1F
100
AcDbEntity
  8
2
100
AcDbCircle
 10
148.2500381469726
 20
153.7977750505395
 30
0.0
 40
1.000000029802322
100
AcDbArc
 50
269.9999974955313
 51
0.0
  0
LINE
  5
3D5
330
1F
100
AcDbEntity
  8
2
100
AcDbLine
 10
160.5899273245495
 20
195.1921068527408
 30
0.0
 11
159.9095531698822
 21
196.3705494356291
 31
0.0
  0
LINE
  5
3D6
330
1F
100
AcDbEntity
  8
2
100
AcDbLine
 10
159.909553527832
 20
196.3705289567895
 30
0.0
 11
149.2499771118164
 21
196.3705289567895
 31
0.0
  0
LINE
  5
3D7
330
1F
100
AcDbEntity
  8
2
100
AcDbLine
 10
179.8965225219726
 20
248.8153226579614
 30
0.0
 11
167.2499771118164
 21
248.8153226579614
 31
0.0
  0
LINE
  5
3D8
330
1F
100
AcDbEntity
  8
2
100
AcDbLine
 10
179.8965225219726
 20
241.332809230227
 30
0.0
 11
167.2499771118164
 21
241.332809230227
 31
0.0
  0
LINE
  5
3D9
330
1F
100
AcDbEntity
  8
2
100
AcDbLine
 10
166.2500381469726
 20
241.2978360856957
 30
0.0
 11
167.2499771118164
 21
241.2978360856957
 31
0.0
  0
ARC
  5
3DA
330
1F
100
AcDbEntity
  8
2
100
AcDbCircle
 10
174.1061782836914
 20
245.0741117204614
 30
0.0
 40
6.893842935562133
100
AcDbArc
 50
327.1327677138637
 51
32.86723570123335
  0
ARC
  5
3DB
330
1F
100
AcDbEntity
  8
2
100
AcDbCircle
 10
181.0000076293945
 20
256.2978360856957
 30
0.0
 40
12.50000095367432
100
AcDbArc
 50
269.9999974955313
 51
90.00105229574275
  0
ARC
  5
3DC
330
1F
100
AcDbEntity
  8
2
100
AcDbCircle
 10
155.2499771118164
 20
333.2978055681171
 30
0.0
 40
6.0
100
AcDbArc
 50
0.0
 51
90.00000250446868
  0
ARC
  5
3DD
330
1F
100
AcDbEntity
  8
2
100
AcDbCircle
 10
155.2499771118164
 20
345.2978055681171
 30
0.0
 40
6.0
100
AcDbArc
 50
179.999991348572
 51
270.0000006832169
  0
LINE
  5
3DE
330
1F
100
AcDbEntity
  8
2
100
AcDbLine
 10
161.2500163857994
 20
333.2978525690523
 30
0.0
 11
166.2500169076174
 21
271.297844800883
 31
0.0
  0
LINE
  5
3DF
330
1F
100
AcDbEntity
  8
2
100
AcDbLine
 10
179.8965225219726
 20
271.2628629411645
 30
0.0
 11
167.2499771118164
 21
271.2628629411645
 31
0.0
  0
LINE
  5
3E0
330
1F
100
AcDbEntity
  8
2
100
AcDbLine
 10
179.8965225219726
 20
263.7803495134301
 30
0.0
 11
167.2499771118164
 21
263.7803495134301
 31
0.0
  0
LINE
  5
3E1
330
1F
100
AcDbEntity
  8
2
100
AcDbLine
 10
166.2500381469726
 20
271.2978360856957
 30
0.0
 11
167.2499771118164
 21
271.2978360856957
 31
0.0
  0
ARC
  5
3E2
330
1F
100
AcDbEntity
  8
2
100
AcDbCircle
 10
174.1061782836914
 20
267.5215604509301
 30
0.0
 40
6.893842935562133
100
AcDbArc
 50
327.1327677138637
 51
32.86723570123335
  0
LINE
  5
3E3
330
1F
100
AcDbEntity
  8
2
100
AcDbLine
 10
160.5900079083503
 20
333.1907437630812
 30
0.0
 11
159.9095879773158
 21
334.3692656329622
 31
0.0
  0
LINE
  5
3E4
330
1F
100
AcDbEntity
  8
2
100
AcDbLine
 10
159.909553527832
 20
334.3691556657732
 30
0.0
 11
149.2499771118164
 21
334.3691556657732
 31
0.0
  0
LINE
  5
3E5
330
1F
100
AcDbEntity
  8
2
100
AcDbLine
 10
160.5898837895629
 20
317.4036348374941
 30
0.0
 11
159.909486746712
 21
316.2251526111102
 31
0.0
  0
LINE
  5
3E6
330
1F
100
AcDbEntity
  8
2
100
AcDbLine
 10
159.909553527832
 20
316.2251432146022
 30
0.0
 11
149.2499771118164
 21
316.2251432146022
 31
0.0
  0
LINE
  5
3E7
330
1F
100
AcDbEntity
  8
2
100
AcDbLine
 10
159.909553527832
 20
334.3691556657741
 30
0.0
 11
159.909553527832
 21
316.2251432146022
 31
0.0
  0
LINE
  5
3E8
330
1F
100
AcDbEntity
  8
2
100
AcDbLine
 10
150.6108169555664
 20
334.3691556657741
 30
0.0
 11
150.6108169555664
 21
316.2251432146022
 31
0.0
  0
LINE
  5
3E9
330
1F
100
AcDbEntity
  8
2
100
AcDbLine
 10
160.589973449707
 20
333.1906888688991
 30
0.0
 11
160.589973449707
 21
317.4036100114772
 31
0.0
  0
ARC
  5
3EA
330
1F
100
AcDbEntity
  8
2
100
AcDbCircle
 10
148.2500381469726
 20
358.7978971208522
 30
0.0
 40
1.000000029802322
100
AcDbArc
 50
0.0
 51
90.00000250446868
  0
LINE
  5
3EB
330
1F
100
AcDbEntity
  8
0
370
    -3
100
AcDbLine
 10
55.09995714724118
 20
30.00009155273415
 30
0.0
 11
15.00002288818359
 21
30.00009155273392
 31
-0.0000000000000004
  0
LINE
  5
3EC
330
1F
100
AcDbEntity
  8
0
370
    -3
100
AcDbLine
 10
-14.99997711181731
 20
30.00009155273392
 30
-0.0000000000000004
 11
-54.99945831298828
 21
30.00009155273415
 31
0.0
  0
LINE
  5
3ED
330
1F
100
AcDbEntity
  8
1
100
AcDbLine
 10
-21.999870441854
 20
48.75009181350447
 30
0.0
 11
-21.999870441854
 21
29.25009156018473
 31
0.0
  0
LINE
  5
3EE
330
1F
100
AcDbEntity
  8
1
100
AcDbLine
 10
-10.93491571937647
 20
39.0000916868446
 30
0.0
 11
-33.06482516433153
 21
39.0000916868446
 31
0.0
  0
LINE
  5
3EF
330
1F
100
AcDbEntity
  8
0
370
    -3
100
AcDbLine
 10
-60.40077297686548
 20
4.299869930749082
 30
0.0
 11
-60.40077297686548
 21
3.0
 31
0.0
  0
LINE
  5
3F0
330
1F
100
AcDbEntity
  8
0
370
    -3
100
AcDbLine
 10
-69.59985263348517
 20
4.299869930749082
 30
0.0
 11
-69.59985263348517
 21
3.0
 31
0.0
  0
LINE
  5
3F1
330
1F
100
AcDbEntity
  8
0
370
    -3
100
AcDbLine
 10
-69.59985263348517
 20
4.299869930749082
 30
0.0
 11
-60.40077297686548
 21
4.299869930749082
 31
0.0
  0
LINE
  5
3F2
330
1F
100
AcDbEntity
  8
0
370
    -3
100
AcDbLine
 10
-65.75079308376462
 20
4.29986994926503
 30
0.0
 11
-65.00031280517578
 21
3.0
 31
0.0
  0
LINE
  5
3F3
330
1F
100
AcDbEntity
  8
0
370
    -3
100
AcDbLine
 10
-65.00031284072065
 20
4.299869974817283
 30
0.0
 11
-64.24983254723156
 21
2.999999999745341
 31
0.0
  0
LINE
  5
3F4
330
1F
100
AcDbEntity
  8
0
370
    -3
100
AcDbLine
 10
69.59916598797827
 20
4.299869930749082
 30
0.0
 11
69.59916598797827
 21
3.0
 31
0.0
  0
LINE
  5
3F5
330
1F
100
AcDbEntity
  8
0
370
    -3
100
AcDbLine
 10
60.40008633135858
 20
4.299869930749082
 30
0.0
 11
60.40008633135858
 21
3.0
 31
0.0
  0
LINE
  5
3F6
330
1F
100
AcDbEntity
  8
0
370
    -3
100
AcDbLine
 10
60.40008633135858
 20
4.299869930749082
 30
0.0
 11
69.59916598797827
 21
4.299869930749082
 31
0.0
  0
LINE
  5
3F7
330
1F
100
AcDbEntity
  8
0
370
    -3
100
AcDbLine
 10
64.24914588107913
 20
4.29986994926503
 30
0.0
 11
64.99962615966797
 21
3.0
 31
0.0
  0
LINE
  5
3F8
330
1F
100
AcDbEntity
  8
0
370
    -3
100
AcDbLine
 10
64.9996261241231
 20
4.299869974817283
 30
0.0
 11
65.75010641761219
 21
2.999999999745341
 31
0.0
  0
LINE
  5
3F9
330
1F
100
AcDbEntity
  8
2
100
AcDbLine
 10
77.81990609211698
 20
333.7978666032732
 30
0.0
 11
149.2499771118164
 21
333.7978666032732
 31
0.0
  0
LINE
  5
3FA
330
1F
100
AcDbEntity
  8
LAYER000
  6
Continuous
100
AcDbLine
 10
54.9995088881833
 20
309.7974360856958
 30
0.0
 11
72.19161488818372
 21
274.8022760856958
 31
0.0
  0
LINE
  5
3FB
330
1F
100
AcDbEntity
  8
LAYER000
  6
Continuous
100
AcDbLine
 10
-54.9994571118168
 20
309.7974560856958
 30
0.0
 11
-72.1802571118169
 21
274.8253160856957
 31
0.0
  0
LINE
  5
3FC
330
1F
100
AcDbEntity
  8
LAYER000
  6
Continuous
100
AcDbLine
 10
-54.9994371118164
 20
309.7973960856957
 30
0.0
 11
54.99945888818365
 21
309.7973960856957
 31
0.0
  0
LINE
  5
3FD
330
1F
100
AcDbEntity
  8
LAYER000
  6
Continuous
100
AcDbLine
 10
-51.9994371118164
 20
345.7970360856958
 30
0.0
 11
51.99950488818285
 21
345.7970360856958
 31
0.0
  0
LINE
  5
3FE
330
1F
100
AcDbEntity
  8
1
100
AcDbLine
 10
-45.499377111817
 20
313.2973960856957
 30
0.0
 11
-45.499377111817
 21
321.2973960856957
 31
0.0
  0
LINE
  5
3FF
330
1F
100
AcDbEntity
  8
LAYER000
  6
CENTER
100
AcDbLine
 10
-9.041897111816979
 20
317.2973960856957
 30
0.0
 11
-15.95777711181654
 21
317.2973960856957
 31
0.0
  0
LINE
  5
400
330
1F
100
AcDbEntity
  8
1
100
AcDbLine
 10
-49.49937711181701
 20
317.2973960856957
 30
0.0
 11
-41.49937711181701
 21
317.2973960856957
 31
0.0
  0
LINE
  5
401
330
1F
100
AcDbEntity
  8
LAYER000
  6
CENTER
100
AcDbLine
 10
-64.99993711181651
 20
277.2978360856957
 30
0.0
 11
-64.99993711181651
 21
265.2978360856957
 31
0.0
  0
LINE
  5
402
330
1F
100
AcDbEntity
  8
LAYER000
  6
CENTER
100
AcDbLine
 10
-70.9999371118165
 20
271.2978360856957
 30
0.0
 11
-58.9999371118165
 21
271.2978360856957
 31
0.0
  0
LINE
  5
403
330
1F
100
AcDbEntity
  8
LAYER000
  6
Continuous
100
AcDbLine
 10
54.99945888818365
 20
342.8067360856958
 30
0.0
 11
54.99945888818365
 21
309.7973960856957
 31
0.0
  0
LINE
  5
404
330
1F
100
AcDbEntity
  8
LAYER000
  6
Continuous
100
AcDbLine
 10
-54.9994371118164
 20
342.7970360856958
 30
0.0
 11
-54.9994371118164
 21
309.7973960856957
 31
0.0
  0
LINE
  5
405
330
1F
100
AcDbEntity
  8
LAYER000
  6
Continuous
100
AcDbLine
 10
61.350672888183
 20
264.1787160856958
 30
0.0
 11
15.96632288818364
 21
287.4439160856957
 31
0.0
  0
LINE
  5
406
330
1F
100
AcDbEntity
  8
LAYER000
  6
Continuous
100
AcDbLine
 10
-61.35049711181636
 20
264.1786960856957
 30
0.0
 11
-15.9309171118166
 21
287.4619960856957
 31
0.0
  0
LINE
  5
407
330
1F
100
AcDbEntity
  8
1
100
AcDbLine
 10
-16.4998371118163
 20
317.2973960856957
 30
0.0
 11
-8.499857111816709
 21
317.2973960856957
 31
0.0
  0
LINE
  5
408
330
1F
100
AcDbEntity
  8
1
100
AcDbLine
 10
-12.49985711181671
 20
313.2973960856957
 30
0.0
 11
-12.49985711181671
 21
321.2973960856957
 31
0.0
  0
LINE
  5
409
330
1F
100
AcDbEntity
  8
1
100
AcDbLine
 10
12.49990288818298
 20
313.2973960856957
 30
0.0
 11
12.49990288818298
 21
321.2973960856957
 31
0.0
  0
LINE
  5
40A
330
1F
100
AcDbEntity
  8
1
100
AcDbLine
 10
8.499902888182987
 20
317.2973960856957
 30
0.0
 11
16.49990288818299
 21
317.2973960856957
 31
0.0
  0
LINE
  5
40B
330
1F
100
AcDbEntity
  8
1
100
AcDbLine
 10
41.49944488818346
 20
317.2973960856957
 30
0.0
 11
49.49944488818346
 21
317.2973960856957
 31
0.0
  0
LINE
  5
40C
330
1F
100
AcDbEntity
  8
1
100
AcDbLine
 10
45.49944488818346
 20
313.2973960856957
 30
0.0
 11
45.49944488818346
 21
321.2973960856957
 31
0.0
  0
LINE
  5
40D
330
1F
100
AcDbEntity
  8
LAYER000
  6
CENTER
100
AcDbLine
 10
70.99999288818344
 20
271.2978360856957
 30
0.0
 11
58.99999288818344
 21
271.2978360856957
 31
0.0
  0
LINE
  5
40E
330
1F
100
AcDbEntity
  8
LAYER000
  6
CENTER
100
AcDbLine
 10
64.99999288818344
 20
277.2978360856957
 30
0.0
 11
64.99999288818344
 21
265.2978360856957
 31
0.0
  0
LINE
  5
40F
330
1F
100
AcDbEntity
  8
LAYER000
  6
DASHED
100
AcDbLine
 10
-54.9994371118164
 20
312.7973960856957
 30
0.0
 11
54.99945888818365
 21
312.7973960856957
 31
0.0
  0
ARC
  5
410
330
1F
100
AcDbEntity
  8
LAYER000
  6
Continuous
100
AcDbCircle
 10
-51.9994371118164
 20
342.7970360856958
 30
0.0
 40
2.99997
100
AcDbArc
 50
90.00000299998466
 51
180.0000100000009
  0
ARC
  5
411
330
1F
100
AcDbEntity
  8
LAYER000
  6
Continuous
100
AcDbCircle
 10
51.99950488818285
 20
342.7970360856958
 30
0.0
 40
2.99997
100
AcDbArc
 50
359.8144199999949
 51
90.00000299998466
  0
ARC
  5
412
330
1F
100
AcDbEntity
  8
LAYER000
  6
Continuous
100
AcDbCircle
 10
-64.99993711181651
 20
271.2978360856957
 30
0.0
 40
8.0
100
AcDbArc
 50
153.8364500000086
 51
297.1408799999926
  0
ARC
  5
413
330
1F
100
AcDbEntity
  8
LAYER000
  6
Continuous
100
AcDbCircle
 10
65.00003888818355
 20
271.2978360856957
 30
0.0
 40
8.0
100
AcDbArc
 50
242.8591399999747
 51
26.34718299998754
  0
ARC
  5
414
330
1F
100
AcDbEntity
  8
LAYER000
  6
Continuous
100
AcDbCircle
 10
0.0000228881835938
 20
256.2978360856957
 30
0.0
 40
35.0
100
AcDbArc
 50
62.85914600001634
 51
117.2271648837668
  0
CIRCLE
  5
415
330
1F
100
AcDbEntity
  8
LAYER000
  6
Continuous
100
AcDbCircle
 10
-45.499377111817
 20
317.2973960856957
 30
0.0
 40
2.0
  0
CIRCLE
  5
416
330
1F
100
AcDbEntity
  8
LAYER000
  6
Continuous
100
AcDbCircle
 10
-45.499377111817
 20
317.2973960856957
 30
0.0
 40
1.75
  0
CIRCLE
  5
417
330
1F
100
AcDbEntity
  8
LAYER000
  6
Continuous
100
AcDbCircle
 10
-12.49985711181671
 20
317.2973960856957
 30
0.0
 40
1.75
  0
CIRCLE
  5
418
330
1F
100
AcDbEntity
  8
LAYER000
  6
Continuous
100
AcDbCircle
 10
-12.49985711181671
 20
317.2973960856957
 30
0.0
 40
2.0
  0
CIRCLE
  5
419
330
1F
100
AcDbEntity
  8
LAYER000
  6
Continuous
100
AcDbCircle
 10
12.49990288818298
 20
317.2973960856957
 30
0.0
 40
1.75
  0
CIRCLE
  5
41A
330
1F
100
AcDbEntity
  8
LAYER000
  6
Continuous
100
AcDbCircle
 10
12.49990288818298
 20
317.2973960856957
 30
0.0
 40
2.0
  0
CIRCLE
  5
41B
330
1F
100
AcDbEntity
  8
LAYER000
  6
Continuous
100
AcDbCircle
 10
45.49944488818346
 20
317.2973960856957
 30
0.0
 40
2.0
  0
CIRCLE
  5
41C
330
1F
100
AcDbEntity
  8
LAYER000
  6
Continuous
100
AcDbCircle
 10
45.49944488818346
 20
317.2973960856957
 30
0.0
 40
1.75
  0
LINE
  5
41D
330
1F
100
AcDbEntity
  8
1
100
AcDbLine
 10
58.49997762939437
 20
271.2977445329605
 30
0.0
 11
71.5000081469725
 21
271.2977445329605
 31
0.0
  0
LINE
  5
41E
330
1F
100
AcDbEntity
  8
0
370
    -3
100
AcDbLine
 10
66.49999288818344
 20
270.4317472185078
 30
0.0
 11
66.49999288818344
 21
272.1637418474145
 31
0.0
  0
LINE
  5
41F
330
1F
100
AcDbEntity
  8
0
370
    -3
100
AcDbLine
 10
66.50001355944823
 20
270.4316963215172
 30
0.0
 11
65.00001266395702
 21
269.5656703851776
 31
0.0
  0
LINE
  5
420
330
1F
100
AcDbEntity
  8
0
370
    -3
100
AcDbLine
 10
63.49999288818344
 20
270.4317472185078
 30
0.0
 11
63.49999288818344
 21
272.1637418474145
 31
0.0
  0
LINE
  5
421
330
1F
100
AcDbEntity
  8
0
370
    -3
100
AcDbLine
 10
64.99997339620222
 20
269.5657343142595
 30
0.0
 11
63.50002205508189
 21
270.4317316403706
 31
0.0
  0
LINE
  5
422
330
1F
100
AcDbEntity
  8
1
100
AcDbLine
 10
64.99999288818344
 20
277.7977140153823
 30
0.0
 11
64.99999288818344
 21
264.7977750505395
 31
0.0
  0
LINE
  5
423
330
1F
100
AcDbEntity
  8
0
370
    -3
100
AcDbLine
 10
63.50001264376533
 20
272.1637465848733
 30
0.0
 11
65.00001353925745
 21
273.0297725212133
 31
0.0
  0
LINE
  5
424
330
1F
100
AcDbEntity
  8
0
370
    -3
100
AcDbLine
 10
66.49997341639482
 20
272.1638105139553
 30
0.0
 11
65.00002207527359
 21
273.0298078400658
 31
0.0
  0
CIRCLE
  5
425
330
1F
100
AcDbEntity
  8
0
370
    -3
100
AcDbCircle
 10
64.99999288818344
 20
271.2977445329605
 30
0.0
 40
3.500000238418578
  0
CIRCLE
  5
426
330
1F
100
AcDbEntity
  8
0
370
    -3
100
AcDbCircle
 10
64.99999288818344
 20
271.2977445329605
 30
0.0
 40
2.980384826660156
  0
LINE
  5
427
330
1F
100
AcDbEntity
  8
1
100
AcDbLine
 10
-71.49995237060557
 20
271.2977445329605
 30
0.0
 11
-58.49992185302745
 21
271.2977445329605
 31
0.0
  0
LINE
  5
428
330
1F
100
AcDbEntity
  8
0
370
    -3
100
AcDbLine
 10
-63.4999371118165
 20
270.4317472185078
 30
0.0
 11
-63.4999371118165
 21
272.1637418474145
 31
0.0
  0
LINE
  5
429
330
1F
100
AcDbEntity
  8
0
370
    -3
100
AcDbLine
 10
-63.49991644055172
 20
270.4316963215172
 30
0.0
 11
-64.99991733604293
 21
269.5656703851776
 31
0.0
  0
LINE
  5
42A
330
1F
100
AcDbEntity
  8
0
370
    -3
100
AcDbLine
 10
-66.4999371118165
 20
270.4317472185078
 30
0.0
 11
-66.4999371118165
 21
272.1637418474145
 31
0.0
  0
LINE
  5
42B
330
1F
100
AcDbEntity
  8
0
370
    -3
100
AcDbLine
 10
-64.99995660379773
 20
269.5657343142595
 30
0.0
 11
-66.49990794491805
 21
270.4317316403706
 31
0.0
  0
LINE
  5
42C
330
1F
100
AcDbEntity
  8
1
100
AcDbLine
 10
-64.99993711181651
 20
277.7977140153823
 30
0.0
 11
-64.99993711181651
 21
264.7977750505395
 31
0.0
  0
LINE
  5
42D
330
1F
100
AcDbEntity
  8
0
370
    -3
100
AcDbLine
 10
-66.49991735623462
 20
272.1637465848733
 30
0.0
 11
-64.99991646074249
 21
273.0297725212133
 31
0.0
  0
LINE
  5
42E
330
1F
100
AcDbEntity
  8
0
370
    -3
100
AcDbLine
 10
-63.49995658360512
 20
272.1638105139553
 30
0.0
 11
-64.99990792472636
 21
273.0298078400658
 31
0.0
  0
CIRCLE
  5
42F
330
1F
100
AcDbEntity
  8
0
370
    -3
100
AcDbCircle
 10
-64.99993711181651
 20
271.2977445329605
 30
0.0
 40
3.500000238418578
  0
CIRCLE
  5
430
330
1F
100
AcDbEntity
  8
0
370
    -3
100
AcDbCircle
 10
-64.99993711181651
 20
271.2977445329605
 30
0.0
 40
2.980384826660156
  0
LINE
  5
431
330
1F
100
AcDbEntity
  8
2
100
AcDbLine
 10
-30.19971220855132
 20
286.4847438311144
 30
0.0
 11
-30.19971220855132
 21
313.2974570856954
 31
0.0
  0
LINE
  5
432
330
1F
100
AcDbEntity
  8
2
100
AcDbLine
 10
-14.19964020855059
 20
286.4847438311144
 30
0.0
 11
-14.19964020855059
 21
313.2974570856954
 31
0.0
  0
LINE
  5
433
330
1F
100
AcDbEntity
  8
2
100
AcDbLine
 10
-6.499688808550672
 20
345.6974820856963
 30
0.0
 11
-77.6997892085501
 21
345.6974820856963
 31
0.0
  0
LINE
  5
434
330
1F
100
AcDbEntity
  8
2
100
AcDbLine
 10
-77.6997892085501
 20
328.8974330856968
 30
0.0
 11
-77.6997892085501
 21
345.6974820856963
 31
0.0
  0
LINE
  5
435
330
1F
100
AcDbEntity
  8
2
100
AcDbLine
 10
-6.499688808550672
 20
313.2974570856954
 30
0.0
 11
-6.499688808550672
 21
345.6974820856963
 31
0.0
  0
LINE
  5
436
330
1F
100
AcDbEntity
  8
2
100
AcDbLine
 10
-51.89977020854986
 20
313.2974570856954
 30
0.0
 11
-51.89977020854986
 21
345.6974820856963
 31
0.0
  0
LINE
  5
437
330
1F
100
AcDbEntity
  8
2
100
AcDbLine
 10
-6.499688808550672
 20
313.2974570856954
 30
0.0
 11
-51.89977020854986
 21
313.2974570856954
 31
0.0
  0
LINE
  5
438
330
1F
100
AcDbEntity
  8
2
100
AcDbLine
 10
-30.19971220855132
 20
286.4847438311144
 30
0.0
 11
-14.19964020855059
 21
286.4847438311144
 31
0.0
  0
LINE
  5
439
330
1F
100
AcDbEntity
  8
2
100
AcDbLine
 10
-51.89977020854986
 20
328.8974330856968
 30
0.0
 11
-77.6997892085501
 21
328.8974330856968
 31
0.0
  0
LINE
  5
43A
330
1F
100
AcDbEntity
  8
2
100
AcDbLine
 10
30.19975798491851
 20
286.4847438311144
 30
0.0
 11
30.19975798491851
 21
313.2974570856954
 31
0.0
  0
LINE
  5
43B
330
1F
100
AcDbEntity
  8
2
100
AcDbLine
 10
14.19968598491777
 20
286.4847438311144
 30
0.0
 11
14.19968598491777
 21
313.2974570856954
 31
0.0
  0
LINE
  5
43C
330
1F
100
AcDbEntity
  8
2
100
AcDbLine
 10
6.49973458491786
 20
345.6974820856963
 30
0.0
 11
77.69983498491729
 21
345.6974820856963
 31
0.0
  0
LINE
  5
43D
330
1F
100
AcDbEntity
  8
2
100
AcDbLine
 10
77.69983498491729
 20
328.8974330856968
 30
0.0
 11
77.69983498491729
 21
345.6974820856963
 31
0.0
  0
LINE
  5
43E
330
1F
100
AcDbEntity
  8
2
100
AcDbLine
 10
6.49973458491786
 20
313.2974570856954
 30
0.0
 11
6.49973458491786
 21
345.6974820856963
 31
0.0
  0
LINE
  5
43F
330
1F
100
AcDbEntity
  8
2
100
AcDbLine
 10
51.89981598491704
 20
313.2974570856954
 30
0.0
 11
51.89981598491704
 21
345.6974820856963
 31
0.0
  0
LINE
  5
440
330
1F
100
AcDbEntity
  8
2
100
AcDbLine
 10
6.49973458491786
 20
313.2974570856954
 30
0.0
 11
51.89981598491704
 21
313.2974570856954
 31
0.0
  0
LINE
  5
441
330
1F
100
AcDbEntity
  8
2
100
AcDbLine
 10
30.19975798491851
 20
286.4847438311144
 30
0.0
 11
14.19968598491777
 21
286.4847438311144
 31
0.0
  0
LINE
  5
442
330
1F
100
AcDbEntity
  8
2
100
AcDbLine
 10
51.89981598491704
 20
328.8974330856968
 30
0.0
 11
77.69983498491729
 21
328.8974330856968
 31
0.0
  0
LINE
  5
443
330
1F
100
AcDbEntity
  8
1
100
AcDbLine
 10
0.0000174159549715
 20
79.49999999999977
 30
0.0
 11
0.0000403041385653
 21
-253.0172741967615
 31
0.0
  0
LINE
  5
444
330
1F
100
AcDbEntity
  8
2
100
AcDbLine
 10
161.2500694347009
 20
-184.0000164445405
 30
0.0
 11
166.2500699565198
 21
-122.0000086763718
 31
0.0
  0
LINE
  5
445
330
1F
100
AcDbEntity
  8
2
100
AcDbLine
 10
35.00005556292763
 20
-106.5000000000004
 30
0.0
 11
35.00005556292763
 21
-164.5000305175783
 31
0.0
  0
LINE
  5
446
330
1F
100
AcDbEntity
  8
2
100
AcDbLine
 10
30.00004030413857
 20
-107.5000305175786
 30
0.0
 11
30.00004030413857
 21
-163.5000000000002
 31
0.0
  0
LINE
  5
447
330
1F
100
AcDbEntity
  8
2
100
AcDbLine
 10
31.00007082171669
 20
-107.5000305175786
 30
0.0
 11
31.00007082171669
 21
-163.5000000000002
 31
0.0
  0
LINE
  5
448
330
1F
100
AcDbEntity
  8
2
100
AcDbLine
 10
-30.99999021343956
 20
-107.5000305175786
 30
0.0
 11
-30.99999021343956
 21
-163.5000000000002
 31
0.0
  0
LINE
  5
449
330
1F
100
AcDbEntity
  8
2
100
AcDbLine
 10
-29.99995969586144
 20
-107.5000305175786
 30
0.0
 11
-29.99995969586144
 21
-163.5000000000002
 31
0.0
  0
LINE
  5
44A
330
1F
100
AcDbEntity
  8
2
100
AcDbLine
 10
-34.99992917828331
 20
-106.5000000000004
 30
0.0
 11
-34.99992917828331
 21
-164.5000305175783
 31
0.0
  0
LINE
  5
44B
330
1F
100
AcDbEntity
  8
2
100
AcDbLine
 10
-161.2499037474545
 20
-183.9999733256881
 30
0.0
 11
-166.2499042692734
 21
-121.9999655575195
 31
0.0
  0
LINE
  5
44C
330
1F
100
AcDbEntity
  8
2
100
AcDbLine
 10
161.2499945277714
 20
-30.00000000000023
 30
0.0
 11
161.2499945277714
 21
-184.0000305175783
 31
0.0
  0
LINE
  5
44D
330
1F
100
AcDbEntity
  8
2
100
AcDbLine
 10
149.2499945277714
 20
-4.000030517578352
 30
0.0
 11
149.2499945277714
 21
-210.0000000000002
 31
0.0
  0
LINE
  5
44E
330
1F
100
AcDbEntity
  8
2
100
AcDbLine
 10
135.2500250453495
 20
-3.000000000000227
 30
0.0
 11
135.2500250453495
 21
-211.0000305175784
 31
0.0
  0
LINE
  5
44F
330
1F
100
AcDbEntity
  8
2
100
AcDbLine
 10
-161.2499596958614
 20
-30.00000000000023
 30
0.0
 11
-161.2499596958614
 21
-184.0000305175783
 31
0.0
  0
LINE
  5
450
330
1F
100
AcDbEntity
  8
2
100
AcDbLine
 10
-149.2499596958614
 20
-4.000030517578352
 30
0.0
 11
-149.2499596958614
 21
-210.0000000000002
 31
0.0
  0
LINE
  5
451
330
1F
100
AcDbEntity
  8
2
100
AcDbLine
 10
-135.2499902134395
 20
-3.000000000000227
 30
0.0
 11
-135.2499902134395
 21
-211.0000305175784
 31
0.0
  0
LINE
  5
452
330
1F
100
AcDbEntity
  8
2
100
AcDbLine
 10
-27.99999021343956
 20
-166.5000000000002
 30
0.0
 11
28.00007082171669
 21
-166.5000000000002
 31
0.0
  0
LINE
  5
453
330
1F
100
AcDbEntity
  8
2
100
AcDbLine
 10
-28.99992917828331
 20
-170.5000305175783
 30
0.0
 11
29.00010133929482
 21
-170.5000305175783
 31
0.0
  0
LINE
  5
454
330
1F
100
AcDbEntity
  8
2
100
AcDbLine
 10
-27.99999021343956
 20
-165.500015258789
 30
0.0
 11
28.00007082171669
 21
-165.500015258789
 31
0.0
  0
LINE
  5
455
330
1F
100
AcDbEntity
  8
2
100
AcDbLine
 10
-62.99995969586143
 20
-220.0000305175783
 30
0.0
 11
62.99999452777138
 21
-220.0000305175783
 31
0.0
  0
LINE
  5
456
330
1F
100
AcDbEntity
  8
2
100
AcDbLine
 10
-68.99995969586143
 20
-207.0000000000002
 30
0.0
 11
-149.2499596958614
 21
-207.0000000000002
 31
0.0
  0
LINE
  5
457
330
1F
100
AcDbEntity
  8
2
100
AcDbLine
 10
-148.2499291782833
 20
-211.0000305175784
 30
0.0
 11
-67.99992917828331
 21
-211.0000305175784
 31
0.0
  0
LINE
  5
458
330
1F
100
AcDbEntity
  8
2
100
AcDbLine
 10
-150.6107995396114
 20
-181.9280090332033
 30
0.0
 11
-150.6107995396114
 21
-200.0720214843752
 31
0.0
  0
LINE
  5
459
330
1F
100
AcDbEntity
  8
2
100
AcDbLine
 10
-160.589956033752
 20
-183.1064758300783
 30
0.0
 11
-160.589956033752
 21
-198.8935546875002
 31
0.0
  0
LINE
  5
45A
330
1F
100
AcDbEntity
  8
2
100
AcDbLine
 10
-159.909536111877
 20
-181.9280090332033
 30
0.0
 11
-159.909536111877
 21
-200.0720214843752
 31
0.0
  0
ARC
  5
45B
330
1F
100
AcDbEntity
  8
2
100
AcDbCircle
 10
-148.2499291782833
 20
-210.0000000000002
 30
0.0
 40
1.000000029802322
100
AcDbArc
 50
179.999991348572
 51
270.000000683243
  0
LINE
  5
45C
330
1F
100
AcDbEntity
  8
2
100
AcDbLine
 10
-160.5900080153087
 20
-198.8934557831578
 30
0.0
 11
-159.9095880842751
 21
-200.0719776530391
 31
0.0
  0
LINE
  5
45D
330
1F
100
AcDbEntity
  8
2
100
AcDbLine
 10
-159.909536111877
 20
-200.0720214843752
 30
0.0
 11
-149.2499596958614
 21
-200.0720214843752
 31
0.0
  0
ARC
  5
45E
330
1F
100
AcDbEntity
  8
2
100
AcDbCircle
 10
-155.2499596958614
 20
-184.0000305175783
 30
0.0
 40
6.0
100
AcDbArc
 50
179.999991348572
 51
207.1267569958326
  0
LINE
  5
45F
330
1F
100
AcDbEntity
  8
2
100
AcDbLine
 10
-160.5900326016008
 20
-183.1064475321309
 30
0.0
 11
-159.9096298367049
 21
-181.9279553948718
 31
0.0
  0
LINE
  5
460
330
1F
100
AcDbEntity
  8
2
100
AcDbLine
 10
-159.909536111877
 20
-181.9280090332033
 30
0.0
 11
-149.2499596958614
 21
-181.9280090332033
 31
0.0
  0
ARC
  5
461
330
1F
100
AcDbEntity
  8
2
100
AcDbCircle
 10
-68.99995969586143
 20
-213.0000000000002
 30
0.0
 40
6.0
100
AcDbArc
 50
0.0
 51
90.00000250446868
  0
LINE
  5
462
330
1F
100
AcDbEntity
  8
2
100
AcDbLine
 10
-62.99995969586143
 20
-213.0000000000002
 30
0.0
 11
-62.99995969586143
 21
-220.0000305175783
 31
0.0
  0
ARC
  5
463
330
1F
100
AcDbEntity
  8
2
100
AcDbCircle
 10
-67.99992917828331
 20
-216.0000000000002
 30
0.0
 40
4.999999880790709
100
AcDbArc
 50
0.0
 51
90.00000250446868
  0
ARC
  5
464
330
1F
100
AcDbEntity
  8
2
100
AcDbCircle
 10
-27.99999021343956
 20
-163.5000000000002
 30
0.0
 40
3.0
100
AcDbArc
 50
179.999991348572
 51
270.000000683243
  0
ARC
  5
465
330
1F
100
AcDbEntity
  8
2
100
AcDbCircle
 10
-27.99999021343956
 20
-163.5000000000002
 30
0.0
 40
2.000000059604645
100
AcDbArc
 50
179.999991348572
 51
270.000000683243
  0
ARC
  5
466
330
1F
100
AcDbEntity
  8
2
100
AcDbCircle
 10
-28.99992917828331
 20
-164.5000305175783
 30
0.0
 40
6.0
100
AcDbArc
 50
179.999991348572
 51
270.000000683243
  0
LINE
  5
467
330
1F
100
AcDbEntity
  8
2
100
AcDbLine
 10
68.99999452777137
 20
-207.0000000000002
 30
0.0
 11
149.2499945277714
 21
-207.0000000000002
 31
0.0
  0
LINE
  5
468
330
1F
100
AcDbEntity
  8
2
100
AcDbLine
 10
68.00005556292763
 20
-211.0000305175784
 30
0.0
 11
148.2500555629276
 21
-211.0000305175784
 31
0.0
  0
ARC
  5
469
330
1F
100
AcDbEntity
  8
2
100
AcDbCircle
 10
68.99999452777137
 20
-213.0000000000002
 30
0.0
 40
6.0
100
AcDbArc
 50
90.00000250446868
 51
180.0000050089504
  0
LINE
  5
46A
330
1F
100
AcDbEntity
  8
2
100
AcDbLine
 10
62.99999452777138
 20
-213.0000000000002
 30
0.0
 11
62.99999452777138
 21
-220.0000305175783
 31
0.0
  0
ARC
  5
46B
330
1F
100
AcDbEntity
  8
2
100
AcDbCircle
 10
68.00005556292763
 20
-216.0000000000002
 30
0.0
 40
4.999999880790709
100
AcDbArc
 50
90.00000250446868
 51
180.0000050089504
  0
ARC
  5
46C
330
1F
100
AcDbEntity
  8
2
100
AcDbCircle
 10
28.00007082171669
 20
-163.5000000000002
 30
0.0
 40
3.0
100
AcDbArc
 50
269.9999974955313
 51
0.0
  0
ARC
  5
46D
330
1F
100
AcDbEntity
  8
2
100
AcDbCircle
 10
29.00010133929482
 20
-164.5000305175783
 30
0.0
 40
6.0
100
AcDbArc
 50
269.9999974955313
 51
0.0
  0
ARC
  5
46E
330
1F
100
AcDbEntity
  8
2
100
AcDbCircle
 10
28.00007082171669
 20
-163.5000000000002
 30
0.0
 40
2.000000059604645
100
AcDbArc
 50
269.9999974955313
 51
0.0
  0
LINE
  5
46F
330
1F
100
AcDbEntity
  8
2
100
AcDbLine
 10
160.589990865662
 20
-183.1064758300783
 30
0.0
 11
160.589990865662
 21
-198.8935546875002
 31
0.0
  0
LINE
  5
470
330
1F
100
AcDbEntity
  8
2
100
AcDbLine
 10
159.9096624965214
 20
-181.9280090332033
 30
0.0
 11
159.9096624965214
 21
-200.0720214843752
 31
0.0
  0
LINE
  5
471
330
1F
100
AcDbEntity
  8
2
100
AcDbLine
 10
150.6108343715214
 20
-181.9280090332033
 30
0.0
 11
150.6108343715214
 21
-200.0720214843752
 31
0.0
  0
LINE
  5
472
330
1F
100
AcDbEntity
  8
2
100
AcDbLine
 10
160.5900156423322
 20
-198.8935071181358
 30
0.0
 11
159.9096185994822
 21
-200.0719893445203
 31
0.0
  0
LINE
  5
473
330
1F
100
AcDbEntity
  8
2
100
AcDbLine
 10
159.9096624965214
 20
-200.0720214843752
 30
0.0
 11
149.2499945277714
 21
-200.0720214843752
 31
0.0
  0
ARC
  5
474
330
1F
100
AcDbEntity
  8
2
100
AcDbCircle
 10
148.2500555629276
 20
-210.0000000000002
 30
0.0
 40
1.000000029802322
100
AcDbArc
 50
269.9999974955313
 51
0.0
  0
LINE
  5
475
330
1F
100
AcDbEntity
  8
2
100
AcDbLine
 10
159.9096624965214
 20
-181.9280090332033
 30
0.0
 11
149.2499945277714
 21
-181.9280090332033
 31
0.0
  0
ARC
  5
476
330
1F
100
AcDbEntity
  8
2
100
AcDbCircle
 10
155.2499945277713
 20
-184.0000305175783
 30
0.0
 40
6.0
100
AcDbArc
 50
332.8732394753966
 51
0.0
  0
LINE
  5
477
330
1F
100
AcDbEntity
  8
2
100
AcDbLine
 10
160.5900576001741
 20
-183.1064720619272
 30
0.0
 11
159.909660557324
 21
-181.9279898355425
 31
0.0
  0
ARC
  5
478
330
1F
100
AcDbEntity
  8
2
100
AcDbCircle
 10
-180.9999902134395
 20
-106.9999694824221
 30
0.0
 40
12.50000095367432
100
AcDbArc
 50
90.00000250446868
 51
269.9777130656261
  0
LINE
  5
479
330
1F
100
AcDbEntity
  8
2
100
AcDbLine
 10
85.0000250453495
 20
-0.0000000000002274
 30
0.0
 11
85.0000250453495
 21
-10.9999694824221
 31
0.0
  0
ARC
  5
47A
330
1F
100
AcDbEntity
  8
2
100
AcDbCircle
 10
42.50005556292762
 20
-19.9999694824221
 30
0.0
 40
16.5
100
AcDbArc
 50
0.0
 51
180.0000050089504
  0
ARC
  5
47B
330
1F
100
AcDbEntity
  8
2
100
AcDbCircle
 10
-42.49992917828331
 20
-19.9999694824221
 30
0.0
 40
16.5
100
AcDbArc
 50
0.0
 51
180.0000050089504
  0
LINE
  5
47C
330
1F
100
AcDbEntity
  8
2
100
AcDbLine
 10
-84.99999021343956
 20
-0.0000000000002274
 30
0.0
 11
-84.99999021343956
 21
-10.9999694824221
 31
0.0
  0
ARC
  5
47D
330
1F
100
AcDbEntity
  8
2
100
AcDbCircle
 10
0.0000403041385653
 20
273.0673828124998
 30
0.0
 40
286.0673904418945
100
AcDbArc
 50
264.3225325215291
 51
275.6774692996937
  0
LINE
  5
47E
330
1F
100
AcDbEntity
  8
2
100
AcDbLine
 10
-148.2499291782833
 20
-22.9999694824221
 30
0.0
 11
148.2500555629276
 21
-22.9999694824221
 31
0.0
  0
LINE
  5
47F
330
1F
100
AcDbEntity
  8
2
100
AcDbLine
 10
-27.99999021343956
 20
-105.500015258789
 30
0.0
 11
28.00007082171669
 21
-105.500015258789
 31
0.0
  0
LINE
  5
480
330
1F
100
AcDbEntity
  8
2
100
AcDbLine
 10
-28.99992917828331
 20
-100.5000000000002
 30
0.0
 11
29.00010133929482
 21
-100.5000000000002
 31
0.0
  0
LINE
  5
481
330
1F
100
AcDbEntity
  8
2
100
AcDbLine
 10
-27.99999021343956
 20
-104.5000305175783
 30
0.0
 11
28.00007082171669
 21
-104.5000305175783
 31
0.0
  0
LINE
  5
482
330
1F
100
AcDbEntity
  8
2
100
AcDbLine
 10
-149.2499596958614
 20
-87.00000000000022
 30
0.0
 11
149.2499945277714
 21
-87.00000000000022
 31
0.0
  0
LINE
  5
483
330
1F
100
AcDbEntity
  8
2
100
AcDbLine
 10
-161.2499476368848
 20
-30.00003524395447
 30
0.0
 11
-166.2499481587038
 21
-92.00004301212311
 31
0.0
  0
LINE
  5
484
330
1F
100
AcDbEntity
  8
2
100
AcDbLine
 10
-149.2499596958614
 20
-127.0000305175783
 30
0.0
 11
-34.99992917828331
 21
-127.0000305175783
 31
0.0
  0
ARC
  5
485
330
1F
100
AcDbEntity
  8
2
100
AcDbCircle
 10
-174.1061608677364
 20
-118.2237854003908
 30
0.0
 40
6.893842935562133
100
AcDbArc
 50
147.1327658926417
 51
212.8672304648811
  0
LINE
  5
486
330
1F
100
AcDbEntity
  8
2
100
AcDbLine
 10
-167.2499596958614
 20
-91.9999694824221
 30
0.0
 11
-167.2499596958614
 21
-121.9999694824223
 31
0.0
  0
LINE
  5
487
330
1F
100
AcDbEntity
  8
2
100
AcDbLine
 10
-166.2499291782833
 20
-91.9999694824221
 30
0.0
 11
-166.2499291782833
 21
-121.9999694824223
 31
0.0
  0
LINE
  5
488
330
1F
100
AcDbEntity
  8
2
100
AcDbLine
 10
-166.2499291782833
 20
-121.9999694824219
 30
0.0
 11
-167.2499596958614
 21
-121.9999694824219
 31
0.0
  0
LINE
  5
489
330
1F
100
AcDbEntity
  8
2
100
AcDbLine
 10
-179.8965051060177
 20
-121.9649963378908
 30
0.0
 11
-167.2499596958614
 21
-121.9649963378908
 31
0.0
  0
LINE
  5
48A
330
1F
100
AcDbEntity
  8
2
100
AcDbLine
 10
-166.2499291782833
 20
-91.9999694824221
 30
0.0
 11
-167.2499596958614
 21
-91.9999694824221
 31
0.0
  0
LINE
  5
48B
330
1F
100
AcDbEntity
  8
2
100
AcDbLine
 10
-179.8965051060177
 20
-92.03503417968773
 30
0.0
 11
-167.2499596958614
 21
-92.03503417968773
 31
0.0
  0
LINE
  5
48C
330
1F
100
AcDbEntity
  8
2
100
AcDbLine
 10
-179.8965051060177
 20
-99.51754760742211
 30
0.0
 11
-167.2499596958614
 21
-99.51754760742211
 31
0.0
  0
ARC
  5
48D
330
1F
100
AcDbEntity
  8
2
100
AcDbCircle
 10
-174.1061608677364
 20
-95.77624511718772
 30
0.0
 40
6.893842935562133
100
AcDbArc
 50
147.1327658926417
 51
212.8672304648811
  0
LINE
  5
48E
330
1F
100
AcDbEntity
  8
2
100
AcDbLine
 10
-179.8965051060177
 20
-114.4824829101565
 30
0.0
 11
-167.2499596958614
 21
-114.4824829101565
 31
0.0
  0
LINE
  5
48F
330
1F
100
AcDbEntity
  8
2
100
AcDbLine
 10
-180.9999902134395
 20
-95.77624511718795
 30
0.0
 11
-180.9999902134395
 21
-118.2237854003911
 31
0.0
  0
ARC
  5
490
330
1F
100
AcDbEntity
  8
2
100
AcDbCircle
 10
-155.0798547153927
 20
-106.9999694824221
 30
0.0
 40
25.92012977600098
100
AcDbArc
 50
163.2213447844943
 51
196.7786515730275
  0
CIRCLE
  5
491
330
1F
100
AcDbEntity
  8
2
100
AcDbCircle
 10
0.0000403041385653
 20
-119.5000305175783
 30
0.0
 40
2.000000059604645
  0
CIRCLE
  5
492
330
1F
100
AcDbEntity
  8
2
100
AcDbCircle
 10
0.0000403041385653
 20
-119.5000305175783
 30
0.0
 40
2.499999940395354
  0
CIRCLE
  5
493
330
1F
100
AcDbEntity
  8
2
100
AcDbCircle
 10
-11.99995969586143
 20
-119.5000305175783
 30
0.0
 40
2.499999940395354
  0
CIRCLE
  5
494
330
1F
100
AcDbEntity
  8
2
100
AcDbCircle
 10
-11.99995969586143
 20
-119.5000305175783
 30
0.0
 40
2.000000059604645
  0
CIRCLE
  5
495
330
1F
100
AcDbEntity
  8
2
100
AcDbCircle
 10
12.00004030413856
 20
-151.5000000000002
 30
0.0
 40
2.000000059604645
  0
CIRCLE
  5
496
330
1F
100
AcDbEntity
  8
2
100
AcDbCircle
 10
12.00004030413856
 20
-151.5000000000002
 30
0.0
 40
2.499999940395354
  0
CIRCLE
  5
497
330
1F
100
AcDbEntity
  8
2
100
AcDbCircle
 10
0.0000403041385653
 20
-151.5000000000002
 30
0.0
 40
2.000000059604645
  0
CIRCLE
  5
498
330
1F
100
AcDbEntity
  8
2
100
AcDbCircle
 10
0.0000403041385653
 20
-151.5000000000002
 30
0.0
 40
2.499999940395354
  0
CIRCLE
  5
499
330
1F
100
AcDbEntity
  8
2
100
AcDbCircle
 10
-11.99995969586143
 20
-135.500015258789
 30
0.0
 40
6.578081846237182
  0
CIRCLE
  5
49A
330
1F
100
AcDbEntity
  8
2
100
AcDbCircle
 10
-11.99995969586143
 20
-135.500015258789
 30
0.0
 40
5.727081656455993
  0
CIRCLE
  5
49B
330
1F
100
AcDbEntity
  8
2
100
AcDbCircle
 10
12.00004030413856
 20
-135.500015258789
 30
0.0
 40
6.578081846237182
  0
CIRCLE
  5
49C
330
1F
100
AcDbEntity
  8
2
100
AcDbCircle
 10
12.00004030413856
 20
-135.500015258789
 30
0.0
 40
5.727081656455993
  0
ARC
  5
49D
330
1F
100
AcDbEntity
  8
2
100
AcDbCircle
 10
-27.99999021343956
 20
-107.5000305175783
 30
0.0
 40
3.0
100
AcDbArc
 50
90.00000250446868
 51
180.0000050089504
  0
ARC
  5
49E
330
1F
100
AcDbEntity
  8
2
100
AcDbCircle
 10
-27.99999021343956
 20
-107.5000305175783
 30
0.0
 40
2.000000059604645
100
AcDbArc
 50
90.00000250446868
 51
180.0000050089504
  0
ARC
  5
49F
330
1F
100
AcDbEntity
  8
2
100
AcDbCircle
 10
-28.99992917828331
 20
-106.5000000000002
 30
0.0
 40
6.0
100
AcDbArc
 50
90.00000250446868
 51
180.0000050089504
  0
LINE
  5
4A0
330
1F
100
AcDbEntity
  8
2
100
AcDbLine
 10
-84.99999021343956
 20
-10.9999694824221
 30
0.0
 11
-56.32924436383018
 21
-10.9999694824221
 31
0.0
  0
LINE
  5
4A1
330
1F
100
AcDbEntity
  8
2
100
AcDbLine
 10
-159.909536111877
 20
-23.92803955078148
 30
0.0
 11
-149.2499596958614
 21
-23.92803955078148
 31
0.0
  0
ARC
  5
4A2
330
1F
100
AcDbEntity
  8
2
100
AcDbCircle
 10
-155.2499596958614
 20
-30.00000000000023
 30
0.0
 40
6.0
100
AcDbArc
 50
152.873239361724
 51
180.0000050089504
  0
LINE
  5
4A3
330
1F
100
AcDbEntity
  8
2
100
AcDbLine
 10
-160.5899610227088
 20
-40.893478268438
 30
0.0
 11
-159.9095868680424
 21
-42.07192085132624
 31
0.0
  0
LINE
  5
4A4
330
1F
100
AcDbEntity
  8
2
100
AcDbLine
 10
-159.909536111877
 20
-42.07196044921897
 30
0.0
 11
-149.2499596958614
 21
-42.07196044921897
 31
0.0
  0
LINE
  5
4A5
330
1F
100
AcDbEntity
  8
2
100
AcDbLine
 10
-160.589956033752
 20
-25.10650634765648
 30
0.0
 11
-160.589956033752
 21
-40.89349365234397
 31
0.0
  0
ARC
  5
4A6
330
1F
100
AcDbEntity
  8
2
100
AcDbCircle
 10
-155.2499596958614
 20
-18.00000000000023
 30
0.0
 40
6.0
100
AcDbArc
 50
278.8851105490366
 51
0.0
  0
LINE
  5
4A7
330
1F
100
AcDbEntity
  8
2
100
AcDbLine
 10
-160.5900538449941
 20
-25.1064254184771
 30
0.0
 11
-159.9096568021441
 21
-23.92794319209247
 31
0.0
  0
LINE
  5
4A8
330
1F
100
AcDbEntity
  8
2
100
AcDbLine
 10
-150.6107995396114
 20
-23.92803955078148
 30
0.0
 11
-150.6107995396114
 21
-42.07196044921897
 31
0.0
  0
LINE
  5
4A9
330
1F
100
AcDbEntity
  8
2
100
AcDbLine
 10
-159.909536111877
 20
-23.92803955078148
 30
0.0
 11
-159.909536111877
 21
-42.07196044921897
 31
0.0
  0
LINE
  5
4AA
330
1F
100
AcDbEntity
  8
2
100
AcDbLine
 10
-25.99992917828331
 20
-19.9999694824221
 30
0.0
 11
-25.99992917828331
 21
-22.9999694824221
 31
0.0
  0
LINE
  5
4AB
330
1F
100
AcDbEntity
  8
2
100
AcDbLine
 10
161.2500220676666
 20
-29.99999948449409
 30
0.0
 11
166.2500225894855
 21
-92.00000725266272
 31
0.0
  0
LINE
  5
4AC
330
1F
100
AcDbEntity
  8
2
100
AcDbLine
 10
35.00005556292763
 20
-127.0000305175783
 30
0.0
 11
149.2499945277714
 21
-127.0000305175783
 31
0.0
  0
ARC
  5
4AD
330
1F
100
AcDbEntity
  8
2
100
AcDbCircle
 10
28.00007082171669
 20
-107.5000305175783
 30
0.0
 40
3.0
100
AcDbArc
 50
0.0
 51
90.00000250446868
  0
ARC
  5
4AE
330
1F
100
AcDbEntity
  8
2
100
AcDbCircle
 10
28.00007082171669
 20
-107.5000305175783
 30
0.0
 40
2.000000059604645
100
AcDbArc
 50
0.0
 51
90.00000250446868
  0
ARC
  5
4AF
330
1F
100
AcDbEntity
  8
2
100
AcDbCircle
 10
29.00010133929482
 20
-106.5000000000002
 30
0.0
 40
6.0
100
AcDbArc
 50
0.0
 51
90.00000250446868
  0
ARC
  5
4B0
330
1F
100
AcDbEntity
  8
2
100
AcDbCircle
 10
174.1061956996464
 20
-118.2237854003908
 30
0.0
 40
6.893842935562133
100
AcDbArc
 50
327.1327677138755
 51
32.86723570121212
  0
ARC
  5
4B1
330
1F
100
AcDbEntity
  8
2
100
AcDbCircle
 10
181.0000250453495
 20
-106.9999694824221
 30
0.0
 40
12.50000095367432
100
AcDbArc
 50
269.9999974955313
 51
90.00105229574275
  0
LINE
  5
4B2
330
1F
100
AcDbEntity
  8
2
100
AcDbLine
 10
167.2499945277714
 20
-91.9999694824221
 30
0.0
 11
167.2499945277714
 21
-121.9999694824223
 31
0.0
  0
LINE
  5
4B3
330
1F
100
AcDbEntity
  8
2
100
AcDbLine
 10
166.2500555629276
 20
-91.9999694824221
 30
0.0
 11
166.2500555629276
 21
-121.9999694824223
 31
0.0
  0
LINE
  5
4B4
330
1F
100
AcDbEntity
  8
2
100
AcDbLine
 10
166.2500555629276
 20
-121.9999694824219
 30
0.0
 11
167.2499945277714
 21
-121.9999694824219
 31
0.0
  0
LINE
  5
4B5
330
1F
100
AcDbEntity
  8
2
100
AcDbLine
 10
179.8965399379276
 20
-121.9649963378908
 30
0.0
 11
167.2499945277714
 21
-121.9649963378908
 31
0.0
  0
LINE
  5
4B6
330
1F
100
AcDbEntity
  8
2
100
AcDbLine
 10
166.2500555629276
 20
-91.9999694824221
 30
0.0
 11
167.2499945277714
 21
-91.9999694824221
 31
0.0
  0
LINE
  5
4B7
330
1F
100
AcDbEntity
  8
2
100
AcDbLine
 10
179.8965399379276
 20
-92.03503417968773
 30
0.0
 11
167.2499945277714
 21
-92.03503417968773
 31
0.0
  0
LINE
  5
4B8
330
1F
100
AcDbEntity
  8
2
100
AcDbLine
 10
179.8965399379276
 20
-99.51754760742211
 30
0.0
 11
167.2499945277714
 21
-99.51754760742211
 31
0.0
  0
ARC
  5
4B9
330
1F
100
AcDbEntity
  8
2
100
AcDbCircle
 10
174.1061956996464
 20
-95.77624511718772
 30
0.0
 40
6.893842935562133
100
AcDbArc
 50
327.1327677138755
 51
32.86723570121212
  0
LINE
  5
4BA
330
1F
100
AcDbEntity
  8
2
100
AcDbLine
 10
179.8965399379276
 20
-114.4824829101565
 30
0.0
 11
167.2499945277714
 21
-114.4824829101565
 31
0.0
  0
LINE
  5
4BB
330
1F
100
AcDbEntity
  8
2
100
AcDbLine
 10
181.0000250453495
 20
-95.77624511718795
 30
0.0
 11
181.0000250453495
 21
-118.2237854003911
 31
0.0
  0
ARC
  5
4BC
330
1F
100
AcDbEntity
  8
2
100
AcDbCircle
 10
155.0798895473026
 20
-106.9999694824221
 30
0.0
 40
25.92012977600098
100
AcDbArc
 50
343.2213414830922
 51
16.77865510182368
  0
LINE
  5
4BD
330
1F
100
AcDbEntity
  8
2
100
AcDbLine
 10
56.3293707484745
 20
-10.9999694824221
 30
0.0
 11
85.0000250453495
 21
-10.9999694824221
 31
0.0
  0
LINE
  5
4BE
330
1F
100
AcDbEntity
  8
2
100
AcDbLine
 10
159.9096624965214
 20
-23.92803955078148
 30
0.0
 11
149.2499945277714
 21
-23.92803955078148
 31
0.0
  0
ARC
  5
4BF
330
1F
100
AcDbEntity
  8
2
100
AcDbCircle
 10
155.2499945277713
 20
-30.00000000000023
 30
0.0
 40
6.0
100
AcDbArc
 50
0.0
 51
27.12676052460337
  0
LINE
  5
4C0
330
1F
100
AcDbEntity
  8
2
100
AcDbLine
 10
160.5900029820077
 20
-40.89347013817087
 30
0.0
 11
159.909594495065
 21
-42.07197218630404
 31
0.0
  0
LINE
  5
4C1
330
1F
100
AcDbEntity
  8
2
100
AcDbLine
 10
159.9096624965214
 20
-42.07196044921897
 30
0.0
 11
149.2499945277714
 21
-42.07196044921897
 31
0.0
  0
LINE
  5
4C2
330
1F
100
AcDbEntity
  8
2
100
AcDbLine
 10
160.589990865662
 20
-25.10650634765648
 30
0.0
 11
160.589990865662
 21
-40.89349365234397
 31
0.0
  0
LINE
  5
4C3
330
1F
100
AcDbEntity
  8
2
100
AcDbLine
 10
160.5899962847261
 20
-25.10639850490111
 30
0.0
 11
159.9096221300596
 21
-23.9279559220131
 31
0.0
  0
ARC
  5
4C4
330
1F
100
AcDbEntity
  8
2
100
AcDbCircle
 10
155.2499945277713
 20
-18.00000000000023
 30
0.0
 40
6.0
100
AcDbArc
 50
179.999991348572
 51
261.1148807995367
  0
LINE
  5
4C5
330
1F
100
AcDbEntity
  8
2
100
AcDbLine
 10
159.9096624965214
 20
-23.92803955078148
 30
0.0
 11
159.9096624965214
 21
-42.07196044921897
 31
0.0
  0
LINE
  5
4C6
330
1F
100
AcDbEntity
  8
2
100
AcDbLine
 10
150.6108343715214
 20
-23.92803955078148
 30
0.0
 11
150.6108343715214
 21
-42.07196044921897
 31
0.0
  0
LINE
  5
4C7
330
1F
100
AcDbEntity
  8
2
100
AcDbLine
 10
-84.99999021343956
 20
-0.0000000000002274
 30
0.0
 11
85.0000250453495
 21
-0.0000000000002274
 31
0.0
  0
LINE
  5
4C8
330
1F
100
AcDbEntity
  8
2
100
AcDbLine
 10
-148.2499291782833
 20
-3.000000000000227
 30
0.0
 11
-87.99999021343955
 21
-3.000000000000227
 31
0.0
  0
ARC
  5
4C9
330
1F
100
AcDbEntity
  8
2
100
AcDbCircle
 10
-148.2499291782833
 20
-4.000030517578352
 30
0.0
 40
1.000000029802322
100
AcDbArc
 50
90.00000250446868
 51
180.0000050089504
  0
LINE
  5
4CA
330
1F
100
AcDbEntity
  8
2
100
AcDbLine
 10
88.00002504534949
 20
-3.000000000000227
 30
0.0
 11
148.2500555629276
 21
-3.000000000000227
 31
0.0
  0
ARC
  5
4CB
330
1F
100
AcDbEntity
  8
2
100
AcDbCircle
 10
88.00002504534949
 20
-0.0000000000002274
 30
0.0
 40
3.0
100
AcDbArc
 50
179.999991348572
 51
270.000000683243
  0
ARC
  5
4CC
330
1F
100
AcDbEntity
  8
2
100
AcDbCircle
 10
148.2500555629276
 20
-4.000030517578352
 30
0.0
 40
1.000000029802322
100
AcDbArc
 50
0.0
 51
90.00000250446868
  0
LINE
  5
4CD
330
1F
100
AcDbEntity
  8
2
100
AcDbLine
 10
-58.9999520664669
 20
-19.9999694824221
 30
0.0
 11
-58.9999520664669
 21
-22.9999694824221
 31
0.0
  0
ARC
  5
4CE
330
1F
100
AcDbEntity
  8
2
100
AcDbCircle
 10
-88.00001310162315
 20
-0.0000000000002274
 30
0.0
 40
3.0
100
AcDbArc
 50
269.9999974955313
 51
0.0
  0
LINE
  5
4CF
330
1F
100
AcDbEntity
  8
2
100
AcDbLine
 10
-33.76783536724815
 20
-6.000000000000227
 30
0.0
 11
33.76791597552529
 21
-6.000000000000227
 31
0.0
  0
LINE
  5
4D0
330
1F
100
AcDbEntity
  8
2
100
AcDbLine
 10
59.00003267474403
 20
-19.9999694824221
 30
0.0
 11
59.00003267474403
 21
-22.9999694824221
 31
0.0
  0
LINE
  5
4D1
330
1F
100
AcDbEntity
  8
2
100
AcDbLine
 10
26.00007845111122
 20
-19.9999694824221
 30
0.0
 11
26.00007845111122
 21
-22.9999694824221
 31
0.0
  0
LINE
  5
4D2
330
1F
100
AcDbEntity
  8
2
100
AcDbLine
 10
-77.6997892085501
 20
47.00009155273415
 30
0.0
 11
-77.6997892085501
 21
31.00009155273415
 31
0.0
  0
LINE
  5
4D3
330
1F
100
AcDbEntity
  8
2
100
AcDbLine
 10
-51.89977020854986
 20
53.00009155273414
 30
0.0
 11
-51.89977020854986
 21
30.00009155273415
 31
0.0
  0
LINE
  5
4D4
330
1F
100
AcDbEntity
  8
2
100
AcDbLine
 10
-6.499688808550672
 20
53.00009155273414
 30
0.0
 11
-6.499688808550672
 21
30.00009155273415
 31
0.0
  0
LINE
  5
4D5
330
1F
100
AcDbEntity
  8
2
100
AcDbLine
 10
-51.89977020854986
 20
53.00009155273414
 30
0.0
 11
-6.499688808550672
 21
53.00009155273414
 31
0.0
  0
LINE
  5
4D6
330
1F
100
AcDbEntity
  8
2
100
AcDbLine
 10
-77.6997892085501
 20
47.00009155273415
 30
0.0
 11
-51.89977020854986
 21
47.00009155273415
 31
0.0
  0
LINE
  5
4D7
330
1F
100
AcDbEntity
  8
2
100
AcDbLine
 10
-77.6997892085501
 20
31.00009155273415
 30
0.0
 11
-51.89977020854986
 21
31.00009155273415
 31
0.0
  0
LINE
  5
4D8
330
1F
100
AcDbEntity
  8
2
100
AcDbLine
 10
77.69982404046004
 20
47.00009155273415
 30
0.0
 11
77.69982404046004
 21
31.00009155273415
 31
0.0
  0
LINE
  5
4D9
330
1F
100
AcDbEntity
  8
2
100
AcDbLine
 10
51.8998050404598
 20
53.00009155273414
 30
0.0
 11
51.8998050404598
 21
30.00009155273415
 31
0.0
  0
LINE
  5
4DA
330
1F
100
AcDbEntity
  8
2
100
AcDbLine
 10
6.499723640460615
 20
53.00009155273414
 30
0.0
 11
6.499723640460615
 21
30.00009155273415
 31
0.0
  0
LINE
  5
4DB
330
1F
100
AcDbEntity
  8
2
100
AcDbLine
 10
51.8998050404598
 20
53.00009155273414
 30
0.0
 11
6.499723640460615
 21
53.00009155273414
 31
0.0
  0
LINE
  5
4DC
330
1F
100
AcDbEntity
  8
2
100
AcDbLine
 10
77.69982404046004
 20
47.00009155273415
 30
0.0
 11
51.8998050404598
 21
47.00009155273415
 31
0.0
  0
LINE
  5
4DD
330
1F
100
AcDbEntity
  8
2
100
AcDbLine
 10
77.69982404046004
 20
31.00009155273415
 30
0.0
 11
51.8998050404598
 21
31.00009155273415
 31
0.0
  0
LINE
  5
4DF
330
1F
100
AcDbEntity
  8
0
  6
DASHED
100
AcDbLine
 10
55.09995714724118
 20
27.00009155273415
 30
0.0
 11
-54.99945831298828
 21
27.00009155273347
 31
-0.0000000000000012
  0
VIEWPORT
  5
71
330
55
100
AcDbEntity
 67
     1
  8
0
100
AcDbViewport
 10
133.3499908447266
 20
101.5999970436096
 30
0.0
 40
381.3957395593835
 41
218.2856291881582
 68
     1
 69
     1
 12
133.3499908447266
 22
101.5999970436096
 13
0.0
 23
0.0
 14
10.0
 24
10.0
 15
10.0
 25
10.0
 16
0.0
 26
0.0
 36
1.0
 17
0.0
 27
0.0
 37
0.0
 42
50.0
 43
0.0
 44
0.0
 45
218.2856291881582
 50
0.0
 51
0.0
 72
   100
 90
    32800
  1

281
     0
 71
     1
 74
     0
110
0.0
120
0.0
130
0.0
111
1.0
121
0.0
131
0.0
112
0.0
122
1.0
132
0.0
 79
     0
146
0.0
170
     0
 61
     5
348
50B
292
     1
282
     1
141
0.0
142
0.0
 63
   250
421
  3355443
  0
VIEWPORT
  5
73
330
55
100
AcDbEntity
 67
     1
  8
0
100
AcDbViewport
 10
133.3499939441681
 20
101.5999939441681
 30
0.0
 40
213.3599903106689
 41
162.5599903106689
 68
     2
 69
     2
 12
210.0
 22
148.5
 13
0.0
 23
0.0
 14
10.0
 24
10.0
 15
10.0
 25
10.0
 16
0.0
 26
0.0
 36
1.0
 17
0.0
 27
0.0
 37
0.0
 42
50.0
 43
0.0
 44
0.0
 45
324.0677920111345
 50
0.0
 51
0.0
 72
   100
 90
    32864
  1

281
     0
 71
     1
 74
     0
110
0.0
120
0.0
130
0.0
111
1.0
121
0.0
131
0.0
112
0.0
122
1.0
132
0.0
 79
     0
146
0.0
170
     0
 61
     5
348
50B
292
     1
282
     1
141
0.0
142
0.0
 63
   250
421
  3355443
  0
ENDSEC
  0
SECTION
  2
OBJECTS
  0
DICTIONARY
  5
C
330
0
100
AcDbDictionary
281
     1
  3
ACAD_COLOR
350
519
  3
ACAD_GROUP
350
D
  3
ACAD_LAYOUT
350
1A
  3
ACAD_MATERIAL
350
4EC
  3
ACAD_MLEADERSTYLE
350
52E
  3
ACAD_MLINESTYLE
350
17
  3
ACAD_PLOTSETTINGS
350
19
  3
ACAD_PLOTSTYLENAME
350
E
  3
ACAD_SCALELIST
350
51C
  3
ACAD_TABLESTYLE
350
51A
  3
ACAD_VISUALSTYLE
350
505
  3
ACDB_RECOMPOSE_DATA
350
53E
  3
AcDbVariableDictionary
350
5E
  0
DICTIONARY
  5
9A
330
2
100
AcDbDictionary
280
     1
281
     1
  3
ACAD_LAYERSTATES
360
9B
  0
DICTIONARY
  5
532
330
10
100
AcDbDictionary
280
     1
281
     1
  3
ADSK_XREC_LAYER_RECONCILED
360
533
  0
DICTIONARY
  5
91
330
90
100
AcDbDictionary
280
     1
281
     1
  3
ADSK_XREC_LAYER_RECONCILED
360
92
  0
DICTIONARY
  5
94
330
93
100
AcDbDictionary
280
     1
281
     1
  3
ADSK_XREC_LAYER_RECONCILED
360
95
  0
DICTIONARY
  5
97
330
96
100
AcDbDictionary
280
     1
281
     1
  3
ADSK_XREC_LAYER_RECONCILED
360
534
  0
DICTIONARY
  5
519
102
{ACAD_REACTORS
330
C
102
}
330
C
100
AcDbDictionary
281
     1
  0
DICTIONARY
  5
D
102
{ACAD_REACTORS
330
C
102
}
330
C
100
AcDbDictionary
281
     1
  0
DICTIONARY
  5
1A
102
{ACAD_REACTORS
330
C
102
}
330
C
100
AcDbDictionary
281
     1
  3
Model
350
22
  3
ﾚｲｱｳﾄ1
350
51
  3
ﾚｲｱｳﾄ2
350
56
  0
DICTIONARY
  5
4EC
102
{ACAD_REACTORS
330
C
102
}
330
C
100
AcDbDictionary
281
     1
  3
ByBlock
350
4F5
  3
ByLayer
350
4ED
  3
Global
350
4FD
  0
DICTIONARY
  5
52E
102
{ACAD_REACTORS
330
C
102
}
330
C
100
AcDbDictionary
281
     1
  3
Standard
350
52F
  0
DICTIONARY
  5
17
102
{ACAD_REACTORS
330
C
102
}
330
C
100
AcDbDictionary
281
     1
  3
Standard
350
18
  0
DICTIONARY
  5
19
102
{ACAD_REACTORS
330
C
102
}
330
C
100
AcDbDictionary
281
     1
  0
ACDBDICTIONARYWDFLT
  5
E
102
{ACAD_REACTORS
330
C
102
}
330
C
100
AcDbDictionary
281
     1
  3
Normal
350
F
100
AcDbDictionaryWithDefault
340
F
  0
DICTIONARY
  5
51C
102
{ACAD_REACTORS
330
C
102
}
330
C
100
AcDbDictionary
281
     1
  3
A0
350
51D
  3
A1
350
51E
  3
A2
350
51F
  3
A3
350
520
  3
A4
350
521
  3
A5
350
522
  3
A6
350
523
  3
A7
350
524
  3
A8
350
525
  3
A9
350
526
  3
B0
350
527
  3
B1
350
528
  3
B2
350
529
  3
B3
350
52A
  3
B4
350
52B
  3
B5
350
52C
  3
B6
350
52D
  0
DICTIONARY
  5
51A
102
{ACAD_REACTORS
330
C
102
}
330
C
100
AcDbDictionary
281
     1
  3
Standard
350
51B
  0
DICTIONARY
  5
505
102
{ACAD_REACTORS
330
C
102
}
330
C
100
AcDbDictionary
281
     1
  3
2dWireframe
350
50B
  3
3D Hidden
350
50D
  3
3dWireframe
350
50C
  3
Basic
350
50A
  3
Brighten
350
511
  3
ColorChange
350
515
  3
Conceptual
350
50E
  3
Dim
350
510
  3
EdgeColorOff
350
518
  3
Facepattern
350
514
  3
Flat
350
506
  3
FlatWithEdges
350
507
  3
Gouraud
350
508
  3
GouraudWithEdges
350
509
  3
JitterOff
350
516
  3
Linepattern
350
513
  3
OverhangOff
350
517
  3
Realistic
350
50F
  3
Thicken
350
512
  0
XRECORD
  5
53E
102
{ACAD_REACTORS
330
C
102
}
330
C
100
AcDbXrecord
280
     1
 90
        1
330
51B
  0
DICTIONARY
  5
5E
102
{ACAD_REACTORS
330
C
102
}
330
C
100
AcDbDictionary
281
     1
  3
CANNOSCALE
350
538
  3
CMLEADERSTYLE
350
536
  3
CTABLESTYLE
350
535
  3
DIMASSOC
350
5F
  3
HIDETEXT
350
63
  3
LAYEREVAL
350
53A
  3
LAYERNOTIFY
350
53B
  3
LIGHTINGUNITS
350
539
  3
MSLTSCALE
350
537
  0
DICTIONARY
  5
9B
102
{ACAD_REACTORS
330
9A
102
}
330
9A
100
AcDbDictionary
281
     1
  0
XRECORD
  5
533
102
{ACAD_REACTORS
330
532
102
}
330
532
100
AcDbXrecord
280
     1
290
     1
  0
XRECORD
  5
92
102
{ACAD_REACTORS
330
91
102
}
330
91
100
AcDbXrecord
280
     1
290
     1
  0
XRECORD
  5
95
102
{ACAD_REACTORS
330
94
102
}
330
94
100
AcDbXrecord
280
     1
290
     1
  0
XRECORD
  5
534
102
{ACAD_REACTORS
330
97
102
}
330
97
100
AcDbXrecord
280
     1
290
     1
  0
LAYOUT
  5
22
102
{ACAD_REACTORS
330
1A
102
}
330
1A
100
AcDbPlotSettings
  1

  2
none_device
  4
ANSI_A_(8.50_x_11.00_Inches)
  6

 40
6.349999904632568
 41
19.04999923706055
 42
6.350006103515625
 43
19.04998779296875
 44
215.8999938964844
 45
279.3999938964844
 46
0.0
 47
0.0
 48
0.0
 49
0.0
140
0.0
141
0.0
142
1.0
143
78.436453180766
 70
 11952
 72
     0
 73
     1
 74
     0
  7

 75
     0
147
0.0127491741332998
 76
     0
 77
     2
 78
   300
148
0.0
149
0.0
100
AcDbLayout
  1
Model
 70
     1
 71
     0
 10
0.0
 20
0.0
 11
12.0
 21
9.0
 12
0.0
 22
0.0
 32
0.0
 14
0.0
 24
0.0
 34
0.0
 15
0.0
 25
0.0
 35
0.0
146
0.0
 13
0.0
 23
0.0
 33
0.0
 16
1.0
 26
0.0
 36
0.0
 17
0.0
 27
1.0
 37
0.0
 76
     0
330
1F
331
4EA
  0
LAYOUT
  5
51
102
{ACAD_REACTORS
330
1A
102
}
330
1A
100
AcDbPlotSettings
  1

  2
none_device
  4
Letter_(8.50_x_11.00_Inches)
  6

 40
6.349999904632568
 41
6.349999904632568
 42
6.350006103515625
 43
6.350006103515625
 44
215.8999938964844
 45
279.3999938964844
 46
0.0
 47
0.0
 48
0.0
 49
0.0
140
0.0
141
0.0
142
1.0
143
1.0
 70
   688
 72
     1
 73
     1
 74
     5
  7

 75
    16
147
1.0
 76
     0
 77
     2
 78
   300
148
0.0
149
0.0
100
AcDbLayout
  1
ﾚｲｱｳﾄ1
 70
     1
 71
     1
 10
-6.350006103515625
 20
-6.349999904632568
 11
273.0499877929688
 21
209.5499939918518
 12
0.0
 22
0.0
 32
0.0
 14
26.66076962115563
 24
20.31135699206658
 34
-0.0015258207003583
 15
240.039213369355
 25
182.8886381005154
 35
0.0000000349246037
146
0.0
 13
0.0
 23
0.0
 33
0.0
 16
1.0
 26
0.0
 36
0.0
 17
0.0
 27
1.0
 37
0.0
 76
     0
330
50
331
6B
  0
LAYOUT
  5
56
102
{ACAD_REACTORS
330
1A
102
}
330
1A
100
AcDbPlotSettings
  1

  2
none_device
  4
Letter_(8.50_x_11.00_Inches)
  6

 40
6.349999904632568
 41
6.349999904632568
 42
6.350006103515625
 43
6.350006103515625
 44
215.8999938964844
 45
279.3999938964844
 46
0.0
 47
0.0
 48
0.0
 49
0.0
140
0.0
141
0.0
142
1.0
143
1.0
 70
   688
 72
     1
 73
     1
 74
     5
  7

 75
    16
147
1.0
 76
     0
 77
     2
 78
   300
148
0.0
149
0.0
100
AcDbLayout
  1
ﾚｲｱｳﾄ2
 70
     1
 71
     2
 10
-6.350006103515625
 20
-6.349999904632568
 11
273.0499877929688
 21
209.5499939918518
 12
0.0
 22
0.0
 32
0.0
 14
26.66076962115563
 24
20.31135699206658
 34
-0.0015258207003583
 15
240.039213369355
 25
182.8886381005154
 35
0.0000000349246037
146
0.0
 13
0.0
 23
0.0
 33
0.0
 16
1.0
 26
0.0
 36
0.0
 17
0.0
 27
1.0
 37
0.0
 76
     0
330
55
331
71
  0
MATERIAL
  5
4F5
102
{ACAD_XDICTIONARY
360
4F6
102
}
102
{ACAD_REACTORS
330
4EC
102
}
330
4EC
100
AcDbMaterial
  1
ByBlock
 72
     0
 43
0.0008202099737533
 43
0.0
 43
0.0
 43
0.0
 43
0.0
 43
0.0008202099737533
 43
0.0
 43
0.0
 43
0.0
 43
0.0
 43
1.0
 43
0.0
 43
0.0
 43
0.0
 43
0.0
 43
1.0
 77
     0
 47
0.0008202099737533
 47
0.0
 47
0.0
 47
0.0
 47
0.0
 47
0.0008202099737533
 47
0.0
 47
0.0
 47
0.0
 47
0.0
 47
1.0
 47
0.0
 47
0.0
 47
0.0
 47
0.0
 47
1.0
171
     0
 49
0.0008202099737533
 49
0.0
 49
0.0
 49
0.0
 49
0.0
 49
0.0008202099737533
 49
0.0
 49
0.0
 49
0.0
 49
0.0
 49
1.0
 49
0.0
 49
0.0
 49
0.0
 49
0.0
 49
1.0
175
     0
142
0.0008202099737533
142
0.0
142
0.0
142
0.0
142
0.0
142
0.0008202099737533
142
0.0
142
0.0
142
0.0
142
0.0
142
1.0
142
0.0
142
0.0
142
0.0
142
0.0
142
1.0
179
     0
144
0.0008202099737533
144
0.0
144
0.0
144
0.0
144
0.0
144
0.0008202099737533
144
0.0
144
0.0
144
0.0
144
0.0
144
1.0
144
0.0
144
0.0
144
0.0
144
0.0
144
1.0
147
0.0008202099737533
147
0.0
147
0.0
147
0.0
147
0.0
147
0.0008202099737533
147
0.0
147
0.0
147
0.0
147
0.0
147
1.0
147
0.0
147
0.0
147
0.0
147
0.0
147
1.0
  0
MATERIAL
  5
4ED
102
{ACAD_XDICTIONARY
360
4EE
102
}
102
{ACAD_REACTORS
330
4EC
102
}
330
4EC
100
AcDbMaterial
  1
ByLayer
 72
     0
 43
0.0008202099737533
 43
0.0
 43
0.0
 43
0.0
 43
0.0
 43
0.0008202099737533
 43
0.0
 43
0.0
 43
0.0
 43
0.0
 43
1.0
 43
0.0
 43
0.0
 43
0.0
 43
0.0
 43
1.0
 77
     0
 47
0.0008202099737533
 47
0.0
 47
0.0
 47
0.0
 47
0.0
 47
0.0008202099737533
 47
0.0
 47
0.0
 47
0.0
 47
0.0
 47
1.0
 47
0.0
 47
0.0
 47
0.0
 47
0.0
 47
1.0
171
     0
 49
0.0008202099737533
 49
0.0
 49
0.0
 49
0.0
 49
0.0
 49
0.0008202099737533
 49
0.0
 49
0.0
 49
0.0
 49
0.0
 49
1.0
 49
0.0
 49
0.0
 49
0.0
 49
0.0
 49
1.0
175
     0
142
0.0008202099737533
142
0.0
142
0.0
142
0.0
142
0.0
142
0.0008202099737533
142
0.0
142
0.0
142
0.0
142
0.0
142
1.0
142
0.0
142
0.0
142
0.0
142
0.0
142
1.0
179
     0
144
0.0008202099737533
144
0.0
144
0.0
144
0.0
144
0.0
144
0.0008202099737533
144
0.0
144
0.0
144
0.0
144
0.0
144
1.0
144
0.0
144
0.0
144
0.0
144
0.0
144
1.0
147
0.0008202099737533
147
0.0
147
0.0
147
0.0
147
0.0
147
0.0008202099737533
147
0.0
147
0.0
147
0.0
147
0.0
147
1.0
147
0.0
147
0.0
147
0.0
147
0.0
147
1.0
  0
MATERIAL
  5
4FD
102
{ACAD_XDICTIONARY
360
4FE
102
}
102
{ACAD_REACTORS
330
4EC
102
}
330
4EC
100
AcDbMaterial
  1
Global
 72
     0
 43
0.0008202099737533
 43
0.0
 43
0.0
 43
0.0
 43
0.0
 43
0.0008202099737533
 43
0.0
 43
0.0
 43
0.0
 43
0.0
 43
1.0
 43
0.0
 43
0.0
 43
0.0
 43
0.0
 43
1.0
 77
     0
 47
0.0008202099737533
 47
0.0
 47
0.0
 47
0.0
 47
0.0
 47
0.0008202099737533
 47
0.0
 47
0.0
 47
0.0
 47
0.0
 47
1.0
 47
0.0
 47
0.0
 47
0.0
 47
0.0
 47
1.0
171
     0
 49
0.0008202099737533
 49
0.0
 49
0.0
 49
0.0
 49
0.0
 49
0.0008202099737533
 49
0.0
 49
0.0
 49
0.0
 49
0.0
 49
1.0
 49
0.0
 49
0.0
 49
0.0
 49
0.0
 49
1.0
175
     0
142
0.0008202099737533
142
0.0
142
0.0
142
0.0
142
0.0
142
0.0008202099737533
142
0.0
142
0.0
142
0.0
142
0.0
142
1.0
142
0.0
142
0.0
142
0.0
142
0.0
142
1.0
179
     0
144
0.0008202099737533
144
0.0
144
0.0
144
0.0
144
0.0
144
0.0008202099737533
144
0.0
144
0.0
144
0.0
144
0.0
144
1.0
144
0.0
144
0.0
144
0.0
144
0.0
144
1.0
147
0.0008202099737533
147
0.0
147
0.0
147
0.0
147
0.0
147
0.0008202099737533
147
0.0
147
0.0
147
0.0
147
0.0
147
1.0
147
0.0
147
0.0
147
0.0
147
0.0
147
1.0
  0
MLEADERSTYLE
  5
52F
102
{ACAD_REACTORS
330
52E
102
}
330
52E
100
AcDbMLeaderStyle
179
     2
170
     2
171
     1
172
     0
 90
        2
 40
0.0
 41
0.0
173
     1
 91
-1056964608
340
14
 92
       -2
290
     1
 42
2.0
291
     1
 43
0.36
  3
Standard
 44
4.0
300

342
11
174
     1
178
     6
175
     1
176
     0
 93
-1056964608
 45
4.0
292
     0
297
     0
 46
4.0
 94
-1056964608
 47
1.0
 49
1.0
140
1.0
293
     1
141
0.0
294
     1
177
     0
142
1.0
295
     1
296
     0
143
0.125
271
     0
272
     9
273
     9
  0
MLINESTYLE
  5
18
102
{ACAD_REACTORS
330
17
102
}
330
17
100
AcDbMlineStyle
  2
STANDARD
 70
     0
  3

 62
   256
 51
90.0
 52
90.0
 71
     2
 49
0.5
 62
   256
  6
BYLAYER
 49
-0.5
 62
   256
  6
BYLAYER
  0
ACDBPLACEHOLDER
  5
F
102
{ACAD_REACTORS
330
E
102
}
330
E
  0
SCALE
  5
51D
102
{ACAD_REACTORS
330
51C
102
}
330
51C
100
AcDbScale
 70
     0
300
1:1
140
1.0
141
1.0
290
     1
  0
SCALE
  5
51E
102
{ACAD_REACTORS
330
51C
102
}
330
51C
100
AcDbScale
 70
     0
300
1:2
140
1.0
141
2.0
290
     0
  0
SCALE
  5
51F
102
{ACAD_REACTORS
330
51C
102
}
330
51C
100
AcDbScale
 70
     0
300
1:4
140
1.0
141
4.0
290
     0
  0
SCALE
  5
520
102
{ACAD_REACTORS
330
51C
102
}
330
51C
100
AcDbScale
 70
     0
300
1:5
140
1.0
141
5.0
290
     0
  0
SCALE
  5
521
102
{ACAD_REACTORS
330
51C
102
}
330
51C
100
AcDbScale
 70
     0
300
1:8
140
1.0
141
8.0
290
     0
  0
SCALE
  5
522
102
{ACAD_REACTORS
330
51C
102
}
330
51C
100
AcDbScale
 70
     0
300
1:10
140
1.0
141
10.0
290
     0
  0
SCALE
  5
523
102
{ACAD_REACTORS
330
51C
102
}
330
51C
100
AcDbScale
 70
     0
300
1:16
140
1.0
141
16.0
290
     0
  0
SCALE
  5
524
102
{ACAD_REACTORS
330
51C
102
}
330
51C
100
AcDbScale
 70
     0
300
1:20
140
1.0
141
20.0
290
     0
  0
SCALE
  5
525
102
{ACAD_REACTORS
330
51C
102
}
330
51C
100
AcDbScale
 70
     0
300
1:30
140
1.0
141
30.0
290
     0
  0
SCALE
  5
526
102
{ACAD_REACTORS
330
51C
102
}
330
51C
100
AcDbScale
 70
     0
300
1:40
140
1.0
141
40.0
290
     0
  0
SCALE
  5
527
102
{ACAD_REACTORS
330
51C
102
}
330
51C
100
AcDbScale
 70
     0
300
1:50
140
1.0
141
50.0
290
     0
  0
SCALE
  5
528
102
{ACAD_REACTORS
330
51C
102
}
330
51C
100
AcDbScale
 70
     0
300
1:100
140
1.0
141
100.0
290
     0
  0
SCALE
  5
529
102
{ACAD_REACTORS
330
51C
102
}
330
51C
100
AcDbScale
 70
     0
300
2:1
140
2.0
141
1.0
290
     0
  0
SCALE
  5
52A
102
{ACAD_REACTORS
330
51C
102
}
330
51C
100
AcDbScale
 70
     0
300
4:1
140
4.0
141
1.0
290
     0
  0
SCALE
  5
52B
102
{ACAD_REACTORS
330
51C
102
}
330
51C
100
AcDbScale
 70
     0
300
8:1
140
8.0
141
1.0
290
     0
  0
SCALE
  5
52C
102
{ACAD_REACTORS
330
51C
102
}
330
51C
100
AcDbScale
 70
     0
300
10:1
140
10.0
141
1.0
290
     0
  0
SCALE
  5
52D
102
{ACAD_REACTORS
330
51C
102
}
330
51C
100
AcDbScale
 70
     0
300
100:1
140
100.0
141
1.0
290
     0
  0
TABLESTYLE
  5
51B
102
{ACAD_XDICTIONARY
360
53C
102
}
102
{ACAD_REACTORS
330
51A
102
}
330
51A
100
AcDbTableStyle
280
     0
  3
Standard
 70
     0
 71
     0
 40
1.5
 41
1.5
280
     0
281
     0
  7
Standard
140
4.5
170
     2
 62
     0
 63
     7
283
     0
 90
      512
 91
        0
  1

274
    -2
284
     1
 64
     0
275
    -2
285
     1
 65
     0
276
    -2
286
     1
 66
     0
277
    -2
287
     1
 67
     0
278
    -2
288
     1
 68
     0
279
    -2
289
     1
 69
     0
  7
Standard
140
6.0
170
     5
 62
     0
 63
     7
283
     0
 90
      512
 91
        0
  1

274
    -2
284
     1
 64
     0
275
    -2
285
     1
 65
     0
276
    -2
286
     1
 66
     0
277
    -2
287
     1
 67
     0
278
    -2
288
     1
 68
     0
279
    -2
289
     1
 69
     0
  7
Standard
140
4.5
170
     5
 62
     0
 63
     7
283
     0
 90
      512
 91
        0
  1

274
    -2
284
     1
 64
     0
275
    -2
285
     1
 65
     0
276
    -2
286
     1
 66
     0
277
    -2
287
     1
 67
     0
278
    -2
288
     1
 68
     0
279
    -2
289
     1
 69
     0
  0
VISUALSTYLE
  5
50B
102
{ACAD_REACTORS
330
505
102
}
330
505
100
AcDbVisualStyle
  2
2dWireframe
 70
     4
177
     2
291
     0
 71
     0
176
     1
 72
     2
176
     1
 73
     0
176
     1
 90
        0
176
     1
 40
0.6
176
     1
 41
30.0
176
     1
 63
     7
421
 16777215
176
     1
 74
     1
176
     1
 91
        4
176
     1
 64
     7
176
     1
 65
   257
176
     1
 75
     1
176
     1
175
     1
176
     1
 42
1.0
176
     1
 92
        0
176
     1
 66
   257
176
     1
 43
1.0
176
     1
 76
     1
176
     1
 77
     6
176
     1
 78
     2
176
     1
 67
     7
176
     1
 79
     5
176
     1
170
     0
176
     1
171
     0
176
     1
290
     0
176
     1
 93
        1
176
     1
 44
0.0
176
     1
173
     0
176
     1
  0
VISUALSTYLE
  5
50D
102
{ACAD_REACTORS
330
505
102
}
330
505
100
AcDbVisualStyle
  2
3D Hidden
 70
     6
177
     2
291
     0
 71
     1
176
     1
 72
     2
176
     1
 73
     2
176
     1
 90
        0
176
     1
 40
0.6
176
     1
 41
30.0
176
     1
 63
     7
421
 16777215
176
     1
 74
     2
176
     1
 91
        2
176
     1
 64
     7
176
     1
 65
   257
176
     1
 75
     2
176
     1
175
     1
176
     1
 42
179.0
176
     1
 92
        0
176
     1
 66
   257
176
     1
 43
1.0
176
     1
 76
     1
176
     1
 77
     6
176
     1
 78
     2
176
     1
 67
     7
176
     1
 79
     3
176
     1
170
     0
176
     1
171
     0
176
     1
290
     0
176
     1
 93
        1
176
     1
 44
0.0
176
     1
173
     0
176
     1
  0
VISUALSTYLE
  5
50C
102
{ACAD_REACTORS
330
505
102
}
330
505
100
AcDbVisualStyle
  2
3dWireframe
 70
     5
177
     2
291
     0
 71
     0
176
     1
 72
     2
176
     1
 73
     0
176
     1
 90
        0
176
     1
 40
0.6
176
     1
 41
30.0
176
     1
 63
     7
421
 16777215
176
     1
 74
     1
176
     1
 91
        4
176
     1
 64
     7
176
     1
 65
   257
176
     1
 75
     1
176
     1
175
     1
176
     1
 42
1.0
176
     1
 92
        0
176
     1
 66
   257
176
     1
 43
1.0
176
     1
 76
     1
176
     1
 77
     6
176
     1
 78
     2
176
     1
 67
     7
176
     1
 79
     5
176
     1
170
     0
176
     1
171
     0
176
     1
290
     0
176
     1
 93
        1
176
     1
 44
0.0
176
     1
173
     0
176
     1
  0
VISUALSTYLE
  5
50A
102
{ACAD_REACTORS
330
505
102
}
330
505
100
AcDbVisualStyle
  2
Basic
 70
     7
177
     2
291
     1
 71
     1
176
     1
 72
     0
176
     1
 73
     1
176
     1
 90
        0
176
     1
 40
0.6
176
     1
 41
30.0
176
     1
 63
     7
421
 16777215
176
     1
 74
     0
176
     1
 91
        4
176
     1
 64
     7
176
     1
 65
   257
176
     1
 75
     1
176
     1
175
     1
176
     1
 42
1.0
176
     1
 92
        8
176
     1
 66
     7
176
     1
 43
1.0
176
     1
 76
     1
176
     1
 77
     6
176
     1
 78
     2
176
     1
 67
     7
176
     1
 79
     5
176
     1
170
     0
176
     1
171
     0
176
     1
290
     0
176
     1
 93
        1
176
     1
 44
0.0
176
     1
173
     0
176
     1
  0
VISUALSTYLE
  5
511
102
{ACAD_REACTORS
330
505
102
}
330
505
100
AcDbVisualStyle
  2
Brighten
 70
    12
177
     2
291
     1
 71
     2
176
     1
 72
     2
176
     1
 73
     0
176
     1
 90
        0
176
     1
 40
0.6
176
     1
 41
30.0
176
     1
 63
     7
421
 16777215
176
     1
 74
     1
176
     1
 91
        4
176
     1
 64
     7
176
     1
 65
   257
176
     1
 75
     1
176
     1
175
     1
176
     1
 42
1.0
176
     1
 92
        8
176
     1
 66
     7
176
     1
 43
1.0
176
     1
 76
     1
176
     1
 77
     6
176
     1
 78
     2
176
     1
 67
     7
176
     1
 79
     5
176
     1
170
     0
176
     1
171
     0
176
     1
290
     0
176
     1
 93
        1
176
     1
 44
50.0
176
     1
173
     0
176
     1
  0
VISUALSTYLE
  5
515
102
{ACAD_REACTORS
330
505
102
}
330
505
100
AcDbVisualStyle
  2
ColorChange
 70
    16
177
     2
291
     1
 71
     2
176
     1
 72
     2
176
     1
 73
     3
176
     1
 90
        0
176
     1
 40
0.6
176
     1
 41
30.0
176
     1
 63
     8
421
  8421504
176
     1
 74
     1
176
     1
 91
        4
176
     1
 64
     7
176
     1
 65
   257
176
     1
 75
     1
176
     1
175
     1
176
     1
 42
1.0
176
     1
 92
        8
176
     1
 66
     8
424
  8421504
176
     1
 43
1.0
176
     1
 76
     1
176
     1
 77
     6
176
     1
 78
     2
176
     1
 67
     7
176
     1
 79
     5
176
     1
170
     0
176
     1
171
     0
176
     1
290
     0
176
     1
 93
        1
176
     1
 44
0.0
176
     1
173
     0
176
     1
  0
VISUALSTYLE
  5
50E
102
{ACAD_REACTORS
330
505
102
}
330
505
100
AcDbVisualStyle
  2
Conceptual
 70
     9
177
     2
291
     0
 71
     3
176
     1
 72
     2
176
     1
 73
     0
176
     1
 90
        0
176
     1
 40
0.6
176
     1
 41
30.0
176
     1
 63
     7
421
 16777215
176
     1
 74
     2
176
     1
 91
        2
176
     1
 64
     7
176
     1
 65
   257
176
     1
 75
     1
176
     1
175
     1
176
     1
 42
179.0
176
     1
 92
        8
176
     1
 66
     7
176
     1
 43
1.0
176
     1
 76
     1
176
     1
 77
     6
176
     1
 78
     2
176
     1
 67
     7
176
     1
 79
     3
176
     1
170
     0
176
     1
171
     0
176
     1
290
     0
176
     1
 93
        1
176
     1
 44
0.0
176
     1
173
     0
176
     1
  0
VISUALSTYLE
  5
510
102
{ACAD_REACTORS
330
505
102
}
330
505
100
AcDbVisualStyle
  2
Dim
 70
    11
177
     2
291
     1
 71
     2
176
     1
 72
     2
176
     1
 73
     0
176
     1
 90
        0
176
     1
 40
0.6
176
     1
 41
30.0
176
     1
 63
     7
421
 16777215
176
     1
 74
     1
176
     1
 91
        4
176
     1
 64
     7
176
     1
 65
   257
176
     1
 75
     1
176
     1
175
     1
176
     1
 42
1.0
176
     1
 92
        8
176
     1
 66
     7
176
     1
 43
1.0
176
     1
 76
     1
176
     1
 77
     6
176
     1
 78
     2
176
     1
 67
     7
176
     1
 79
     5
176
     1
170
     0
176
     1
171
     0
176
     1
290
     0
176
     1
 93
        1
176
     1
 44
-50.0
176
     1
173
     0
176
     1
  0
VISUALSTYLE
  5
518
102
{ACAD_REACTORS
330
505
102
}
330
505
100
AcDbVisualStyle
  2
EdgeColorOff
 70
    22
177
     2
291
     1
 71
     2
176
     0
 72
     2
176
     0
 73
     0
176
     0
 90
        0
176
     0
 40
0.6
176
     0
 41
30.0
176
     0
 63
     7
421
 16777215
176
     0
 74
     1
176
     0
 91
        4
176
     0
 64
     7
176
     0
 65
   257
176
     0
 75
     1
176
     0
175
     1
176
     0
 42
1.0
176
     0
 92
        8
176
     2
 66
     7
176
     0
 43
1.0
176
     0
 76
     1
176
     0
 77
     6
176
     0
 78
     2
176
     0
 67
     7
176
     0
 79
     5
176
     0
170
     0
176
     0
171
     0
176
     0
290
     0
176
     0
 93
        1
176
     0
 44
0.0
176
     0
173
     0
176
     0
  0
VISUALSTYLE
  5
514
102
{ACAD_REACTORS
330
505
102
}
330
505
100
AcDbVisualStyle
  2
Facepattern
 70
    15
177
     2
291
     1
 71
     2
176
     1
 72
     2
176
     1
 73
     0
176
     1
 90
        0
176
     1
 40
0.6
176
     1
 41
30.0
176
     1
 63
     7
421
 16777215
176
     1
 74
     1
176
     1
 91
        4
176
     1
 64
     7
176
     1
 65
   257
176
     1
 75
     1
176
     1
175
     1
176
     1
 42
1.0
176
     1
 92
        8
176
     1
 66
     7
176
     1
 43
1.0
176
     1
 76
     1
176
     1
 77
     6
176
     1
 78
     2
176
     1
 67
     7
176
     1
 79
     5
176
     1
170
     0
176
     1
171
     0
176
     1
290
     0
176
     1
 93
        1
176
     1
 44
0.0
176
     1
173
     0
176
     1
  0
VISUALSTYLE
  5
506
102
{ACAD_REACTORS
330
505
102
}
330
505
100
AcDbVisualStyle
  2
Flat
 70
     0
177
     2
291
     1
 71
     2
176
     1
 72
     1
176
     1
 73
     1
176
     1
 90
        2
176
     1
 40
0.6
176
     1
 41
30.0
176
     1
 63
     7
421
 16777215
176
     1
 74
     0
176
     1
 91
        4
176
     1
 64
     7
176
     1
 65
   257
176
     1
 75
     1
176
     1
175
     1
176
     1
 42
1.0
176
     1
 92
        8
176
     1
 66
     7
176
     1
 43
1.0
176
     1
 76
     1
176
     1
 77
     6
176
     1
 78
     2
176
     1
 67
     7
176
     1
 79
     5
176
     1
170
     0
176
     1
171
     0
176
     1
290
     0
176
     1
 93
       13
176
     1
 44
0.0
176
     1
173
     0
176
     1
  0
VISUALSTYLE
  5
507
102
{ACAD_REACTORS
330
505
102
}
330
505
100
AcDbVisualStyle
  2
FlatWithEdges
 70
     1
177
     2
291
     1
 71
     2
176
     1
 72
     1
176
     1
 73
     1
176
     1
 90
        2
176
     1
 40
0.6
176
     1
 41
30.0
176
     1
 63
     7
421
 16777215
176
     1
 74
     1
176
     1
 91
        4
176
     1
 64
     7
176
     1
 65
   257
176
     1
 75
     1
176
     1
175
     1
176
     1
 42
1.0
176
     1
 92
        0
176
     1
 66
   257
176
     1
 43
1.0
176
     1
 76
     1
176
     1
 77
     6
176
     1
 78
     2
176
     1
 67
     7
176
     1
 79
     5
176
     1
170
     0
176
     1
171
     0
176
     1
290
     0
176
     1
 93
       13
176
     1
 44
0.0
176
     1
173
     0
176
     1
  0
VISUALSTYLE
  5
508
102
{ACAD_REACTORS
330
505
102
}
330
505
100
AcDbVisualStyle
  2
Gouraud
 70
     2
177
     2
291
     1
 71
     2
176
     1
 72
     2
176
     1
 73
     1
176
     1
 90
        2
176
     1
 40
0.6
176
     1
 41
30.0
176
     1
 63
     7
421
 16777215
176
     1
 74
     0
176
     1
 91
        4
176
     1
 64
     7
176
     1
 65
   257
176
     1
 75
     1
176
     1
175
     1
176
     1
 42
1.0
176
     1
 92
        0
176
     1
 66
     7
176
     1
 43
1.0
176
     1
 76
     1
176
     1
 77
     6
176
     1
 78
     2
176
     1
 67
     7
176
     1
 79
     5
176
     1
170
     0
176
     1
171
     0
176
     1
290
     0
176
     1
 93
       13
176
     1
 44
0.0
176
     1
173
     0
176
     1
  0
VISUALSTYLE
  5
509
102
{ACAD_REACTORS
330
505
102
}
330
505
100
AcDbVisualStyle
  2
GouraudWithEdges
 70
     3
177
     2
291
     1
 71
     2
176
     1
 72
     2
176
     1
 73
     1
176
     1
 90
        2
176
     1
 40
0.6
176
     1
 41
30.0
176
     1
 63
     7
421
 16777215
176
     1
 74
     1
176
     1
 91
        4
176
     1
 64
     7
176
     1
 65
   257
176
     1
 75
     1
176
     1
175
     1
176
     1
 42
1.0
176
     1
 92
        0
176
     1
 66
   257
176
     1
 43
1.0
176
     1
 76
     1
176
     1
 77
     6
176
     1
 78
     2
176
     1
 67
     7
176
     1
 79
     5
176
     1
170
     0
176
     1
171
     0
176
     1
290
     0
176
     1
 93
       13
176
     1
 44
0.0
176
     1
173
     0
176
     1
  0
VISUALSTYLE
  5
516
102
{ACAD_REACTORS
330
505
102
}
330
505
100
AcDbVisualStyle
  2
JitterOff
 70
    20
177
     2
291
     1
 71
     2
176
     0
 72
     2
176
     0
 73
     0
176
     0
 90
        0
176
     0
 40
0.6
176
     0
 41
30.0
176
     0
 63
     7
421
 16777215
176
     0
 74
     1
176
     0
 91
        4
176
     0
 64
     7
176
     0
 65
   257
176
     0
 75
     1
176
     0
175
     1
176
     0
 42
1.0
176
     0
 92
       10
176
     2
 66
     7
176
     0
 43
1.0
176
     0
 76
     1
176
     0
 77
     6
176
     0
 78
     2
176
     0
 67
     7
176
     0
 79
     5
176
     0
170
     0
176
     0
171
     0
176
     0
290
     0
176
     0
 93
        1
176
     0
 44
0.0
176
     0
173
     0
176
     0
  0
VISUALSTYLE
  5
513
102
{ACAD_REACTORS
330
505
102
}
330
505
100
AcDbVisualStyle
  2
Linepattern
 70
    14
177
     2
291
     1
 71
     2
176
     1
 72
     2
176
     1
 73
     0
176
     1
 90
        0
176
     1
 40
0.6
176
     1
 41
30.0
176
     1
 63
     7
421
 16777215
176
     1
 74
     1
176
     1
 91
        4
176
     1
 64
     7
176
     1
 65
   257
176
     1
 75
     7
176
     1
175
     7
176
     1
 42
1.0
176
     1
 92
        8
176
     1
 66
     7
176
     1
 43
1.0
176
     1
 76
     1
176
     1
 77
     6
176
     1
 78
     2
176
     1
 67
     7
176
     1
 79
     5
176
     1
170
     0
176
     1
171
     0
176
     1
290
     0
176
     1
 93
        1
176
     1
 44
0.0
176
     1
173
     0
176
     1
  0
VISUALSTYLE
  5
517
102
{ACAD_REACTORS
330
505
102
}
330
505
100
AcDbVisualStyle
  2
OverhangOff
 70
    21
177
     2
291
     1
 71
     2
176
     0
 72
     2
176
     0
 73
     0
176
     0
 90
        0
176
     0
 40
0.6
176
     0
 41
30.0
176
     0
 63
     7
421
 16777215
176
     0
 74
     1
176
     0
 91
        4
176
     0
 64
     7
176
     0
 65
   257
176
     0
 75
     1
176
     0
175
     1
176
     0
 42
1.0
176
     0
 92
        9
176
     2
 66
     7
176
     0
 43
1.0
176
     0
 76
     1
176
     0
 77
     6
176
     0
 78
     2
176
     0
 67
     7
176
     0
 79
     5
176
     0
170
     0
176
     0
171
     0
176
     0
290
     0
176
     0
 93
        1
176
     0
 44
0.0
176
     0
173
     0
176
     0
  0
VISUALSTYLE
  5
50F
102
{ACAD_REACTORS
330
505
102
}
330
505
100
AcDbVisualStyle
  2
Realistic
 70
     8
177
     2
291
     0
 71
     2
176
     1
 72
     2
176
     1
 73
     0
176
     1
 90
        0
176
     1
 40
0.6
176
     1
 41
30.0
176
     1
 63
     7
421
 16777215
176
     1
 74
     1
176
     1
 91
        0
176
     1
 64
     7
176
     1
 65
   257
176
     1
 75
     1
176
     1
175
     1
176
     1
 42
1.0
176
     1
 92
        8
176
     1
 66
     8
424
  7895160
176
     1
 43
1.0
176
     1
 76
     1
176
     1
 77
     6
176
     1
 78
     2
176
     1
 67
     7
176
     1
 79
     5
176
     1
170
     0
176
     1
171
     0
176
     1
290
     0
176
     1
 93
       13
176
     1
 44
0.0
176
     1
173
     0
176
     1
  0
VISUALSTYLE
  5
512
102
{ACAD_REACTORS
330
505
102
}
330
505
100
AcDbVisualStyle
  2
Thicken
 70
    13
177
     2
291
     1
 71
     2
176
     1
 72
     2
176
     1
 73
     0
176
     1
 90
        0
176
     1
 40
0.6
176
     1
 41
30.0
176
     1
 63
     7
421
 16777215
176
     1
 74
     1
176
     1
 91
        4
176
     1
 64
     7
176
     1
 65
   257
176
     1
 75
     1
176
     1
175
     1
176
     1
 42
1.0
176
     1
 92
       12
176
     1
 66
     7
176
     1
 43
1.0
176
     1
 76
     1
176
     1
 77
     6
176
     1
 78
     2
176
     1
 67
     7
176
     1
 79
     5
176
     1
170
     0
176
     1
171
     0
176
     1
290
     0
176
     1
 93
        1
176
     1
 44
0.0
176
     1
173
     0
176
     1
  0
DICTIONARYVAR
  5
538
102
{ACAD_REACTORS
330
5E
102
}
330
5E
100
DictionaryVariables
280
     0
  1
1:1
  0
DICTIONARYVAR
  5
536
102
{ACAD_REACTORS
330
5E
102
}
330
5E
100
DictionaryVariables
280
     0
  1
STANDARD
  0
DICTIONARYVAR
  5
535
102
{ACAD_REACTORS
330
5E
102
}
330
5E
100
DictionaryVariables
280
     0
  1
STANDARD
  0
DICTIONARYVAR
  5
5F
102
{ACAD_REACTORS
330
5E
102
}
330
5E
100
DictionaryVariables
280
     0
  1
2
  0
DICTIONARYVAR
  5
63
102
{ACAD_REACTORS
330
5E
102
}
330
5E
100
DictionaryVariables
280
     0
  1
1
  0
DICTIONARYVAR
  5
53A
102
{ACAD_REACTORS
330
5E
102
}
330
5E
100
DictionaryVariables
280
     0
  1
1
  0
DICTIONARYVAR
  5
53B
102
{ACAD_REACTORS
330
5E
102
}
330
5E
100
DictionaryVariables
280
     0
  1
15
  0
DICTIONARYVAR
  5
539
102
{ACAD_REACTORS
330
5E
102
}
330
5E
100
DictionaryVariables
280
     0
  1
0
  0
DICTIONARYVAR
  5
537
102
{ACAD_REACTORS
330
5E
102
}
330
5E
100
DictionaryVariables
280
     0
  1
0
  0
DICTIONARY
  5
4F6
330
4F5
100
AcDbDictionary
280
     1
281
     1
  3
BUMPTILE
360
4F8
  3
DIFFUSETILE
360
4F7
  3
OPACITYTILE
360
4FB
  3
REFLECTIONTILE
360
4FA
  3
REFRACTIONTILE
360
4FC
  3
SPECULARTILE
360
4F9
  0
DICTIONARY
  5
4EE
330
4ED
100
AcDbDictionary
280
     1
281
     1
  3
BUMPTILE
360
4F0
  3
DIFFUSETILE
360
4EF
  3
OPACITYTILE
360
4F3
  3
REFLECTIONTILE
360
4F2
  3
REFRACTIONTILE
360
4F4
  3
SPECULARTILE
360
4F1
  0
DICTIONARY
  5
4FE
330
4FD
100
AcDbDictionary
280
     1
281
     1
  3
BUMPTILE
360
500
  3
DIFFUSETILE
360
4FF
  3
OPACITYTILE
360
503
  3
REFLECTIONTILE
360
502
  3
REFRACTIONTILE
360
504
  3
SPECULARTILE
360
501
  0
DICTIONARY
  5
53C
330
51B
100
AcDbDictionary
280
     1
281
     1
  3
ACAD_ROUNDTRIP_2008_TABLESTYLE_CELLSTYLEMAP
360
53D
  0
XRECORD
  5
4F8
102
{ACAD_REACTORS
330
4F6
102
}
330
4F6
100
AcDbXrecord
280
     1
270
     1
271
     1
  0
XRECORD
  5
4F7
102
{ACAD_REACTORS
330
4F6
102
}
330
4F6
100
AcDbXrecord
280
     1
270
     1
271
     1
  0
XRECORD
  5
4FB
102
{ACAD_REACTORS
330
4F6
102
}
330
4F6
100
AcDbXrecord
280
     1
270
     1
271
     1
  0
XRECORD
  5
4FA
102
{ACAD_REACTORS
330
4F6
102
}
330
4F6
100
AcDbXrecord
280
     1
270
     1
271
     1
  0
XRECORD
  5
4FC
102
{ACAD_REACTORS
330
4F6
102
}
330
4F6
100
AcDbXrecord
280
     1
270
     1
271
     1
  0
XRECORD
  5
4F9
102
{ACAD_REACTORS
330
4F6
102
}
330
4F6
100
AcDbXrecord
280
     1
270
     1
271
     1
  0
XRECORD
  5
4F0
102
{ACAD_REACTORS
330
4EE
102
}
330
4EE
100
AcDbXrecord
280
     1
270
     1
271
     1
  0
XRECORD
  5
4EF
102
{ACAD_REACTORS
330
4EE
102
}
330
4EE
100
AcDbXrecord
280
     1
270
     1
271
     1
  0
XRECORD
  5
4F3
102
{ACAD_REACTORS
330
4EE
102
}
330
4EE
100
AcDbXrecord
280
     1
270
     1
271
     1
  0
XRECORD
  5
4F2
102
{ACAD_REACTORS
330
4EE
102
}
330
4EE
100
AcDbXrecord
280
     1
270
     1
271
     1
  0
XRECORD
  5
4F4
102
{ACAD_REACTORS
330
4EE
102
}
330
4EE
100
AcDbXrecord
280
     1
270
     1
271
     1
  0
XRECORD
  5
4F1
102
{ACAD_REACTORS
330
4EE
102
}
330
4EE
100
AcDbXrecord
280
     1
270
     1
271
     1
  0
XRECORD
  5
500
102
{ACAD_REACTORS
330
4FE
102
}
330
4FE
100
AcDbXrecord
280
     1
270
     1
271
     1
  0
XRECORD
  5
4FF
102
{ACAD_REACTORS
330
4FE
102
}
330
4FE
100
AcDbXrecord
280
     1
270
     1
271
     1
  0
XRECORD
  5
503
102
{ACAD_REACTORS
330
4FE
102
}
330
4FE
100
AcDbXrecord
280
     1
270
     1
271
     1
  0
XRECORD
  5
502
102
{ACAD_REACTORS
330
4FE
102
}
330
4FE
100
AcDbXrecord
280
     1
270
     1
271
     1
  0
XRECORD
  5
504
102
{ACAD_REACTORS
330
4FE
102
}
330
4FE
100
AcDbXrecord
280
     1
270
     1
271
     1
  0
XRECORD
  5
501
102
{ACAD_REACTORS
330
4FE
102
}
330
4FE
100
AcDbXrecord
280
     1
270
     1
271
     1
  0
CELLSTYLEMAP
  5
53D
102
{ACAD_REACTORS
330
53C
102
}
330
53C
100
AcDbCellStyleMap
 90
        3
300
CELLSTYLE
  1
TABLEFORMAT_BEGIN
 90
        5
170
     1
 91
        0
 92
    32768
 62
   257
 93
        1
300
CONTENTFORMAT
  1
CONTENTFORMAT_BEGIN
 90
        0
 91
        0
 92
      512
 93
        0
300

 40
0.0
140
1.0
 94
        5
 62
     0
340
11
144
6.0
309
CONTENTFORMAT_END
171
     1
301
MARGIN
  1
CELLMARGIN_BEGIN
 40
1.5
 40
1.5
 40
1.5
 40
1.5
 40
4.5
 40
4.5
309
CELLMARGIN_END
 94
        6
 95
        1
302
GRIDFORMAT
  1
GRIDFORMAT_BEGIN
 90
        0
 91
        1
 62
     0
 92
       -2
340
0
 93
        0
 40
1.125
309
GRIDFORMAT_END
 95
        2
302
GRIDFORMAT
  1
GRIDFORMAT_BEGIN
 90
        0
 91
        1
 62
     0
 92
       -2
340
0
 93
        0
 40
1.125
309
GRIDFORMAT_END
 95
        4
302
GRIDFORMAT
  1
GRIDFORMAT_BEGIN
 90
        0
 91
        1
 62
     0
 92
       -2
340
0
 93
        0
 40
1.125
309
GRIDFORMAT_END
 95
        8
302
GRIDFORMAT
  1
GRIDFORMAT_BEGIN
 90
        0
 91
        1
 62
     0
 92
       -2
340
0
 93
        0
 40
1.125
309
GRIDFORMAT_END
 95
       16
302
GRIDFORMAT
  1
GRIDFORMAT_BEGIN
 90
        0
 91
        1
 62
     0
 92
       -2
340
0
 93
        0
 40
1.125
309
GRIDFORMAT_END
 95
       32
302
GRIDFORMAT
  1
GRIDFORMAT_BEGIN
 90
        0
 91
        1
 62
     0
 92
       -2
340
0
 93
        0
 40
1.125
309
GRIDFORMAT_END
309
TABLEFORMAT_END
  1
CELLSTYLE_BEGIN
 90
        1
 91
        1
300
_TITLE
309
CELLSTYLE_END
300
CELLSTYLE
  1
TABLEFORMAT_BEGIN
 90
        5
170
     1
 91
        0
 92
        0
 62
   257
 93
        1
300
CONTENTFORMAT
  1
CONTENTFORMAT_BEGIN
 90
        0
 91
        0
 92
      512
 93
        0
300

 40
0.0
140
1.0
 94
        5
 62
     0
340
11
144
4.5
309
CONTENTFORMAT_END
171
     1
301
MARGIN
  1
CELLMARGIN_BEGIN
 40
1.5
 40
1.5
 40
1.5
 40
1.5
 40
4.5
 40
4.5
309
CELLMARGIN_END
 94
        6
 95
        1
302
GRIDFORMAT
  1
GRIDFORMAT_BEGIN
 90
        0
 91
        1
 62
     0
 92
       -2
340
0
 93
        0
 40
1.125
309
GRIDFORMAT_END
 95
        2
302
GRIDFORMAT
  1
GRIDFORMAT_BEGIN
 90
        0
 91
        1
 62
     0
 92
       -2
340
0
 93
        0
 40
1.125
309
GRIDFORMAT_END
 95
        4
302
GRIDFORMAT
  1
GRIDFORMAT_BEGIN
 90
        0
 91
        1
 62
     0
 92
       -2
340
0
 93
        0
 40
1.125
309
GRIDFORMAT_END
 95
        8
302
GRIDFORMAT
  1
GRIDFORMAT_BEGIN
 90
        0
 91
        1
 62
     0
 92
       -2
340
0
 93
        0
 40
1.125
309
GRIDFORMAT_END
 95
       16
302
GRIDFORMAT
  1
GRIDFORMAT_BEGIN
 90
        0
 91
        1
 62
     0
 92
       -2
340
0
 93
        0
 40
1.125
309
GRIDFORMAT_END
 95
       32
302
GRIDFORMAT
  1
GRIDFORMAT_BEGIN
 90
        0
 91
        1
 62
     0
 92
       -2
340
0
 93
        0
 40
1.125
309
GRIDFORMAT_END
309
TABLEFORMAT_END
  1
CELLSTYLE_BEGIN
 90
        2
 91
        1
300
_HEADER
309
CELLSTYLE_END
300
CELLSTYLE
  1
TABLEFORMAT_BEGIN
 90
        5
170
     1
 91
        0
 92
        0
 62
   257
 93
        1
300
CONTENTFORMAT
  1
CONTENTFORMAT_BEGIN
 90
        0
 91
        0
 92
      512
 93
        0
300

 40
0.0
140
1.0
 94
        2
 62
     0
340
11
144
4.5
309
CONTENTFORMAT_END
171
     1
301
MARGIN
  1
CELLMARGIN_BEGIN
 40
1.5
 40
1.5
 40
1.5
 40
1.5
 40
4.5
 40
4.5
309
CELLMARGIN_END
 94
        6
 95
        1
302
GRIDFORMAT
  1
GRIDFORMAT_BEGIN
 90
        0
 91
        1
 62
     0
 92
       -2
340
0
 93
        0
 40
1.125
309
GRIDFORMAT_END
 95
        2
302
GRIDFORMAT
  1
GRIDFORMAT_BEGIN
 90
        0
 91
        1
 62
     0
 92
       -2
340
0
 93
        0
 40
1.125
309
GRIDFORMAT_END
 95
        4
302
GRIDFORMAT
  1
GRIDFORMAT_BEGIN
 90
        0
 91
        1
 62
     0
 92
       -2
340
0
 93
        0
 40
1.125
309
GRIDFORMAT_END
 95
        8
302
GRIDFORMAT
  1
GRIDFORMAT_BEGIN
 90
        0
 91
        1
 62
     0
 92
       -2
340
0
 93
        0
 40
1.125
309
GRIDFORMAT_END
 95
       16
302
GRIDFORMAT
  1
GRIDFORMAT_BEGIN
 90
        0
 91
        1
 62
     0
 92
       -2
340
0
 93
        0
 40
1.125
309
GRIDFORMAT_END
 95
       32
302
GRIDFORMAT
  1
GRIDFORMAT_BEGIN
 90
        0
 91
        1
 62
     0
 92
       -2
340
0
 93
        0
 40
1.125
309
GRIDFORMAT_END
309
TABLEFORMAT_END
  1
CELLSTYLE_BEGIN
 90
        3
 91
        2
300
_DATA
309
CELLSTYLE_END
  0
ENDSEC
  0
EOF
