  0
SECTION
  2
HEADER
  9
$ACADVER
  1
AC1024
  9
$ACADMAINTVER
 70
     6
  9
$DWGCODEPAGE
  3
ANSI_932
  9
$LASTSAVEDBY
  1
kanatani
  9
$INSBASE
 10
0.0
 20
0.0
 30
0.0
  9
$EXTMIN
 10
-174.1900661038494
 20
-145.2216438807875
 30
0.0
  9
$EXTMAX
 10
146.8454895019531
 20
286.2545378636124
 30
0.0
  9
$LIMMIN
 10
0.0
 20
0.0
  9
$LIMMAX
 10
420.0
 20
297.0
  9
$ORTHOMODE
 70
     0
  9
$REGENMODE
 70
     1
  9
$FILLMODE
 70
     1
  9
$QTEXTMODE
 70
     0
  9
$MIRRTEXT
 70
     1
  9
$LTSCALE
 40
0.2
  9
$ATTMODE
 70
     1
  9
$TEXTSIZE
 40
2.5
  9
$TRACEWID
 40
1.0
  9
$TEXTSTYLE
  7
Standard
  9
$CLAYER
  8
0
  9
$CELTYPE
  6
ByLayer
  9
$CECOLOR
 62
   256
  9
$CELTSCALE
 40
1.0
  9
$DISPSILH
 70
     0
  9
$DIMSCALE
 40
1.0
  9
$DIMASZ
 40
2.5
  9
$DIMEXO
 40
0.625
  9
$DIMDLI
 40
3.75
  9
$DIMRND
 40
0.0
  9
$DIMDLE
 40
0.0
  9
$DIMEXE
 40
1.25
  9
$DIMTP
 40
0.0
  9
$DIMTM
 40
0.0
  9
$DIMTXT
 40
2.5
  9
$DIMCEN
 40
2.5
  9
$DIMTSZ
 40
0.0
  9
$DIMTOL
 70
     0
  9
$DIMLIM
 70
     0
  9
$DIMTIH
 70
     0
  9
$DIMTOH
 70
     0
  9
$DIMSE1
 70
     0
  9
$DIMSE2
 70
     0
  9
$DIMTAD
 70
     1
  9
$DIMZIN
 70
     8
  9
$DIMBLK
  1

  9
$DIMASO
 70
     1
  9
$DIMSHO
 70
     1
  9
$DIMPOST
  1

  9
$DIMAPOST
  1

  9
$DIMALT
 70
     0
  9
$DIMALTD
 70
     3
  9
$DIMALTF
 40
0.03937007874016
  9
$DIMLFAC
 40
1.0
  9
$DIMTOFL
 70
     1
  9
$DIMTVP
 40
0.0
  9
$DIMTIX
 70
     0
  9
$DIMSOXD
 70
     0
  9
$DIMSAH
 70
     0
  9
$DIMBLK1
  1

  9
$DIMBLK2
  1

  9
$DIMSTYLE
  2
ISO-25
  9
$DIMCLRD
 70
     0
  9
$DIMCLRE
 70
     0
  9
$DIMCLRT
 70
     0
  9
$DIMTFAC
 40
1.0
  9
$DIMGAP
 40
0.625
  9
$DIMJUST
 70
     0
  9
$DIMSD1
 70
     0
  9
$DIMSD2
 70
     0
  9
$DIMTOLJ
 70
     0
  9
$DIMTZIN
 70
     8
  9
$DIMALTZ
 70
     0
  9
$DIMALTTZ
 70
     0
  9
$DIMUPT
 70
     0
  9
$DIMDEC
 70
     2
  9
$DIMTDEC
 70
     2
  9
$DIMALTU
 70
     2
  9
$DIMALTTD
 70
     3
  9
$DIMTXSTY
  7
Standard
  9
$DIMAUNIT
 70
     0
  9
$DIMADEC
 70
     0
  9
$DIMALTRND
 40
0.0
  9
$DIMAZIN
 70
     0
  9
$DIMDSEP
 70
    44
  9
$DIMATFIT
 70
     3
  9
$DIMFRAC
 70
     0
  9
$DIMLDRBLK
  1

  9
$DIMLUNIT
 70
     2
  9
$DIMLWD
 70
    -2
  9
$DIMLWE
 70
    -2
  9
$DIMTMOVE
 70
     0
  9
$DIMFXL
 40
1.0
  9
$DIMFXLON
 70
     0
  9
$DIMJOGANG
 40
0.7853981633974483
  9
$DIMTFILL
 70
     0
  9
$DIMTFILLCLR
 70
     0
  9
$DIMARCSYM
 70
     0
  9
$DIMLTYPE
  6

  9
$DIMLTEX1
  6

  9
$DIMLTEX2
  6

  9
$DIMTXTDIRECTION
 70
     0
  9
$LUNITS
 70
     2
  9
$LUPREC
 70
     4
  9
$SKETCHINC
 40
1.0
  9
$FILLETRAD
 40
10.0
  9
$AUNITS
 70
     0
  9
$AUPREC
 70
     0
  9
$MENU
  1
.
  9
$ELEVATION
 40
0.0
  9
$PELEVATION
 40
0.0
  9
$THICKNESS
 40
0.0
  9
$LIMCHECK
 70
     0
  9
$CHAMFERA
 40
10.0
  9
$CHAMFERB
 40
10.0
  9
$CHAMFERC
 40
20.0
  9
$CHAMFERD
 40
0.0
  9
$SKPOLY
 70
     0
  9
$TDCREATE
 40
2456874.593217083
  9
$TDUCREATE
 40
2456874.218217083
  9
$TDUPDATE
 40
2456910.418083970
  9
$TDUUPDATE
 40
2456910.043083970
  9
$TDINDWG
 40
0.0063621065
  9
$TDUSRTIMER
 40
0.0063620949
  9
$USRTIMER
 70
     1
  9
$ANGBASE
 50
0.0
  9
$ANGDIR
 70
     0
  9
$PDMODE
 70
     0
  9
$PDSIZE
 40
0.0
  9
$PLINEWID
 40
0.0
  9
$SPLFRAME
 70
     0
  9
$SPLINETYPE
 70
     6
  9
$SPLINESEGS
 70
     8
  9
$HANDSEED
  5
8CD
  9
$SURFTAB1
 70
     6
  9
$SURFTAB2
 70
     6
  9
$SURFTYPE
 70
     6
  9
$SURFU
 70
     6
  9
$SURFV
 70
     6
  9
$UCSBASE
  2

  9
$UCSNAME
  2

  9
$UCSORG
 10
0.0
 20
0.0
 30
0.0
  9
$UCSXDIR
 10
1.0
 20
0.0
 30
0.0
  9
$UCSYDIR
 10
0.0
 20
1.0
 30
0.0
  9
$UCSORTHOREF
  2

  9
$UCSORTHOVIEW
 70
     0
  9
$UCSORGTOP
 10
0.0
 20
0.0
 30
0.0
  9
$UCSORGBOTTOM
 10
0.0
 20
0.0
 30
0.0
  9
$UCSORGLEFT
 10
0.0
 20
0.0
 30
0.0
  9
$UCSORGRIGHT
 10
0.0
 20
0.0
 30
0.0
  9
$UCSORGFRONT
 10
0.0
 20
0.0
 30
0.0
  9
$UCSORGBACK
 10
0.0
 20
0.0
 30
0.0
  9
$PUCSBASE
  2

  9
$PUCSNAME
  2

  9
$PUCSORG
 10
0.0
 20
0.0
 30
0.0
  9
$PUCSXDIR
 10
1.0
 20
0.0
 30
0.0
  9
$PUCSYDIR
 10
0.0
 20
1.0
 30
0.0
  9
$PUCSORTHOREF
  2

  9
$PUCSORTHOVIEW
 70
     0
  9
$PUCSORGTOP
 10
0.0
 20
0.0
 30
0.0
  9
$PUCSORGBOTTOM
 10
0.0
 20
0.0
 30
0.0
  9
$PUCSORGLEFT
 10
0.0
 20
0.0
 30
0.0
  9
$PUCSORGRIGHT
 10
0.0
 20
0.0
 30
0.0
  9
$PUCSORGFRONT
 10
0.0
 20
0.0
 30
0.0
  9
$PUCSORGBACK
 10
0.0
 20
0.0
 30
0.0
  9
$USERI1
 70
     0
  9
$USERI2
 70
     0
  9
$USERI3
 70
     0
  9
$USERI4
 70
     0
  9
$USERI5
 70
     0
  9
$USERR1
 40
0.0
  9
$USERR2
 40
0.0
  9
$USERR3
 40
0.0
  9
$USERR4
 40
0.0
  9
$USERR5
 40
0.0
  9
$WORLDVIEW
 70
     1
  9
$SHADEDGE
 70
     3
  9
$SHADEDIF
 70
    70
  9
$TILEMODE
 70
     1
  9
$MAXACTVP
 70
    64
  9
$PINSBASE
 10
0.0
 20
0.0
 30
0.0
  9
$PLIMCHECK
 70
     0
  9
$PEXTMIN
 10
26.66076962115563
 20
20.31135699206658
 30
-0.0015258207003583
  9
$PEXTMAX
 10
240.039213369355
 20
182.8886381005154
 30
0.0000000349246037
  9
$PLIMMIN
 10
-6.350006103515625
 20
-6.349999904632568
  9
$PLIMMAX
 10
273.0499877929688
 20
209.5499939918518
  9
$UNITMODE
 70
     0
  9
$VISRETAIN
 70
     1
  9
$PLINEGEN
 70
     0
  9
$PSLTSCALE
 70
     1
  9
$TREEDEPTH
 70
  3020
  9
$CMLSTYLE
  2
Standard
  9
$CMLJUST
 70
     0
  9
$CMLSCALE
 40
20.0
  9
$PROXYGRAPHICS
 70
     1
  9
$MEASUREMENT
 70
     1
  9
$CELWEIGHT
370
    -1
  9
$ENDCAPS
280
     0
  9
$JOINSTYLE
280
     0
  9
$LWDISPLAY
290
     0
  9
$INSUNITS
 70
     4
  9
$HYPERLINKBASE
  1

  9
$STYLESHEET
  1

  9
$XEDIT
290
     1
  9
$CEPSNTYPE
380
     0
  9
$PSTYLEMODE
290
     1
  9
$FINGERPRINTGUID
  2
{FDEAD578-A652-11D2-9A35-0060089B3A3F}
  9
$VERSIONGUID
  2
{3E378AF6-036F-43F5-9FA5-59D14E5D9CE4}
  9
$EXTNAMES
290
     1
  9
$PSVPSCALE
 40
0.0
  9
$OLESTARTUP
290
     0
  9
$SORTENTS
280
   127
  9
$INDEXCTL
280
     0
  9
$HIDETEXT
280
     1
  9
$XCLIPFRAME
280
     2
  9
$HALOGAP
280
     0
  9
$OBSCOLOR
 70
   257
  9
$OBSLTYPE
280
     0
  9
$INTERSECTIONDISPLAY
280
     0
  9
$INTERSECTIONCOLOR
 70
   257
  9
$DIMASSOC
280
     2
  9
$PROJECTNAME
  1

  9
$CAMERADISPLAY
290
     0
  9
$LENSLENGTH
 40
50.0
  9
$CAMERAHEIGHT
 40
0.0
  9
$STEPSPERSEC
 40
2.0
  9
$STEPSIZE
 40
6.0
  9
$3DDWFPREC
 40
2.0
  9
$PSOLWIDTH
 40
0.25
  9
$PSOLHEIGHT
 40
4.0
  9
$LOFTANG1
 40
1.570796326794896
  9
$LOFTANG2
 40
1.570796326794896
  9
$LOFTMAG1
 40
0.0
  9
$LOFTMAG2
 40
0.0
  9
$LOFTPARAM
 70
     7
  9
$LOFTNORMALS
280
     1
  9
$LATITUDE
 40
37.795
  9
$LONGITUDE
 40
-122.394
  9
$NORTHDIRECTION
 40
0.0
  9
$TIMEZONE
 70
 -8000
  9
$LIGHTGLYPHDISPLAY
280
     1
  9
$TILEMODELIGHTSYNCH
280
     1
  9
$CMATERIAL
347
87C
  9
$SOLIDHIST
280
     1
  9
$SHOWHIST
280
     1
  9
$DWFFRAME
280
     2
  9
$DGNFRAME
280
     0
  9
$REALWORLDSCALE
290
     1
  9
$INTERFERECOLOR
 62
     1
  9
$INTERFEREOBJVS
345
89E
  9
$INTERFEREVPVS
346
89B
  9
$CSHADOW
280
     0
  9
$SHADOWPLANELOCATION
 40
0.0
  0
ENDSEC
  0
SECTION
  2
CLASSES
  0
CLASS
  1
ACDBDICTIONARYWDFLT
  2
AcDbDictionaryWithDefault
  3
ObjectDBX Classes
 90
        0
 91
        1
280
     0
281
     0
  0
CLASS
  1
DICTIONARYVAR
  2
AcDbDictionaryVar
  3
ObjectDBX Classes
 90
        0
 91
        9
280
     0
281
     0
  0
CLASS
  1
MATERIAL
  2
AcDbMaterial
  3
ObjectDBX Classes
 90
     1153
 91
        3
280
     0
281
     0
  0
CLASS
  1
VISUALSTYLE
  2
AcDbVisualStyle
  3
ObjectDBX Classes
 90
     4095
 91
       19
280
     0
281
     0
  0
CLASS
  1
TABLESTYLE
  2
AcDbTableStyle
  3
ObjectDBX Classes
 90
     4095
 91
        1
280
     0
281
     0
  0
CLASS
  1
SCALE
  2
AcDbScale
  3
ObjectDBX Classes
 90
     1153
 91
       17
280
     0
281
     0
  0
CLASS
  1
MLEADERSTYLE
  2
AcDbMLeaderStyle
  3
ACDB_MLEADERSTYLE_CLASS
 90
     4095
 91
        1
280
     0
281
     0
  0
CLASS
  1
CELLSTYLEMAP
  2
AcDbCellStyleMap
  3
ObjectDBX Classes
 90
     1152
 91
        1
280
     0
281
     0
  0
ENDSEC
  0
SECTION
  2
TABLES
  0
TABLE
  2
VPORT
  5
8
330
0
100
AcDbSymbolTable
 70
     1
  0
VPORT
  5
879
330
8
100
AcDbSymbolTableRecord
100
AcDbViewportTableRecord
  2
*Active
 70
     0
 10
0.0
 20
0.0
 11
1.0
 21
1.0
 12
-13.65959044318049
 22
81.78164284748948
 13
0.0
 23
0.0
 14
10.0
 24
10.0
 15
10.0
 25
10.0
 16
0.0
 26
0.0
 36
1.0
 17
0.0
 27
0.0
 37
0.0
 40
456.7545851473199
 41
1.857142857142857
 42
50.0
 43
0.0
 44
0.0
 50
0.0
 51
0.0
 71
     0
 72
   100
 73
     1
 74
     3
 75
     0
 76
     0
 77
     0
 78
     0
281
     0
 65
     1
110
0.0
120
0.0
130
0.0
111
1.0
121
0.0
131
0.0
112
0.0
122
1.0
132
0.0
 79
     0
146
0.0
348
89A
 60
     3
 61
     5
292
     1
282
     1
141
0.0
142
0.0
 63
   250
421
  3355443
  0
ENDTAB
  0
TABLE
  2
LTYPE
  5
5
330
0
100
AcDbSymbolTable
 70
     3
  0
LTYPE
  5
14
330
5
100
AcDbSymbolTableRecord
100
AcDbLinetypeTableRecord
  2
ByBlock
 70
     0
  3

 72
    65
 73
     0
 40
0.0
  0
LTYPE
  5
15
330
5
100
AcDbSymbolTableRecord
100
AcDbLinetypeTableRecord
  2
ByLayer
 70
     0
  3

 72
    65
 73
     0
 40
0.0
  0
LTYPE
  5
16
330
5
100
AcDbSymbolTableRecord
100
AcDbLinetypeTableRecord
  2
Continuous
 70
     0
  3
Solid line
 72
    65
 73
     0
 40
0.0
  0
LTYPE
  5
8D
330
5
100
AcDbSymbolTableRecord
100
AcDbLinetypeTableRecord
  2
CENTER
 70
     0
  3
Center ____ _ ____ _ ____ _ ____ _ ____ _ ____
 72
    65
 73
     4
 40
50.8
 49
31.75
 74
     0
 49
-6.349999999999999
 74
     0
 49
6.349999999999999
 74
     0
 49
-6.349999999999999
 74
     0
  0
LTYPE
  5
8E
330
5
100
AcDbSymbolTableRecord
100
AcDbLinetypeTableRecord
  2
PHANTOM
 70
     0
  3
Phantom ______  __  __  ______  __  __  ______
 72
    65
 73
     6
 40
63.5
 49
31.75
 74
     0
 49
-6.349999999999999
 74
     0
 49
6.349999999999999
 74
     0
 49
-6.349999999999999
 74
     0
 49
6.349999999999999
 74
     0
 49
-6.349999999999999
 74
     0
  0
ENDTAB
  0
TABLE
  2
LAYER
  5
2
102
{ACAD_XDICTIONARY
360
97
102
}
330
0
100
AcDbSymbolTable
 70
     3
  0
LAYER
  5
10
102
{ACAD_XDICTIONARY
360
8C1
102
}
330
2
100
AcDbSymbolTableRecord
100
AcDbLayerTableRecord
  2
0
 70
     0
 62
     7
  6
Continuous
370
    -3
390
F
347
88C
  0
LAYER
  5
8F
102
{ACAD_XDICTIONARY
360
90
102
}
330
2
100
AcDbSymbolTableRecord
100
AcDbLayerTableRecord
  2
2
 70
     0
 62
     2
  6
PHANTOM
370
    -3
390
F
347
88C
1001
AcAecLayerStandard
1000

1000

1001
ACCMTRANSPARENCY
1071
        0
  0
LAYER
  5
92
102
{ACAD_XDICTIONARY
360
93
102
}
330
2
100
AcDbSymbolTableRecord
100
AcDbLayerTableRecord
  2
1
 70
     0
 62
     5
  6
CENTER
370
    -3
390
F
347
88C
1001
AcAecLayerStandard
1000

1000

1001
ACCMTRANSPARENCY
1071
        0
  0
ENDTAB
  0
TABLE
  2
STYLE
  5
3
330
0
100
AcDbSymbolTable
 70
     1
  0
STYLE
  5
11
330
3
100
AcDbSymbolTableRecord
100
AcDbTextStyleTableRecord
  2
Standard
 70
     0
 40
0.0
 41
1.0
 50
0.0
 71
     0
 42
2.5
  3
txt
  4

  0
ENDTAB
  0
TABLE
  2
VIEW
  5
6
330
0
100
AcDbSymbolTable
 70
     0
  0
ENDTAB
  0
TABLE
  2
UCS
  5
7
330
0
100
AcDbSymbolTable
 70
     0
  0
ENDTAB
  0
TABLE
  2
APPID
  5
9
330
0
100
AcDbSymbolTable
 70
     3
  0
APPID
  5
12
330
9
100
AcDbSymbolTableRecord
100
AcDbRegAppTableRecord
  2
ACAD
 70
     0
  0
APPID
  5
95
330
9
100
AcDbSymbolTableRecord
100
AcDbRegAppTableRecord
  2
AcAecLayerStandard
 70
     0
  0
APPID
  5
96
330
9
100
AcDbSymbolTableRecord
100
AcDbRegAppTableRecord
  2
ACCMTRANSPARENCY
 70
     0
  0
ENDTAB
  0
TABLE
  2
DIMSTYLE
  5
A
330
0
100
AcDbSymbolTable
 70
     1
100
AcDbDimStyleTable
 71
     0
  0
DIMSTYLE
105
27
330
A
100
AcDbSymbolTableRecord
100
AcDbDimStyleTableRecord
  2
ISO-25
 70
     0
 41
2.5
 42
0.625
 43
3.75
 44
1.25
 73
     0
 74
     0
 77
     1
 78
     8
140
2.5
141
2.5
143
0.03937007874016
147
0.625
171
     3
172
     1
271
     2
272
     2
274
     3
278
    44
283
     0
284
     8
340
11
  0
ENDTAB
  0
TABLE
  2
BLOCK_RECORD
  5
1
330
0
100
AcDbSymbolTable
 70
     1
  0
BLOCK_RECORD
  5
1F
330
1
100
AcDbSymbolTableRecord
100
AcDbBlockTableRecord
  2
*Model_Space
340
22
 70
     0
280
     1
281
     0
  0
BLOCK_RECORD
  5
55
330
1
100
AcDbSymbolTableRecord
100
AcDbBlockTableRecord
  2
*Paper_Space
340
56
 70
     0
280
     1
281
     0
  0
BLOCK_RECORD
  5
50
330
1
100
AcDbSymbolTableRecord
100
AcDbBlockTableRecord
  2
*Paper_Space0
340
51
 70
     0
280
     1
281
     0
  0
ENDTAB
  0
ENDSEC
  0
SECTION
  2
BLOCKS
  0
BLOCK
  5
20
330
1F
100
AcDbEntity
  8
0
100
AcDbBlockBegin
  2
*Model_Space
 70
     0
 10
0.0
 20
0.0
 30
0.0
  3
*Model_Space
  1

  0
ENDBLK
  5
21
330
1F
100
AcDbEntity
  8
0
100
AcDbBlockEnd
  0
BLOCK
  5
57
330
55
100
AcDbEntity
 67
     1
  8
0
100
AcDbBlockBegin
  2
*Paper_Space
 70
     0
 10
0.0
 20
0.0
 30
0.0
  3
*Paper_Space
  1

  0
ENDBLK
  5
58
330
55
100
AcDbEntity
 67
     1
  8
0
100
AcDbBlockEnd
  0
BLOCK
  5
52
330
50
100
AcDbEntity
 67
     1
  8
0
100
AcDbBlockBegin
  2
*Paper_Space0
 70
     0
 10
0.0
 20
0.0
 30
0.0
  3
*Paper_Space0
  1

  0
VIEWPORT
  5
6B
330
50
100
AcDbEntity
 67
     1
  8
0
100
AcDbViewport
 10
133.3499908447266
 20
101.5999970436096
 30
0.0
 40
381.3957395593835
 41
218.2856291881582
 68
     0
 69
     0
 12
133.3499908447266
 22
101.5999970436096
 13
0.0
 23
0.0
 14
10.0
 24
10.0
 15
10.0
 25
10.0
 16
0.0
 26
0.0
 36
1.0
 17
0.0
 27
0.0
 37
0.0
 42
50.0
 43
0.0
 44
0.0
 45
218.2856291881582
 50
0.0
 51
0.0
 72
   100
 90
    32800
  1

281
     0
 71
     1
 74
     0
110
0.0
120
0.0
130
0.0
111
1.0
121
0.0
131
0.0
112
0.0
122
1.0
132
0.0
 79
     0
146
0.0
170
     0
 61
     5
348
89A
292
     1
282
     1
141
0.0
142
0.0
 63
   250
421
  3355443
  0
VIEWPORT
  5
6D
330
50
100
AcDbEntity
 67
     1
  8
0
100
AcDbViewport
 10
133.3499939441681
 20
101.5999939441681
 30
0.0
 40
213.3599903106689
 41
162.5599903106689
 68
     0
 69
     0
 12
210.0
 22
148.5
 13
0.0
 23
0.0
 14
10.0
 24
10.0
 15
10.0
 25
10.0
 16
0.0
 26
0.0
 36
1.0
 17
0.0
 27
0.0
 37
0.0
 42
50.0
 43
0.0
 44
0.0
 45
324.0677920111345
 50
0.0
 51
0.0
 72
   100
 90
    32864
  1

281
     0
 71
     1
 74
     0
110
0.0
120
0.0
130
0.0
111
1.0
121
0.0
131
0.0
112
0.0
122
1.0
132
0.0
 79
     0
146
0.0
170
     0
 61
     5
348
89A
292
     1
282
     1
141
0.0
142
0.0
 63
   250
421
  3355443
  0
ENDBLK
  5
53
330
50
100
AcDbEntity
 67
     1
  8
0
100
AcDbBlockEnd
  0
ENDSEC
  0
SECTION
  2
ENTITIES
  0
LINE
  5
67A
330
1F
100
AcDbEntity
  8
2
100
AcDbLine
 10
113.5000305175781
 20
-22.61013793945313
 30
0.0
 11
113.5000305175781
 21
0.0
 31
0.0
  0
LINE
  5
67B
330
1F
100
AcDbEntity
  8
2
100
AcDbLine
 10
101.5000305175781
 20
0.0
 30
0.0
 11
101.5000305175781
 21
-24.0
 31
0.0
  0
LINE
  5
67C
330
1F
100
AcDbEntity
  8
2
100
AcDbLine
 10
114.5
 20
-23.58578491210938
 30
0.0
 11
114.5
 21
-1.0
 31
0.0
  0
LINE
  5
67D
330
1F
100
AcDbEntity
  8
2
100
AcDbLine
 10
103.5000305175781
 20
-23.0
 30
0.0
 11
103.5000305175781
 21
-1.0
 31
0.0
  0
ARC
  5
67E
330
1F
100
AcDbEntity
  8
2
100
AcDbCircle
 10
93.50006103515625
 20
-12.0
 30
0.0
 40
18.0
100
AcDbArc
 50
342.2591249233903
 51
17.74087849170354
  0
LINE
  5
67F
330
1F
100
AcDbEntity
  8
2
100
AcDbLine
 10
111.5000305175781
 20
-3.772766113281022
 30
0.0
 11
111.5000305175781
 21
-20.22723388671875
 31
0.0
  0
LINE
  5
680
330
1F
100
AcDbEntity
  8
2
100
AcDbLine
 10
-145.4999389648437
 20
-22.61013793945313
 30
0.0
 11
-145.4999389648437
 21
0.0
 31
0.0
  0
LINE
  5
681
330
1F
100
AcDbEntity
  8
2
100
AcDbLine
 10
-133.4999389648437
 20
0.0
 30
0.0
 11
-133.4999389648437
 21
-24.0
 31
0.0
  0
LINE
  5
682
330
1F
100
AcDbEntity
  8
2
100
AcDbLine
 10
-135.4999389648437
 20
-23.0
 30
0.0
 11
-135.4999389648437
 21
-1.0
 31
0.0
  0
LINE
  5
683
330
1F
100
AcDbEntity
  8
2
100
AcDbLine
 10
-146.5
 20
-23.58578491210938
 30
0.0
 11
-146.5
 21
-1.0
 31
0.0
  0
ARC
  5
684
330
1F
100
AcDbEntity
  8
2
100
AcDbCircle
 10
-125.4999389648437
 20
-12.0
 30
0.0
 40
18.0
100
AcDbArc
 50
162.2591213946025
 51
197.7408749629318
  0
LINE
  5
685
330
1F
100
AcDbEntity
  8
2
100
AcDbLine
 10
-143.4999389648701
 20
-3.77276611332013
 30
0.0
 11
-143.4999389648692
 21
-20.22723388675763
 31
0.0
  0
LINE
  5
686
330
1F
100
AcDbEntity
  8
1
100
AcDbLine
 10
0.0
 20
45.49999999999999
 30
0.0
 11
0.0
 21
-145.2216438807875
 31
0.0
  0
LINE
  5
687
330
1F
100
AcDbEntity
  8
2
100
AcDbLine
 10
-142.6439208984629
 20
-17.48480224613263
 30
0.0
 11
-135.4999389648692
 21
-17.48480224613217
 31
0.0
  0
LINE
  5
688
330
1F
100
AcDbEntity
  8
2
100
AcDbLine
 10
-135.4999389648437
 20
-23.0
 30
0.0
 11
-133.4999389648437
 21
-23.0
 31
0.0
  0
LINE
  5
689
330
1F
100
AcDbEntity
  8
2
100
AcDbLine
 10
-142.6439208984629
 20
-22.96966552738263
 30
0.0
 11
-135.4999389648687
 21
-22.96966552738218
 31
0.0
  0
LINE
  5
68A
330
1F
100
AcDbEntity
  8
2
100
AcDbLine
 10
-145.5000641574042
 20
-23.9998724430277
 30
0.0
 11
-146.5000544043687
 21
-24.9998627742848
 31
0.0
  0
LINE
  5
68B
330
1F
100
AcDbEntity
  8
2
100
AcDbLine
 10
-145.4999389648437
 20
-24.0
 30
0.0
 11
-133.4999389648437
 21
-24.0
 31
0.0
  0
ARC
  5
68C
330
1F
100
AcDbEntity
  8
2
100
AcDbCircle
 10
-138.678955078125
 20
-20.22723388671875
 30
0.0
 40
4.821000576019287
100
AcDbArc
 50
145.3301150461273
 51
214.6698949717656
  0
LINE
  5
68D
330
1F
100
AcDbEntity
  8
2
100
AcDbLine
 10
110.6440124511719
 20
-17.48480224609375
 30
0.0
 11
103.5000305175781
 21
-17.48480224609375
 31
0.0
  0
LINE
  5
68E
330
1F
100
AcDbEntity
  8
2
100
AcDbLine
 10
113.5001181561483
 20
-24.00000413905377
 30
0.0
 11
114.5000976135197
 21
-24.99998368071715
 31
0.0
  0
LINE
  5
68F
330
1F
100
AcDbEntity
  8
2
100
AcDbLine
 10
103.5000305175781
 20
-23.0
 30
0.0
 11
101.5000305175781
 21
-23.0
 31
0.0
  0
LINE
  5
690
330
1F
100
AcDbEntity
  8
2
100
AcDbLine
 10
113.5000305175781
 20
-24.0
 30
0.0
 11
101.5000305175781
 21
-24.0
 31
0.0
  0
LINE
  5
691
330
1F
100
AcDbEntity
  8
2
100
AcDbLine
 10
110.6440124511719
 20
-22.96966552734375
 30
0.0
 11
103.5000305175781
 21
-22.96966552734375
 31
0.0
  0
ARC
  5
692
330
1F
100
AcDbEntity
  8
2
100
AcDbCircle
 10
106.6789855957031
 20
-20.22723388671875
 30
0.0
 40
4.821000576019287
100
AcDbArc
 50
325.3301100371664
 51
34.66988654770987
  0
LINE
  5
693
330
1F
100
AcDbEntity
  8
1
100
AcDbLine
 10
-174.1900661038494
 20
208.5557061915033
 30
0.0
 11
146.8454895019531
 21
208.5557061915033
 31
0.0
  0
LINE
  5
694
330
1F
100
AcDbEntity
  8
2
100
AcDbLine
 10
-145.4999389648437
 20
0.0
 30
0.0
 11
113.5000305175781
 21
0.0
 31
0.0
  0
ARC
  5
695
330
1F
100
AcDbEntity
  8
2
100
AcDbCircle
 10
-138.678955078125
 20
-3.772766113281022
 30
0.0
 40
4.821000576019287
100
AcDbArc
 50
145.3301150461273
 51
214.6698949717656
  0
LINE
  5
696
330
1F
100
AcDbEntity
  8
2
100
AcDbLine
 10
-142.6439208984638
 20
-6.515136718788653
 30
0.0
 11
-135.4999389648701
 21
-6.515136718788426
 31
0.0
  0
LINE
  5
697
330
1F
100
AcDbEntity
  8
2
100
AcDbLine
 10
-135.4999389648437
 20
-1.0
 30
0.0
 11
-133.4999389648437
 21
-1.0
 31
0.0
  0
LINE
  5
698
330
1F
100
AcDbEntity
  8
2
100
AcDbLine
 10
-142.6439208984638
 20
-1.030334472694903
 30
0.0
 11
-135.4999389648701
 21
-1.030334472694448
 31
0.0
  0
LINE
  5
699
330
1F
100
AcDbEntity
  8
2
100
AcDbLine
 10
-146.5000161939888
 20
-0.9999517353178362
 30
0.0
 11
-145.5000042835445
 21
0.0000600908319939
 31
0.0
  0
ARC
  5
69A
330
1F
100
AcDbEntity
  8
2
100
AcDbCircle
 10
106.6789855957031
 20
-3.772766113281022
 30
0.0
 40
4.821000576019287
100
AcDbArc
 50
325.3301100371664
 51
34.66988654770987
  0
LINE
  5
69B
330
1F
100
AcDbEntity
  8
2
100
AcDbLine
 10
110.6440124511719
 20
-6.51513671875
 30
0.0
 11
103.5000305175781
 21
-6.51513671875
 31
0.0
  0
LINE
  5
69C
330
1F
100
AcDbEntity
  8
2
100
AcDbLine
 10
113.5001104011289
 20
0.0000129832931179
 30
0.0
 11
114.5000898585003
 21
-0.9999665583704882
 31
0.0
  0
LINE
  5
69D
330
1F
100
AcDbEntity
  8
2
100
AcDbLine
 10
103.5000305175781
 20
-1.0
 30
0.0
 11
101.5000305175781
 21
-1.0
 31
0.0
  0
LINE
  5
69E
330
1F
100
AcDbEntity
  8
2
100
AcDbLine
 10
110.6440124511719
 20
-1.030334472656022
 30
0.0
 11
103.5000305175781
 21
-1.030334472656022
 31
0.0
  0
LINE
  5
69F
330
1F
100
AcDbEntity
  8
2
100
AcDbLine
 10
-132.4998195218181
 20
262.5312310938471
 30
0.0
 11
-84.40002567171768
 21
262.5312310938473
 31
0.0
  0
LINE
  5
6A0
330
1F
100
AcDbEntity
  8
2
100
AcDbLine
 10
-132.4998195218181
 20
266.5557672266596
 30
0.0
 11
-84.99990969895861
 21
266.5557672266596
 31
0.0
  0
LINE
  5
6A1
330
1F
100
AcDbEntity
  8
2
100
AcDbLine
 10
-132.4998195218181
 20
150.5557061915033
 30
0.0
 11
-84.99990969896179
 21
150.5557061915033
 31
0.0
  0
LINE
  5
6A2
330
1F
100
AcDbEntity
  8
2
100
AcDbLine
 10
-132.4998195218181
 20
154.5802423243158
 30
0.0
 11
-84.99990969896179
 21
154.5802423243158
 31
0.0
  0
LINE
  5
6A3
330
1F
100
AcDbEntity
  8
2
100
AcDbLine
 10
-126.4998195218181
 20
266.5557672266596
 30
0.0
 11
-126.4998195218181
 21
150.5557061915033
 31
0.0
  0
LINE
  5
6A4
330
1F
100
AcDbEntity
  8
2
100
AcDbLine
 10
-149.9998195218181
 20
200.0557672266595
 30
0.0
 11
-149.9998195218181
 21
217.0557061915033
 31
0.0
  0
LINE
  5
6A5
330
1F
100
AcDbEntity
  8
2
100
AcDbLine
 10
-146.4998195218181
 20
237.5557672266596
 30
0.0
 11
-146.4998195218181
 21
179.5557061915033
 31
0.0
  0
LINE
  5
6A6
330
1F
100
AcDbEntity
  8
2
100
AcDbLine
 10
-145.4998195218181
 20
238.5557061915033
 30
0.0
 11
-145.4998195218181
 21
178.5557672266595
 31
0.0
  0
ARC
  5
6A7
330
1F
100
AcDbEntity
  8
2
100
AcDbCircle
 10
-145.5524318265056
 20
212.8057672266595
 30
0.0
 40
10.44731616973877
100
AcDbArc
 50
155.9958379257043
 51
204.0041584318415
  0
ARC
  5
6A8
330
1F
100
AcDbEntity
  8
2
100
AcDbCircle
 10
-160.4470851468181
 20
212.8057672266595
 30
0.0
 40
10.44731616973877
100
AcDbArc
 50
335.9958380393919
 51
24.00416537571344
  0
LINE
  5
6A9
330
1F
100
AcDbEntity
  8
2
100
AcDbLine
 10
-161.4998195218181
 20
213.5557061915033
 30
0.0
 11
-155.9997584866619
 21
213.5557061915033
 31
0.0
  0
LINE
  5
6AA
330
1F
100
AcDbEntity
  8
2
100
AcDbLine
 10
-135.4998195218181
 20
177.5557672266595
 30
0.0
 11
-133.4997584866619
 21
177.5557672266595
 31
0.0
  0
LINE
  5
6AB
330
1F
100
AcDbEntity
  8
2
100
AcDbLine
 10
-135.4998195218181
 20
155.5557061915033
 30
0.0
 11
-135.4998195218181
 21
177.5557672266595
 31
0.0
  0
LINE
  5
6AC
330
1F
100
AcDbEntity
  8
2
100
AcDbLine
 10
-133.4997584866619
 20
178.5557672266595
 30
0.0
 11
-133.4997584866619
 21
151.5557672266595
 31
0.0
  0
LINE
  5
6AD
330
1F
100
AcDbEntity
  8
2
100
AcDbLine
 10
-132.4998195218181
 20
150.5557061915033
 30
0.0
 11
-132.4998195218181
 21
178.5557672266595
 31
0.0
  0
LINE
  5
6AE
330
1F
100
AcDbEntity
  8
2
100
AcDbLine
 10
-147.9998195218181
 20
198.5557672266595
 30
0.0
 11
-146.4998195218181
 21
198.5557672266595
 31
0.0
  0
ARC
  5
6AF
330
1F
100
AcDbEntity
  8
2
100
AcDbCircle
 10
-147.9998195218181
 20
200.5557061915033
 30
0.0
 40
2.0
100
AcDbArc
 50
179.9999913485786
 51
270.000000683243
  0
ARC
  5
6B0
330
1F
100
AcDbEntity
  8
2
100
AcDbCircle
 10
-160.4470851468181
 20
204.3057061915033
 30
0.0
 40
10.44731616973877
100
AcDbArc
 50
335.9958380393919
 51
24.00416537571344
  0
LINE
  5
6B1
330
1F
100
AcDbEntity
  8
2
100
AcDbLine
 10
-161.4998195218181
 20
203.5557672266596
 30
0.0
 11
-155.9997584866619
 21
203.5557672266596
 31
0.0
  0
LINE
  5
6B2
330
1F
100
AcDbEntity
  8
2
100
AcDbLine
 10
-155.9997584866619
 20
204.3057061915033
 30
0.0
 11
-155.9997584866619
 21
212.8057672266595
 31
0.0
  0
ARC
  5
6B3
330
1F
100
AcDbEntity
  8
2
100
AcDbCircle
 10
-145.5524318265056
 20
204.3057061915033
 30
0.0
 40
10.44731616973877
100
AcDbArc
 50
155.9958379257043
 51
204.0041584318415
  0
LINE
  5
6B4
330
1F
100
AcDbEntity
  8
2
100
AcDbLine
 10
-155.0962550686931
 20
208.5557061915033
 30
0.0
 11
-150.9033229397869
 21
208.5557061915033
 31
0.0
  0
LINE
  5
6B5
330
1F
100
AcDbEntity
  8
2
100
AcDbLine
 10
-155.0962550686931
 20
200.0557672266595
 30
0.0
 11
-150.9033229397869
 21
200.0557672266595
 31
0.0
  0
LINE
  5
6B6
330
1F
100
AcDbEntity
  8
2
100
AcDbLine
 10
-146.4997636742432
 20
179.5558117821651
 30
0.0
 11
-145.499740974205
 21
178.555789166423
 31
0.0
  0
ARC
  5
6B7
330
1F
100
AcDbEntity
  8
2
100
AcDbCircle
 10
-129.8928248929119
 20
171.3057672266595
 30
0.0
 40
13.60700035095215
100
AcDbArc
 50
159.5686415786482
 51
200.4313547788989
  0
LINE
  5
6B8
330
1F
100
AcDbEntity
  8
2
100
AcDbLine
 10
-146.4998195218181
 20
178.1415216211908
 30
0.0
 11
-146.4998195218181
 21
151.5557672266595
 31
0.0
  0
LINE
  5
6B9
330
1F
100
AcDbEntity
  8
2
100
AcDbLine
 10
-145.4998195218181
 20
177.141582656347
 30
0.0
 11
-145.4998195218181
 21
150.5557061915033
 31
0.0
  0
LINE
  5
6BA
330
1F
100
AcDbEntity
  8
2
100
AcDbLine
 10
-145.4998195218181
 20
178.5557672266595
 30
0.0
 11
-132.4998195218181
 21
178.5557672266595
 31
0.0
  0
LINE
  5
6BB
330
1F
100
AcDbEntity
  8
2
100
AcDbLine
 10
-142.6437404202556
 20
176.0557672266595
 30
0.0
 11
-135.4998195218181
 21
176.0557672266595
 31
0.0
  0
LINE
  5
6BC
330
1F
100
AcDbEntity
  8
2
100
AcDbLine
 10
-161.4998195218181
 20
213.5557061915033
 30
0.0
 11
-161.4998195218181
 21
203.5557672266596
 31
0.0
  0
LINE
  5
6BD
330
1F
100
AcDbEntity
  8
2
100
AcDbLine
 10
-135.4998195218181
 20
155.5557061915033
 30
0.0
 11
-133.4997584866619
 21
155.5557061915033
 31
0.0
  0
LINE
  5
6BE
330
1F
100
AcDbEntity
  8
2
100
AcDbLine
 10
-133.4997322865924
 20
151.5558198899457
 30
0.0
 11
-132.4997095865547
 21
150.5557972742033
 31
0.0
  0
LINE
  5
6BF
330
1F
100
AcDbEntity
  8
2
100
AcDbLine
 10
-146.4996950591717
 20
151.5557626966738
 30
0.0
 11
-145.4997155175083
 21
150.5557832393024
 31
0.0
  0
LINE
  5
6C0
330
1F
100
AcDbEntity
  8
2
100
AcDbLine
 10
-143.4997584866619
 20
161.8057061915033
 30
0.0
 11
-143.4997584866619
 21
171.3057672266595
 31
0.0
  0
ARC
  5
6C1
330
1F
100
AcDbEntity
  8
2
100
AcDbCircle
 10
-129.8928248929119
 20
161.8057061915033
 30
0.0
 40
13.60700035095215
100
AcDbArc
 50
159.5686415786482
 51
200.4313547788989
  0
LINE
  5
6C2
330
1F
100
AcDbEntity
  8
2
100
AcDbLine
 10
-145.4998195218181
 20
150.5557061915033
 30
0.0
 11
-133.4997584866619
 21
150.5557061915033
 31
0.0
  0
LINE
  5
6C3
330
1F
100
AcDbEntity
  8
2
100
AcDbLine
 10
-145.4998195218181
 20
152.480449843847
 30
0.0
 11
-134.4997584866619
 21
152.480449843847
 31
0.0
  0
LINE
  5
6C4
330
1F
100
AcDbEntity
  8
2
100
AcDbLine
 10
-142.6437404202556
 20
157.0557672266595
 30
0.0
 11
-135.4998195218181
 21
157.0557672266595
 31
0.0
  0
LINE
  5
6C5
330
1F
100
AcDbEntity
  8
2
100
AcDbLine
 10
-142.6437404202556
 20
166.5557672266595
 30
0.0
 11
-135.4998195218181
 21
166.5557672266595
 31
0.0
  0
LINE
  5
6C6
330
1F
100
AcDbEntity
  8
2
100
AcDbLine
 10
-133.5000075560369
 20
265.5559698785474
 30
0.0
 11
-132.5000064351866
 21
266.5559709151042
 31
0.0
  0
LINE
  5
6C7
330
1F
100
AcDbEntity
  8
2
100
AcDbLine
 10
-135.4998195218181
 20
261.5557672266596
 30
0.0
 11
-133.4997584866619
 21
261.5557672266596
 31
0.0
  0
LINE
  5
6C8
330
1F
100
AcDbEntity
  8
2
100
AcDbLine
 10
-135.4998195218181
 20
239.5557061915034
 30
0.0
 11
-133.4997584866619
 21
239.5557061915034
 31
0.0
  0
LINE
  5
6C9
330
1F
100
AcDbEntity
  8
2
100
AcDbLine
 10
-133.4997584866619
 20
265.5557061915033
 30
0.0
 11
-133.4997584866619
 21
238.5557061915033
 31
0.0
  0
LINE
  5
6CA
330
1F
100
AcDbEntity
  8
2
100
AcDbLine
 10
-135.4998195218181
 20
239.5557061915034
 30
0.0
 11
-135.4998195218181
 21
261.5557672266596
 31
0.0
  0
LINE
  5
6CB
330
1F
100
AcDbEntity
  8
2
100
AcDbLine
 10
-132.4998195218181
 20
266.5557672266596
 30
0.0
 11
-132.4998195218181
 21
238.5557061915033
 31
0.0
  0
LINE
  5
6CC
330
1F
100
AcDbEntity
  8
2
100
AcDbLine
 10
-146.5
 20
265.5559704264559
 30
0.0
 11
-145.4999988791492
 21
266.5559714630129
 31
0.0
  0
ARC
  5
6CD
330
1F
100
AcDbEntity
  8
2
100
AcDbCircle
 10
-129.8928248929119
 20
255.3057672266596
 30
0.0
 40
13.60700035095215
100
AcDbArc
 50
159.5686415786482
 51
200.4313547788989
  0
LINE
  5
6CE
330
1F
100
AcDbEntity
  8
2
100
AcDbLine
 10
-146.4999796009256
 20
237.5559618019354
 30
0.0
 11
-145.4999784800748
 21
238.5559628384922
 31
0.0
  0
LINE
  5
6CF
330
1F
100
AcDbEntity
  8
2
100
AcDbLine
 10
-147.9998195218181
 20
218.5557061915033
 30
0.0
 11
-146.4998195218181
 21
218.5557061915033
 31
0.0
  0
ARC
  5
6D0
330
1F
100
AcDbEntity
  8
2
100
AcDbCircle
 10
-147.9998195218181
 20
216.5557672266595
 30
0.0
 40
2.0
100
AcDbArc
 50
90.00000250446868
 51
180.0000050089569
  0
LINE
  5
6D1
330
1F
100
AcDbEntity
  8
2
100
AcDbLine
 10
-155.0962550686931
 20
217.0557061915033
 30
0.0
 11
-150.9033229397869
 21
217.0557061915033
 31
0.0
  0
LINE
  5
6D2
330
1F
100
AcDbEntity
  8
2
100
AcDbLine
 10
-146.4998195218181
 20
265.5557061915033
 30
0.0
 11
-146.4998195218181
 21
238.9699517969721
 31
0.0
  0
LINE
  5
6D3
330
1F
100
AcDbEntity
  8
2
100
AcDbLine
 10
-145.4998195218181
 20
266.5557672266596
 30
0.0
 11
-145.4998195218181
 21
239.9698907618159
 31
0.0
  0
LINE
  5
6D4
330
1F
100
AcDbEntity
  8
2
100
AcDbLine
 10
-143.4997584866619
 20
245.8057061915034
 30
0.0
 11
-143.4997584866619
 21
255.3057672266596
 31
0.0
  0
ARC
  5
6D5
330
1F
100
AcDbEntity
  8
2
100
AcDbCircle
 10
-129.8928248929119
 20
245.8057061915034
 30
0.0
 40
13.60700035095215
100
AcDbArc
 50
159.5686415786482
 51
200.4313547788989
  0
LINE
  5
6D6
330
1F
100
AcDbEntity
  8
2
100
AcDbLine
 10
-145.4998195218181
 20
266.5557672266596
 30
0.0
 11
-133.4997584866619
 21
266.5557672266596
 31
0.0
  0
LINE
  5
6D7
330
1F
100
AcDbEntity
  8
2
100
AcDbLine
 10
-145.4998195218181
 20
238.5557061915033
 30
0.0
 11
-132.4998195218181
 21
238.5557061915033
 31
0.0
  0
LINE
  5
6D8
330
1F
100
AcDbEntity
  8
2
100
AcDbLine
 10
-145.4998195218181
 20
264.6310235743158
 30
0.0
 11
-134.4997584866619
 21
264.6310235743158
 31
0.0
  0
LINE
  5
6D9
330
1F
100
AcDbEntity
  8
2
100
AcDbLine
 10
-142.6437404202556
 20
241.0557061915034
 30
0.0
 11
-135.4998195218181
 21
241.0557061915034
 31
0.0
  0
LINE
  5
6DA
330
1F
100
AcDbEntity
  8
2
100
AcDbLine
 10
-142.6437404202556
 20
260.0557672266596
 30
0.0
 11
-135.4998195218181
 21
260.0557672266596
 31
0.0
  0
LINE
  5
6DB
330
1F
100
AcDbEntity
  8
2
100
AcDbLine
 10
-142.6437404202556
 20
250.5557061915034
 30
0.0
 11
-135.4998195218181
 21
250.5557061915034
 31
0.0
  0
LINE
  5
6DC
330
1F
100
AcDbEntity
  8
2
100
AcDbLine
 10
114.5
 20
265.5557061915033
 30
0.0
 11
114.5
 21
151.5557672266595
 31
0.0
  0
LINE
  5
6DD
330
1F
100
AcDbEntity
  8
2
100
AcDbLine
 10
113.4999694824218
 20
265.5557061915033
 30
0.0
 11
113.4999694824218
 21
151.5557672266595
 31
0.0
  0
LINE
  5
6DE
330
1F
100
AcDbEntity
  8
2
100
AcDbLine
 10
94.49996948242187
 20
266.5557672266596
 30
0.0
 11
94.49996948242187
 21
150.5557061915033
 31
0.0
  0
LINE
  5
6DF
330
1F
100
AcDbEntity
  8
2
100
AcDbLine
 10
118.0
 20
200.0557672266595
 30
0.0
 11
118.0
 21
217.0557061915033
 31
0.0
  0
ARC
  5
6E0
330
1F
100
AcDbEntity
  8
2
100
AcDbCircle
 10
113.5526733398437
 20
212.8057672266595
 30
0.0
 40
10.44731616973877
100
AcDbArc
 50
335.9958380393919
 51
24.00416537571344
  0
ARC
  5
6E1
330
1F
100
AcDbEntity
  8
2
100
AcDbCircle
 10
128.4473571777343
 20
212.8057672266595
 30
0.0
 40
10.44731616973877
100
AcDbArc
 50
155.9958379257043
 51
204.0041584318415
  0
LINE
  5
6E2
330
1F
100
AcDbEntity
  8
2
100
AcDbLine
 10
129.5
 20
213.5557061915033
 30
0.0
 11
124.0000305175781
 21
213.5557061915033
 31
0.0
  0
LINE
  5
6E3
330
1F
100
AcDbEntity
  8
2
100
AcDbLine
 10
129.5
 20
203.5557672266596
 30
0.0
 11
124.0000305175781
 21
203.5557672266596
 31
0.0
  0
LINE
  5
6E4
330
1F
100
AcDbEntity
  8
2
100
AcDbLine
 10
124.0000305175781
 20
204.3057061915033
 30
0.0
 11
124.0000305175781
 21
212.8057672266595
 31
0.0
  0
ARC
  5
6E5
330
1F
100
AcDbEntity
  8
2
100
AcDbCircle
 10
113.5526733398437
 20
204.3057061915033
 30
0.0
 40
10.44731616973877
100
AcDbArc
 50
335.9958380393919
 51
24.00416537571344
  0
LINE
  5
6E6
330
1F
100
AcDbEntity
  8
2
100
AcDbLine
 10
115.9999694824219
 20
198.5557672266595
 30
0.0
 11
114.5
 21
198.5557672266595
 31
0.0
  0
ARC
  5
6E7
330
1F
100
AcDbEntity
  8
2
100
AcDbCircle
 10
115.9999694824219
 20
200.5557061915033
 30
0.0
 40
2.0
100
AcDbArc
 50
269.9999974955052
 51
0.0
  0
ARC
  5
6E8
330
1F
100
AcDbEntity
  8
2
100
AcDbCircle
 10
128.4473571777343
 20
204.3057061915033
 30
0.0
 40
10.44731616973877
100
AcDbArc
 50
155.9958379257043
 51
204.0041584318415
  0
LINE
  5
6E9
330
1F
100
AcDbEntity
  8
2
100
AcDbLine
 10
123.0964660644531
 20
208.5557061915033
 30
0.0
 11
118.9035339355468
 21
208.5557061915033
 31
0.0
  0
LINE
  5
6EA
330
1F
100
AcDbEntity
  8
2
100
AcDbLine
 10
123.0964660644531
 20
200.0557672266595
 30
0.0
 11
118.9035339355468
 21
200.0557672266595
 31
0.0
  0
LINE
  5
6EB
330
1F
100
AcDbEntity
  8
2
100
AcDbLine
 10
114.4998747452045
 20
179.5558587887822
 30
0.0
 11
113.4998736243533
 21
178.5558577522252
 31
0.0
  0
ARC
  5
6EC
330
1F
100
AcDbEntity
  8
2
100
AcDbCircle
 10
97.89297485351562
 20
171.3057672266595
 30
0.0
 40
13.60700035095215
100
AcDbArc
 50
339.5686416923301
 51
20.43136172276529
  0
LINE
  5
6ED
330
1F
100
AcDbEntity
  8
2
100
AcDbLine
 10
103.4999694824219
 20
177.5557672266595
 30
0.0
 11
101.5000305175781
 21
177.5557672266595
 31
0.0
  0
LINE
  5
6EE
330
1F
100
AcDbEntity
  8
2
100
AcDbLine
 10
113.4999694824218
 20
178.5557672266595
 30
0.0
 11
100.5
 21
178.5557672266595
 31
0.0
  0
LINE
  5
6EF
330
1F
100
AcDbEntity
  8
2
100
AcDbLine
 10
110.6440124511355
 20
176.055767226635
 30
0.0
 11
103.4999999999636
 21
176.0557672266345
 31
0.0
  0
LINE
  5
6F0
330
1F
100
AcDbEntity
  8
2
100
AcDbLine
 10
103.4999694824219
 20
155.5557061915033
 30
0.0
 11
103.4999694824219
 21
177.5557672266595
 31
0.0
  0
LINE
  5
6F1
330
1F
100
AcDbEntity
  8
2
100
AcDbLine
 10
101.5000305175781
 20
178.5557672266595
 30
0.0
 11
101.5000305175781
 21
151.5557672266595
 31
0.0
  0
LINE
  5
6F2
330
1F
100
AcDbEntity
  8
2
100
AcDbLine
 10
100.5
 20
150.5557061915033
 30
0.0
 11
100.5
 21
178.5557672266595
 31
0.0
  0
LINE
  5
6F3
330
1F
100
AcDbEntity
  8
2
100
AcDbLine
 10
129.5
 20
213.5557061915033
 30
0.0
 11
129.5
 21
203.5557672266596
 31
0.0
  0
LINE
  5
6F4
330
1F
100
AcDbEntity
  8
2
100
AcDbLine
 10
110.6440124511364
 20
166.555767226635
 30
0.0
 11
103.4999999999645
 21
166.5557672266345
 31
0.0
  0
LINE
  5
6F5
330
1F
100
AcDbEntity
  8
2
100
AcDbLine
 10
113.4998855602916
 20
150.5558559721112
 30
0.0
 11
114.4998865968482
 21
151.5558570929618
 31
0.0
  0
LINE
  5
6F6
330
1F
100
AcDbEntity
  8
2
100
AcDbLine
 10
103.4999694824219
 20
155.5557061915033
 30
0.0
 11
101.5000305175781
 21
155.5557061915033
 31
0.0
  0
LINE
  5
6F7
330
1F
100
AcDbEntity
  8
2
100
AcDbLine
 10
101.499913489909
 20
151.5558615017628
 30
0.0
 11
100.4999123690586
 21
150.555860465206
 31
0.0
  0
LINE
  5
6F8
330
1F
100
AcDbEntity
  8
2
100
AcDbLine
 10
113.4999694824218
 20
150.5557061915033
 30
0.0
 11
101.5000305175781
 21
150.5557061915033
 31
0.0
  0
LINE
  5
6F9
330
1F
100
AcDbEntity
  8
2
100
AcDbLine
 10
113.4999694824218
 20
152.480449843847
 30
0.0
 11
102.5
 21
152.480449843847
 31
0.0
  0
LINE
  5
6FA
330
1F
100
AcDbEntity
  8
2
100
AcDbLine
 10
110.6440124511368
 20
157.055767226635
 30
0.0
 11
103.4999999999645
 21
157.0557672266345
 31
0.0
  0
LINE
  5
6FB
330
1F
100
AcDbEntity
  8
2
100
AcDbLine
 10
111.5000305175426
 20
161.8057061914787
 30
0.0
 11
111.5000305175422
 21
171.305767226635
 31
0.0
  0
ARC
  5
6FC
330
1F
100
AcDbEntity
  8
2
100
AcDbCircle
 10
97.89297485351562
 20
161.8057061915033
 30
0.0
 40
13.60700035095215
100
AcDbArc
 50
339.5686416923301
 51
20.43136172276529
  0
LINE
  5
6FD
330
1F
100
AcDbEntity
  8
2
100
AcDbLine
 10
113.5001686522946
 20
266.5558987301805
 30
0.0
 11
114.500148109666
 21
265.5559191885168
 31
0.0
  0
LINE
  5
6FE
330
1F
100
AcDbEntity
  8
2
100
AcDbLine
 10
101.5001698775682
 20
265.5558716213648
 30
0.0
 11
100.5001040191555
 21
266.5559373954784
 31
0.0
  0
LINE
  5
6FF
330
1F
100
AcDbEntity
  8
2
100
AcDbLine
 10
113.4999694824218
 20
266.5557672266596
 30
0.0
 11
101.5000305175781
 21
266.5557672266596
 31
0.0
  0
LINE
  5
700
330
1F
100
AcDbEntity
  8
2
100
AcDbLine
 10
113.4999694824218
 20
264.6310235743158
 30
0.0
 11
102.5
 21
264.6310235743158
 31
0.0
  0
ARC
  5
701
330
1F
100
AcDbEntity
  8
2
100
AcDbCircle
 10
97.89297485351562
 20
255.3057672266596
 30
0.0
 40
13.60700035095215
100
AcDbArc
 50
339.5686416923301
 51
20.43136172276529
  0
LINE
  5
702
330
1F
100
AcDbEntity
  8
2
100
AcDbLine
 10
103.4999694824219
 20
261.5557672266596
 30
0.0
 11
101.5000305175781
 21
261.5557672266596
 31
0.0
  0
LINE
  5
703
330
1F
100
AcDbEntity
  8
2
100
AcDbLine
 10
110.6440124511309
 20
260.0557672266351
 30
0.0
 11
103.499999999959
 21
260.0557672266346
 31
0.0
  0
LINE
  5
704
330
1F
100
AcDbEntity
  8
2
100
AcDbLine
 10
110.6440124511314
 20
250.5557061914788
 30
0.0
 11
103.4999999999595
 21
250.5557061914784
 31
0.0
  0
LINE
  5
705
330
1F
100
AcDbEntity
  8
2
100
AcDbLine
 10
114.500206660015
 20
237.5558851239421
 30
0.0
 11
113.5001408016023
 21
238.5559508980555
 31
0.0
  0
LINE
  5
706
330
1F
100
AcDbEntity
  8
2
100
AcDbLine
 10
103.4999694824219
 20
239.5557061915034
 30
0.0
 11
101.5000305175781
 21
239.5557061915034
 31
0.0
  0
LINE
  5
707
330
1F
100
AcDbEntity
  8
2
100
AcDbLine
 10
113.4999694824218
 20
238.5557061915033
 30
0.0
 11
100.5
 21
238.5557061915033
 31
0.0
  0
LINE
  5
708
330
1F
100
AcDbEntity
  8
2
100
AcDbLine
 10
110.6440124511318
 20
241.0557061914788
 30
0.0
 11
103.49999999996
 21
241.0557061914783
 31
0.0
  0
LINE
  5
709
330
1F
100
AcDbEntity
  8
2
100
AcDbLine
 10
115.9999694824219
 20
218.5557061915033
 30
0.0
 11
114.5
 21
218.5557061915033
 31
0.0
  0
ARC
  5
70A
330
1F
100
AcDbEntity
  8
2
100
AcDbCircle
 10
115.9999694824219
 20
216.5557672266595
 30
0.0
 40
2.0
100
AcDbArc
 50
0.0
 51
90.00000250446868
  0
LINE
  5
70B
330
1F
100
AcDbEntity
  8
2
100
AcDbLine
 10
123.0964660644531
 20
217.0557061915033
 30
0.0
 11
118.9035339355468
 21
217.0557061915033
 31
0.0
  0
LINE
  5
70C
330
1F
100
AcDbEntity
  8
2
100
AcDbLine
 10
101.5000305175781
 20
265.5557061915033
 30
0.0
 11
101.5000305175781
 21
238.5557061915033
 31
0.0
  0
LINE
  5
70D
330
1F
100
AcDbEntity
  8
2
100
AcDbLine
 10
103.4999694824219
 20
239.5557061915034
 30
0.0
 11
103.4999694824219
 21
261.5557672266596
 31
0.0
  0
LINE
  5
70E
330
1F
100
AcDbEntity
  8
2
100
AcDbLine
 10
100.5
 20
266.5557672266596
 30
0.0
 11
100.5
 21
238.5557061915033
 31
0.0
  0
LINE
  5
70F
330
1F
100
AcDbEntity
  8
2
100
AcDbLine
 10
111.5000305175381
 20
245.8057061914788
 30
0.0
 11
111.5000305175372
 21
255.305767226635
 31
0.0
  0
ARC
  5
710
330
1F
100
AcDbEntity
  8
2
100
AcDbCircle
 10
97.89297485351562
 20
245.8057061915034
 30
0.0
 40
13.60700035095215
100
AcDbArc
 50
339.5686416923301
 51
20.43136172276529
  0
LINE
  5
711
330
1F
100
AcDbEntity
  8
2
100
AcDbLine
 10
-69.90002545565085
 20
262.5312310938471
 30
0.0
 11
100.5
 21
262.5312310938471
 31
0.0
  0
LINE
  5
712
330
1F
100
AcDbEntity
  8
2
100
AcDbLine
 10
-66.99990946053958
 20
266.5557672266596
 30
0.0
 11
100.5
 21
266.5557672266596
 31
0.0
  0
LINE
  5
713
330
1F
100
AcDbEntity
  8
2
100
AcDbLine
 10
-66.99990946054322
 20
150.5557061915033
 30
0.0
 11
100.5
 21
150.5557061915037
 31
0.0
  0
LINE
  5
714
330
1F
100
AcDbEntity
  8
2
100
AcDbLine
 10
-66.99990946054322
 20
154.5802423243158
 30
0.0
 11
100.5
 21
154.5802423243153
 31
0.0
  0
LINE
  5
715
330
1F
100
AcDbEntity
  8
2
100
AcDbLine
 10
-145.4999389648437
 20
-76.0
 30
0.0
 11
113.5000305175781
 21
-76.0
 31
0.0
  0
LINE
  5
716
330
1F
100
AcDbEntity
  8
2
100
AcDbLine
 10
-145.4999389648437
 20
-46.0
 30
0.0
 11
113.5000305175781
 21
-46.0
 31
0.0
  0
LINE
  5
717
330
1F
100
AcDbEntity
  8
2
100
AcDbLine
 10
-145.4999389648437
 20
-122.0
 30
0.0
 11
113.5000305175781
 21
-122.0
 31
0.0
  0
CIRCLE
  5
718
330
1F
100
AcDbEntity
  8
2
100
AcDbCircle
 10
-136.5
 20
-61.0
 30
0.0
 40
6.574872493743896
  0
ARC
  5
719
330
1F
100
AcDbEntity
  8
2
100
AcDbCircle
 10
-153.7835693359375
 20
-53.63876342773437
 30
0.0
 40
3.783614635467529
100
AcDbArc
 50
319.5701056421813
 51
40.42988752762302
  0
ARC
  5
71A
330
1F
100
AcDbEntity
  8
2
100
AcDbCircle
 10
-152.21630859375
 20
-53.63876342773437
 30
0.0
 40
3.783614635467529
100
AcDbArc
 50
139.5701072360292
 51
220.4298891214967
  0
LINE
  5
71B
330
1F
100
AcDbEntity
  8
2
100
AcDbLine
 10
-150.0
 20
-53.0
 30
0.0
 11
-150.0
 21
-69.0
 31
0.0
  0
LINE
  5
71C
330
1F
100
AcDbEntity
  8
2
100
AcDbLine
 10
-155.9999389648437
 20
-53.63876342773437
 30
0.0
 11
-155.9999389648437
 21
-68.3612060546875
 31
0.0
  0
LINE
  5
71D
330
1F
100
AcDbEntity
  8
2
100
AcDbLine
 10
-145.4999389648437
 20
-24.0
 30
0.0
 11
-145.4999389648437
 21
-98.0
 31
0.0
  0
LINE
  5
71E
330
1F
100
AcDbEntity
  8
2
100
AcDbLine
 10
-126.5
 20
0.0
 30
0.0
 11
-126.5
 21
-122.0
 31
0.0
  0
LINE
  5
71F
330
1F
100
AcDbEntity
  8
2
100
AcDbLine
 10
-146.5
 20
-25.0
 30
0.0
 11
-146.5
 21
-97.0
 31
0.0
  0
LINE
  5
720
330
1F
100
AcDbEntity
  8
2
100
AcDbLine
 10
-142.6439208984375
 20
-99.03033447265602
 30
0.0
 11
-135.4999389648437
 21
-99.03033447265602
 31
0.0
  0
LINE
  5
721
330
1F
100
AcDbEntity
  8
2
100
AcDbLine
 10
-142.6439208984375
 20
-104.515197753906
 30
0.0
 11
-135.4999389648437
 21
-104.515197753906
 31
0.0
  0
LINE
  5
722
330
1F
100
AcDbEntity
  8
2
100
AcDbLine
 10
-142.6439208984375
 20
-115.4848022460937
 30
0.0
 11
-135.4999389648437
 21
-115.4848022460937
 31
0.0
  0
LINE
  5
723
330
1F
100
AcDbEntity
  8
2
100
AcDbLine
 10
-142.6439208984375
 20
-120.9696655273437
 30
0.0
 11
-135.4999389648437
 21
-120.9696655273437
 31
0.0
  0
LINE
  5
724
330
1F
100
AcDbEntity
  8
2
100
AcDbLine
 10
-145.4999389648437
 20
-98.0
 30
0.0
 11
-133.4999389648437
 21
-98.0
 31
0.0
  0
ARC
  5
725
330
1F
100
AcDbEntity
  8
2
100
AcDbCircle
 10
-138.678955078125
 20
-118.2272338867187
 30
0.0
 40
4.821000576019287
100
AcDbArc
 50
145.3301150461273
 51
214.6698813114121
  0
LINE
  5
726
330
1F
100
AcDbEntity
  8
2
100
AcDbLine
 10
-145.4999389648437
 20
-99.41421508789062
 30
0.0
 11
-145.4999389648437
 21
-122.0
 31
0.0
  0
LINE
  5
727
330
1F
100
AcDbEntity
  8
2
100
AcDbLine
 10
-146.5
 20
-98.41424560546876
 30
0.0
 11
-146.5
 21
-121.0
 31
0.0
  0
LINE
  5
728
330
1F
100
AcDbEntity
  8
2
100
AcDbLine
 10
-146.4999748311138
 20
-120.9999771194384
 30
0.0
 11
-145.4999952894504
 21
-121.9999565768098
 31
0.0
  0
ARC
  5
729
330
1F
100
AcDbEntity
  8
2
100
AcDbCircle
 10
-138.678955078125
 20
-101.772766113281
 30
0.0
 40
4.821000576019287
100
AcDbArc
 50
145.3301150461273
 51
214.6698813114121
  0
LINE
  5
72A
330
1F
100
AcDbEntity
  8
2
100
AcDbLine
 10
-143.4999389648437
 20
-118.2272338867187
 30
0.0
 11
-143.4999389648437
 21
-101.772766113281
 31
0.0
  0
ARC
  5
72B
330
1F
100
AcDbEntity
  8
2
100
AcDbCircle
 10
-125.4999389648437
 20
-110.0
 30
0.0
 40
18.0
100
AcDbArc
 50
162.2591213946025
 51
197.7408749629318
  0
LINE
  5
72C
330
1F
100
AcDbEntity
  8
2
100
AcDbLine
 10
-145.4999436763796
 20
-98.00002404295582
 30
0.0
 11
-146.4999231337506
 21
-97.00004450129245
 31
0.0
  0
ARC
  5
72D
330
1F
100
AcDbEntity
  8
2
100
AcDbCircle
 10
-147.9999389648437
 20
-69.0
 30
0.0
 40
2.0
100
AcDbArc
 50
179.9999913485786
 51
270.000000683243
  0
LINE
  5
72E
330
1F
100
AcDbEntity
  8
2
100
AcDbLine
 10
-155.096435546875
 20
-70.81497192382812
 30
0.0
 11
-150.9035034179687
 21
-70.81497192382812
 31
0.0
  0
LINE
  5
72F
330
1F
100
AcDbEntity
  8
2
100
AcDbLine
 10
-155.096435546875
 20
-65.907470703125
 30
0.0
 11
-150.9034423828125
 21
-65.907470703125
 31
0.0
  0
LINE
  5
730
330
1F
100
AcDbEntity
  8
2
100
AcDbLine
 10
-155.096435546875
 20
-56.092529296875
 30
0.0
 11
-150.9034423828125
 21
-56.092529296875
 31
0.0
  0
ARC
  5
731
330
1F
100
AcDbEntity
  8
2
100
AcDbCircle
 10
-142.2208251953125
 20
-61.0
 30
0.0
 40
13.77916812896728
100
AcDbArc
 50
159.1359354343524
 51
200.8640609231935
  0
ARC
  5
732
330
1F
100
AcDbEntity
  8
2
100
AcDbCircle
 10
-152.21630859375
 20
-68.3612060546875
 30
0.0
 40
3.783614635467529
100
AcDbArc
 50
139.5701072360292
 51
220.4298891214967
  0
LINE
  5
733
330
1F
100
AcDbEntity
  8
2
100
AcDbLine
 10
-161.5
 20
-56.0
 30
0.0
 11
-161.5
 21
-66.0
 31
0.0
  0
LINE
  5
734
330
1F
100
AcDbEntity
  8
2
100
AcDbLine
 10
-161.5
 20
-56.0
 30
0.0
 11
-155.9999389648437
 21
-56.0
 31
0.0
  0
LINE
  5
735
330
1F
100
AcDbEntity
  8
2
100
AcDbLine
 10
-161.5
 20
-66.0
 30
0.0
 11
-155.9999389648437
 21
-66.0
 31
0.0
  0
ARC
  5
736
330
1F
100
AcDbEntity
  8
2
100
AcDbCircle
 10
-153.7835693359375
 20
-68.3612060546875
 30
0.0
 40
3.783614635467529
100
AcDbArc
 50
319.5701056421813
 51
40.42988752762302
  0
ARC
  5
737
330
1F
100
AcDbEntity
  8
2
100
AcDbCircle
 10
-163.7791137695312
 20
-61.0
 30
0.0
 40
13.77916812896728
100
AcDbArc
 50
339.1359423782233
 51
20.86406103688124
  0
LINE
  5
738
330
1F
100
AcDbEntity
  8
2
100
AcDbLine
 10
-147.9999389648437
 20
-71.0
 30
0.0
 11
-146.5
 21
-71.0
 31
0.0
  0
LINE
  5
739
330
1F
100
AcDbEntity
  8
2
100
AcDbLine
 10
-135.4999389648437
 20
-99.0
 30
0.0
 11
-135.4999389648437
 21
-121.0
 31
0.0
  0
LINE
  5
73A
330
1F
100
AcDbEntity
  8
2
100
AcDbLine
 10
-133.4999389648437
 20
-98.0
 30
0.0
 11
-133.4999389648437
 21
-122.0
 31
0.0
  0
LINE
  5
73B
330
1F
100
AcDbEntity
  8
2
100
AcDbLine
 10
-135.4999389648437
 20
-121.0
 30
0.0
 11
-133.4999389648437
 21
-121.0
 31
0.0
  0
LINE
  5
73C
330
1F
100
AcDbEntity
  8
2
100
AcDbLine
 10
-135.4999389648437
 20
-99.0
 30
0.0
 11
-133.4999389648437
 21
-99.0
 31
0.0
  0
CIRCLE
  5
73D
330
1F
100
AcDbEntity
  8
2
100
AcDbCircle
 10
-136.5
 20
-61.0
 30
0.0
 40
5.724287509918212
  0
LINE
  5
73E
330
1F
100
AcDbEntity
  8
2
100
AcDbLine
 10
-155.096435546875
 20
-51.18505859375
 30
0.0
 11
-150.9035034179687
 21
-51.18505859375
 31
0.0
  0
ARC
  5
73F
330
1F
100
AcDbEntity
  8
2
100
AcDbCircle
 10
-147.9999389648437
 20
-53.0
 30
0.0
 40
2.0
100
AcDbArc
 50
90.00000250446868
 51
180.0000050089569
  0
LINE
  5
740
330
1F
100
AcDbEntity
  8
2
100
AcDbLine
 10
-147.9999389648437
 20
-51.0
 30
0.0
 11
-146.5
 21
-51.0
 31
0.0
  0
ARC
  5
741
330
1F
100
AcDbEntity
  8
2
100
AcDbCircle
 10
121.7835998535156
 20
-53.63876342773437
 30
0.0
 40
3.783614635467529
100
AcDbArc
 50
139.5701072360292
 51
220.4298891214967
  0
ARC
  5
742
330
1F
100
AcDbEntity
  8
2
100
AcDbCircle
 10
120.2163696289062
 20
-53.63876342773437
 30
0.0
 40
3.783614635467529
100
AcDbArc
 50
319.5701056421813
 51
40.42988752762302
  0
CIRCLE
  5
743
330
1F
100
AcDbEntity
  8
2
100
AcDbCircle
 10
104.5
 20
-61.0
 30
0.0
 40
6.574872493743896
  0
LINE
  5
744
330
1F
100
AcDbEntity
  8
2
100
AcDbLine
 10
118.0000305175781
 20
-53.0
 30
0.0
 11
118.0000305175781
 21
-69.0
 31
0.0
  0
LINE
  5
745
330
1F
100
AcDbEntity
  8
2
100
AcDbLine
 10
124.0000305175781
 20
-53.63876342773437
 30
0.0
 11
124.0000305175781
 21
-68.3612060546875
 31
0.0
  0
LINE
  5
746
330
1F
100
AcDbEntity
  8
2
100
AcDbLine
 10
113.5000305175781
 20
-24.0
 30
0.0
 11
113.5000305175781
 21
-98.0
 31
0.0
  0
LINE
  5
747
330
1F
100
AcDbEntity
  8
2
100
AcDbLine
 10
94.49996948242187
 20
0.0
 30
0.0
 11
94.49996948242187
 21
-122.0
 31
0.0
  0
LINE
  5
748
330
1F
100
AcDbEntity
  8
2
100
AcDbLine
 10
114.5
 20
-25.0
 30
0.0
 11
114.5
 21
-97.0
 31
0.0
  0
LINE
  5
749
330
1F
100
AcDbEntity
  8
2
100
AcDbLine
 10
42.85598754882812
 20
-97.0947265625
 30
0.0
 11
89.85598754882813
 21
-97.0947265625
 31
0.0
  0
LINE
  5
74A
330
1F
100
AcDbEntity
  8
2
100
AcDbLine
 10
42.85598754882812
 20
-117.0947265625
 30
0.0
 11
89.85598754882813
 21
-117.0947265625
 31
0.0
  0
LINE
  5
74B
330
1F
100
AcDbEntity
  8
2
100
AcDbLine
 10
91.35598754882812
 20
-105.0947265625
 30
0.0
 11
41.35598754882813
 21
-105.0947265625
 31
0.0
  0
LINE
  5
74C
330
1F
100
AcDbEntity
  8
2
100
AcDbLine
 10
91.35598754882812
 20
-104.5947265625
 30
0.0
 11
41.35598754882813
 21
-104.5947265625
 31
0.0
  0
ARC
  5
74D
330
1F
100
AcDbEntity
  8
2
100
AcDbCircle
 10
106.6789855957031
 20
-118.2272338867187
 30
0.0
 40
4.821000576019287
100
AcDbArc
 50
325.3301134522901
 51
34.66988996283357
  0
LINE
  5
74E
330
1F
100
AcDbEntity
  8
2
100
AcDbLine
 10
103.5000305175781
 20
-99.0
 30
0.0
 11
103.5000305175781
 21
-121.0
 31
0.0
  0
LINE
  5
74F
330
1F
100
AcDbEntity
  8
2
100
AcDbLine
 10
114.5
 20
-98.41424560546876
 30
0.0
 11
114.5
 21
-121.0
 31
0.0
  0
LINE
  5
750
330
1F
100
AcDbEntity
  8
2
100
AcDbLine
 10
113.5000305175781
 20
-99.41421508789062
 30
0.0
 11
113.5000305175781
 21
-122.0
 31
0.0
  0
LINE
  5
751
330
1F
100
AcDbEntity
  8
2
100
AcDbLine
 10
101.5000305175781
 20
-98.0
 30
0.0
 11
101.5000305175781
 21
-122.0
 31
0.0
  0
LINE
  5
752
330
1F
100
AcDbEntity
  8
2
100
AcDbLine
 10
110.6440124511719
 20
-120.9696655273437
 30
0.0
 11
103.5000305175781
 21
-120.9696655273437
 31
0.0
  0
LINE
  5
753
330
1F
100
AcDbEntity
  8
2
100
AcDbLine
 10
103.5000305175781
 20
-121.0
 30
0.0
 11
101.5000305175781
 21
-121.0
 31
0.0
  0
LINE
  5
754
330
1F
100
AcDbEntity
  8
2
100
AcDbLine
 10
113.4999130442534
 20
-121.9999296997668
 30
0.0
 11
114.4999140808104
 21
-120.9999285789163
 31
0.0
  0
LINE
  5
755
330
1F
100
AcDbEntity
  8
2
100
AcDbLine
 10
91.35598754882812
 20
-98.5947265625
 30
0.0
 11
91.35598754882812
 21
-115.5947265625
 31
0.0
  0
ARC
  5
756
330
1F
100
AcDbEntity
  8
2
100
AcDbCircle
 10
89.85598754882813
 20
-115.5947265625
 30
0.0
 40
1.5
100
AcDbArc
 50
269.9999974955052
 51
0.0
  0
ARC
  5
757
330
1F
100
AcDbEntity
  8
2
100
AcDbCircle
 10
89.85598754882813
 20
-98.5947265625
 30
0.0
 40
1.5
100
AcDbArc
 50
0.0
 51
90.00000250446868
  0
ARC
  5
758
330
1F
100
AcDbEntity
  8
2
100
AcDbCircle
 10
106.6789855957031
 20
-101.772766113281
 30
0.0
 40
4.821000576019287
100
AcDbArc
 50
325.3301134522901
 51
34.66988996283357
  0
LINE
  5
759
330
1F
100
AcDbEntity
  8
2
100
AcDbLine
 10
111.5000305175781
 20
-118.2272338867187
 30
0.0
 11
111.5000305175781
 21
-101.772766113281
 31
0.0
  0
LINE
  5
75A
330
1F
100
AcDbEntity
  8
2
100
AcDbLine
 10
110.6440124511719
 20
-104.515197753906
 30
0.0
 11
103.5000305175781
 21
-104.515197753906
 31
0.0
  0
LINE
  5
75B
330
1F
100
AcDbEntity
  8
2
100
AcDbLine
 10
110.6440124511719
 20
-115.4848022460937
 30
0.0
 11
103.5000305175781
 21
-115.4848022460937
 31
0.0
  0
ARC
  5
75C
330
1F
100
AcDbEntity
  8
2
100
AcDbCircle
 10
93.50006103515625
 20
-110.0
 30
0.0
 40
18.0
100
AcDbArc
 50
342.2591215082964
 51
17.74087507660971
  0
LINE
  5
75D
330
1F
100
AcDbEntity
  8
2
100
AcDbLine
 10
110.6440124511719
 20
-99.03033447265602
 30
0.0
 11
103.5000305175781
 21
-99.03033447265602
 31
0.0
  0
LINE
  5
75E
330
1F
100
AcDbEntity
  8
2
100
AcDbLine
 10
113.5000305175781
 20
-98.0
 30
0.0
 11
101.5000305175781
 21
-98.0
 31
0.0
  0
LINE
  5
75F
330
1F
100
AcDbEntity
  8
2
100
AcDbLine
 10
103.5000305175781
 20
-99.0
 30
0.0
 11
101.5000305175781
 21
-99.0
 31
0.0
  0
LINE
  5
760
330
1F
100
AcDbEntity
  8
2
100
AcDbLine
 10
113.4999551911028
 20
-97.99994696924683
 30
0.0
 11
114.4999562276598
 21
-96.99994584839624
 31
0.0
  0
LINE
  5
761
330
1F
100
AcDbEntity
  8
2
100
AcDbLine
 10
123.0964660644531
 20
-70.81497192382812
 30
0.0
 11
118.9035034179687
 21
-70.81497192382812
 31
0.0
  0
LINE
  5
762
330
1F
100
AcDbEntity
  8
2
100
AcDbLine
 10
123.0964660644531
 20
-65.907470703125
 30
0.0
 11
118.9035034179687
 21
-65.907470703125
 31
0.0
  0
LINE
  5
763
330
1F
100
AcDbEntity
  8
2
100
AcDbLine
 10
123.0964660644531
 20
-56.092529296875
 30
0.0
 11
118.9035034179687
 21
-56.092529296875
 31
0.0
  0
ARC
  5
764
330
1F
100
AcDbEntity
  8
2
100
AcDbCircle
 10
116.0000305175781
 20
-69.0
 30
0.0
 40
2.0
100
AcDbArc
 50
269.9999974955052
 51
0.0
  0
CIRCLE
  5
765
330
1F
100
AcDbEntity
  8
2
100
AcDbCircle
 10
104.5
 20
-61.0
 30
0.0
 40
5.724287509918212
  0
ARC
  5
766
330
1F
100
AcDbEntity
  8
2
100
AcDbCircle
 10
121.7835998535156
 20
-68.3612060546875
 30
0.0
 40
3.783614635467529
100
AcDbArc
 50
139.5701072360292
 51
220.4298891214967
  0
ARC
  5
767
330
1F
100
AcDbEntity
  8
2
100
AcDbCircle
 10
131.7791748046875
 20
-61.0
 30
0.0
 40
13.77916812896728
100
AcDbArc
 50
159.1359354343524
 51
200.8640609231935
  0
LINE
  5
768
330
1F
100
AcDbEntity
  8
2
100
AcDbLine
 10
116.0000305175781
 20
-71.0
 30
0.0
 11
114.5
 21
-71.0
 31
0.0
  0
ARC
  5
769
330
1F
100
AcDbEntity
  8
2
100
AcDbCircle
 10
110.2208251953125
 20
-61.0
 30
0.0
 40
13.77916812896728
100
AcDbArc
 50
339.1359423782233
 51
20.86406103688124
  0
ARC
  5
76A
330
1F
100
AcDbEntity
  8
2
100
AcDbCircle
 10
120.2163696289062
 20
-68.3612060546875
 30
0.0
 40
3.783614635467529
100
AcDbArc
 50
319.5701056421813
 51
40.42988752762302
  0
LINE
  5
76B
330
1F
100
AcDbEntity
  8
2
100
AcDbLine
 10
129.5
 20
-56.0
 30
0.0
 11
129.5
 21
-66.0
 31
0.0
  0
LINE
  5
76C
330
1F
100
AcDbEntity
  8
2
100
AcDbLine
 10
129.5
 20
-56.0
 30
0.0
 11
124.0000305175781
 21
-56.0
 31
0.0
  0
LINE
  5
76D
330
1F
100
AcDbEntity
  8
2
100
AcDbLine
 10
129.5
 20
-66.0
 30
0.0
 11
124.0000305175781
 21
-66.0
 31
0.0
  0
LINE
  5
76E
330
1F
100
AcDbEntity
  8
2
100
AcDbLine
 10
123.0964660644531
 20
-51.18505859375
 30
0.0
 11
118.9035034179687
 21
-51.18505859375
 31
0.0
  0
ARC
  5
76F
330
1F
100
AcDbEntity
  8
2
100
AcDbCircle
 10
116.0000305175781
 20
-53.0
 30
0.0
 40
2.0
100
AcDbArc
 50
0.0
 51
90.00000250446868
  0
LINE
  5
770
330
1F
100
AcDbEntity
  8
2
100
AcDbLine
 10
116.0000305175781
 20
-51.0
 30
0.0
 11
114.5
 21
-51.0
 31
0.0
  0
LINE
  5
771
330
1F
100
AcDbEntity
  8
2
100
AcDbLine
 10
41.35598754882813
 20
-98.5947265625
 30
0.0
 11
41.35598754882813
 21
-115.5947265625
 31
0.0
  0
ARC
  5
772
330
1F
100
AcDbEntity
  8
2
100
AcDbCircle
 10
42.85598754882812
 20
-115.5947265625
 30
0.0
 40
1.5
100
AcDbArc
 50
179.9999913485786
 51
270.000000683243
  0
ARC
  5
773
330
1F
100
AcDbEntity
  8
2
100
AcDbCircle
 10
42.85598754882812
 20
-98.5947265625
 30
0.0
 40
1.5
100
AcDbArc
 50
90.00000250446868
 51
180.0000050089569
  0
LINE
  5
774
330
1F
100
AcDbEntity
  8
0
100
AcDbLine
 10
0.0001219999994646
 20
193.5557061919999
 30
0.0
 11
-8.499633899718901
 21
193.5556370606509
 31
0.0
  0
LINE
  5
775
330
1F
100
AcDbEntity
  8
2
100
AcDbLine
 10
-25.18736274541925
 20
178.3555721915027
 30
0.0
 11
-52.00007600000026
 21
178.3555721915027
 31
0.0
  0
LINE
  5
776
330
1F
100
AcDbEntity
  8
2
100
AcDbLine
 10
-25.18736274541925
 20
194.3556441915034
 30
0.0
 11
-52.00007600000026
 21
194.3556441915034
 31
0.0
  0
LINE
  5
777
330
1F
100
AcDbEntity
  8
2
100
AcDbLine
 10
-84.40010100000108
 20
202.0555955915033
 30
0.0
 11
-84.40010100000108
 21
130.8554951915039
 31
0.0
  0
LINE
  5
778
330
1F
100
AcDbEntity
  8
2
100
AcDbLine
 10
-67.6000520000016
 20
130.8554951915039
 30
0.0
 11
-84.40010100000108
 21
130.8554951915039
 31
0.0
  0
LINE
  5
779
330
1F
100
AcDbEntity
  8
2
100
AcDbLine
 10
-52.00007600000026
 20
202.0555955915033
 30
0.0
 11
-84.40010100000108
 21
202.0555955915033
 31
0.0
  0
LINE
  5
77A
330
1F
100
AcDbEntity
  8
2
100
AcDbLine
 10
-52.00007600000026
 20
156.6555141915041
 30
0.0
 11
-84.40010100000108
 21
156.6555141915041
 31
0.0
  0
LINE
  5
77B
330
1F
100
AcDbEntity
  8
2
100
AcDbLine
 10
-52.00007600000026
 20
202.0555955915033
 30
0.0
 11
-52.00007600000026
 21
156.6555141915041
 31
0.0
  0
LINE
  5
77C
330
1F
100
AcDbEntity
  8
0
100
AcDbLine
 10
23.79974837934788
 20
239.861620763825
 30
0.0
 11
30.29977890171904
 21
236.1088966306168
 31
0.0
  0
LINE
  5
77D
330
1F
100
AcDbEntity
  8
0
100
AcDbLine
 10
30.29977890171904
 20
236.1088966306168
 30
0.0
 11
30.29983994689064
 21
228.603342630865
 31
0.0
  0
LINE
  5
77E
330
1F
100
AcDbEntity
  8
0
100
AcDbLine
 10
30.29983994689064
 20
228.603342630865
 30
0.0
 11
27.9050471924511
 21
227.2206821531717
 31
0.0
  0
LINE
  5
77F
330
1F
100
AcDbEntity
  8
0
100
AcDbLine
 10
17.29977890214832
 20
236.108790897283
 30
0.0
 11
17.29980486867862
 21
232.916184897388
 31
0.0
  0
LINE
  5
780
330
1F
100
AcDbEntity
  8
0
100
AcDbLine
 10
23.79974837934788
 20
239.861620763825
 30
0.0
 11
17.29977890214832
 21
236.108790897283
 31
0.0
  0
LINE
  5
781
330
1F
100
AcDbEntity
  8
0
100
AcDbLine
 10
23.80013552608034
 20
192.2616127653991
 30
0.0
 11
30.30016604843513
 21
188.5088906321898
 31
0.0
  0
LINE
  5
782
330
1F
100
AcDbEntity
  8
0
100
AcDbLine
 10
30.30016604843513
 20
188.5088906321898
 30
0.0
 11
30.30022709360674
 21
181.0033366324396
 31
0.0
  0
LINE
  5
783
330
1F
100
AcDbEntity
  8
0
100
AcDbLine
 10
30.30022709362493
 20
181.0033346324389
 30
0.0
 11
23.800257616409
 21
177.2505067658958
 31
0.0
  0
LINE
  5
784
330
1F
100
AcDbEntity
  8
0
100
AcDbLine
 10
23.800257616409
 20
177.2505067658958
 30
0.0
 11
17.30022709403602
 21
181.0032308991058
 31
0.0
  0
LINE
  5
785
330
1F
100
AcDbEntity
  8
0
100
AcDbLine
 10
17.30016604886441
 20
188.5087848988578
 30
0.0
 11
17.30022709403602
 21
181.0032308991058
 31
0.0
  0
LINE
  5
786
330
1F
100
AcDbEntity
  8
0
100
AcDbLine
 10
23.80013552606215
 20
192.2616147653998
 30
0.0
 11
17.30016604886441
 21
188.5087848988578
 31
0.0
  0
LINE
  5
787
330
1F
100
AcDbEntity
  8
0
100
AcDbLine
 10
-18.04936938485844
 20
180.5701643890415
 30
0.0
 11
-23.79974838201633
 21
177.2501196191815
 31
0.0
  0
LINE
  5
788
330
1F
100
AcDbEntity
  8
0
100
AcDbLine
 10
-23.79974838201633
 20
177.2501196191815
 30
0.0
 11
-30.30016394399263
 21
181.0030656077605
 31
0.0
  0
LINE
  5
789
330
1F
100
AcDbEntity
  8
0
100
AcDbLine
 10
-25.2159848225183
 20
191.4436181009268
 30
0.0
 11
-30.30016394399263
 21
188.5082117448987
 31
0.0
  0
LINE
  5
78A
330
1F
100
AcDbEntity
  8
0
100
AcDbLine
 10
-23.80025761907746
 20
239.8612336171107
 30
0.0
 11
-17.30022709670629
 21
236.1085094839007
 31
0.0
  0
LINE
  5
78B
330
1F
100
AcDbEntity
  8
0
100
AcDbLine
 10
-17.30022709670629
 20
236.1085094839007
 30
0.0
 11
-17.30016605153469
 21
228.6029554841489
 31
0.0
  0
LINE
  5
78C
330
1F
100
AcDbEntity
  8
0
100
AcDbLine
 10
-17.30016605153469
 20
228.6029554841489
 30
0.0
 11
-23.80013552873243
 21
224.8501256176069
 31
0.0
  0
LINE
  5
78D
330
1F
100
AcDbEntity
  8
0
100
AcDbLine
 10
-23.80013552875062
 20
224.8501276176057
 30
0.0
 11
-30.30016394399263
 21
228.6028477086194
 31
0.0
  0
LINE
  5
78E
330
1F
100
AcDbEntity
  8
0
100
AcDbLine
 10
-23.80025761907746
 20
239.8612336171107
 30
0.0
 11
-30.30022498919061
 21
236.1084047916079
 31
0.0
  0
LINE
  5
78F
330
1F
100
AcDbEntity
  8
1
100
AcDbLine
 10
-23.79977697496179
 20
180.7656456190661
 30
0.0
 11
-23.79974842718912
 21
177.2556736191809
 31
0.0
  0
LINE
  5
790
330
1F
100
AcDbEntity
  8
1
100
AcDbLine
 10
32.08194257096148
 20
184.7561281238495
 30
0.0
 11
15.62877657150602
 21
184.7559943047663
 31
0.0
  0
LINE
  5
791
330
1F
100
AcDbEntity
  8
1
100
AcDbLine
 10
23.80012611090752
 20
193.4192157653624
 30
0.0
 11
23.80026736437867
 21
176.0519857659355
 31
0.0
  0
LINE
  5
792
330
1F
100
AcDbEntity
  8
1
100
AcDbLine
 10
31.99390142425
 20
232.3561334093564
 30
0.0
 11
27.98339142438272
 21
232.3561007905399
 31
0.0
  0
LINE
  5
793
330
1F
100
AcDbEntity
  8
1
100
AcDbLine
 10
23.7997353343435
 20
241.4655147637739
 30
0.0
 11
23.79980625386997
 21
232.7459007640617
 31
0.0
  0
LINE
  5
794
330
1F
100
AcDbEntity
  8
0
100
AcDbLine
 10
-42.00000000000182
 20
155.5555501915032
 30
0.0
 11
-42.00000000000182
 21
261.5555461915036
 31
0.0
  0
LINE
  5
795
330
1F
100
AcDbEntity
  8
0
100
AcDbLine
 10
-37.5
 20
155.5555501915032
 30
0.0
 11
-37.5
 21
261.5555461915036
 31
0.0
  0
LINE
  5
796
330
1F
100
AcDbEntity
  8
0
100
AcDbLine
 10
27.49999199999911
 20
155.5555501915032
 30
0.0
 11
-81.99106373219137
 21
155.5555501915032
 31
0.0
  0
LINE
  5
797
330
1F
100
AcDbEntity
  8
0
100
AcDbLine
 10
32.49998500000038
 20
160.5555421915042
 30
0.0
 11
32.49998500000038
 21
256.5555531915023
 31
0.0
  0
LINE
  5
798
330
1F
100
AcDbEntity
  8
0
100
AcDbLine
 10
-87.00000000000182
 20
160.5555421915042
 30
0.0
 11
-87.00000000000182
 21
256.5555531915023
 31
0.0
  0
LINE
  5
799
330
1F
100
AcDbEntity
  8
0
100
AcDbLine
 10
27.49999199999911
 20
261.5555461915036
 30
0.0
 11
-81.99164140341963
 21
261.5555461915036
 31
0.0
  0
LINE
  5
79A
330
1F
100
AcDbEntity
  8
1
100
AcDbLine
 10
-32.80259002006096
 20
232.3556063978925
 30
0.0
 11
-14.79780102065524
 21
232.3557528368423
 31
0.0
  0
LINE
  5
79B
330
1F
100
AcDbEntity
  8
0
100
AcDbLine
 10
-8.421981943982245
 20
196.1430466923075
 30
0.0
 11
-14.96052615320877
 21
207.4679251125208
 31
0.0
  0
LINE
  5
79C
330
1F
100
AcDbEntity
  8
0
100
AcDbLine
 10
6.538683999782733
 20
195.0557593723524
 30
0.0
 11
-6.537976099783918
 21
195.0556530155181
 31
0.0
  0
LINE
  5
79D
330
1F
100
AcDbEntity
  8
0
100
AcDbLine
 10
8.422077052922759
 20
196.1434956906532
 30
0.0
 11
14.96031584498996
 21
207.4682681687036
 31
0.0
  0
LINE
  5
79E
330
1F
100
AcDbEntity
  8
0
100
AcDbLine
 10
27.77362399908088
 20
223.5559320841412
 30
0.0
 11
-0.0001219999994646
 21
223.5557061910067
 31
0.0
  0
LINE
  5
79F
330
1F
100
AcDbEntity
  8
0
100
AcDbLine
 10
14.99999999950341
 20
208.5558281915046
 30
0.0
 11
14.99993086616996
 21
217.0558281912227
 31
0.0
  0
LINE
  5
7A0
330
1F
100
AcDbEntity
  8
0
100
AcDbLine
 10
14.9605801553007
 20
209.6432298709251
 30
0.0
 11
8.422036346079039
 21
220.9681076911429
 31
0.0
  0
LINE
  5
7A1
330
1F
100
AcDbEntity
  8
0
100
AcDbLine
 10
-6.538195699784409
 20
222.0556530146232
 30
0.0
 11
6.538464399782242
 21
222.0557593714593
 31
0.0
  0
LINE
  5
7A2
330
1F
100
AcDbEntity
  8
0
100
AcDbLine
 10
-14.96050484529951
 20
209.6431821127672
 30
0.0
 11
-8.42226685323294
 21
220.967954690811
 31
0.0
  0
LINE
  5
7A3
330
1F
100
AcDbEntity
  8
0
100
AcDbLine
 10
26.99992679910611
 20
217.5559257912055
 30
0.0
 11
26.99987799910559
 21
223.555925791009
 31
0.0
  0
LINE
  5
7A4
330
1F
100
AcDbEntity
  8
1
100
AcDbLine
 10
22.00021935310906
 20
211.5861509267206
 30
0.0
 11
22.00003413040577
 21
234.3594341259676
 31
0.0
  0
LINE
  5
7A5
330
1F
100
AcDbEntity
  8
0
100
AcDbLine
 10
26.99992679910611
 20
217.5559257912055
 30
0.0
 11
15.49992679948809
 21
217.5558322578736
 31
0.0
  0
LINE
  5
7A6
330
1F
100
AcDbEntity
  8
0
100
AcDbLine
 10
-14.99977410630527
 20
180.7818301924226
 30
0.0
 11
-14.99999999950523
 21
208.5555841915038
 31
0.0
  0
LINE
  5
7A7
330
1F
100
AcDbEntity
  8
0
100
AcDbLine
 10
-8.999780399637529
 20
181.5556249923966
 30
0.0
 11
-8.999873933034905
 21
193.0556329920173
 31
0.0
  0
LINE
  5
7A8
330
1F
100
AcDbEntity
  8
1
100
AcDbLine
 10
-4.995957264452954
 20
186.55541355699
 30
0.0
 11
-25.18739706378438
 21
186.5552493332807
 31
0.0
  0
LINE
  5
7A9
330
1F
100
AcDbEntity
  8
0
100
AcDbLine
 10
-14.99978039943926
 20
181.5555761923961
 30
0.0
 11
-8.999780399637529
 21
181.5556249923966
 31
0.0
  0
LINE
  5
7AA
330
1F
100
AcDbEntity
  8
0
100
AcDbLine
 10
-25.18743228215863
 20
190.8853773331366
 30
0.0
 11
-25.18736184541922
 21
182.2251223334233
 31
0.0
  0
LINE
  5
7AB
330
1F
100
AcDbEntity
  8
0
100
AcDbLine
 10
-24.68312802162655
 20
192.3287564348584
 30
0.0
 11
-21.18744402174161
 21
192.3287848664213
 31
0.0
  0
LINE
  5
7AC
330
1F
100
AcDbEntity
  8
0
100
AcDbLine
 10
-24.68303410598492
 20
180.78175143524
 30
0.0
 11
-21.18735010609999
 21
180.7817798668047
 31
0.0
  0
LINE
  5
7AD
330
1F
100
AcDbEntity
  8
0
100
AcDbLine
 10
-24.68310454270977
 20
189.4420044349544
 30
0.0
 11
-21.18742054282484
 21
189.4420328665173
 31
0.0
  0
LINE
  5
7AE
330
1F
100
AcDbEntity
  8
0
100
AcDbLine
 10
-24.68305758489441
 20
183.6685024351454
 30
0.0
 11
-21.18737358500948
 21
183.6685308667101
 31
0.0
  0
LINE
  5
7AF
330
1F
100
AcDbEntity
  8
0
100
AcDbLine
 10
-21.18744402174161
 20
192.3287848664213
 30
0.0
 11
-21.18735010609999
 21
180.7817798668047
 31
0.0
  0
LINE
  5
7B0
330
1F
100
AcDbEntity
  8
0
100
AcDbLine
 10
27.77358178707255
 20
228.7459330839711
 30
0.0
 11
16.22657778745451
 21
228.7458391683385
 31
0.0
  0
LINE
  5
7B1
330
1F
100
AcDbEntity
  8
0
100
AcDbLine
 10
19.11330035581886
 20
232.24154364713
 30
0.0
 11
19.11332878735811
 21
228.7458626472462
 31
0.0
  0
LINE
  5
7B2
330
1F
100
AcDbEntity
  8
0
100
AcDbLine
 10
24.8868023556297
 20
232.2415906049454
 30
0.0
 11
24.88683078716895
 21
228.7459096050616
 31
0.0
  0
LINE
  5
7B3
330
1F
100
AcDbEntity
  8
0
100
AcDbLine
 10
16.22654935591526
 20
232.2415201682223
 30
0.0
 11
16.22657778745451
 21
228.7458391683385
 31
0.0
  0
LINE
  5
7B4
330
1F
100
AcDbEntity
  8
0
100
AcDbLine
 10
27.7735533555333
 20
232.2416140838549
 30
0.0
 11
27.77358178707255
 21
228.7459330839711
 31
0.0
  0
LINE
  5
7B5
330
1F
100
AcDbEntity
  8
0
100
AcDbLine
 10
26.33017525378637
 20
232.7459213443971
 30
0.0
 11
17.66991925407274
 21
232.7458509076485
 31
0.0
  0
LINE
  5
7B6
330
1F
100
AcDbEntity
  8
0
100
AcDbLine
 10
-6.187413631079834
 20
188.5554038665441
 30
0.0
 11
-6.187381097746765
 21
184.5554038666769
 31
0.0
  0
LINE
  5
7B7
330
1F
100
AcDbEntity
  8
0
100
AcDbLine
 10
-21.1874214639156
 20
189.5552818665155
 30
0.0
 11
-18.99984546398991
 21
189.5552996587985
 31
0.0
  0
LINE
  5
7B8
330
1F
100
AcDbEntity
  8
0
100
AcDbLine
 10
-21.1873726639169
 20
183.555281866712
 30
0.0
 11
-18.99979666398758
 21
183.5552996589967
 31
0.0
  0
LINE
  5
7B9
330
1F
100
AcDbEntity
  8
0
100
AcDbLine
 10
-7.187421764379905
 20
189.5553957331785
 30
0.0
 11
-7.187372964381211
 21
183.555395733375
 31
0.0
  0
LINE
  5
7BA
330
1F
100
AcDbEntity
  8
0
100
AcDbLine
 10
-7.187373464379561
 20
183.5553957333732
 30
0.0
 11
-6.187381597746934
 21
184.5554038666732
 31
0.0
  0
LINE
  5
7BB
330
1F
100
AcDbEntity
  8
0
100
AcDbLine
 10
-7.187421264396107
 20
189.5553977331829
 30
0.0
 11
-6.187412631079496
 21
188.5554038665532
 31
0.0
  0
LINE
  5
7BC
330
1F
100
AcDbEntity
  8
0
100
AcDbLine
 10
-21.18741658391627
 20
188.9552818665352
 30
0.0
 11
-18.99984058398877
 21
188.9552996588199
 31
0.0
  0
LINE
  5
7BD
330
1F
100
AcDbEntity
  8
0
100
AcDbLine
 10
-21.18737754392532
 20
184.1552828666927
 30
0.0
 11
-18.99980154399782
 21
184.1553006589774
 31
0.0
  0
LINE
  5
7BE
330
1F
100
AcDbEntity
  8
0
100
AcDbLine
 10
-8.999845464320969
 20
189.5553809921321
 30
0.0
 11
-7.187421764379905
 21
189.5553957331785
 31
0.0
  0
LINE
  5
7BF
330
1F
100
AcDbEntity
  8
0
100
AcDbLine
 10
-8.999840584319827
 20
188.9553809921517
 30
0.0
 11
-6.587415984400649
 21
188.9554006132066
 31
0.0
  0
LINE
  5
7C0
330
1F
100
AcDbEntity
  8
0
100
AcDbLine
 10
-8.999801544328875
 20
184.155381992311
 30
0.0
 11
-6.587377444409867
 21
184.1554016133586
 31
0.0
  0
LINE
  5
7C1
330
1F
100
AcDbEntity
  8
0
100
AcDbLine
 10
-8.999796664318637
 20
183.5553809923321
 30
0.0
 11
-7.187373464379561
 21
183.5553957333732
 31
0.0
  0
LINE
  5
7C2
330
1F
100
AcDbEntity
  8
0
100
AcDbLine
 10
-18.49548158509788
 20
183.6685527607651
 30
0.0
 11
-14.99979758521294
 21
183.6685811923262
 31
0.0
  0
LINE
  5
7C3
330
1F
100
AcDbEntity
  8
0
100
AcDbLine
 10
-18.49552854291505
 20
189.4420547605723
 30
0.0
 11
-14.99984454303012
 21
189.4420831921352
 31
0.0
  0
LINE
  5
7C4
330
1F
100
AcDbEntity
  8
0
100
AcDbLine
 10
-18.49545810618838
 20
180.7818017608597
 30
0.0
 11
-14.99977410630527
 21
180.7818301924226
 31
0.0
  0
LINE
  5
7C5
330
1F
100
AcDbEntity
  8
0
100
AcDbLine
 10
-18.49555202183001
 20
192.3288067604762
 30
0.0
 11
-14.99986802194689
 21
192.328835192041
 31
0.0
  0
LINE
  5
7C6
330
1F
100
AcDbEntity
  8
0
100
AcDbLine
 10
-18.99985628236573
 20
190.8854276587544
 30
0.0
 11
-18.99978584562268
 21
182.2251726590411
 31
0.0
  0
LINE
  5
7C7
330
1F
100
AcDbEntity
  8
0
100
AcDbLine
 10
26.33021746579653
 20
227.5559203445673
 30
0.0
 11
17.66996146608107
 21
227.5558499078188
 31
0.0
  0
LINE
  5
7C8
330
1F
100
AcDbEntity
  8
0
100
AcDbLine
 10
25.00017079917234
 20
217.5559095265244
 30
0.0
 11
25.00019365383741
 21
214.7459096266166
 31
0.0
  0
LINE
  5
7C9
330
1F
100
AcDbEntity
  8
0
100
AcDbLine
 10
24.40017079919198
 20
217.5559046465232
 30
0.0
 11
24.40019853386366
 21
214.1459038466373
 31
0.0
  0
LINE
  5
7CA
330
1F
100
AcDbEntity
  8
0
100
AcDbLine
 10
19.11334256780356
 20
227.0515456473013
 30
0.0
 11
19.11337099936827
 21
223.5558616474163
 31
0.0
  0
LINE
  5
7CB
330
1F
100
AcDbEntity
  8
0
100
AcDbLine
 10
27.77359556751799
 20
227.0516160840261
 30
0.0
 11
27.77362399908088
 21
223.5559320841412
 31
0.0
  0
LINE
  5
7CC
330
1F
100
AcDbEntity
  8
0
100
AcDbLine
 10
16.22659156789996
 20
227.0515221683936
 30
0.0
 11
16.22661999946285
 21
223.5558381685087
 31
0.0
  0
LINE
  5
7CD
330
1F
100
AcDbEntity
  8
0
100
AcDbLine
 10
24.88684456761257
 20
227.0515926051185
 30
0.0
 11
24.88687299917547
 21
223.5559086052335
 31
0.0
  0
LINE
  5
7CE
330
1F
100
AcDbEntity
  8
0
100
AcDbLine
 10
19.6001717993513
 20
217.5558656065323
 30
0.0
 11
19.60019953401934
 21
214.1458653066447
 31
0.0
  0
LINE
  5
7CF
330
1F
100
AcDbEntity
  8
0
100
AcDbLine
 10
19.60008078734427
 20
228.745866606162
 30
0.0
 11
19.60009046601772
 21
227.5558656062012
 31
0.0
  0
LINE
  5
7D0
330
1F
100
AcDbEntity
  8
0
100
AcDbLine
 10
24.40007978718313
 20
228.745905646153
 30
0.0
 11
24.4000894658584
 21
227.5559046461922
 31
0.0
  0
LINE
  5
7D1
330
1F
100
AcDbEntity
  8
0
100
AcDbLine
 10
25.00019365384651
 20
214.7459086266163
 30
0.0
 11
24.00020178721206
 21
213.7459004933162
 31
0.0
  0
LINE
  5
7D2
330
1F
100
AcDbEntity
  8
0
100
AcDbLine
 10
19.00019365403386
 20
214.7458612266155
 30
0.0
 11
20.00020178733757
 21
213.7458689599835
 31
0.0
  0
LINE
  5
7D3
330
1F
100
AcDbEntity
  8
0
100
AcDbLine
 10
25.00019365383741
 20
214.7459096266166
 30
0.0
 11
19.00019365403568
 21
214.7458608266161
 31
0.0
  0
LINE
  5
7D4
330
1F
100
AcDbEntity
  8
0
100
AcDbLine
 10
19.00007978736357
 20
228.7458617261536
 30
0.0
 11
19.00008946603884
 21
227.5558607261928
 31
0.0
  0
LINE
  5
7D5
330
1F
100
AcDbEntity
  8
0
100
AcDbLine
 10
25.00007978716349
 20
228.7459105261541
 30
0.0
 11
25.00008946583875
 21
227.5559095261933
 31
0.0
  0
LINE
  5
7D6
330
1F
100
AcDbEntity
  8
0
100
AcDbLine
 10
24.00020178720479
 20
213.7459014933165
 30
0.0
 11
20.00020178733757
 21
213.7458689599835
 31
0.0
  0
LINE
  5
7D7
330
1F
100
AcDbEntity
  8
0
100
AcDbLine
 10
19.00017079937061
 20
217.5558607265239
 30
0.0
 11
19.00019365403386
 21
214.7458612266155
 31
0.0
  0
ARC
  5
7D8
330
1F
100
AcDbEntity
  8
0
100
AcDbCircle
 10
-0.0000000012423698
 20
208.5558587793939
 30
0.0
 40
17.5
100
AcDbArc
 50
60.2500220056515
 51
209.5649560056703
  0
ARC
  5
7D9
330
1F
100
AcDbEntity
  8
0
100
AcDbCircle
 10
23.7998094245213
 20
232.356066764073
 30
0.0
 40
6.5
100
AcDbArc
 50
308.8636960056962
 51
173.1504360056748
  0
CIRCLE
  5
7DA
330
1F
100
AcDbEntity
  8
0
100
AcDbCircle
 10
23.80019657123739
 20
184.7560607656478
 30
0.0
 40
6.5
  0
ARC
  5
7DB
330
1F
100
AcDbEntity
  8
0
100
AcDbCircle
 10
-23.79980942718976
 20
184.7556736189335
 30
0.0
 40
6.5
100
AcDbArc
 50
102.7185233390427
 51
321.4532760056589
  0
CIRCLE
  5
7DC
330
1F
100
AcDbEntity
  8
0
100
AcDbCircle
 10
-23.80019657390403
 20
232.3556796173587
 30
0.0
 40
6.5
  0
ARC
  5
7DD
330
1F
100
AcDbEntity
  8
0
100
AcDbCircle
 10
27.49999199999911
 20
256.5555531915023
 30
0.0
 40
5.0
100
AcDbArc
 50
0.0
 51
90.0
  0
ARC
  5
7DE
330
1F
100
AcDbEntity
  8
0
100
AcDbCircle
 10
-82.00000800000088
 20
256.5555531915023
 30
0.0
 40
5.0
100
AcDbArc
 50
89.90412582067024
 51
180.0
  0
ARC
  5
7DF
330
1F
100
AcDbEntity
  8
0
100
AcDbCircle
 10
-82.00000800000088
 20
160.5555421915042
 30
0.0
 40
5.0
100
AcDbArc
 50
180.0
 51
270.1024938138908
  0
ARC
  5
7E0
330
1F
100
AcDbEntity
  8
0
100
AcDbCircle
 10
27.49999199999911
 20
160.5555421915042
 30
0.0
 40
5.0
100
AcDbArc
 50
270.0
 51
0.0
  0
ARC
  5
7E1
330
1F
100
AcDbEntity
  8
0
100
AcDbCircle
 10
-0.0000000012423698
 20
208.5558587793939
 30
0.0
 40
17.5
100
AcDbArc
 50
239.7390960056664
 51
30.2624420056749
  0
CIRCLE
  5
7E2
330
1F
100
AcDbEntity
  8
0
100
AcDbCircle
 10
0.0
 20
208.5557061915033
 30
0.0
 40
15.0
  0
ARC
  5
7E3
330
1F
100
AcDbEntity
  8
0
100
AcDbCircle
 10
-8.499629833053404
 20
193.0556370606673
 30
0.0
 40
0.5
100
AcDbArc
 50
90.00046600564353
 51
180.0004660056566
  0
ARC
  5
7E4
330
1F
100
AcDbEntity
  8
0
100
AcDbCircle
 10
15.49993086615359
 20
217.0558322578882
 30
0.0
 40
0.5
100
AcDbArc
 50
90.00046600564353
 51
180.0004660056566
  0
ARC
  5
7E5
330
1F
100
AcDbEntity
  8
0
100
AcDbCircle
 10
-22.86970484549602
 20
182.2251411836996
 30
0.0
 40
2.317657899999999
100
AcDbArc
 50
141.4815460056694
 51
218.5193860056746
  0
ARC
  5
7E6
330
1F
100
AcDbEntity
  8
0
100
AcDbCircle
 10
-16.67324106406704
 20
186.5553185817489
 30
0.0
 40
8.514156299999999
100
AcDbArc
 50
160.1812760056938
 51
199.819656005672
  0
ARC
  5
7E7
330
1F
100
AcDbEntity
  8
0
100
AcDbCircle
 10
-22.86977528223542
 20
190.8853961834147
 30
0.0
 40
2.317657899999999
100
AcDbArc
 50
141.4815460056694
 51
218.5193860056746
  0
ARC
  5
7E8
330
1F
100
AcDbEntity
  8
0
100
AcDbCircle
 10
26.33019410408815
 20
230.4282613444728
 30
0.0
 40
2.317657899999999
100
AcDbArc
 50
51.48150800569258
 51
128.5194260056441
  0
ARC
  5
7E9
330
1F
100
AcDbEntity
  8
0
100
AcDbCircle
 10
22.00011650240595
 20
224.2317291263034
 30
0.0
 40
8.514156299999999
100
AcDbArc
 50
70.18127300566705
 51
109.8196560056695
  0
ARC
  5
7EA
330
1F
100
AcDbEntity
  8
0
100
AcDbCircle
 10
17.66993810437452
 20
230.4281909077225
 30
0.0
 40
2.317657899999999
100
AcDbArc
 50
51.48150800569258
 51
128.5194260056441
  0
ARC
  5
7EB
330
1F
100
AcDbEntity
  8
0
100
AcDbCircle
 10
-16.68219928243888
 20
190.8854465090326
 30
0.0
 40
2.317657899999999
100
AcDbArc
 50
141.4815460056694
 51
218.5193860056746
  0
ARC
  5
7EC
330
1F
100
AcDbEntity
  8
0
100
AcDbCircle
 10
-10.4856650642705
 20
186.5553689073667
 30
0.0
 40
8.514156299999999
100
AcDbArc
 50
160.1812760056938
 51
199.819656005672
  0
ARC
  5
7ED
330
1F
100
AcDbEntity
  8
0
100
AcDbCircle
 10
-16.6821288457013
 20
182.2251915093175
 30
0.0
 40
2.317657899999999
100
AcDbArc
 50
141.4815460056694
 51
218.5193860056746
  0
ARC
  5
7EE
330
1F
100
AcDbEntity
  8
0
100
AcDbCircle
 10
26.33023631607102
 20
225.2382633446441
 30
0.0
 40
2.317657899999999
100
AcDbArc
 50
51.48150800569258
 51
128.5194260056441
  0
ARC
  5
7EF
330
1F
100
AcDbEntity
  8
0
100
AcDbCircle
 10
22.00015871440701
 20
219.0417291264757
 30
0.0
 40
8.514156299999999
100
AcDbArc
 50
70.18127300566705
 51
109.8196560056695
  0
ARC
  5
7F0
330
1F
100
AcDbEntity
  8
0
100
AcDbCircle
 10
17.66998031635921
 20
225.2381929078956
 30
0.0
 40
2.317657899999999
100
AcDbArc
 50
51.48150800569258
 51
128.5194260056441
  0
CIRCLE
  5
7F1
330
1F
100
AcDbEntity
  8
0
100
AcDbCircle
 10
0.0
 20
208.5557061915033
 30
0.0
 40
7.5
  0
LINE
  5
7F2
330
1F
100
AcDbEntity
  8
1
100
AcDbLine
 10
0.0
 20
149.5800299237899
 30
0.0
 11
0.0
 21
270.455015898772
 31
0.0
  0
LINE
  5
7F3
330
1F
100
AcDbEntity
  8
0
100
AcDbLine
 10
7.000007200001164
 20
208.5555648968457
 30
0.0
 11
3.999998800000867
 21
206.8235092882369
 31
0.0
  0
LINE
  5
7F4
330
1F
100
AcDbEntity
  8
0
100
AcDbLine
 10
-4.000013799998669
 20
210.2876033882367
 30
0.0
 11
-7.000022400000489
 21
208.5555477903126
 31
0.0
  0
LINE
  5
7F5
330
1F
100
AcDbEntity
  8
0
100
AcDbLine
 10
-3.99999999999909
 20
209.8055832882383
 30
0.0
 11
-3.99999999999909
 21
210.2876389882385
 31
0.0
  0
LINE
  5
7F6
330
1F
100
AcDbEntity
  8
0
100
AcDbLine
 10
4.000000000000909
 20
209.8055832882383
 30
0.0
 11
4.000000000000909
 21
210.2876389882385
 31
0.0
  0
LINE
  5
7F7
330
1F
100
AcDbEntity
  8
0
100
AcDbLine
 10
4.000000000000909
 20
206.823527588238
 30
0.0
 11
4.000000000000909
 21
207.3055832882364
 31
0.0
  0
LINE
  5
7F8
330
1F
100
AcDbEntity
  8
0
100
AcDbLine
 10
-3.99999999999909
 20
206.823527588238
 30
0.0
 11
-3.99999999999909
 21
207.3055832882364
 31
0.0
  0
LINE
  5
7F9
330
1F
100
AcDbEntity
  8
0
100
AcDbLine
 10
-3.999995899998793
 20
206.8235497882361
 30
0.0
 11
-6.999997599999005
 21
208.5556014945487
 31
0.0
  0
LINE
  5
7FA
330
1F
100
AcDbEntity
  8
0
100
AcDbLine
 10
7.000001900000825
 20
208.5556015541533
 30
0.0
 11
4.000003300000571
 21
210.2876515882363
 31
0.0
  0
LINE
  5
7FB
330
1F
100
AcDbEntity
  8
0
100
AcDbLine
 10
-3.99999999999909
 20
207.3055832882364
 30
0.0
 11
4.000000000000909
 21
207.3055832882364
 31
0.0
  0
LINE
  5
7FC
330
1F
100
AcDbEntity
  8
0
100
AcDbLine
 10
-3.99999999999909
 20
209.8055832882383
 30
0.0
 11
4.000000000000909
 21
209.8055832882383
 31
0.0
  0
LINE
  5
7FD
330
1F
100
AcDbEntity
  8
2
100
AcDbLine
 10
-25.18736274541925
 20
178.3555721915027
 30
0.0
 11
-25.18736274541925
 21
194.3556441915034
 31
0.0
  0
LINE
  5
7FE
330
1F
100
AcDbEntity
  8
2
100
AcDbLine
 10
-67.6000520000016
 20
156.6555141915041
 30
0.0
 11
-67.6000520000016
 21
130.8554951915039
 31
0.0
  0
LINE
  5
7FF
330
1F
100
AcDbEntity
  8
1
100
AcDbLine
 10
-23.80012230088323
 20
223.3532851176645
 30
0.0
 11
-23.80026873983297
 21
241.3580741170702
 31
0.0
  0
LINE
  5
800
330
1F
100
AcDbEntity
  8
0
100
AcDbLine
 10
-30.30022498919061
 20
236.1084047916079
 30
0.0
 11
-30.30016394399263
 21
228.6028477086194
 31
0.0
  0
LINE
  5
801
330
1F
100
AcDbEntity
  8
0
100
AcDbLine
 10
-30.30016394399263
 20
181.0030656077605
 30
0.0
 11
-30.30016394399263
 21
188.5082117448987
 31
0.0
  0
LINE
  5
802
330
1F
100
AcDbEntity
  8
2
100
AcDbLine
 10
-25.1878691324323
 20
238.7551720417255
 30
0.0
 11
-52.00058238324391
 21
238.7547224490193
 31
0.0
  0
LINE
  5
803
330
1F
100
AcDbEntity
  8
2
100
AcDbLine
 10
-25.18760084493761
 20
222.7551000439742
 30
0.0
 11
-52.00031409574922
 21
222.7546504512679
 31
0.0
  0
LINE
  5
804
330
1F
100
AcDbEntity
  8
2
100
AcDbLine
 10
-84.4002099792342
 20
215.054155772199
 30
0.0
 11
-84.40140385489712
 21
286.2542561621888
 31
0.0
  0
LINE
  5
805
330
1F
100
AcDbEntity
  8
2
100
AcDbLine
 10
-67.60135485725959
 20
286.2545378636124
 30
0.0
 11
-84.40140385489712
 21
286.2542561621888
 31
0.0
  0
LINE
  5
806
330
1F
100
AcDbEntity
  8
2
100
AcDbLine
 10
-52.00018498378813
 20
215.0546990523505
 30
0.0
 11
-84.4002099792342
 21
215.054155772199
 31
0.0
  0
LINE
  5
807
330
1F
100
AcDbEntity
  8
2
100
AcDbLine
 10
-52.00094624749408
 20
260.4547804459672
 30
0.0
 11
-84.40097124294016
 21
260.4542371658157
 31
0.0
  0
LINE
  5
808
330
1F
100
AcDbEntity
  8
2
100
AcDbLine
 10
-52.00018498378813
 20
215.0546990523505
 30
0.0
 11
-52.00094624749408
 21
260.4547804459672
 31
0.0
  0
LINE
  5
809
330
1F
100
AcDbEntity
  8
2
100
AcDbLine
 10
-25.1878691324323
 20
238.7551720417255
 30
0.0
 11
-25.18760084493761
 21
222.7551000439742
 31
0.0
  0
LINE
  5
80A
330
1F
100
AcDbEntity
  8
2
100
AcDbLine
 10
-67.60092224530217
 20
260.4545188672392
 30
0.0
 11
-67.60135485725959
 21
286.2545378636124
 31
0.0
  0
CIRCLE
  5
80B
330
1F
100
AcDbEntity
  8
0
100
AcDbCircle
 10
-56.00001499999962
 20
196.0554272882382
 30
0.0
 40
2.0
  0
CIRCLE
  5
80C
330
1F
100
AcDbEntity
  8
0
100
AcDbCircle
 10
-56.00001499999962
 20
196.0554272882382
 30
0.0
 40
1.5
  0
CIRCLE
  5
80D
330
1F
100
AcDbEntity
  8
0
100
AcDbCircle
 10
-56.00001499999962
 20
162.655482288239
 30
0.0
 40
2.0
  0
CIRCLE
  5
80E
330
1F
100
AcDbEntity
  8
0
100
AcDbCircle
 10
-56.00001499999962
 20
162.655482288239
 30
0.0
 40
1.5
  0
CIRCLE
  5
80F
330
1F
100
AcDbEntity
  8
0
100
AcDbCircle
 10
-56.00001499999962
 20
221.0540493611916
 30
0.0
 40
2.0
  0
CIRCLE
  5
810
330
1F
100
AcDbEntity
  8
0
100
AcDbCircle
 10
-56.00001499999962
 20
221.0540493611916
 30
0.0
 40
1.5
  0
CIRCLE
  5
811
330
1F
100
AcDbEntity
  8
0
100
AcDbCircle
 10
-56.00001499999962
 20
254.4539943611906
 30
0.0
 40
2.0
  0
CIRCLE
  5
812
330
1F
100
AcDbEntity
  8
0
100
AcDbCircle
 10
-56.00001499999962
 20
254.4539943611906
 30
0.0
 40
1.5
  0
ARC
  5
813
330
1F
100
AcDbEntity
  8
0
100
AcDbCircle
 10
26.00000003009109
 20
19.99987003009096
 30
0.0
 40
0.9999999699089133
100
AcDbArc
 50
359.9999982759077
 51
90.00000172411835
  0
ARC
  5
814
330
1F
100
AcDbEntity
  8
0
100
AcDbCircle
 10
25.99999996180668
 20
11.99987003819319
 30
0.0
 40
1.000000038193264
100
AcDbArc
 50
270.000002188316
 51
359.9999978116839
  0
ARC
  5
815
330
1F
100
AcDbEntity
  8
0
100
AcDbCircle
 10
-12.55133971537225
 20
18.49981000000002
 30
0.0
 40
6.448657334627798
100
AcDbArc
 50
157.1899301247558
 51
202.8100698752442
  0
ARC
  5
816
330
1F
100
AcDbEntity
  8
0
100
AcDbCircle
 10
-12.55133971537225
 20
13.49981000000002
 30
0.0
 40
6.448657334627798
100
AcDbArc
 50
157.1899301247558
 51
202.8100698752442
  0
ARC
  5
817
330
1F
100
AcDbEntity
  8
0
100
AcDbCircle
 10
-18.7389597153724
 20
18.49981000000002
 30
0.0
 40
6.448657334627798
100
AcDbArc
 50
157.1899301247558
 51
202.8100698752442
  0
ARC
  5
818
330
1F
100
AcDbEntity
  8
0
100
AcDbCircle
 10
-18.7389597153724
 20
13.49981000000002
 30
0.0
 40
6.448657334627798
100
AcDbArc
 50
157.1899301247558
 51
202.8100698752442
  0
ARC
  5
819
330
1F
100
AcDbEntity
  8
0
100
AcDbCircle
 10
-12.99999999189777
 20
5.499870008102107
 30
0.0
 40
2.000000008102233
100
AcDbArc
 50
180.0000002321119
 51
269.9999997679011
  0
ARC
  5
81A
330
1F
100
AcDbEntity
  8
0
100
AcDbCircle
 10
12.99999992361336
 20
5.499870076386514
 30
0.0
 40
2.000000076386529
100
AcDbArc
 50
270.000002188316
 51
359.9999978116839
  0
ARC
  5
81B
330
1F
100
AcDbEntity
  8
0
100
AcDbCircle
 10
14.00000003009109
 20
28.99981003009111
 30
0.0
 40
0.9999999699089133
100
AcDbArc
 50
359.9999982759077
 51
90.00000172411835
  0
ARC
  5
81C
330
1F
100
AcDbEntity
  8
0
100
AcDbCircle
 10
-13.99999997887789
 20
28.99980997887792
 30
0.0
 40
1.000000021122218
100
AcDbArc
 50
90.00000121020747
 51
179.9999987897925
  0
ARC
  5
81D
330
1F
100
AcDbEntity
  8
0
100
AcDbCircle
 10
-43.65686161057101
 20
3.500006370919663
 30
0.0
 40
3.99999362908066
100
AcDbArc
 50
45.00002044459934
 51
89.99997693023775
  0
ARC
  5
81E
330
1F
100
AcDbEntity
  8
0
100
AcDbCircle
 10
-37.08581854333943
 20
3.999993257508322
 30
0.0
 40
3.999993257508587
100
AcDbArc
 50
225.0000182400146
 51
269.9999791348643
  0
ARC
  5
81F
330
1F
100
AcDbEntity
  8
0
100
AcDbCircle
 10
-37.08582549989933
 20
4.000002263874193
 30
0.0
 40
1.000002263889318
100
AcDbArc
 50
225.0003145426407
 51
270.0003151203282
  0
ARC
  5
820
330
1F
100
AcDbEntity
  8
0
100
AcDbCircle
 10
-43.65687159040771
 20
3.500004760747515
 30
0.0
 40
0.9999952393196538
100
AcDbArc
 50
44.99933754233012
 51
89.99933591537914
  0
ARC
  5
821
330
1F
100
AcDbEntity
  8
0
100
AcDbCircle
 10
27.04998500000011
 20
2.851988624090097
 30
0.0
 40
7.647985290938619
100
AcDbArc
 50
64.85263669116676
 51
115.1473633088332
  0
ARC
  5
822
330
1F
100
AcDbEntity
  8
0
100
AcDbCircle
 10
-27.05004823970739
 20
2.851986722911988
 30
0.0
 40
7.64799705708788
100
AcDbArc
 50
64.85263669116676
 51
115.1473633088332
  0
ARC
  5
823
330
1F
100
AcDbEntity
  8
0
100
AcDbCircle
 10
-20.55004823970739
 20
2.851986722911988
 30
0.0
 40
7.64799705708788
100
AcDbArc
 50
64.85263669116676
 51
115.1473633088332
  0
ARC
  5
824
330
1F
100
AcDbEntity
  8
0
100
AcDbCircle
 10
20.54998500000011
 20
2.851988624090097
 30
0.0
 40
7.647985290938619
100
AcDbArc
 50
64.85263669116676
 51
115.1473633088332
  0
LINE
  5
825
330
1F
100
AcDbEntity
  8
0
100
AcDbLine
 10
32.4999499999999
 20
0.0
 30
0.0
 11
-37.08582000000024
 21
0.0
 31
0.0
  0
LINE
  5
826
330
1F
100
AcDbEntity
  8
1
100
AcDbLine
 10
22.00024000000031
 20
23.29137999999989
 30
0.0
 11
22.00024000000031
 21
8.572689999999965
 31
0.0
  0
LINE
  5
827
330
1F
100
AcDbEntity
  8
0
100
AcDbLine
 10
27.0
 20
19.99986999999987
 30
0.0
 11
27.0
 21
11.99986999999987
 31
0.0
  0
LINE
  5
828
330
1F
100
AcDbEntity
  8
1
100
AcDbLine
 10
28.66888000000017
 20
15.99986999999987
 30
0.0
 11
15.38182999999981
 21
15.99986999999987
 31
0.0
  0
LINE
  5
829
330
1F
100
AcDbEntity
  8
0
100
AcDbLine
 10
26.0
 20
10.99986999999987
 30
0.0
 11
15.00000999999975
 21
10.99986999999987
 31
0.0
  0
LINE
  5
82A
330
1F
100
AcDbEntity
  8
0
100
AcDbLine
 10
26.0
 20
20.99986999999988
 30
0.0
 11
8.421760000000176
 21
20.99986999999988
 31
0.0
  0
LINE
  5
82B
330
1F
100
AcDbEntity
  8
0
100
AcDbLine
 10
6.538340000000061
 20
20.99986999999988
 30
0.0
 11
-6.538390000000163
 21
20.99986999999988
 31
0.0
  0
LINE
  5
82C
330
1F
100
AcDbEntity
  8
0
100
AcDbLine
 10
-11.49999000000025
 20
3.499869999999873
 30
0.0
 11
-11.49999000000025
 21
2.999990000000025
 31
0.0
  0
LINE
  5
82D
330
1F
100
AcDbEntity
  8
0
100
AcDbLine
 10
11.50000999999974
 20
3.499859999999898
 30
0.0
 11
11.50000999999974
 21
2.999990000000025
 31
0.0
  0
LINE
  5
82E
330
1F
100
AcDbEntity
  8
0
100
AcDbLine
 10
-18.49571999999989
 20
10.99986999999987
 30
0.0
 11
-8.999780399637529
 21
10.99986999999987
 31
0.0
  0
LINE
  5
82F
330
1F
100
AcDbEntity
  8
0
100
AcDbLine
 10
-12.99999000000025
 20
3.499869999999873
 30
0.0
 11
13.00000999999975
 21
3.499859999999898
 31
0.0
  0
LINE
  5
830
330
1F
100
AcDbEntity
  8
0
100
AcDbLine
 10
-18.49571999999989
 20
15.99986999999987
 30
0.0
 11
-14.99999000000025
 21
15.99986999999987
 31
0.0
  0
LINE
  5
831
330
1F
100
AcDbEntity
  8
0
100
AcDbLine
 10
-18.99999000000025
 20
13.49986999999987
 30
0.0
 11
-18.99999000000025
 21
18.49986999999987
 31
0.0
  0
LINE
  5
832
330
1F
100
AcDbEntity
  8
0
100
AcDbLine
 10
-21.18760999999995
 20
10.99986999999987
 30
0.0
 11
-21.18760999999995
 21
20.99986999999988
 31
0.0
  0
LINE
  5
833
330
1F
100
AcDbEntity
  8
0
100
AcDbLine
 10
-24.6832800000002
 20
20.99986999999988
 30
0.0
 11
-21.18760999999995
 21
20.99986999999988
 31
0.0
  0
LINE
  5
834
330
1F
100
AcDbEntity
  8
0
100
AcDbLine
 10
-24.6832800000002
 20
15.99986999999987
 30
0.0
 11
-21.18760999999995
 21
15.99986999999987
 31
0.0
  0
LINE
  5
835
330
1F
100
AcDbEntity
  8
0
100
AcDbLine
 10
-24.6832800000002
 20
10.99986999999987
 30
0.0
 11
-21.18760999999995
 21
10.99986999999987
 31
0.0
  0
LINE
  5
836
330
1F
100
AcDbEntity
  8
0
100
AcDbLine
 10
-21.18760999999995
 20
18.99986999999987
 30
0.0
 11
-18.99999000000025
 21
18.99986999999987
 31
0.0
  0
LINE
  5
837
330
1F
100
AcDbEntity
  8
0
100
AcDbLine
 10
-21.18760999999995
 20
12.99986999999987
 30
0.0
 11
-18.99999000000025
 21
12.99986999999987
 31
0.0
  0
LINE
  5
838
330
1F
100
AcDbEntity
  8
0
100
AcDbLine
 10
-21.18760999999995
 20
18.39983000000006
 30
0.0
 11
-18.99999000000025
 21
18.39983000000006
 31
0.0
  0
LINE
  5
839
330
1F
100
AcDbEntity
  8
0
100
AcDbLine
 10
-21.18760999999995
 20
13.59984000000008
 30
0.0
 11
-18.99999000000025
 21
13.59984000000008
 31
0.0
  0
LINE
  5
83A
330
1F
100
AcDbEntity
  8
0
100
AcDbLine
 10
-8.421809999999823
 20
20.99986999999988
 30
0.0
 11
-18.49571999999989
 21
20.99986999999988
 31
0.0
  0
LINE
  5
83B
330
1F
100
AcDbEntity
  8
0
100
AcDbLine
 10
-6.538379999999961
 20
29.99986999999988
 30
0.0
 11
-6.538379999999961
 21
20.99986999999988
 31
0.0
  0
LINE
  5
83C
330
1F
100
AcDbEntity
  8
0
100
AcDbLine
 10
-8.421809999999823
 20
29.99986999999988
 30
0.0
 11
-8.421809999999823
 21
20.99986999999988
 31
0.0
  0
LINE
  5
83D
330
1F
100
AcDbEntity
  8
0
100
AcDbLine
 10
6.538340000000061
 20
29.9998599999999
 30
0.0
 11
6.538340000000061
 21
20.9998599999999
 31
0.0
  0
LINE
  5
83E
330
1F
100
AcDbEntity
  8
0
100
AcDbLine
 10
8.421760000000176
 20
29.9998599999999
 30
0.0
 11
8.421760000000176
 21
20.9998599999999
 31
0.0
  0
LINE
  5
83F
330
1F
100
AcDbEntity
  8
0
100
AcDbLine
 10
15.00000999999975
 20
28.9998599999999
 30
0.0
 11
15.00000999999975
 21
5.499859999999898
 31
0.0
  0
LINE
  5
840
330
1F
100
AcDbEntity
  8
0
100
AcDbLine
 10
-14.99999000000025
 20
28.99986999999987
 30
0.0
 11
-14.99999000000025
 21
5.499869999999873
 31
0.0
  0
LINE
  5
841
330
1F
100
AcDbEntity
  8
0
100
AcDbLine
 10
14.00000999999974
 20
29.9998599999999
 30
0.0
 11
-13.99999000000025
 21
29.99986999999988
 31
0.0
  0
LINE
  5
842
330
1F
100
AcDbEntity
  8
0
100
AcDbLine
 10
-43.65684999999984
 20
7.499990000000025
 30
0.0
 11
-86.99999000000024
 21
7.499990000000025
 31
0.0
  0
LINE
  5
843
330
1F
100
AcDbEntity
  8
0
100
AcDbLine
 10
32.4999499999999
 20
2.99998000000005
 30
0.0
 11
-37.08581000000004
 21
2.999990000000025
 31
0.0
  0
LINE
  5
844
330
1F
100
AcDbEntity
  8
0
100
AcDbLine
 10
-43.65684999999984
 20
4.499990000000025
 30
0.0
 11
-86.99999000000024
 21
4.499990000000025
 31
0.0
  0
LINE
  5
845
330
1F
100
AcDbEntity
  8
0
100
AcDbLine
 10
32.4999499999999
 20
2.99998000000005
 30
0.0
 11
32.4999499999999
 21
0.0
 31
0.0
  0
LINE
  5
846
330
1F
100
AcDbEntity
  8
0
100
AcDbLine
 10
-86.99999000000024
 20
7.499990000000025
 30
0.0
 11
-86.99999000000024
 21
4.499990000000025
 31
0.0
  0
LINE
  5
847
330
1F
100
AcDbEntity
  8
0
100
AcDbLine
 10
-37.79295000000002
 20
3.292889999999943
 30
0.0
 11
-40.82844999999998
 21
6.328389999999899
 31
0.0
  0
LINE
  5
848
330
1F
100
AcDbEntity
  8
0
100
AcDbLine
 10
-39.91424999999981
 20
1.171559999999999
 30
0.0
 11
-42.94974999999976
 21
4.207059999999955
 31
0.0
  0
LINE
  5
849
330
1F
100
AcDbEntity
  8
1
100
AcDbLine
 10
23.80000000000018
 20
11.36174000000005
 30
0.0
 11
23.79998999999998
 21
-0.0000099999999748
 31
0.0
  0
LINE
  5
84A
330
1F
100
AcDbEntity
  8
1
100
AcDbLine
 10
-23.80004000000008
 20
10.49986999999987
 30
0.0
 11
-23.80004000000008
 21
-0.0000099999999748
 31
0.0
  0
LINE
  5
84B
330
1F
100
AcDbEntity
  8
0
100
AcDbLine
 10
-27.05003823970765
 20
10.49999000000002
 30
0.0
 11
-20.55003823970765
 21
10.49999000000002
 31
0.0
  0
LINE
  5
84C
330
1F
100
AcDbEntity
  8
0
100
AcDbLine
 10
-30.30003823970765
 20
9.775139999999964
 30
0.0
 11
-30.30003823970765
 21
4.999990000000025
 31
0.0
  0
LINE
  5
84D
330
1F
100
AcDbEntity
  8
0
100
AcDbLine
 10
-17.30003823970764
 20
9.775139999999964
 30
0.0
 11
-17.30003823970764
 21
4.999990000000025
 31
0.0
  0
LINE
  5
84E
330
1F
100
AcDbEntity
  8
0
100
AcDbLine
 10
23.79998999999998
 20
9.775121250250037
 30
0.0
 11
23.79998999999998
 21
4.999981250250073
 31
0.0
  0
LINE
  5
84F
330
1F
100
AcDbEntity
  8
0
100
AcDbLine
 10
20.54998999999998
 20
10.49998125025007
 30
0.0
 11
27.04998999999998
 21
10.49998125025007
 31
0.0
  0
LINE
  5
850
330
1F
100
AcDbEntity
  8
0
100
AcDbLine
 10
17.29998999999998
 20
9.775121250250037
 30
0.0
 11
17.29998999999998
 21
4.999981250250073
 31
0.0
  0
LINE
  5
851
330
1F
100
AcDbEntity
  8
0
100
AcDbLine
 10
30.29998999999998
 20
9.775121250250037
 30
0.0
 11
30.29998999999998
 21
4.999971250250098
 31
0.0
  0
LINE
  5
852
330
1F
100
AcDbEntity
  8
2
100
AcDbLine
 10
-52.0000500000001
 20
30.49999000000003
 30
0.0
 11
-52.0000500000001
 21
7.499990000000025
 31
0.0
  0
LINE
  5
853
330
1F
100
AcDbEntity
  8
2
100
AcDbLine
 10
-25.18760999999995
 20
8.499990000000025
 30
0.0
 11
-52.0000500000001
 21
8.499990000000025
 31
0.0
  0
LINE
  5
854
330
1F
100
AcDbEntity
  8
2
100
AcDbLine
 10
-25.18760999999995
 20
24.49999000000003
 30
0.0
 11
-52.0000500000001
 21
24.49999000000003
 31
0.0
  0
LINE
  5
855
330
1F
100
AcDbEntity
  8
2
100
AcDbLine
 10
-84.40007999999989
 20
30.49999000000003
 30
0.0
 11
-84.40007999999989
 21
7.499990000000025
 31
0.0
  0
LINE
  5
856
330
1F
100
AcDbEntity
  8
2
100
AcDbLine
 10
-52.0000500000001
 20
30.49999000000003
 30
0.0
 11
-84.40007999999989
 21
30.49999000000003
 31
0.0
  0
CIRCLE
  5
857
330
1F
100
AcDbEntity
  8
2
100
AcDbCircle
 10
-76.00005999999985
 20
16.5
 30
0.0
 40
8.0
  0
LINE
  5
858
330
1F
100
AcDbEntity
  8
0
100
AcDbLine
 10
-25.18761704748795
 20
18.49999000000002
 30
0.0
 11
-25.18761704748795
 21
13.49963000038889
 31
0.0
  0
LINE
  5
859
330
1F
100
AcDbEntity
  8
2
100
AcDbLine
 10
-25.18760999999995
 20
8.499990000000025
 30
0.0
 11
-25.18760999999995
 21
24.49999000000003
 31
0.0
  0
LINE
  5
85A
330
1F
100
AcDbEntity
  8
2
100
AcDbLine
 10
-52.0000500000001
 20
7.499990000000025
 30
0.0
 11
-84.40007999999989
 21
7.499990000000025
 31
0.0
  0
LINE
  5
85B
330
1F
100
AcDbEntity
  8
0
100
AcDbLine
 10
-8.999780399637529
 20
10.99986999999987
 30
0.0
 11
-8.999780399637529
 21
20.99986999999988
 31
0.0
  0
CIRCLE
  5
85C
330
1F
100
AcDbEntity
  8
0
100
AcDbCircle
 10
22.13210195010288
 20
15.99987344827559
 30
0.0
 40
3.00000000009777
  0
LINE
  5
85D
330
1F
100
AcDbEntity
  8
0
100
AcDbLine
 10
-6.187413631079834
 20
17.99989287431259
 30
0.0
 11
-6.187381097746765
 21
13.99989287444538
 31
0.0
  0
LINE
  5
85E
330
1F
100
AcDbEntity
  8
0
100
AcDbLine
 10
-7.187421764379905
 20
18.99988474094704
 30
0.0
 11
-7.187372964381211
 21
12.99988474114349
 31
0.0
  0
LINE
  5
85F
330
1F
100
AcDbEntity
  8
0
100
AcDbLine
 10
-7.187373464379561
 20
12.99988474114167
 30
0.0
 11
-6.187381597746934
 21
13.99989287444174
 31
0.0
  0
LINE
  5
860
330
1F
100
AcDbEntity
  8
0
100
AcDbLine
 10
-7.187421264396107
 20
18.99988674095135
 30
0.0
 11
-6.187412631079496
 21
17.99989287432168
 31
0.0
  0
LINE
  5
861
330
1F
100
AcDbEntity
  8
0
100
AcDbLine
 10
-8.999845464320969
 20
18.99986999990057
 30
0.0
 11
-7.187421764379905
 21
18.99988474094704
 31
0.0
  0
LINE
  5
862
330
1F
100
AcDbEntity
  8
0
100
AcDbLine
 10
-8.999840584319827
 20
18.39986999992021
 30
0.0
 11
-6.587415984400649
 21
18.3998896209751
 31
0.0
  0
LINE
  5
863
330
1F
100
AcDbEntity
  8
0
100
AcDbLine
 10
-8.999801544328875
 20
13.59987100007953
 30
0.0
 11
-6.587377444409867
 21
13.59989062112714
 31
0.0
  0
LINE
  5
864
330
1F
100
AcDbEntity
  8
0
100
AcDbLine
 10
-8.999796664318637
 20
12.99987000010065
 30
0.0
 11
-7.187373464379561
 21
12.99988474114167
 31
0.0
  0
LINE
  5
865
330
1F
100
AcDbEntity
  8
1
100
AcDbLine
 10
-3.863692475785683
 20
15.99986655172415
 30
0.0
 11
-27.44887827356524
 21
15.99986655172415
 31
0.0
  0
LINE
  5
866
330
1F
100
AcDbEntity
  8
0
100
AcDbLine
 10
31.4999899999998
 20
4.999981250250073
 30
0.0
 11
16.09999000000016
 21
4.999981250250073
 31
0.0
  0
LINE
  5
867
330
1F
100
AcDbEntity
  8
0
100
AcDbLine
 10
31.4999899999998
 20
2.999981250250073
 30
0.0
 11
16.09999000000016
 21
2.999981250250073
 31
0.0
  0
LINE
  5
868
330
1F
100
AcDbEntity
  8
0
100
AcDbLine
 10
16.09999000000016
 20
2.999981250250073
 30
0.0
 11
16.09999000000016
 21
4.999981250250073
 31
0.0
  0
LINE
  5
869
330
1F
100
AcDbEntity
  8
0
100
AcDbLine
 10
31.4999899999998
 20
2.999981250250073
 30
0.0
 11
31.4999899999998
 21
4.999981250250073
 31
0.0
  0
CIRCLE
  5
86A
330
1F
100
AcDbEntity
  8
0
100
AcDbCircle
 10
23.85535957123375
 20
184.7560612143079
 30
0.0
 40
7.7
  0
ARC
  5
86B
330
1F
100
AcDbEntity
  8
0
100
AcDbCircle
 10
23.85497242451993
 20
232.3560672127321
 30
0.0
 40
7.7
100
AcDbArc
 50
300.5914852464599
 51
187.8187775645727
  0
ARC
  5
86C
330
1F
100
AcDbEntity
  8
0
100
AcDbCircle
 10
23.85497242451993
 20
232.3560672127321
 30
0.0
 40
7.7
100
AcDbArc
 50
207.9603163273549
 51
218.6241498454255
  0
CIRCLE
  5
86D
330
1F
100
AcDbEntity
  8
0
100
AcDbCircle
 10
-23.7450335739054
 20
232.3556800660179
 30
0.0
 40
7.7
  0
ARC
  5
86E
330
1F
100
AcDbEntity
  8
0
100
AcDbCircle
 10
-23.74464642719113
 20
184.7556740675926
 30
0.0
 40
7.7
100
AcDbArc
 50
51.95145844760734
 51
70.6034378579098
  0
ARC
  5
86F
330
1F
100
AcDbEntity
  8
0
100
AcDbCircle
 10
-23.74464642719113
 20
184.7556740675926
 30
0.0
 40
7.7
100
AcDbArc
 50
79.58356595287485
 51
328.9299349153806
  0
LINE
  5
870
330
1F
100
AcDbEntity
  8
0
100
AcDbLine
 10
-16.10004264043073
 20
4.999988090734802
 30
0.0
 11
-31.50004264043037
 21
4.999988090734802
 31
0.0
  0
LINE
  5
871
330
1F
100
AcDbEntity
  8
0
100
AcDbLine
 10
-16.10004264043073
 20
2.999988090734802
 30
0.0
 11
-31.50004264043037
 21
2.999988090734802
 31
0.0
  0
LINE
  5
872
330
1F
100
AcDbEntity
  8
0
100
AcDbLine
 10
-31.50004264043037
 20
2.999988090734802
 30
0.0
 11
-31.50004264043037
 21
4.999988090734802
 31
0.0
  0
LINE
  5
873
330
1F
100
AcDbEntity
  8
0
100
AcDbLine
 10
-16.10004264043073
 20
2.999988090734802
 30
0.0
 11
-16.10004264043073
 21
4.999988090734802
 31
0.0
  0
VIEWPORT
  5
71
330
55
100
AcDbEntity
 67
     1
  8
0
100
AcDbViewport
 10
133.3499908447266
 20
101.5999970436096
 30
0.0
 40
381.3957395593835
 41
218.2856291881582
 68
     1
 69
     1
 12
133.3499908447266
 22
101.5999970436096
 13
0.0
 23
0.0
 14
10.0
 24
10.0
 15
10.0
 25
10.0
 16
0.0
 26
0.0
 36
1.0
 17
0.0
 27
0.0
 37
0.0
 42
50.0
 43
0.0
 44
0.0
 45
218.2856291881582
 50
0.0
 51
0.0
 72
   100
 90
    32800
  1

281
     0
 71
     1
 74
     0
110
0.0
120
0.0
130
0.0
111
1.0
121
0.0
131
0.0
112
0.0
122
1.0
132
0.0
 79
     0
146
0.0
170
     0
 61
     5
348
89A
292
     1
282
     1
141
0.0
142
0.0
 63
   250
421
  3355443
  0
VIEWPORT
  5
73
330
55
100
AcDbEntity
 67
     1
  8
0
100
AcDbViewport
 10
133.3499939441681
 20
101.5999939441681
 30
0.0
 40
213.3599903106689
 41
162.5599903106689
 68
     2
 69
     2
 12
210.0
 22
148.5
 13
0.0
 23
0.0
 14
10.0
 24
10.0
 15
10.0
 25
10.0
 16
0.0
 26
0.0
 36
1.0
 17
0.0
 27
0.0
 37
0.0
 42
50.0
 43
0.0
 44
0.0
 45
324.0677920111345
 50
0.0
 51
0.0
 72
   100
 90
    32864
  1

281
     0
 71
     1
 74
     0
110
0.0
120
0.0
130
0.0
111
1.0
121
0.0
131
0.0
112
0.0
122
1.0
132
0.0
 79
     0
146
0.0
170
     0
 61
     5
348
89A
292
     1
282
     1
141
0.0
142
0.0
 63
   250
421
  3355443
  0
ENDSEC
  0
SECTION
  2
OBJECTS
  0
DICTIONARY
  5
C
330
0
100
AcDbDictionary
281
     1
  3
ACAD_COLOR
350
8A8
  3
ACAD_GROUP
350
D
  3
ACAD_LAYOUT
350
1A
  3
ACAD_MATERIAL
350
87B
  3
ACAD_MLEADERSTYLE
350
8BD
  3
ACAD_MLINESTYLE
350
17
  3
ACAD_PLOTSETTINGS
350
19
  3
ACAD_PLOTSTYLENAME
350
E
  3
ACAD_SCALELIST
350
8AB
  3
ACAD_TABLESTYLE
350
8A9
  3
ACAD_VISUALSTYLE
350
894
  3
ACDB_RECOMPOSE_DATA
350
8CC
  3
AcDbVariableDictionary
350
5E
  0
DICTIONARY
  5
97
330
2
100
AcDbDictionary
280
     1
281
     1
  3
ACAD_LAYERSTATES
360
98
  0
DICTIONARY
  5
8C1
330
10
100
AcDbDictionary
280
     1
281
     1
  3
ADSK_XREC_LAYER_RECONCILED
360
8C2
  0
DICTIONARY
  5
90
330
8F
100
AcDbDictionary
280
     1
281
     1
  3
ADSK_XREC_LAYER_RECONCILED
360
91
  0
DICTIONARY
  5
93
330
92
100
AcDbDictionary
280
     1
281
     1
  3
ADSK_XREC_LAYER_RECONCILED
360
94
  0
DICTIONARY
  5
8A8
102
{ACAD_REACTORS
330
C
102
}
330
C
100
AcDbDictionary
281
     1
  0
DICTIONARY
  5
D
102
{ACAD_REACTORS
330
C
102
}
330
C
100
AcDbDictionary
281
     1
  0
DICTIONARY
  5
1A
102
{ACAD_REACTORS
330
C
102
}
330
C
100
AcDbDictionary
281
     1
  3
Model
350
22
  3
ﾚｲｱｳﾄ1
350
51
  3
ﾚｲｱｳﾄ2
350
56
  0
DICTIONARY
  5
87B
102
{ACAD_REACTORS
330
C
102
}
330
C
100
AcDbDictionary
281
     1
  3
ByBlock
350
884
  3
ByLayer
350
87C
  3
Global
350
88C
  0
DICTIONARY
  5
8BD
102
{ACAD_REACTORS
330
C
102
}
330
C
100
AcDbDictionary
281
     1
  3
Standard
350
8BE
  0
DICTIONARY
  5
17
102
{ACAD_REACTORS
330
C
102
}
330
C
100
AcDbDictionary
281
     1
  3
Standard
350
18
  0
DICTIONARY
  5
19
102
{ACAD_REACTORS
330
C
102
}
330
C
100
AcDbDictionary
281
     1
  0
ACDBDICTIONARYWDFLT
  5
E
102
{ACAD_REACTORS
330
C
102
}
330
C
100
AcDbDictionary
281
     1
  3
Normal
350
F
100
AcDbDictionaryWithDefault
340
F
  0
DICTIONARY
  5
8AB
102
{ACAD_REACTORS
330
C
102
}
330
C
100
AcDbDictionary
281
     1
  3
A0
350
8AC
  3
A1
350
8AD
  3
A2
350
8AE
  3
A3
350
8AF
  3
A4
350
8B0
  3
A5
350
8B1
  3
A6
350
8B2
  3
A7
350
8B3
  3
A8
350
8B4
  3
A9
350
8B5
  3
B0
350
8B6
  3
B1
350
8B7
  3
B2
350
8B8
  3
B3
350
8B9
  3
B4
350
8BA
  3
B5
350
8BB
  3
B6
350
8BC
  0
DICTIONARY
  5
8A9
102
{ACAD_REACTORS
330
C
102
}
330
C
100
AcDbDictionary
281
     1
  3
Standard
350
8AA
  0
DICTIONARY
  5
894
102
{ACAD_REACTORS
330
C
102
}
330
C
100
AcDbDictionary
281
     1
  3
2dWireframe
350
89A
  3
3D Hidden
350
89C
  3
3dWireframe
350
89B
  3
Basic
350
899
  3
Brighten
350
8A0
  3
ColorChange
350
8A4
  3
Conceptual
350
89D
  3
Dim
350
89F
  3
EdgeColorOff
350
8A7
  3
Facepattern
350
8A3
  3
Flat
350
895
  3
FlatWithEdges
350
896
  3
Gouraud
350
897
  3
GouraudWithEdges
350
898
  3
JitterOff
350
8A5
  3
Linepattern
350
8A2
  3
OverhangOff
350
8A6
  3
Realistic
350
89E
  3
Thicken
350
8A1
  0
XRECORD
  5
8CC
102
{ACAD_REACTORS
330
C
102
}
330
C
100
AcDbXrecord
280
     1
 90
        1
330
8AA
  0
DICTIONARY
  5
5E
102
{ACAD_REACTORS
330
C
102
}
330
C
100
AcDbDictionary
281
     1
  3
CANNOSCALE
350
8C6
  3
CMLEADERSTYLE
350
8C4
  3
CTABLESTYLE
350
8C3
  3
DIMASSOC
350
5F
  3
HIDETEXT
350
63
  3
LAYEREVAL
350
8C8
  3
LAYERNOTIFY
350
8C9
  3
LIGHTINGUNITS
350
8C7
  3
MSLTSCALE
350
8C5
  0
DICTIONARY
  5
98
102
{ACAD_REACTORS
330
97
102
}
330
97
100
AcDbDictionary
281
     1
  0
XRECORD
  5
8C2
102
{ACAD_REACTORS
330
8C1
102
}
330
8C1
100
AcDbXrecord
280
     1
290
     1
  0
XRECORD
  5
91
102
{ACAD_REACTORS
330
90
102
}
330
90
100
AcDbXrecord
280
     1
290
     1
  0
XRECORD
  5
94
102
{ACAD_REACTORS
330
93
102
}
330
93
100
AcDbXrecord
280
     1
290
     1
  0
LAYOUT
  5
22
102
{ACAD_REACTORS
330
1A
102
}
330
1A
100
AcDbPlotSettings
  1

  2
none_device
  4
ANSI_A_(8.50_x_11.00_Inches)
  6

 40
6.349999904632568
 41
19.04999923706055
 42
6.350006103515625
 43
19.04998779296875
 44
215.8999938964844
 45
279.3999938964844
 46
0.0
 47
0.0
 48
0.0
 49
0.0
140
0.0
141
0.0
142
1.0
143
78.436453180766
 70
 11952
 72
     0
 73
     1
 74
     0
  7

 75
     0
147
0.0127491741332998
 76
     0
 77
     2
 78
   300
148
0.0
149
0.0
100
AcDbLayout
  1
Model
 70
     1
 71
     0
 10
0.0
 20
0.0
 11
12.0
 21
9.0
 12
0.0
 22
0.0
 32
0.0
 14
0.0
 24
0.0
 34
0.0
 15
0.0
 25
0.0
 35
0.0
146
0.0
 13
0.0
 23
0.0
 33
0.0
 16
1.0
 26
0.0
 36
0.0
 17
0.0
 27
1.0
 37
0.0
 76
     0
330
1F
331
879
  0
LAYOUT
  5
51
102
{ACAD_REACTORS
330
1A
102
}
330
1A
100
AcDbPlotSettings
  1

  2
none_device
  4
Letter_(8.50_x_11.00_Inches)
  6

 40
6.349999904632568
 41
6.349999904632568
 42
6.350006103515625
 43
6.350006103515625
 44
215.8999938964844
 45
279.3999938964844
 46
0.0
 47
0.0
 48
0.0
 49
0.0
140
0.0
141
0.0
142
1.0
143
1.0
 70
   688
 72
     1
 73
     1
 74
     5
  7

 75
    16
147
1.0
 76
     0
 77
     2
 78
   300
148
0.0
149
0.0
100
AcDbLayout
  1
ﾚｲｱｳﾄ1
 70
     1
 71
     1
 10
-6.350006103515625
 20
-6.349999904632568
 11
273.0499877929688
 21
209.5499939918518
 12
0.0
 22
0.0
 32
0.0
 14
26.66076962115563
 24
20.31135699206658
 34
-0.0015258207003583
 15
240.039213369355
 25
182.8886381005154
 35
0.0000000349246037
146
0.0
 13
0.0
 23
0.0
 33
0.0
 16
1.0
 26
0.0
 36
0.0
 17
0.0
 27
1.0
 37
0.0
 76
     0
330
50
331
6B
  0
LAYOUT
  5
56
102
{ACAD_REACTORS
330
1A
102
}
330
1A
100
AcDbPlotSettings
  1

  2
none_device
  4
Letter_(8.50_x_11.00_Inches)
  6

 40
6.349999904632568
 41
6.349999904632568
 42
6.350006103515625
 43
6.350006103515625
 44
215.8999938964844
 45
279.3999938964844
 46
0.0
 47
0.0
 48
0.0
 49
0.0
140
0.0
141
0.0
142
1.0
143
1.0
 70
   688
 72
     1
 73
     1
 74
     5
  7

 75
    16
147
1.0
 76
     0
 77
     2
 78
   300
148
0.0
149
0.0
100
AcDbLayout
  1
ﾚｲｱｳﾄ2
 70
     1
 71
     2
 10
-6.350006103515625
 20
-6.349999904632568
 11
273.0499877929688
 21
209.5499939918518
 12
0.0
 22
0.0
 32
0.0
 14
26.66076962115563
 24
20.31135699206658
 34
-0.0015258207003583
 15
240.039213369355
 25
182.8886381005154
 35
0.0000000349246037
146
0.0
 13
0.0
 23
0.0
 33
0.0
 16
1.0
 26
0.0
 36
0.0
 17
0.0
 27
1.0
 37
0.0
 76
     0
330
55
331
71
  0
MATERIAL
  5
884
102
{ACAD_XDICTIONARY
360
885
102
}
102
{ACAD_REACTORS
330
87B
102
}
330
87B
100
AcDbMaterial
  1
ByBlock
 72
     0
 43
0.0008202099737533
 43
0.0
 43
0.0
 43
0.0
 43
0.0
 43
0.0008202099737533
 43
0.0
 43
0.0
 43
0.0
 43
0.0
 43
1.0
 43
0.0
 43
0.0
 43
0.0
 43
0.0
 43
1.0
 77
     0
 47
0.0008202099737533
 47
0.0
 47
0.0
 47
0.0
 47
0.0
 47
0.0008202099737533
 47
0.0
 47
0.0
 47
0.0
 47
0.0
 47
1.0
 47
0.0
 47
0.0
 47
0.0
 47
0.0
 47
1.0
171
     0
 49
0.0008202099737533
 49
0.0
 49
0.0
 49
0.0
 49
0.0
 49
0.0008202099737533
 49
0.0
 49
0.0
 49
0.0
 49
0.0
 49
1.0
 49
0.0
 49
0.0
 49
0.0
 49
0.0
 49
1.0
175
     0
142
0.0008202099737533
142
0.0
142
0.0
142
0.0
142
0.0
142
0.0008202099737533
142
0.0
142
0.0
142
0.0
142
0.0
142
1.0
142
0.0
142
0.0
142
0.0
142
0.0
142
1.0
179
     0
144
0.0008202099737533
144
0.0
144
0.0
144
0.0
144
0.0
144
0.0008202099737533
144
0.0
144
0.0
144
0.0
144
0.0
144
1.0
144
0.0
144
0.0
144
0.0
144
0.0
144
1.0
147
0.0008202099737533
147
0.0
147
0.0
147
0.0
147
0.0
147
0.0008202099737533
147
0.0
147
0.0
147
0.0
147
0.0
147
1.0
147
0.0
147
0.0
147
0.0
147
0.0
147
1.0
  0
MATERIAL
  5
87C
102
{ACAD_XDICTIONARY
360
87D
102
}
102
{ACAD_REACTORS
330
87B
102
}
330
87B
100
AcDbMaterial
  1
ByLayer
 72
     0
 43
0.0008202099737533
 43
0.0
 43
0.0
 43
0.0
 43
0.0
 43
0.0008202099737533
 43
0.0
 43
0.0
 43
0.0
 43
0.0
 43
1.0
 43
0.0
 43
0.0
 43
0.0
 43
0.0
 43
1.0
 77
     0
 47
0.0008202099737533
 47
0.0
 47
0.0
 47
0.0
 47
0.0
 47
0.0008202099737533
 47
0.0
 47
0.0
 47
0.0
 47
0.0
 47
1.0
 47
0.0
 47
0.0
 47
0.0
 47
0.0
 47
1.0
171
     0
 49
0.0008202099737533
 49
0.0
 49
0.0
 49
0.0
 49
0.0
 49
0.0008202099737533
 49
0.0
 49
0.0
 49
0.0
 49
0.0
 49
1.0
 49
0.0
 49
0.0
 49
0.0
 49
0.0
 49
1.0
175
     0
142
0.0008202099737533
142
0.0
142
0.0
142
0.0
142
0.0
142
0.0008202099737533
142
0.0
142
0.0
142
0.0
142
0.0
142
1.0
142
0.0
142
0.0
142
0.0
142
0.0
142
1.0
179
     0
144
0.0008202099737533
144
0.0
144
0.0
144
0.0
144
0.0
144
0.0008202099737533
144
0.0
144
0.0
144
0.0
144
0.0
144
1.0
144
0.0
144
0.0
144
0.0
144
0.0
144
1.0
147
0.0008202099737533
147
0.0
147
0.0
147
0.0
147
0.0
147
0.0008202099737533
147
0.0
147
0.0
147
0.0
147
0.0
147
1.0
147
0.0
147
0.0
147
0.0
147
0.0
147
1.0
  0
MATERIAL
  5
88C
102
{ACAD_XDICTIONARY
360
88D
102
}
102
{ACAD_REACTORS
330
87B
102
}
330
87B
100
AcDbMaterial
  1
Global
 72
     0
 43
0.0008202099737533
 43
0.0
 43
0.0
 43
0.0
 43
0.0
 43
0.0008202099737533
 43
0.0
 43
0.0
 43
0.0
 43
0.0
 43
1.0
 43
0.0
 43
0.0
 43
0.0
 43
0.0
 43
1.0
 77
     0
 47
0.0008202099737533
 47
0.0
 47
0.0
 47
0.0
 47
0.0
 47
0.0008202099737533
 47
0.0
 47
0.0
 47
0.0
 47
0.0
 47
1.0
 47
0.0
 47
0.0
 47
0.0
 47
0.0
 47
1.0
171
     0
 49
0.0008202099737533
 49
0.0
 49
0.0
 49
0.0
 49
0.0
 49
0.0008202099737533
 49
0.0
 49
0.0
 49
0.0
 49
0.0
 49
1.0
 49
0.0
 49
0.0
 49
0.0
 49
0.0
 49
1.0
175
     0
142
0.0008202099737533
142
0.0
142
0.0
142
0.0
142
0.0
142
0.0008202099737533
142
0.0
142
0.0
142
0.0
142
0.0
142
1.0
142
0.0
142
0.0
142
0.0
142
0.0
142
1.0
179
     0
144
0.0008202099737533
144
0.0
144
0.0
144
0.0
144
0.0
144
0.0008202099737533
144
0.0
144
0.0
144
0.0
144
0.0
144
1.0
144
0.0
144
0.0
144
0.0
144
0.0
144
1.0
147
0.0008202099737533
147
0.0
147
0.0
147
0.0
147
0.0
147
0.0008202099737533
147
0.0
147
0.0
147
0.0
147
0.0
147
1.0
147
0.0
147
0.0
147
0.0
147
0.0
147
1.0
  0
MLEADERSTYLE
  5
8BE
102
{ACAD_REACTORS
330
8BD
102
}
330
8BD
100
AcDbMLeaderStyle
179
     2
170
     2
171
     1
172
     0
 90
        2
 40
0.0
 41
0.0
173
     1
 91
-1056964608
340
14
 92
       -2
290
     1
 42
2.0
291
     1
 43
0.36
  3
Standard
 44
4.0
300

342
11
174
     1
178
     6
175
     1
176
     0
 93
-1056964608
 45
4.0
292
     0
297
     0
 46
4.0
 94
-1056964608
 47
1.0
 49
1.0
140
1.0
293
     1
141
0.0
294
     1
177
     0
142
1.0
295
     1
296
     0
143
0.125
271
     0
272
     9
273
     9
  0
MLINESTYLE
  5
18
102
{ACAD_REACTORS
330
17
102
}
330
17
100
AcDbMlineStyle
  2
STANDARD
 70
     0
  3

 62
   256
 51
90.0
 52
90.0
 71
     2
 49
0.5
 62
   256
  6
BYLAYER
 49
-0.5
 62
   256
  6
BYLAYER
  0
ACDBPLACEHOLDER
  5
F
102
{ACAD_REACTORS
330
E
102
}
330
E
  0
SCALE
  5
8AC
102
{ACAD_REACTORS
330
8AB
102
}
330
8AB
100
AcDbScale
 70
     0
300
1:1
140
1.0
141
1.0
290
     1
  0
SCALE
  5
8AD
102
{ACAD_REACTORS
330
8AB
102
}
330
8AB
100
AcDbScale
 70
     0
300
1:2
140
1.0
141
2.0
290
     0
  0
SCALE
  5
8AE
102
{ACAD_REACTORS
330
8AB
102
}
330
8AB
100
AcDbScale
 70
     0
300
1:4
140
1.0
141
4.0
290
     0
  0
SCALE
  5
8AF
102
{ACAD_REACTORS
330
8AB
102
}
330
8AB
100
AcDbScale
 70
     0
300
1:5
140
1.0
141
5.0
290
     0
  0
SCALE
  5
8B0
102
{ACAD_REACTORS
330
8AB
102
}
330
8AB
100
AcDbScale
 70
     0
300
1:8
140
1.0
141
8.0
290
     0
  0
SCALE
  5
8B1
102
{ACAD_REACTORS
330
8AB
102
}
330
8AB
100
AcDbScale
 70
     0
300
1:10
140
1.0
141
10.0
290
     0
  0
SCALE
  5
8B2
102
{ACAD_REACTORS
330
8AB
102
}
330
8AB
100
AcDbScale
 70
     0
300
1:16
140
1.0
141
16.0
290
     0
  0
SCALE
  5
8B3
102
{ACAD_REACTORS
330
8AB
102
}
330
8AB
100
AcDbScale
 70
     0
300
1:20
140
1.0
141
20.0
290
     0
  0
SCALE
  5
8B4
102
{ACAD_REACTORS
330
8AB
102
}
330
8AB
100
AcDbScale
 70
     0
300
1:30
140
1.0
141
30.0
290
     0
  0
SCALE
  5
8B5
102
{ACAD_REACTORS
330
8AB
102
}
330
8AB
100
AcDbScale
 70
     0
300
1:40
140
1.0
141
40.0
290
     0
  0
SCALE
  5
8B6
102
{ACAD_REACTORS
330
8AB
102
}
330
8AB
100
AcDbScale
 70
     0
300
1:50
140
1.0
141
50.0
290
     0
  0
SCALE
  5
8B7
102
{ACAD_REACTORS
330
8AB
102
}
330
8AB
100
AcDbScale
 70
     0
300
1:100
140
1.0
141
100.0
290
     0
  0
SCALE
  5
8B8
102
{ACAD_REACTORS
330
8AB
102
}
330
8AB
100
AcDbScale
 70
     0
300
2:1
140
2.0
141
1.0
290
     0
  0
SCALE
  5
8B9
102
{ACAD_REACTORS
330
8AB
102
}
330
8AB
100
AcDbScale
 70
     0
300
4:1
140
4.0
141
1.0
290
     0
  0
SCALE
  5
8BA
102
{ACAD_REACTORS
330
8AB
102
}
330
8AB
100
AcDbScale
 70
     0
300
8:1
140
8.0
141
1.0
290
     0
  0
SCALE
  5
8BB
102
{ACAD_REACTORS
330
8AB
102
}
330
8AB
100
AcDbScale
 70
     0
300
10:1
140
10.0
141
1.0
290
     0
  0
SCALE
  5
8BC
102
{ACAD_REACTORS
330
8AB
102
}
330
8AB
100
AcDbScale
 70
     0
300
100:1
140
100.0
141
1.0
290
     0
  0
TABLESTYLE
  5
8AA
102
{ACAD_XDICTIONARY
360
8CA
102
}
102
{ACAD_REACTORS
330
8A9
102
}
330
8A9
100
AcDbTableStyle
280
     0
  3
Standard
 70
     0
 71
     0
 40
1.5
 41
1.5
280
     0
281
     0
  7
Standard
140
4.5
170
     2
 62
     0
 63
     7
283
     0
 90
      512
 91
        0
  1

274
    -2
284
     1
 64
     0
275
    -2
285
     1
 65
     0
276
    -2
286
     1
 66
     0
277
    -2
287
     1
 67
     0
278
    -2
288
     1
 68
     0
279
    -2
289
     1
 69
     0
  7
Standard
140
6.0
170
     5
 62
     0
 63
     7
283
     0
 90
      512
 91
        0
  1

274
    -2
284
     1
 64
     0
275
    -2
285
     1
 65
     0
276
    -2
286
     1
 66
     0
277
    -2
287
     1
 67
     0
278
    -2
288
     1
 68
     0
279
    -2
289
     1
 69
     0
  7
Standard
140
4.5
170
     5
 62
     0
 63
     7
283
     0
 90
      512
 91
        0
  1

274
    -2
284
     1
 64
     0
275
    -2
285
     1
 65
     0
276
    -2
286
     1
 66
     0
277
    -2
287
     1
 67
     0
278
    -2
288
     1
 68
     0
279
    -2
289
     1
 69
     0
  0
VISUALSTYLE
  5
89A
102
{ACAD_REACTORS
330
894
102
}
330
894
100
AcDbVisualStyle
  2
2dWireframe
 70
     4
177
     2
291
     0
 71
     0
176
     1
 72
     2
176
     1
 73
     0
176
     1
 90
        0
176
     1
 40
0.6
176
     1
 41
30.0
176
     1
 63
     7
421
 16777215
176
     1
 74
     1
176
     1
 91
        4
176
     1
 64
     7
176
     1
 65
   257
176
     1
 75
     1
176
     1
175
     1
176
     1
 42
1.0
176
     1
 92
        0
176
     1
 66
   257
176
     1
 43
1.0
176
     1
 76
     1
176
     1
 77
     6
176
     1
 78
     2
176
     1
 67
     7
176
     1
 79
     5
176
     1
170
     0
176
     1
171
     0
176
     1
290
     0
176
     1
 93
        1
176
     1
 44
0.0
176
     1
173
     0
176
     1
  0
VISUALSTYLE
  5
89C
102
{ACAD_REACTORS
330
894
102
}
330
894
100
AcDbVisualStyle
  2
3D Hidden
 70
     6
177
     2
291
     0
 71
     1
176
     1
 72
     2
176
     1
 73
     2
176
     1
 90
        0
176
     1
 40
0.6
176
     1
 41
30.0
176
     1
 63
     7
421
 16777215
176
     1
 74
     2
176
     1
 91
        2
176
     1
 64
     7
176
     1
 65
   257
176
     1
 75
     2
176
     1
175
     1
176
     1
 42
179.0
176
     1
 92
        0
176
     1
 66
   257
176
     1
 43
1.0
176
     1
 76
     1
176
     1
 77
     6
176
     1
 78
     2
176
     1
 67
     7
176
     1
 79
     3
176
     1
170
     0
176
     1
171
     0
176
     1
290
     0
176
     1
 93
        1
176
     1
 44
0.0
176
     1
173
     0
176
     1
  0
VISUALSTYLE
  5
89B
102
{ACAD_REACTORS
330
894
102
}
330
894
100
AcDbVisualStyle
  2
3dWireframe
 70
     5
177
     2
291
     0
 71
     0
176
     1
 72
     2
176
     1
 73
     0
176
     1
 90
        0
176
     1
 40
0.6
176
     1
 41
30.0
176
     1
 63
     7
421
 16777215
176
     1
 74
     1
176
     1
 91
        4
176
     1
 64
     7
176
     1
 65
   257
176
     1
 75
     1
176
     1
175
     1
176
     1
 42
1.0
176
     1
 92
        0
176
     1
 66
   257
176
     1
 43
1.0
176
     1
 76
     1
176
     1
 77
     6
176
     1
 78
     2
176
     1
 67
     7
176
     1
 79
     5
176
     1
170
     0
176
     1
171
     0
176
     1
290
     0
176
     1
 93
        1
176
     1
 44
0.0
176
     1
173
     0
176
     1
  0
VISUALSTYLE
  5
899
102
{ACAD_REACTORS
330
894
102
}
330
894
100
AcDbVisualStyle
  2
Basic
 70
     7
177
     2
291
     1
 71
     1
176
     1
 72
     0
176
     1
 73
     1
176
     1
 90
        0
176
     1
 40
0.6
176
     1
 41
30.0
176
     1
 63
     7
421
 16777215
176
     1
 74
     0
176
     1
 91
        4
176
     1
 64
     7
176
     1
 65
   257
176
     1
 75
     1
176
     1
175
     1
176
     1
 42
1.0
176
     1
 92
        8
176
     1
 66
     7
176
     1
 43
1.0
176
     1
 76
     1
176
     1
 77
     6
176
     1
 78
     2
176
     1
 67
     7
176
     1
 79
     5
176
     1
170
     0
176
     1
171
     0
176
     1
290
     0
176
     1
 93
        1
176
     1
 44
0.0
176
     1
173
     0
176
     1
  0
VISUALSTYLE
  5
8A0
102
{ACAD_REACTORS
330
894
102
}
330
894
100
AcDbVisualStyle
  2
Brighten
 70
    12
177
     2
291
     1
 71
     2
176
     1
 72
     2
176
     1
 73
     0
176
     1
 90
        0
176
     1
 40
0.6
176
     1
 41
30.0
176
     1
 63
     7
421
 16777215
176
     1
 74
     1
176
     1
 91
        4
176
     1
 64
     7
176
     1
 65
   257
176
     1
 75
     1
176
     1
175
     1
176
     1
 42
1.0
176
     1
 92
        8
176
     1
 66
     7
176
     1
 43
1.0
176
     1
 76
     1
176
     1
 77
     6
176
     1
 78
     2
176
     1
 67
     7
176
     1
 79
     5
176
     1
170
     0
176
     1
171
     0
176
     1
290
     0
176
     1
 93
        1
176
     1
 44
50.0
176
     1
173
     0
176
     1
  0
VISUALSTYLE
  5
8A4
102
{ACAD_REACTORS
330
894
102
}
330
894
100
AcDbVisualStyle
  2
ColorChange
 70
    16
177
     2
291
     1
 71
     2
176
     1
 72
     2
176
     1
 73
     3
176
     1
 90
        0
176
     1
 40
0.6
176
     1
 41
30.0
176
     1
 63
     8
421
  8421504
176
     1
 74
     1
176
     1
 91
        4
176
     1
 64
     7
176
     1
 65
   257
176
     1
 75
     1
176
     1
175
     1
176
     1
 42
1.0
176
     1
 92
        8
176
     1
 66
     8
424
  8421504
176
     1
 43
1.0
176
     1
 76
     1
176
     1
 77
     6
176
     1
 78
     2
176
     1
 67
     7
176
     1
 79
     5
176
     1
170
     0
176
     1
171
     0
176
     1
290
     0
176
     1
 93
        1
176
     1
 44
0.0
176
     1
173
     0
176
     1
  0
VISUALSTYLE
  5
89D
102
{ACAD_REACTORS
330
894
102
}
330
894
100
AcDbVisualStyle
  2
Conceptual
 70
     9
177
     2
291
     0
 71
     3
176
     1
 72
     2
176
     1
 73
     0
176
     1
 90
        0
176
     1
 40
0.6
176
     1
 41
30.0
176
     1
 63
     7
421
 16777215
176
     1
 74
     2
176
     1
 91
        2
176
     1
 64
     7
176
     1
 65
   257
176
     1
 75
     1
176
     1
175
     1
176
     1
 42
179.0
176
     1
 92
        8
176
     1
 66
     7
176
     1
 43
1.0
176
     1
 76
     1
176
     1
 77
     6
176
     1
 78
     2
176
     1
 67
     7
176
     1
 79
     3
176
     1
170
     0
176
     1
171
     0
176
     1
290
     0
176
     1
 93
        1
176
     1
 44
0.0
176
     1
173
     0
176
     1
  0
VISUALSTYLE
  5
89F
102
{ACAD_REACTORS
330
894
102
}
330
894
100
AcDbVisualStyle
  2
Dim
 70
    11
177
     2
291
     1
 71
     2
176
     1
 72
     2
176
     1
 73
     0
176
     1
 90
        0
176
     1
 40
0.6
176
     1
 41
30.0
176
     1
 63
     7
421
 16777215
176
     1
 74
     1
176
     1
 91
        4
176
     1
 64
     7
176
     1
 65
   257
176
     1
 75
     1
176
     1
175
     1
176
     1
 42
1.0
176
     1
 92
        8
176
     1
 66
     7
176
     1
 43
1.0
176
     1
 76
     1
176
     1
 77
     6
176
     1
 78
     2
176
     1
 67
     7
176
     1
 79
     5
176
     1
170
     0
176
     1
171
     0
176
     1
290
     0
176
     1
 93
        1
176
     1
 44
-50.0
176
     1
173
     0
176
     1
  0
VISUALSTYLE
  5
8A7
102
{ACAD_REACTORS
330
894
102
}
330
894
100
AcDbVisualStyle
  2
EdgeColorOff
 70
    22
177
     2
291
     1
 71
     2
176
     0
 72
     2
176
     0
 73
     0
176
     0
 90
        0
176
     0
 40
0.6
176
     0
 41
30.0
176
     0
 63
     7
421
 16777215
176
     0
 74
     1
176
     0
 91
        4
176
     0
 64
     7
176
     0
 65
   257
176
     0
 75
     1
176
     0
175
     1
176
     0
 42
1.0
176
     0
 92
        8
176
     2
 66
     7
176
     0
 43
1.0
176
     0
 76
     1
176
     0
 77
     6
176
     0
 78
     2
176
     0
 67
     7
176
     0
 79
     5
176
     0
170
     0
176
     0
171
     0
176
     0
290
     0
176
     0
 93
        1
176
     0
 44
0.0
176
     0
173
     0
176
     0
  0
VISUALSTYLE
  5
8A3
102
{ACAD_REACTORS
330
894
102
}
330
894
100
AcDbVisualStyle
  2
Facepattern
 70
    15
177
     2
291
     1
 71
     2
176
     1
 72
     2
176
     1
 73
     0
176
     1
 90
        0
176
     1
 40
0.6
176
     1
 41
30.0
176
     1
 63
     7
421
 16777215
176
     1
 74
     1
176
     1
 91
        4
176
     1
 64
     7
176
     1
 65
   257
176
     1
 75
     1
176
     1
175
     1
176
     1
 42
1.0
176
     1
 92
        8
176
     1
 66
     7
176
     1
 43
1.0
176
     1
 76
     1
176
     1
 77
     6
176
     1
 78
     2
176
     1
 67
     7
176
     1
 79
     5
176
     1
170
     0
176
     1
171
     0
176
     1
290
     0
176
     1
 93
        1
176
     1
 44
0.0
176
     1
173
     0
176
     1
  0
VISUALSTYLE
  5
895
102
{ACAD_REACTORS
330
894
102
}
330
894
100
AcDbVisualStyle
  2
Flat
 70
     0
177
     2
291
     1
 71
     2
176
     1
 72
     1
176
     1
 73
     1
176
     1
 90
        2
176
     1
 40
0.6
176
     1
 41
30.0
176
     1
 63
     7
421
 16777215
176
     1
 74
     0
176
     1
 91
        4
176
     1
 64
     7
176
     1
 65
   257
176
     1
 75
     1
176
     1
175
     1
176
     1
 42
1.0
176
     1
 92
        8
176
     1
 66
     7
176
     1
 43
1.0
176
     1
 76
     1
176
     1
 77
     6
176
     1
 78
     2
176
     1
 67
     7
176
     1
 79
     5
176
     1
170
     0
176
     1
171
     0
176
     1
290
     0
176
     1
 93
       13
176
     1
 44
0.0
176
     1
173
     0
176
     1
  0
VISUALSTYLE
  5
896
102
{ACAD_REACTORS
330
894
102
}
330
894
100
AcDbVisualStyle
  2
FlatWithEdges
 70
     1
177
     2
291
     1
 71
     2
176
     1
 72
     1
176
     1
 73
     1
176
     1
 90
        2
176
     1
 40
0.6
176
     1
 41
30.0
176
     1
 63
     7
421
 16777215
176
     1
 74
     1
176
     1
 91
        4
176
     1
 64
     7
176
     1
 65
   257
176
     1
 75
     1
176
     1
175
     1
176
     1
 42
1.0
176
     1
 92
        0
176
     1
 66
   257
176
     1
 43
1.0
176
     1
 76
     1
176
     1
 77
     6
176
     1
 78
     2
176
     1
 67
     7
176
     1
 79
     5
176
     1
170
     0
176
     1
171
     0
176
     1
290
     0
176
     1
 93
       13
176
     1
 44
0.0
176
     1
173
     0
176
     1
  0
VISUALSTYLE
  5
897
102
{ACAD_REACTORS
330
894
102
}
330
894
100
AcDbVisualStyle
  2
Gouraud
 70
     2
177
     2
291
     1
 71
     2
176
     1
 72
     2
176
     1
 73
     1
176
     1
 90
        2
176
     1
 40
0.6
176
     1
 41
30.0
176
     1
 63
     7
421
 16777215
176
     1
 74
     0
176
     1
 91
        4
176
     1
 64
     7
176
     1
 65
   257
176
     1
 75
     1
176
     1
175
     1
176
     1
 42
1.0
176
     1
 92
        0
176
     1
 66
     7
176
     1
 43
1.0
176
     1
 76
     1
176
     1
 77
     6
176
     1
 78
     2
176
     1
 67
     7
176
     1
 79
     5
176
     1
170
     0
176
     1
171
     0
176
     1
290
     0
176
     1
 93
       13
176
     1
 44
0.0
176
     1
173
     0
176
     1
  0
VISUALSTYLE
  5
898
102
{ACAD_REACTORS
330
894
102
}
330
894
100
AcDbVisualStyle
  2
GouraudWithEdges
 70
     3
177
     2
291
     1
 71
     2
176
     1
 72
     2
176
     1
 73
     1
176
     1
 90
        2
176
     1
 40
0.6
176
     1
 41
30.0
176
     1
 63
     7
421
 16777215
176
     1
 74
     1
176
     1
 91
        4
176
     1
 64
     7
176
     1
 65
   257
176
     1
 75
     1
176
     1
175
     1
176
     1
 42
1.0
176
     1
 92
        0
176
     1
 66
   257
176
     1
 43
1.0
176
     1
 76
     1
176
     1
 77
     6
176
     1
 78
     2
176
     1
 67
     7
176
     1
 79
     5
176
     1
170
     0
176
     1
171
     0
176
     1
290
     0
176
     1
 93
       13
176
     1
 44
0.0
176
     1
173
     0
176
     1
  0
VISUALSTYLE
  5
8A5
102
{ACAD_REACTORS
330
894
102
}
330
894
100
AcDbVisualStyle
  2
JitterOff
 70
    20
177
     2
291
     1
 71
     2
176
     0
 72
     2
176
     0
 73
     0
176
     0
 90
        0
176
     0
 40
0.6
176
     0
 41
30.0
176
     0
 63
     7
421
 16777215
176
     0
 74
     1
176
     0
 91
        4
176
     0
 64
     7
176
     0
 65
   257
176
     0
 75
     1
176
     0
175
     1
176
     0
 42
1.0
176
     0
 92
       10
176
     2
 66
     7
176
     0
 43
1.0
176
     0
 76
     1
176
     0
 77
     6
176
     0
 78
     2
176
     0
 67
     7
176
     0
 79
     5
176
     0
170
     0
176
     0
171
     0
176
     0
290
     0
176
     0
 93
        1
176
     0
 44
0.0
176
     0
173
     0
176
     0
  0
VISUALSTYLE
  5
8A2
102
{ACAD_REACTORS
330
894
102
}
330
894
100
AcDbVisualStyle
  2
Linepattern
 70
    14
177
     2
291
     1
 71
     2
176
     1
 72
     2
176
     1
 73
     0
176
     1
 90
        0
176
     1
 40
0.6
176
     1
 41
30.0
176
     1
 63
     7
421
 16777215
176
     1
 74
     1
176
     1
 91
        4
176
     1
 64
     7
176
     1
 65
   257
176
     1
 75
     7
176
     1
175
     7
176
     1
 42
1.0
176
     1
 92
        8
176
     1
 66
     7
176
     1
 43
1.0
176
     1
 76
     1
176
     1
 77
     6
176
     1
 78
     2
176
     1
 67
     7
176
     1
 79
     5
176
     1
170
     0
176
     1
171
     0
176
     1
290
     0
176
     1
 93
        1
176
     1
 44
0.0
176
     1
173
     0
176
     1
  0
VISUALSTYLE
  5
8A6
102
{ACAD_REACTORS
330
894
102
}
330
894
100
AcDbVisualStyle
  2
OverhangOff
 70
    21
177
     2
291
     1
 71
     2
176
     0
 72
     2
176
     0
 73
     0
176
     0
 90
        0
176
     0
 40
0.6
176
     0
 41
30.0
176
     0
 63
     7
421
 16777215
176
     0
 74
     1
176
     0
 91
        4
176
     0
 64
     7
176
     0
 65
   257
176
     0
 75
     1
176
     0
175
     1
176
     0
 42
1.0
176
     0
 92
        9
176
     2
 66
     7
176
     0
 43
1.0
176
     0
 76
     1
176
     0
 77
     6
176
     0
 78
     2
176
     0
 67
     7
176
     0
 79
     5
176
     0
170
     0
176
     0
171
     0
176
     0
290
     0
176
     0
 93
        1
176
     0
 44
0.0
176
     0
173
     0
176
     0
  0
VISUALSTYLE
  5
89E
102
{ACAD_REACTORS
330
894
102
}
330
894
100
AcDbVisualStyle
  2
Realistic
 70
     8
177
     2
291
     0
 71
     2
176
     1
 72
     2
176
     1
 73
     0
176
     1
 90
        0
176
     1
 40
0.6
176
     1
 41
30.0
176
     1
 63
     7
421
 16777215
176
     1
 74
     1
176
     1
 91
        0
176
     1
 64
     7
176
     1
 65
   257
176
     1
 75
     1
176
     1
175
     1
176
     1
 42
1.0
176
     1
 92
        8
176
     1
 66
     8
424
  7895160
176
     1
 43
1.0
176
     1
 76
     1
176
     1
 77
     6
176
     1
 78
     2
176
     1
 67
     7
176
     1
 79
     5
176
     1
170
     0
176
     1
171
     0
176
     1
290
     0
176
     1
 93
       13
176
     1
 44
0.0
176
     1
173
     0
176
     1
  0
VISUALSTYLE
  5
8A1
102
{ACAD_REACTORS
330
894
102
}
330
894
100
AcDbVisualStyle
  2
Thicken
 70
    13
177
     2
291
     1
 71
     2
176
     1
 72
     2
176
     1
 73
     0
176
     1
 90
        0
176
     1
 40
0.6
176
     1
 41
30.0
176
     1
 63
     7
421
 16777215
176
     1
 74
     1
176
     1
 91
        4
176
     1
 64
     7
176
     1
 65
   257
176
     1
 75
     1
176
     1
175
     1
176
     1
 42
1.0
176
     1
 92
       12
176
     1
 66
     7
176
     1
 43
1.0
176
     1
 76
     1
176
     1
 77
     6
176
     1
 78
     2
176
     1
 67
     7
176
     1
 79
     5
176
     1
170
     0
176
     1
171
     0
176
     1
290
     0
176
     1
 93
        1
176
     1
 44
0.0
176
     1
173
     0
176
     1
  0
DICTIONARYVAR
  5
8C6
102
{ACAD_REACTORS
330
5E
102
}
330
5E
100
DictionaryVariables
280
     0
  1
1:1
  0
DICTIONARYVAR
  5
8C4
102
{ACAD_REACTORS
330
5E
102
}
330
5E
100
DictionaryVariables
280
     0
  1
STANDARD
  0
DICTIONARYVAR
  5
8C3
102
{ACAD_REACTORS
330
5E
102
}
330
5E
100
DictionaryVariables
280
     0
  1
STANDARD
  0
DICTIONARYVAR
  5
5F
102
{ACAD_REACTORS
330
5E
102
}
330
5E
100
DictionaryVariables
280
     0
  1
2
  0
DICTIONARYVAR
  5
63
102
{ACAD_REACTORS
330
5E
102
}
330
5E
100
DictionaryVariables
280
     0
  1
1
  0
DICTIONARYVAR
  5
8C8
102
{ACAD_REACTORS
330
5E
102
}
330
5E
100
DictionaryVariables
280
     0
  1
1
  0
DICTIONARYVAR
  5
8C9
102
{ACAD_REACTORS
330
5E
102
}
330
5E
100
DictionaryVariables
280
     0
  1
15
  0
DICTIONARYVAR
  5
8C7
102
{ACAD_REACTORS
330
5E
102
}
330
5E
100
DictionaryVariables
280
     0
  1
0
  0
DICTIONARYVAR
  5
8C5
102
{ACAD_REACTORS
330
5E
102
}
330
5E
100
DictionaryVariables
280
     0
  1
0
  0
DICTIONARY
  5
885
330
884
100
AcDbDictionary
280
     1
281
     1
  3
BUMPTILE
360
887
  3
DIFFUSETILE
360
886
  3
OPACITYTILE
360
88A
  3
REFLECTIONTILE
360
889
  3
REFRACTIONTILE
360
88B
  3
SPECULARTILE
360
888
  0
DICTIONARY
  5
87D
330
87C
100
AcDbDictionary
280
     1
281
     1
  3
BUMPTILE
360
87F
  3
DIFFUSETILE
360
87E
  3
OPACITYTILE
360
882
  3
REFLECTIONTILE
360
881
  3
REFRACTIONTILE
360
883
  3
SPECULARTILE
360
880
  0
DICTIONARY
  5
88D
330
88C
100
AcDbDictionary
280
     1
281
     1
  3
BUMPTILE
360
88F
  3
DIFFUSETILE
360
88E
  3
OPACITYTILE
360
892
  3
REFLECTIONTILE
360
891
  3
REFRACTIONTILE
360
893
  3
SPECULARTILE
360
890
  0
DICTIONARY
  5
8CA
330
8AA
100
AcDbDictionary
280
     1
281
     1
  3
ACAD_ROUNDTRIP_2008_TABLESTYLE_CELLSTYLEMAP
360
8CB
  0
XRECORD
  5
887
102
{ACAD_REACTORS
330
885
102
}
330
885
100
AcDbXrecord
280
     1
270
     1
271
     1
  0
XRECORD
  5
886
102
{ACAD_REACTORS
330
885
102
}
330
885
100
AcDbXrecord
280
     1
270
     1
271
     1
  0
XRECORD
  5
88A
102
{ACAD_REACTORS
330
885
102
}
330
885
100
AcDbXrecord
280
     1
270
     1
271
     1
  0
XRECORD
  5
889
102
{ACAD_REACTORS
330
885
102
}
330
885
100
AcDbXrecord
280
     1
270
     1
271
     1
  0
XRECORD
  5
88B
102
{ACAD_REACTORS
330
885
102
}
330
885
100
AcDbXrecord
280
     1
270
     1
271
     1
  0
XRECORD
  5
888
102
{ACAD_REACTORS
330
885
102
}
330
885
100
AcDbXrecord
280
     1
270
     1
271
     1
  0
XRECORD
  5
87F
102
{ACAD_REACTORS
330
87D
102
}
330
87D
100
AcDbXrecord
280
     1
270
     1
271
     1
  0
XRECORD
  5
87E
102
{ACAD_REACTORS
330
87D
102
}
330
87D
100
AcDbXrecord
280
     1
270
     1
271
     1
  0
XRECORD
  5
882
102
{ACAD_REACTORS
330
87D
102
}
330
87D
100
AcDbXrecord
280
     1
270
     1
271
     1
  0
XRECORD
  5
881
102
{ACAD_REACTORS
330
87D
102
}
330
87D
100
AcDbXrecord
280
     1
270
     1
271
     1
  0
XRECORD
  5
883
102
{ACAD_REACTORS
330
87D
102
}
330
87D
100
AcDbXrecord
280
     1
270
     1
271
     1
  0
XRECORD
  5
880
102
{ACAD_REACTORS
330
87D
102
}
330
87D
100
AcDbXrecord
280
     1
270
     1
271
     1
  0
XRECORD
  5
88F
102
{ACAD_REACTORS
330
88D
102
}
330
88D
100
AcDbXrecord
280
     1
270
     1
271
     1
  0
XRECORD
  5
88E
102
{ACAD_REACTORS
330
88D
102
}
330
88D
100
AcDbXrecord
280
     1
270
     1
271
     1
  0
XRECORD
  5
892
102
{ACAD_REACTORS
330
88D
102
}
330
88D
100
AcDbXrecord
280
     1
270
     1
271
     1
  0
XRECORD
  5
891
102
{ACAD_REACTORS
330
88D
102
}
330
88D
100
AcDbXrecord
280
     1
270
     1
271
     1
  0
XRECORD
  5
893
102
{ACAD_REACTORS
330
88D
102
}
330
88D
100
AcDbXrecord
280
     1
270
     1
271
     1
  0
XRECORD
  5
890
102
{ACAD_REACTORS
330
88D
102
}
330
88D
100
AcDbXrecord
280
     1
270
     1
271
     1
  0
CELLSTYLEMAP
  5
8CB
102
{ACAD_REACTORS
330
8CA
102
}
330
8CA
100
AcDbCellStyleMap
 90
        3
300
CELLSTYLE
  1
TABLEFORMAT_BEGIN
 90
        5
170
     1
 91
        0
 92
    32768
 62
   257
 93
        1
300
CONTENTFORMAT
  1
CONTENTFORMAT_BEGIN
 90
        0
 91
        0
 92
      512
 93
        0
300

 40
0.0
140
1.0
 94
        5
 62
     0
340
11
144
6.0
309
CONTENTFORMAT_END
171
     1
301
MARGIN
  1
CELLMARGIN_BEGIN
 40
1.5
 40
1.5
 40
1.5
 40
1.5
 40
4.5
 40
4.5
309
CELLMARGIN_END
 94
        6
 95
        1
302
GRIDFORMAT
  1
GRIDFORMAT_BEGIN
 90
        0
 91
        1
 62
     0
 92
       -2
340
0
 93
        0
 40
1.125
309
GRIDFORMAT_END
 95
        2
302
GRIDFORMAT
  1
GRIDFORMAT_BEGIN
 90
        0
 91
        1
 62
     0
 92
       -2
340
0
 93
        0
 40
1.125
309
GRIDFORMAT_END
 95
        4
302
GRIDFORMAT
  1
GRIDFORMAT_BEGIN
 90
        0
 91
        1
 62
     0
 92
       -2
340
0
 93
        0
 40
1.125
309
GRIDFORMAT_END
 95
        8
302
GRIDFORMAT
  1
GRIDFORMAT_BEGIN
 90
        0
 91
        1
 62
     0
 92
       -2
340
0
 93
        0
 40
1.125
309
GRIDFORMAT_END
 95
       16
302
GRIDFORMAT
  1
GRIDFORMAT_BEGIN
 90
        0
 91
        1
 62
     0
 92
       -2
340
0
 93
        0
 40
1.125
309
GRIDFORMAT_END
 95
       32
302
GRIDFORMAT
  1
GRIDFORMAT_BEGIN
 90
        0
 91
        1
 62
     0
 92
       -2
340
0
 93
        0
 40
1.125
309
GRIDFORMAT_END
309
TABLEFORMAT_END
  1
CELLSTYLE_BEGIN
 90
        1
 91
        1
300
_TITLE
309
CELLSTYLE_END
300
CELLSTYLE
  1
TABLEFORMAT_BEGIN
 90
        5
170
     1
 91
        0
 92
        0
 62
   257
 93
        1
300
CONTENTFORMAT
  1
CONTENTFORMAT_BEGIN
 90
        0
 91
        0
 92
      512
 93
        0
300

 40
0.0
140
1.0
 94
        5
 62
     0
340
11
144
4.5
309
CONTENTFORMAT_END
171
     1
301
MARGIN
  1
CELLMARGIN_BEGIN
 40
1.5
 40
1.5
 40
1.5
 40
1.5
 40
4.5
 40
4.5
309
CELLMARGIN_END
 94
        6
 95
        1
302
GRIDFORMAT
  1
GRIDFORMAT_BEGIN
 90
        0
 91
        1
 62
     0
 92
       -2
340
0
 93
        0
 40
1.125
309
GRIDFORMAT_END
 95
        2
302
GRIDFORMAT
  1
GRIDFORMAT_BEGIN
 90
        0
 91
        1
 62
     0
 92
       -2
340
0
 93
        0
 40
1.125
309
GRIDFORMAT_END
 95
        4
302
GRIDFORMAT
  1
GRIDFORMAT_BEGIN
 90
        0
 91
        1
 62
     0
 92
       -2
340
0
 93
        0
 40
1.125
309
GRIDFORMAT_END
 95
        8
302
GRIDFORMAT
  1
GRIDFORMAT_BEGIN
 90
        0
 91
        1
 62
     0
 92
       -2
340
0
 93
        0
 40
1.125
309
GRIDFORMAT_END
 95
       16
302
GRIDFORMAT
  1
GRIDFORMAT_BEGIN
 90
        0
 91
        1
 62
     0
 92
       -2
340
0
 93
        0
 40
1.125
309
GRIDFORMAT_END
 95
       32
302
GRIDFORMAT
  1
GRIDFORMAT_BEGIN
 90
        0
 91
        1
 62
     0
 92
       -2
340
0
 93
        0
 40
1.125
309
GRIDFORMAT_END
309
TABLEFORMAT_END
  1
CELLSTYLE_BEGIN
 90
        2
 91
        1
300
_HEADER
309
CELLSTYLE_END
300
CELLSTYLE
  1
TABLEFORMAT_BEGIN
 90
        5
170
     1
 91
        0
 92
        0
 62
   257
 93
        1
300
CONTENTFORMAT
  1
CONTENTFORMAT_BEGIN
 90
        0
 91
        0
 92
      512
 93
        0
300

 40
0.0
140
1.0
 94
        2
 62
     0
340
11
144
4.5
309
CONTENTFORMAT_END
171
     1
301
MARGIN
  1
CELLMARGIN_BEGIN
 40
1.5
 40
1.5
 40
1.5
 40
1.5
 40
4.5
 40
4.5
309
CELLMARGIN_END
 94
        6
 95
        1
302
GRIDFORMAT
  1
GRIDFORMAT_BEGIN
 90
        0
 91
        1
 62
     0
 92
       -2
340
0
 93
        0
 40
1.125
309
GRIDFORMAT_END
 95
        2
302
GRIDFORMAT
  1
GRIDFORMAT_BEGIN
 90
        0
 91
        1
 62
     0
 92
       -2
340
0
 93
        0
 40
1.125
309
GRIDFORMAT_END
 95
        4
302
GRIDFORMAT
  1
GRIDFORMAT_BEGIN
 90
        0
 91
        1
 62
     0
 92
       -2
340
0
 93
        0
 40
1.125
309
GRIDFORMAT_END
 95
        8
302
GRIDFORMAT
  1
GRIDFORMAT_BEGIN
 90
        0
 91
        1
 62
     0
 92
       -2
340
0
 93
        0
 40
1.125
309
GRIDFORMAT_END
 95
       16
302
GRIDFORMAT
  1
GRIDFORMAT_BEGIN
 90
        0
 91
        1
 62
     0
 92
       -2
340
0
 93
        0
 40
1.125
309
GRIDFORMAT_END
 95
       32
302
GRIDFORMAT
  1
GRIDFORMAT_BEGIN
 90
        0
 91
        1
 62
     0
 92
       -2
340
0
 93
        0
 40
1.125
309
GRIDFORMAT_END
309
TABLEFORMAT_END
  1
CELLSTYLE_BEGIN
 90
        3
 91
        2
300
_DATA
309
CELLSTYLE_END
  0
ENDSEC
  0
EOF
