  0
SECTION
  2
HEADER
  9
$ACADVER
  1
AC1024
  9
$ACADMAINTVER
 70
     6
  9
$DWGCODEPAGE
  3
ANSI_932
  9
$LASTSAVEDBY
  1
kanatani
  9
$INSBASE
 10
0.0
 20
0.0
 30
0.0
  9
$EXTMIN
 10
-77.30052824363326
 20
-67.92414354841731
 30
0.0
  9
$EXTMAX
 10
77.30052824363281
 20
267.2933691084247
 30
0.0
  9
$LIMMIN
 10
0.0
 20
0.0
  9
$LIMMAX
 10
420.0
 20
297.0
  9
$ORTHOMODE
 70
     0
  9
$REGENMODE
 70
     1
  9
$FILLMODE
 70
     1
  9
$QTEXTMODE
 70
     0
  9
$MIRRTEXT
 70
     1
  9
$LTSCALE
 40
0.2
  9
$ATTMODE
 70
     1
  9
$TEXTSIZE
 40
2.5
  9
$TRACEWID
 40
1.0
  9
$TEXTSTYLE
  7
Standard
  9
$CLAYER
  8
0
  9
$CELTYPE
  6
ByLayer
  9
$CECOLOR
 62
   256
  9
$CELTSCALE
 40
1.0
  9
$DISPSILH
 70
     0
  9
$DIMSCALE
 40
1.0
  9
$DIMASZ
 40
2.5
  9
$DIMEXO
 40
0.625
  9
$DIMDLI
 40
3.75
  9
$DIMRND
 40
0.0
  9
$DIMDLE
 40
0.0
  9
$DIMEXE
 40
1.25
  9
$DIMTP
 40
0.0
  9
$DIMTM
 40
0.0
  9
$DIMTXT
 40
2.5
  9
$DIMCEN
 40
2.5
  9
$DIMTSZ
 40
0.0
  9
$DIMTOL
 70
     0
  9
$DIMLIM
 70
     0
  9
$DIMTIH
 70
     0
  9
$DIMTOH
 70
     0
  9
$DIMSE1
 70
     0
  9
$DIMSE2
 70
     0
  9
$DIMTAD
 70
     1
  9
$DIMZIN
 70
     8
  9
$DIMBLK
  1

  9
$DIMASO
 70
     1
  9
$DIMSHO
 70
     1
  9
$DIMPOST
  1

  9
$DIMAPOST
  1

  9
$DIMALT
 70
     0
  9
$DIMALTD
 70
     3
  9
$DIMALTF
 40
0.03937007874016
  9
$DIMLFAC
 40
1.0
  9
$DIMTOFL
 70
     1
  9
$DIMTVP
 40
0.0
  9
$DIMTIX
 70
     0
  9
$DIMSOXD
 70
     0
  9
$DIMSAH
 70
     0
  9
$DIMBLK1
  1

  9
$DIMBLK2
  1

  9
$DIMSTYLE
  2
ISO-25
  9
$DIMCLRD
 70
     0
  9
$DIMCLRE
 70
     0
  9
$DIMCLRT
 70
     0
  9
$DIMTFAC
 40
1.0
  9
$DIMGAP
 40
0.625
  9
$DIMJUST
 70
     0
  9
$DIMSD1
 70
     0
  9
$DIMSD2
 70
     0
  9
$DIMTOLJ
 70
     0
  9
$DIMTZIN
 70
     8
  9
$DIMALTZ
 70
     0
  9
$DIMALTTZ
 70
     0
  9
$DIMUPT
 70
     0
  9
$DIMDEC
 70
     2
  9
$DIMTDEC
 70
     2
  9
$DIMALTU
 70
     2
  9
$DIMALTTD
 70
     3
  9
$DIMTXSTY
  7
Standard
  9
$DIMAUNIT
 70
     0
  9
$DIMADEC
 70
     0
  9
$DIMALTRND
 40
0.0
  9
$DIMAZIN
 70
     0
  9
$DIMDSEP
 70
    44
  9
$DIMATFIT
 70
     3
  9
$DIMFRAC
 70
     0
  9
$DIMLDRBLK
  1

  9
$DIMLUNIT
 70
     2
  9
$DIMLWD
 70
    -2
  9
$DIMLWE
 70
    -2
  9
$DIMTMOVE
 70
     0
  9
$DIMFXL
 40
1.0
  9
$DIMFXLON
 70
     0
  9
$DIMJOGANG
 40
0.7853981633974483
  9
$DIMTFILL
 70
     0
  9
$DIMTFILLCLR
 70
     0
  9
$DIMARCSYM
 70
     0
  9
$DIMLTYPE
  6

  9
$DIMLTEX1
  6

  9
$DIMLTEX2
  6

  9
$DIMTXTDIRECTION
 70
     0
  9
$LUNITS
 70
     2
  9
$LUPREC
 70
     4
  9
$SKETCHINC
 40
1.0
  9
$FILLETRAD
 40
10.0
  9
$AUNITS
 70
     0
  9
$AUPREC
 70
     0
  9
$MENU
  1
.
  9
$ELEVATION
 40
0.0
  9
$PELEVATION
 40
0.0
  9
$THICKNESS
 40
0.0
  9
$LIMCHECK
 70
     0
  9
$CHAMFERA
 40
10.0
  9
$CHAMFERB
 40
10.0
  9
$CHAMFERC
 40
20.0
  9
$CHAMFERD
 40
0.0
  9
$SKPOLY
 70
     0
  9
$TDCREATE
 40
2456874.593217083
  9
$TDUCREATE
 40
2456874.218217083
  9
$TDUPDATE
 40
2456910.416941551
  9
$TDUUPDATE
 40
2456910.041941551
  9
$TDINDWG
 40
0.0179123495
  9
$TDUSRTIMER
 40
0.0179123380
  9
$USRTIMER
 70
     1
  9
$ANGBASE
 50
0.0
  9
$ANGDIR
 70
     0
  9
$PDMODE
 70
     0
  9
$PDSIZE
 40
0.0
  9
$PLINEWID
 40
0.0
  9
$SPLFRAME
 70
     0
  9
$SPLINETYPE
 70
     6
  9
$SPLINESEGS
 70
     8
  9
$HANDSEED
  5
43F
  9
$SURFTAB1
 70
     6
  9
$SURFTAB2
 70
     6
  9
$SURFTYPE
 70
     6
  9
$SURFU
 70
     6
  9
$SURFV
 70
     6
  9
$UCSBASE
  2

  9
$UCSNAME
  2

  9
$UCSORG
 10
0.0
 20
0.0
 30
0.0
  9
$UCSXDIR
 10
1.0
 20
0.0
 30
0.0
  9
$UCSYDIR
 10
0.0
 20
1.0
 30
0.0
  9
$UCSORTHOREF
  2

  9
$UCSORTHOVIEW
 70
     0
  9
$UCSORGTOP
 10
0.0
 20
0.0
 30
0.0
  9
$UCSORGBOTTOM
 10
0.0
 20
0.0
 30
0.0
  9
$UCSORGLEFT
 10
0.0
 20
0.0
 30
0.0
  9
$UCSORGRIGHT
 10
0.0
 20
0.0
 30
0.0
  9
$UCSORGFRONT
 10
0.0
 20
0.0
 30
0.0
  9
$UCSORGBACK
 10
0.0
 20
0.0
 30
0.0
  9
$PUCSBASE
  2

  9
$PUCSNAME
  2

  9
$PUCSORG
 10
0.0
 20
0.0
 30
0.0
  9
$PUCSXDIR
 10
1.0
 20
0.0
 30
0.0
  9
$PUCSYDIR
 10
0.0
 20
1.0
 30
0.0
  9
$PUCSORTHOREF
  2

  9
$PUCSORTHOVIEW
 70
     0
  9
$PUCSORGTOP
 10
0.0
 20
0.0
 30
0.0
  9
$PUCSORGBOTTOM
 10
0.0
 20
0.0
 30
0.0
  9
$PUCSORGLEFT
 10
0.0
 20
0.0
 30
0.0
  9
$PUCSORGRIGHT
 10
0.0
 20
0.0
 30
0.0
  9
$PUCSORGFRONT
 10
0.0
 20
0.0
 30
0.0
  9
$PUCSORGBACK
 10
0.0
 20
0.0
 30
0.0
  9
$USERI1
 70
     0
  9
$USERI2
 70
     0
  9
$USERI3
 70
     0
  9
$USERI4
 70
     0
  9
$USERI5
 70
     0
  9
$USERR1
 40
0.0
  9
$USERR2
 40
0.0
  9
$USERR3
 40
0.0
  9
$USERR4
 40
0.0
  9
$USERR5
 40
0.0
  9
$WORLDVIEW
 70
     1
  9
$SHADEDGE
 70
     3
  9
$SHADEDIF
 70
    70
  9
$TILEMODE
 70
     1
  9
$MAXACTVP
 70
    64
  9
$PINSBASE
 10
0.0
 20
0.0
 30
0.0
  9
$PLIMCHECK
 70
     0
  9
$PEXTMIN
 10
26.66076962115563
 20
20.31135699206658
 30
-0.0015258207003583
  9
$PEXTMAX
 10
240.039213369355
 20
182.8886381005154
 30
0.0000000349246037
  9
$PLIMMIN
 10
-6.350006103515625
 20
-6.349999904632568
  9
$PLIMMAX
 10
273.0499877929688
 20
209.5499939918518
  9
$UNITMODE
 70
     0
  9
$VISRETAIN
 70
     1
  9
$PLINEGEN
 70
     0
  9
$PSLTSCALE
 70
     1
  9
$TREEDEPTH
 70
  3020
  9
$CMLSTYLE
  2
Standard
  9
$CMLJUST
 70
     0
  9
$CMLSCALE
 40
20.0
  9
$PROXYGRAPHICS
 70
     1
  9
$MEASUREMENT
 70
     1
  9
$CELWEIGHT
370
    -1
  9
$ENDCAPS
280
     0
  9
$JOINSTYLE
280
     0
  9
$LWDISPLAY
290
     0
  9
$INSUNITS
 70
     4
  9
$HYPERLINKBASE
  1

  9
$STYLESHEET
  1

  9
$XEDIT
290
     1
  9
$CEPSNTYPE
380
     0
  9
$PSTYLEMODE
290
     1
  9
$FINGERPRINTGUID
  2
{FDEAD578-A652-11D2-9A35-0060089B3A3F}
  9
$VERSIONGUID
  2
{3CA45F16-D4F8-4474-9AE2-6B7A77B997BE}
  9
$EXTNAMES
290
     1
  9
$PSVPSCALE
 40
0.0
  9
$OLESTARTUP
290
     0
  9
$SORTENTS
280
   127
  9
$INDEXCTL
280
     0
  9
$HIDETEXT
280
     1
  9
$XCLIPFRAME
280
     2
  9
$HALOGAP
280
     0
  9
$OBSCOLOR
 70
   257
  9
$OBSLTYPE
280
     0
  9
$INTERSECTIONDISPLAY
280
     0
  9
$INTERSECTIONCOLOR
 70
   257
  9
$DIMASSOC
280
     2
  9
$PROJECTNAME
  1

  9
$CAMERADISPLAY
290
     0
  9
$LENSLENGTH
 40
50.0
  9
$CAMERAHEIGHT
 40
0.0
  9
$STEPSPERSEC
 40
2.0
  9
$STEPSIZE
 40
6.0
  9
$3DDWFPREC
 40
2.0
  9
$PSOLWIDTH
 40
0.25
  9
$PSOLHEIGHT
 40
4.0
  9
$LOFTANG1
 40
1.570796326794896
  9
$LOFTANG2
 40
1.570796326794896
  9
$LOFTMAG1
 40
0.0
  9
$LOFTMAG2
 40
0.0
  9
$LOFTPARAM
 70
     7
  9
$LOFTNORMALS
280
     1
  9
$LATITUDE
 40
37.795
  9
$LONGITUDE
 40
-122.394
  9
$NORTHDIRECTION
 40
0.0
  9
$TIMEZONE
 70
 -8000
  9
$LIGHTGLYPHDISPLAY
280
     1
  9
$TILEMODELIGHTSYNCH
280
     1
  9
$CMATERIAL
347
3EE
  9
$SOLIDHIST
280
     1
  9
$SHOWHIST
280
     1
  9
$DWFFRAME
280
     2
  9
$DGNFRAME
280
     0
  9
$REALWORLDSCALE
290
     1
  9
$INTERFERECOLOR
 62
     1
  9
$INTERFEREOBJVS
345
410
  9
$INTERFEREVPVS
346
40D
  9
$CSHADOW
280
     0
  9
$SHADOWPLANELOCATION
 40
0.0
  0
ENDSEC
  0
SECTION
  2
CLASSES
  0
CLASS
  1
ACDBDICTIONARYWDFLT
  2
AcDbDictionaryWithDefault
  3
ObjectDBX Classes
 90
        0
 91
        1
280
     0
281
     0
  0
CLASS
  1
DICTIONARYVAR
  2
AcDbDictionaryVar
  3
ObjectDBX Classes
 90
        0
 91
        9
280
     0
281
     0
  0
CLASS
  1
MATERIAL
  2
AcDbMaterial
  3
ObjectDBX Classes
 90
     1153
 91
        3
280
     0
281
     0
  0
CLASS
  1
VISUALSTYLE
  2
AcDbVisualStyle
  3
ObjectDBX Classes
 90
     4095
 91
       19
280
     0
281
     0
  0
CLASS
  1
TABLESTYLE
  2
AcDbTableStyle
  3
ObjectDBX Classes
 90
     4095
 91
        1
280
     0
281
     0
  0
CLASS
  1
SCALE
  2
AcDbScale
  3
ObjectDBX Classes
 90
     1153
 91
       17
280
     0
281
     0
  0
CLASS
  1
MLEADERSTYLE
  2
AcDbMLeaderStyle
  3
ACDB_MLEADERSTYLE_CLASS
 90
     4095
 91
        1
280
     0
281
     0
  0
CLASS
  1
CELLSTYLEMAP
  2
AcDbCellStyleMap
  3
ObjectDBX Classes
 90
     1152
 91
        1
280
     0
281
     0
  0
ENDSEC
  0
SECTION
  2
TABLES
  0
TABLE
  2
VPORT
  5
8
330
0
100
AcDbSymbolTable
 70
     1
  0
VPORT
  5
3EB
330
8
100
AcDbSymbolTableRecord
100
AcDbViewportTableRecord
  2
*Active
 70
     0
 10
0.0
 20
0.0
 11
1.0
 21
1.0
 12
-0.0056571152096581
 22
108.4261729407496
 13
0.0
 23
0.0
 14
10.0
 24
10.0
 15
10.0
 25
10.0
 16
0.0
 26
0.0
 36
1.0
 17
0.0
 27
0.0
 37
0.0
 40
354.8530135223998
 41
1.857142857142857
 42
50.0
 43
0.0
 44
0.0
 50
0.0
 51
0.0
 71
     0
 72
   100
 73
     1
 74
     3
 75
     0
 76
     0
 77
     0
 78
     0
281
     0
 65
     1
110
0.0
120
0.0
130
0.0
111
1.0
121
0.0
131
0.0
112
0.0
122
1.0
132
0.0
 79
     0
146
0.0
348
40C
 60
     3
 61
     5
292
     1
282
     1
141
0.0
142
0.0
 63
   250
421
  3355443
  0
ENDTAB
  0
TABLE
  2
LTYPE
  5
5
330
0
100
AcDbSymbolTable
 70
     3
  0
LTYPE
  5
14
330
5
100
AcDbSymbolTableRecord
100
AcDbLinetypeTableRecord
  2
ByBlock
 70
     0
  3

 72
    65
 73
     0
 40
0.0
  0
LTYPE
  5
15
330
5
100
AcDbSymbolTableRecord
100
AcDbLinetypeTableRecord
  2
ByLayer
 70
     0
  3

 72
    65
 73
     0
 40
0.0
  0
LTYPE
  5
16
330
5
100
AcDbSymbolTableRecord
100
AcDbLinetypeTableRecord
  2
Continuous
 70
     0
  3
Solid line
 72
    65
 73
     0
 40
0.0
  0
LTYPE
  5
8D
330
5
100
AcDbSymbolTableRecord
100
AcDbLinetypeTableRecord
  2
CENTER
 70
     0
  3
Center ____ _ ____ _ ____ _ ____ _ ____ _ ____
 72
    65
 73
     4
 40
50.8
 49
31.75
 74
     0
 49
-6.349999999999999
 74
     0
 49
6.349999999999999
 74
     0
 49
-6.349999999999999
 74
     0
  0
LTYPE
  5
8E
330
5
100
AcDbSymbolTableRecord
100
AcDbLinetypeTableRecord
  2
PHANTOM
 70
     0
  3
Phantom ______  __  __  ______  __  __  ______
 72
    65
 73
     6
 40
63.5
 49
31.75
 74
     0
 49
-6.349999999999999
 74
     0
 49
6.349999999999999
 74
     0
 49
-6.349999999999999
 74
     0
 49
6.349999999999999
 74
     0
 49
-6.349999999999999
 74
     0
  0
ENDTAB
  0
TABLE
  2
LAYER
  5
2
102
{ACAD_XDICTIONARY
360
97
102
}
330
0
100
AcDbSymbolTable
 70
     3
  0
LAYER
  5
10
102
{ACAD_XDICTIONARY
360
433
102
}
330
2
100
AcDbSymbolTableRecord
100
AcDbLayerTableRecord
  2
0
 70
     0
 62
     7
  6
Continuous
370
    -3
390
F
347
3FE
  0
LAYER
  5
8F
102
{ACAD_XDICTIONARY
360
90
102
}
330
2
100
AcDbSymbolTableRecord
100
AcDbLayerTableRecord
  2
2
 70
     0
 62
     2
  6
PHANTOM
370
    -3
390
F
347
3FE
1001
AcAecLayerStandard
1000

1000

1001
ACCMTRANSPARENCY
1071
        0
  0
LAYER
  5
92
102
{ACAD_XDICTIONARY
360
93
102
}
330
2
100
AcDbSymbolTableRecord
100
AcDbLayerTableRecord
  2
1
 70
     0
 62
     5
  6
CENTER
370
    -3
390
F
347
3FE
1001
AcAecLayerStandard
1000

1000

1001
ACCMTRANSPARENCY
1071
        0
  0
ENDTAB
  0
TABLE
  2
STYLE
  5
3
330
0
100
AcDbSymbolTable
 70
     1
  0
STYLE
  5
11
330
3
100
AcDbSymbolTableRecord
100
AcDbTextStyleTableRecord
  2
Standard
 70
     0
 40
0.0
 41
1.0
 50
0.0
 71
     0
 42
2.5
  3
txt
  4

  0
ENDTAB
  0
TABLE
  2
VIEW
  5
6
330
0
100
AcDbSymbolTable
 70
     0
  0
ENDTAB
  0
TABLE
  2
UCS
  5
7
330
0
100
AcDbSymbolTable
 70
     0
  0
ENDTAB
  0
TABLE
  2
APPID
  5
9
330
0
100
AcDbSymbolTable
 70
     3
  0
APPID
  5
12
330
9
100
AcDbSymbolTableRecord
100
AcDbRegAppTableRecord
  2
ACAD
 70
     0
  0
APPID
  5
95
330
9
100
AcDbSymbolTableRecord
100
AcDbRegAppTableRecord
  2
AcAecLayerStandard
 70
     0
  0
APPID
  5
96
330
9
100
AcDbSymbolTableRecord
100
AcDbRegAppTableRecord
  2
ACCMTRANSPARENCY
 70
     0
  0
ENDTAB
  0
TABLE
  2
DIMSTYLE
  5
A
330
0
100
AcDbSymbolTable
 70
     1
100
AcDbDimStyleTable
 71
     0
  0
DIMSTYLE
105
27
330
A
100
AcDbSymbolTableRecord
100
AcDbDimStyleTableRecord
  2
ISO-25
 70
     0
 41
2.5
 42
0.625
 43
3.75
 44
1.25
 73
     0
 74
     0
 77
     1
 78
     8
140
2.5
141
2.5
143
0.03937007874016
147
0.625
171
     3
172
     1
271
     2
272
     2
274
     3
278
    44
283
     0
284
     8
340
11
  0
ENDTAB
  0
TABLE
  2
BLOCK_RECORD
  5
1
330
0
100
AcDbSymbolTable
 70
     1
  0
BLOCK_RECORD
  5
1F
330
1
100
AcDbSymbolTableRecord
100
AcDbBlockTableRecord
  2
*Model_Space
340
22
 70
     0
280
     1
281
     0
  0
BLOCK_RECORD
  5
55
330
1
100
AcDbSymbolTableRecord
100
AcDbBlockTableRecord
  2
*Paper_Space
340
56
 70
     0
280
     1
281
     0
  0
BLOCK_RECORD
  5
50
330
1
100
AcDbSymbolTableRecord
100
AcDbBlockTableRecord
  2
*Paper_Space0
340
51
 70
     0
280
     1
281
     0
  0
ENDTAB
  0
ENDSEC
  0
SECTION
  2
BLOCKS
  0
BLOCK
  5
20
330
1F
100
AcDbEntity
  8
0
100
AcDbBlockBegin
  2
*Model_Space
 70
     0
 10
0.0
 20
0.0
 30
0.0
  3
*Model_Space
  1

  0
ENDBLK
  5
21
330
1F
100
AcDbEntity
  8
0
100
AcDbBlockEnd
  0
BLOCK
  5
57
330
55
100
AcDbEntity
 67
     1
  8
0
100
AcDbBlockBegin
  2
*Paper_Space
 70
     0
 10
0.0
 20
0.0
 30
0.0
  3
*Paper_Space
  1

  0
ENDBLK
  5
58
330
55
100
AcDbEntity
 67
     1
  8
0
100
AcDbBlockEnd
  0
BLOCK
  5
52
330
50
100
AcDbEntity
 67
     1
  8
0
100
AcDbBlockBegin
  2
*Paper_Space0
 70
     0
 10
0.0
 20
0.0
 30
0.0
  3
*Paper_Space0
  1

  0
VIEWPORT
  5
6B
330
50
100
AcDbEntity
 67
     1
  8
0
100
AcDbViewport
 10
133.3499908447266
 20
101.5999970436096
 30
0.0
 40
381.3957395593835
 41
218.2856291881582
 68
     0
 69
     0
 12
133.3499908447266
 22
101.5999970436096
 13
0.0
 23
0.0
 14
10.0
 24
10.0
 15
10.0
 25
10.0
 16
0.0
 26
0.0
 36
1.0
 17
0.0
 27
0.0
 37
0.0
 42
50.0
 43
0.0
 44
0.0
 45
218.2856291881582
 50
0.0
 51
0.0
 72
   100
 90
    32800
  1

281
     0
 71
     1
 74
     0
110
0.0
120
0.0
130
0.0
111
1.0
121
0.0
131
0.0
112
0.0
122
1.0
132
0.0
 79
     0
146
0.0
170
     0
 61
     5
348
40C
292
     1
282
     1
141
0.0
142
0.0
 63
   250
421
  3355443
  0
VIEWPORT
  5
6D
330
50
100
AcDbEntity
 67
     1
  8
0
100
AcDbViewport
 10
133.3499939441681
 20
101.5999939441681
 30
0.0
 40
213.3599903106689
 41
162.5599903106689
 68
     0
 69
     0
 12
210.0
 22
148.5
 13
0.0
 23
0.0
 14
10.0
 24
10.0
 15
10.0
 25
10.0
 16
0.0
 26
0.0
 36
1.0
 17
0.0
 27
0.0
 37
0.0
 42
50.0
 43
0.0
 44
0.0
 45
324.0677920111345
 50
0.0
 51
0.0
 72
   100
 90
    32864
  1

281
     0
 71
     1
 74
     0
110
0.0
120
0.0
130
0.0
111
1.0
121
0.0
131
0.0
112
0.0
122
1.0
132
0.0
 79
     0
146
0.0
170
     0
 61
     5
348
40C
292
     1
282
     1
141
0.0
142
0.0
 63
   250
421
  3355443
  0
ENDBLK
  5
53
330
50
100
AcDbEntity
 67
     1
  8
0
100
AcDbBlockEnd
  0
ENDSEC
  0
SECTION
  2
ENTITIES
  0
LINE
  5
23C
330
1F
100
AcDbEntity
  8
1
100
AcDbLine
 10
-0.0000000000002274
 20
29.5
 30
0.0
 11
-0.0000000000002274
 21
-67.92414354841731
 31
0.0
  0
LINE
  5
23D
330
1F
100
AcDbEntity
  8
2
100
AcDbLine
 10
-38.00000000000023
 20
0.27349853515625
 30
0.0
 11
-38.00000000000023
 21
-59.27349853515625
 31
0.0
  0
LINE
  5
23E
330
1F
100
AcDbEntity
  8
2
100
AcDbLine
 10
54.49999999999977
 20
0.27349853515625
 30
0.0
 11
54.49999999999977
 21
-59.27349853515625
 31
0.0
  0
LINE
  5
23F
330
1F
100
AcDbEntity
  8
2
100
AcDbLine
 10
50.99999999999977
 20
0.0
 30
0.0
 11
50.99999999999977
 21
-59.0
 31
0.0
  0
LINE
  5
240
330
1F
100
AcDbEntity
  8
2
100
AcDbLine
 10
54.49999999999977
 20
0.0
 30
0.0
 11
-38.00000000000023
 21
0.0
 31
0.0
  0
LINE
  5
241
330
1F
100
AcDbEntity
  8
2
100
AcDbLine
 10
-34.50000000000023
 20
0.0
 30
0.0
 11
-34.50000000000023
 21
-59.0
 31
0.0
  0
LINE
  5
242
330
1F
100
AcDbEntity
  8
2
100
AcDbLine
 10
-42.19573974609398
 20
-11.72650146484375
 30
0.0
 11
-39.70428466796898
 21
-11.72650146484375
 31
0.0
  0
LINE
  5
243
330
1F
100
AcDbEntity
  8
2
100
AcDbLine
 10
-42.19567871093772
 20
-14.61325073242187
 30
0.0
 11
-39.70434570312523
 21
-14.61325073242187
 31
0.0
  0
LINE
  5
244
330
1F
100
AcDbEntity
  8
2
100
AcDbLine
 10
-42.70001220703147
 20
-21.83013916015625
 30
0.0
 11
-42.70001220703147
 21
-13.16989135742187
 31
0.0
  0
LINE
  5
245
330
1F
100
AcDbEntity
  8
2
100
AcDbLine
 10
-42.1957702636721
 20
-20.38677978515625
 30
0.0
 11
-39.70434570312523
 21
-20.38677978515625
 31
0.0
  0
LINE
  5
246
330
1F
100
AcDbEntity
  8
2
100
AcDbLine
 10
48.99999999999977
 20
-20.0
 30
0.0
 11
-32.50000000000023
 21
-20.0
 31
0.0
  0
LINE
  5
247
330
1F
100
AcDbEntity
  8
2
100
AcDbLine
 10
48.99999999999977
 20
-39.0
 30
0.0
 11
-32.50000000000023
 21
-39.0
 31
0.0
  0
LINE
  5
248
330
1F
100
AcDbEntity
  8
2
100
AcDbLine
 10
-42.50000000000023
 20
-9.830123901367187
 30
0.0
 11
-42.50000000000023
 21
-1.169876098632812
 31
0.0
  0
LINE
  5
249
330
1F
100
AcDbEntity
  8
2
100
AcDbLine
 10
-41.99566650390647
 20
-11.27349853515625
 30
0.0
 11
-38.00000000000023
 21
-11.27349853515625
 31
0.0
  0
LINE
  5
24A
330
1F
100
AcDbEntity
  8
2
100
AcDbLine
 10
-41.99566650390647
 20
0.27349853515625
 30
0.0
 11
-38.00000000000023
 21
0.27349853515625
 31
0.0
  0
LINE
  5
24B
330
1F
100
AcDbEntity
  8
2
100
AcDbLine
 10
-41.99566650390647
 20
-2.613250732421875
 30
0.0
 11
-38.50000000000023
 21
-2.613250732421875
 31
0.0
  0
LINE
  5
24C
330
1F
100
AcDbEntity
  8
2
100
AcDbLine
 10
-38.50000000000023
 20
0.27349853515625
 30
0.0
 11
-38.50000000000023
 21
-11.27349853515625
 31
0.0
  0
LINE
  5
24D
330
1F
100
AcDbEntity
  8
2
100
AcDbLine
 10
58.99999999999977
 20
-9.830123901367187
 30
0.0
 11
58.99999999999977
 21
-1.169876098632812
 31
0.0
  0
LINE
  5
24E
330
1F
100
AcDbEntity
  8
2
100
AcDbLine
 10
-41.99566650390647
 20
-8.386749267577897
 30
0.0
 11
-38.50000000000023
 21
-8.386749267577897
 31
0.0
  0
LINE
  5
24F
330
1F
100
AcDbEntity
  8
2
100
AcDbLine
 10
58.49566650390602
 20
-11.27349853515625
 30
0.0
 11
54.49999999999977
 21
-11.27349853515625
 31
0.0
  0
LINE
  5
250
330
1F
100
AcDbEntity
  8
2
100
AcDbLine
 10
58.49566650390602
 20
-8.386749267577897
 30
0.0
 11
54.99999999999977
 21
-8.386749267577897
 31
0.0
  0
LINE
  5
251
330
1F
100
AcDbEntity
  8
2
100
AcDbLine
 10
58.49566650390602
 20
-2.613250732421875
 30
0.0
 11
54.99999999999977
 21
-2.613250732421875
 31
0.0
  0
LINE
  5
252
330
1F
100
AcDbEntity
  8
2
100
AcDbLine
 10
-42.19567871093772
 20
-23.27352905273437
 30
0.0
 11
-39.70434570312523
 21
-23.27352905273437
 31
0.0
  0
LINE
  5
253
330
1F
100
AcDbEntity
  8
2
100
AcDbLine
 10
54.99999999999977
 20
0.27349853515625
 30
0.0
 11
54.99999999999977
 21
-11.27349853515625
 31
0.0
  0
LINE
  5
254
330
1F
100
AcDbEntity
  8
2
100
AcDbLine
 10
58.49566650390602
 20
0.27349853515625
 30
0.0
 11
54.49999999999977
 21
0.27349853515625
 31
0.0
  0
LINE
  5
255
330
1F
100
AcDbEntity
  8
2
100
AcDbLine
 10
58.49566650390602
 20
-47.72650146484375
 30
0.0
 11
54.49999999999977
 21
-47.72650146484375
 31
0.0
  0
LINE
  5
256
330
1F
100
AcDbEntity
  8
2
100
AcDbLine
 10
58.49566650390602
 20
-59.27349853515625
 30
0.0
 11
54.49999999999977
 21
-59.27349853515625
 31
0.0
  0
LINE
  5
257
330
1F
100
AcDbEntity
  8
2
100
AcDbLine
 10
58.49566650390602
 20
-50.61325073242187
 30
0.0
 11
54.99999999999977
 21
-50.61325073242187
 31
0.0
  0
LINE
  5
258
330
1F
100
AcDbEntity
  8
2
100
AcDbLine
 10
58.99999999999977
 20
-49.16987609863281
 30
0.0
 11
58.99999999999977
 21
-57.83012390136718
 31
0.0
  0
LINE
  5
259
330
1F
100
AcDbEntity
  8
0
100
AcDbLine
 10
-18.10285873976267
 20
17.0
 30
0.0
 11
-0.0000000000002274
 21
17.0
 31
0.0
  0
LINE
  5
25A
330
1F
100
AcDbEntity
  8
0
100
AcDbLine
 10
-18.10285475803613
 20
23.5000000000008
 30
0.0
 11
-0.0000000000002274
 21
23.50000000000023
 31
0.0
  0
LINE
  5
25B
330
1F
100
AcDbEntity
  8
2
100
AcDbLine
 10
54.49999999999977
 20
-59.0
 30
0.0
 11
-38.00000000000023
 21
-59.0
 31
0.0
  0
LINE
  5
25C
330
1F
100
AcDbEntity
  8
2
100
AcDbLine
 10
42.49999999999977
 20
-54.0
 30
0.0
 11
24.49999999999977
 21
-54.0
 31
0.0
  0
LINE
  5
25D
330
1F
100
AcDbEntity
  8
2
100
AcDbLine
 10
23.49999999999966
 20
-44.0
 30
0.0
 11
23.49999999999966
 21
-53.0
 31
0.0
  0
LINE
  5
25E
330
1F
100
AcDbEntity
  8
2
100
AcDbLine
 10
42.49999999999977
 20
-43.0
 30
0.0
 11
24.49999999999977
 21
-43.0
 31
0.0
  0
LINE
  5
25F
330
1F
100
AcDbEntity
  8
2
100
AcDbLine
 10
43.49999999999977
 20
-44.0
 30
0.0
 11
43.49999999999977
 21
-53.0
 31
0.0
  0
LINE
  5
260
330
1F
100
AcDbEntity
  8
2
100
AcDbLine
 10
-49.00000000000023
 20
-20.0137939453125
 30
0.0
 11
-42.70001220703147
 21
-20.0137939453125
 31
0.0
  0
LINE
  5
261
330
1F
100
AcDbEntity
  8
2
100
AcDbLine
 10
-49.00000000000023
 20
-15.09678649902344
 30
0.0
 11
-42.70001220703147
 21
-15.09678649902344
 31
0.0
  0
LINE
  5
262
330
1F
100
AcDbEntity
  8
2
100
AcDbLine
 10
58.69566345214821
 20
-23.27352905273437
 30
0.0
 11
56.20433044433571
 21
-23.27352905273437
 31
0.0
  0
LINE
  5
263
330
1F
100
AcDbEntity
  8
2
100
AcDbLine
 10
65.49999999999977
 20
-20.5
 30
0.0
 11
65.49999999999977
 21
-14.5
 31
0.0
  0
LINE
  5
264
330
1F
100
AcDbEntity
  8
2
100
AcDbLine
 10
55.69999694824196
 20
-23.80528259277344
 30
0.0
 11
55.69999694824196
 21
-11.30528259277344
 31
0.0
  0
LINE
  5
265
330
1F
100
AcDbEntity
  8
2
100
AcDbLine
 10
59.19999694824196
 20
-21.83013916015625
 30
0.0
 11
59.19999694824196
 21
-13.16989135742187
 31
0.0
  0
LINE
  5
266
330
1F
100
AcDbEntity
  8
2
100
AcDbLine
 10
65.49999999999977
 20
-14.5
 30
0.0
 11
59.19999694824196
 21
-14.5
 31
0.0
  0
LINE
  5
267
330
1F
100
AcDbEntity
  8
2
100
AcDbLine
 10
58.69567871093727
 20
-14.61325073242187
 30
0.0
 11
56.20433044433571
 21
-14.61325073242187
 31
0.0
  0
LINE
  5
268
330
1F
100
AcDbEntity
  8
2
100
AcDbLine
 10
65.49999999999977
 20
-20.5
 30
0.0
 11
59.19999694824196
 21
-20.5
 31
0.0
  0
LINE
  5
269
330
1F
100
AcDbEntity
  8
2
100
AcDbLine
 10
58.49566650390602
 20
-56.38674926757812
 30
0.0
 11
54.99999999999977
 21
-56.38674926757812
 31
0.0
  0
LINE
  5
26A
330
1F
100
AcDbEntity
  8
2
100
AcDbLine
 10
-42.50000000000023
 20
-49.16987609863281
 30
0.0
 11
-42.50000000000023
 21
-57.83012390136718
 31
0.0
  0
LINE
  5
26B
330
1F
100
AcDbEntity
  8
2
100
AcDbLine
 10
-41.99566650390647
 20
-47.72650146484375
 30
0.0
 11
-38.00000000000023
 21
-47.72650146484375
 31
0.0
  0
LINE
  5
26C
330
1F
100
AcDbEntity
  8
2
100
AcDbLine
 10
-41.99566650390647
 20
-59.27349853515625
 30
0.0
 11
-38.00000000000023
 21
-59.27349853515625
 31
0.0
  0
LINE
  5
26D
330
1F
100
AcDbEntity
  8
2
100
AcDbLine
 10
65.49999999999977
 20
-20.0137939453125
 30
0.0
 11
59.19999694824196
 21
-20.0137939453125
 31
0.0
  0
LINE
  5
26E
330
1F
100
AcDbEntity
  8
2
100
AcDbLine
 10
54.99999999999977
 20
-59.27349853515625
 30
0.0
 11
54.99999999999977
 21
-47.72650146484375
 31
0.0
  0
LINE
  5
26F
330
1F
100
AcDbEntity
  8
2
100
AcDbLine
 10
-49.00000000000023
 20
-20.5
 30
0.0
 11
-42.70001220703147
 21
-20.5
 31
0.0
  0
LINE
  5
270
330
1F
100
AcDbEntity
  8
2
100
AcDbLine
 10
-39.20001220703148
 20
-23.80528259277344
 30
0.0
 11
-38.00000000000023
 21
-23.80528259277344
 31
0.0
  0
LINE
  5
271
330
1F
100
AcDbEntity
  8
2
100
AcDbLine
 10
-49.00000000000023
 20
-14.5
 30
0.0
 11
-42.70001220703147
 21
-14.5
 31
0.0
  0
LINE
  5
272
330
1F
100
AcDbEntity
  8
2
100
AcDbLine
 10
-39.20001220703148
 20
-23.80528259277344
 30
0.0
 11
-39.20001220703148
 21
-11.30528259277344
 31
0.0
  0
LINE
  5
273
330
1F
100
AcDbEntity
  8
2
100
AcDbLine
 10
-49.00000000000023
 20
-20.5
 30
0.0
 11
-49.00000000000023
 21
-14.5
 31
0.0
  0
LINE
  5
274
330
1F
100
AcDbEntity
  8
2
100
AcDbLine
 10
55.69999694824196
 20
-11.30528259277344
 30
0.0
 11
54.49999999999977
 21
-11.30528259277344
 31
0.0
  0
LINE
  5
275
330
1F
100
AcDbEntity
  8
2
100
AcDbLine
 10
58.69573974609352
 20
-20.38677978515625
 30
0.0
 11
56.20433044433571
 21
-20.38677978515625
 31
0.0
  0
LINE
  5
276
330
1F
100
AcDbEntity
  8
0
100
AcDbLine
 10
19.99999999999971
 20
242.0178213078278
 30
0.0
 11
15.60000610351528
 21
242.0178213078278
 31
0.0
  0
LINE
  5
277
330
1F
100
AcDbEntity
  8
0
100
AcDbLine
 10
3.999918323882184
 20
221.285686266843
 30
0.0
 11
3.999922244353626
 21
221.7677114133115
 31
0.0
  0
LINE
  5
278
330
1F
100
AcDbEntity
  8
2
100
AcDbLine
 10
55.69999694824196
 20
-23.80528259277344
 30
0.0
 11
54.49999999999977
 21
-23.80528259277344
 31
0.0
  0
LINE
  5
279
330
1F
100
AcDbEntity
  8
2
100
AcDbLine
 10
58.69572448730446
 20
-11.72650146484375
 30
0.0
 11
56.20426940917946
 21
-11.72650146484375
 31
0.0
  0
LINE
  5
27A
330
1F
100
AcDbEntity
  8
2
100
AcDbLine
 10
65.49999999999977
 20
-15.09678649902344
 30
0.0
 11
59.19999694824196
 21
-15.09678649902344
 31
0.0
  0
LINE
  5
27B
330
1F
100
AcDbEntity
  8
0
100
AcDbLine
 10
-27.00000000000029
 20
211.0178213078278
 30
0.0
 11
-0.0000000000002842
 21
211.0178213078278
 31
0.0
  0
LINE
  5
27C
330
1F
100
AcDbEntity
  8
2
100
AcDbLine
 10
-39.20001220703148
 20
-11.30528259277344
 30
0.0
 11
-38.00000000000023
 21
-11.30528259277344
 31
0.0
  0
LINE
  5
27D
330
1F
100
AcDbEntity
  8
0
100
AcDbLine
 10
-27.00000000000029
 20
217.0178213078278
 30
0.0
 11
-13.4163970947269
 21
217.0178213078278
 31
0.0
  0
LINE
  5
27E
330
1F
100
AcDbEntity
  8
2
100
AcDbLine
 10
-41.99566650390647
 20
-50.61325073242187
 30
0.0
 11
-38.50000000000023
 21
-50.61325073242187
 31
0.0
  0
LINE
  5
27F
330
1F
100
AcDbEntity
  8
2
100
AcDbLine
 10
-41.99566650390647
 20
-56.38674926757812
 30
0.0
 11
-38.50000000000023
 21
-56.38674926757812
 31
0.0
  0
LINE
  5
280
330
1F
100
AcDbEntity
  8
2
100
AcDbLine
 10
-38.50000000000023
 20
-59.27349853515625
 30
0.0
 11
-38.50000000000023
 21
-47.72650146484375
 31
0.0
  0
LINE
  5
281
330
1F
100
AcDbEntity
  8
0
100
AcDbLine
 10
11.99999999999971
 20
24.49999999999989
 30
0.0
 11
-12.00000000000017
 21
24.50000000000034
 31
0.0
  0
LINE
  5
282
330
1F
100
AcDbEntity
  8
1
100
AcDbLine
 10
-44.40213775634794
 20
223.0178213078278
 30
0.0
 11
63.00000187754602
 21
223.0178213078278
 31
0.0
  0
LINE
  5
283
330
1F
100
AcDbEntity
  8
0
100
AcDbLine
 10
-27.00000000000029
 20
217.0178213078278
 30
0.0
 11
-27.00000000000029
 21
211.0178213078278
 31
0.0
  0
LINE
  5
284
330
1F
100
AcDbEntity
  8
0
100
AcDbLine
 10
5.999999999999715
 20
238.5178213078278
 30
0.0
 11
11.99999999999971
 21
238.5178213078278
 31
0.0
  0
LINE
  5
285
330
1F
100
AcDbEntity
  8
0
100
AcDbLine
 10
-15.50000000000034
 20
217.0178213078278
 30
0.0
 11
-15.50000000000034
 21
211.0178213078278
 31
0.0
  0
LINE
  5
286
330
1F
100
AcDbEntity
  8
0
100
AcDbLine
 10
3.999948805259293
 20
221.2856878934113
 30
0.0
 11
6.999971359877235
 21
223.0177190609796
 31
0.0
  0
LINE
  5
287
330
1F
100
AcDbEntity
  8
0
100
AcDbLine
 10
-4.000057421800477
 20
224.2678069974766
 30
0.0
 11
-4.000053501080799
 21
224.7498626615232
 31
0.0
  0
LINE
  5
288
330
1F
100
AcDbEntity
  8
0
100
AcDbLine
 10
3.999922244352262
 20
221.7677114133115
 30
0.0
 11
-4.000077755383244
 21
221.7677764799812
 31
0.0
  0
LINE
  5
289
330
1F
100
AcDbEntity
  8
0
100
AcDbLine
 10
-12.00000000000028
 20
217.6058034855621
 30
0.0
 11
-12.00000000000028
 21
211.0178213078278
 31
0.0
  0
LINE
  5
28A
330
1F
100
AcDbEntity
  8
0
100
AcDbLine
 10
5.999999999999715
 20
250.0178213078278
 30
0.0
 11
11.99999999999971
 21
250.0178213078278
 31
0.0
  0
LINE
  5
28B
330
1F
100
AcDbEntity
  8
0
100
AcDbLine
 10
3.999942577934859
 20
224.267741930807
 30
0.0
 11
-4.000057421800534
 21
224.2678069974768
 31
0.0
  0
LINE
  5
28C
330
1F
100
AcDbEntity
  8
0
100
AcDbLine
 10
5.412033081054403
 20
235.0178213078278
 30
0.0
 11
11.99999999999971
 21
235.0178213078278
 31
0.0
  0
LINE
  5
28D
330
1F
100
AcDbEntity
  8
0
100
AcDbLine
 10
-7.000042472705615
 20
223.0178118233144
 30
0.0
 11
-4.000025009470391
 21
221.2857184314485
 31
0.0
  0
LINE
  5
28E
330
1F
100
AcDbEntity
  8
0
100
AcDbLine
 10
11.99999999999971
 20
250.0178213078278
 30
0.0
 11
11.99999999999971
 21
223.0178213078278
 31
0.0
  0
LINE
  5
28F
330
1F
100
AcDbEntity
  8
0
100
AcDbLine
 10
5.999999999999715
 20
250.0178213078278
 30
0.0
 11
5.999999999999715
 21
236.4342336613434
 31
0.0
  0
LINE
  5
290
330
1F
100
AcDbEntity
  8
0
100
AcDbLine
 10
-4.000081675854346
 20
221.2857513335128
 30
0.0
 11
-4.000077755382903
 21
221.7677764799812
 31
0.0
  0
LINE
  5
291
330
1F
100
AcDbEntity
  8
0
100
AcDbLine
 10
15.09570312499971
 20
239.2443227726715
 30
0.0
 11
12.47554016113247
 21
239.2443227726715
 31
0.0
  0
LINE
  5
292
330
1F
100
AcDbEntity
  8
0
100
AcDbLine
 10
-6.999961057119946
 20
223.0178640619725
 30
0.0
 11
-3.99996502794471
 21
224.749880137802
 31
0.0
  0
LINE
  5
293
330
1F
100
AcDbEntity
  8
0
100
AcDbLine
 10
4.000011625404852
 20
224.7497501427452
 30
0.0
 11
7.000009860601892
 21
223.0176678524006
 31
0.0
  0
LINE
  5
294
330
1F
100
AcDbEntity
  8
0
100
AcDbLine
 10
3.999942577936053
 20
224.2677419308068
 30
0.0
 11
3.999946498655674
 21
224.7497975948534
 31
0.0
  0
LINE
  5
295
330
1F
100
AcDbEntity
  8
0
100
AcDbLine
 10
5.999999999999715
 20
242.0178213078278
 30
0.0
 11
1.000015258788778
 21
242.0178213078278
 31
0.0
  0
LINE
  5
296
330
1F
100
AcDbEntity
  8
0
100
AcDbLine
 10
15.60000610351534
 20
249.347960467984
 30
0.0
 11
15.60000610351534
 21
240.6877126652497
 31
0.0
  0
LINE
  5
297
330
1F
100
AcDbEntity
  8
0
100
AcDbLine
 10
15.12448120117153
 20
247.9045705754059
 30
0.0
 11
12.47554016113247
 21
247.9045705754059
 31
0.0
  0
LINE
  5
298
330
1F
100
AcDbEntity
  8
0
100
AcDbLine
 10
15.12448120117153
 20
242.1310720402496
 30
0.0
 11
12.47554016113247
 21
242.1310720402496
 31
0.0
  0
LINE
  5
299
330
1F
100
AcDbEntity
  8
0
100
AcDbLine
 10
15.12448120117153
 20
250.791319842984
 30
0.0
 11
12.47554016113247
 21
250.791319842984
 31
0.0
  0
LINE
  5
29A
330
1F
100
AcDbEntity
  8
0
100
AcDbLine
 10
19.99999999999971
 20
250.791319842984
 30
0.0
 11
19.99999999999971
 21
239.2443227726715
 31
0.0
  0
LINE
  5
29B
330
1F
100
AcDbEntity
  8
0
100
AcDbLine
 10
0.9999999999997157
 20
248.0178213078278
 30
0.0
 11
0.9999999999997157
 21
242.0178213078278
 31
0.0
  0
LINE
  5
29C
330
1F
100
AcDbEntity
  8
0
100
AcDbLine
 10
1.000001756601875
 20
242.0178261248218
 30
0.0
 11
0.0000006778981856
 21
243.0178272035255
 31
0.0
  0
LINE
  5
29D
330
1F
100
AcDbEntity
  8
0
100
AcDbLine
 10
1.000012546195762
 20
248.017821807453
 30
0.0
 11
0.0000114674920155
 21
247.0178207287491
 31
0.0
  0
LINE
  5
29E
330
1F
100
AcDbEntity
  8
0
100
AcDbLine
 10
23.49569702148404
 20
250.791319842984
 30
0.0
 11
19.99999999999971
 21
250.791319842984
 31
0.0
  0
LINE
  5
29F
330
1F
100
AcDbEntity
  8
0
100
AcDbLine
 10
23.49569702148404
 20
247.9045705754059
 30
0.0
 11
19.99999999999971
 21
247.9045705754059
 31
0.0
  0
LINE
  5
2A0
330
1F
100
AcDbEntity
  8
0
100
AcDbLine
 10
23.49569702148404
 20
239.2443227726715
 30
0.0
 11
19.99999999999971
 21
239.2443227726715
 31
0.0
  0
LINE
  5
2A1
330
1F
100
AcDbEntity
  8
0
100
AcDbLine
 10
23.99999999999971
 20
249.347960467984
 30
0.0
 11
23.99999999999971
 21
240.6877126652497
 31
0.0
  0
LINE
  5
2A2
330
1F
100
AcDbEntity
  8
0
100
AcDbLine
 10
23.49569702148404
 20
242.1310720402496
 30
0.0
 11
19.99999999999971
 21
242.1310720402496
 31
0.0
  0
LINE
  5
2A3
330
1F
100
AcDbEntity
  8
0
100
AcDbLine
 10
5.999999999999715
 20
247.4178152043121
 30
0.0
 11
0.4000091552730965
 21
247.4178152043121
 31
0.0
  0
LINE
  5
2A4
330
1F
100
AcDbEntity
  8
0
100
AcDbLine
 10
5.999999999999715
 20
242.6178274113434
 30
0.0
 11
0.4000091552730965
 21
242.6178274113434
 31
0.0
  0
LINE
  5
2A5
330
1F
100
AcDbEntity
  8
0
100
AcDbLine
 10
5.999999999999715
 20
248.0178213078278
 30
0.0
 11
1.000015258788778
 21
248.0178213078278
 31
0.0
  0
LINE
  5
2A6
330
1F
100
AcDbEntity
  8
0
100
AcDbLine
 10
19.99999999999971
 20
247.4178152043121
 30
0.0
 11
15.60000610351528
 21
247.4178152043121
 31
0.0
  0
LINE
  5
2A7
330
1F
100
AcDbEntity
  8
0
100
AcDbLine
 10
19.99999999999971
 20
242.6178274113434
 30
0.0
 11
15.60000610351528
 21
242.6178274113434
 31
0.0
  0
LINE
  5
2A8
330
1F
100
AcDbEntity
  8
0
100
AcDbLine
 10
19.99999999999971
 20
248.0178213078278
 30
0.0
 11
15.60000610351528
 21
248.0178213078278
 31
0.0
  0
LINE
  5
2A9
330
1F
100
AcDbEntity
  8
2
100
AcDbLine
 10
54.99999999999971
 20
208.791319842984
 30
0.0
 11
54.49999999999971
 21
208.791319842984
 31
0.0
  0
LINE
  5
2AA
330
1F
100
AcDbEntity
  8
2
100
AcDbLine
 10
5.999999999999715
 20
248.5178068481224
 30
0.0
 11
-38.00000000000029
 21
248.5178068481224
 31
0.0
  0
LINE
  5
2AB
330
1F
100
AcDbEntity
  8
2
100
AcDbLine
 10
58.99999999999971
 20
200.5178213078275
 30
0.0
 11
58.99999999999971
 21
205.5178213078276
 31
0.0
  0
LINE
  5
2AC
330
1F
100
AcDbEntity
  8
2
100
AcDbLine
 10
54.99999999999971
 20
248.7913198429838
 30
0.0
 11
54.99999999999971
 21
237.2443227726713
 31
0.0
  0
LINE
  5
2AD
330
1F
100
AcDbEntity
  8
2
100
AcDbLine
 10
54.99999999999971
 20
237.2443227726715
 30
0.0
 11
54.49999999999971
 21
237.2443227726715
 31
0.0
  0
LINE
  5
2AE
330
1F
100
AcDbEntity
  8
2
100
AcDbLine
 10
58.4956831932065
 20
203.0178213078278
 30
0.0
 11
54.99999999999971
 21
203.0178213078278
 31
0.0
  0
LINE
  5
2AF
330
1F
100
AcDbEntity
  8
2
100
AcDbLine
 10
-42.50000000000028
 20
240.5178213078276
 30
0.0
 11
-42.50000000000028
 21
245.5178213078275
 31
0.0
  0
LINE
  5
2B0
330
1F
100
AcDbEntity
  8
2
100
AcDbLine
 10
58.4956831932065
 20
208.0178213078278
 30
0.0
 11
54.99999999999971
 21
208.0178213078278
 31
0.0
  0
LINE
  5
2B1
330
1F
100
AcDbEntity
  8
2
100
AcDbLine
 10
54.99999999999971
 20
197.2443227726715
 30
0.0
 11
54.49999999999971
 21
197.2443227726715
 31
0.0
  0
LINE
  5
2B2
330
1F
100
AcDbEntity
  8
2
100
AcDbLine
 10
54.99999999999971
 20
208.7913198429838
 30
0.0
 11
54.99999999999971
 21
197.2443227726713
 31
0.0
  0
LINE
  5
2B3
330
1F
100
AcDbEntity
  8
2
100
AcDbLine
 10
58.4956831932065
 20
238.0178213078278
 30
0.0
 11
54.99999999999971
 21
238.0178213078278
 31
0.0
  0
LINE
  5
2B4
330
1F
100
AcDbEntity
  8
2
100
AcDbLine
 10
58.4956831932065
 20
243.0178213078278
 30
0.0
 11
54.99999999999971
 21
243.0178213078278
 31
0.0
  0
LINE
  5
2B5
330
1F
100
AcDbEntity
  8
2
100
AcDbLine
 10
58.4956831932065
 20
248.0178213078278
 30
0.0
 11
54.99999999999971
 21
248.0178213078278
 31
0.0
  0
LINE
  5
2B6
330
1F
100
AcDbEntity
  8
2
100
AcDbLine
 10
58.99999999999971
 20
240.5178213078276
 30
0.0
 11
58.99999999999971
 21
245.5178213078275
 31
0.0
  0
LINE
  5
2B7
330
1F
100
AcDbEntity
  8
2
100
AcDbLine
 10
-39.20000002384245
 20
228.7125387150543
 30
0.0
 11
-38.00000000000029
 21
228.7125387150543
 31
0.0
  0
LINE
  5
2B8
330
1F
100
AcDbEntity
  8
0
100
AcDbLine
 10
15.60000610351528
 20
248.5178068481224
 30
0.0
 11
19.99999999999971
 21
248.5178068481224
 31
0.0
  0
LINE
  5
2B9
330
1F
100
AcDbEntity
  8
2
100
AcDbLine
 10
-41.99568319320706
 20
208.0178213078278
 30
0.0
 11
-38.50000000000023
 21
208.0178213078278
 31
0.0
  0
LINE
  5
2BA
330
1F
100
AcDbEntity
  8
2
100
AcDbLine
 10
-41.99568319320706
 20
203.0178213078278
 30
0.0
 11
-38.50000000000023
 21
203.0178213078278
 31
0.0
  0
LINE
  5
2BB
330
1F
100
AcDbEntity
  8
2
100
AcDbLine
 10
-38.50000000000023
 20
237.2443227726715
 30
0.0
 11
-38.00000000000029
 21
237.2443227726715
 31
0.0
  0
LINE
  5
2BC
330
1F
100
AcDbEntity
  8
2
100
AcDbLine
 10
-38.50000000000023
 20
248.791319842984
 30
0.0
 11
-38.00000000000029
 21
248.791319842984
 31
0.0
  0
LINE
  5
2BD
330
1F
100
AcDbEntity
  8
2
100
AcDbLine
 10
5.999999999999715
 20
250.017821307828
 30
0.0
 11
-38.00000000000029
 21
250.0178213078278
 31
0.0
  0
LINE
  5
2BE
330
1F
100
AcDbEntity
  8
2
100
AcDbLine
 10
-42.19568321704929
 20
235.0178213078278
 30
0.0
 11
-39.70431657759059
 21
235.0178213078278
 31
0.0
  0
LINE
  5
2BF
330
1F
100
AcDbEntity
  8
2
100
AcDbLine
 10
65.49999999999972
 20
232.0178213078278
 30
0.0
 11
59.20000002384194
 21
232.0178213078278
 31
0.0
  0
LINE
  5
2C0
330
1F
100
AcDbEntity
  8
2
100
AcDbLine
 10
58.4956831932065
 20
198.0178213078277
 30
0.0
 11
54.99999999999971
 21
198.0178213078277
 31
0.0
  0
LINE
  5
2C1
330
1F
100
AcDbEntity
  8
2
100
AcDbLine
 10
-42.7000000238425
 20
232.5178213078276
 30
0.0
 11
-42.7000000238425
 21
237.5178213078275
 31
0.0
  0
LINE
  5
2C2
330
1F
100
AcDbEntity
  8
2
100
AcDbLine
 10
55.70000002384194
 20
228.7125387150543
 30
0.0
 11
54.49999999999971
 21
228.7125387150543
 31
0.0
  0
LINE
  5
2C3
330
1F
100
AcDbEntity
  8
2
100
AcDbLine
 10
-38.50000000000028
 20
248.7913198429838
 30
0.0
 11
-38.50000000000028
 21
237.2443227726713
 31
0.0
  0
LINE
  5
2C4
330
1F
100
AcDbEntity
  8
2
100
AcDbLine
 10
-49.00000000000023
 20
238.0178213078278
 30
0.0
 11
-42.7000000238425
 21
238.0178213078278
 31
0.0
  0
LINE
  5
2C5
330
1F
100
AcDbEntity
  8
2
100
AcDbLine
 10
59.20000002384194
 20
232.5178213078276
 30
0.0
 11
59.20000002384194
 21
237.5178213078275
 31
0.0
  0
LINE
  5
2C6
330
1F
100
AcDbEntity
  8
2
100
AcDbLine
 10
-49.00000000000023
 20
237.4210387150543
 30
0.0
 11
-42.7000000238425
 21
237.4210387150543
 31
0.0
  0
LINE
  5
2C7
330
1F
100
AcDbEntity
  8
2
100
AcDbLine
 10
-49.00000000000023
 20
232.0178213078278
 30
0.0
 11
-42.7000000238425
 21
232.0178213078278
 31
0.0
  0
LINE
  5
2C8
330
1F
100
AcDbEntity
  8
2
100
AcDbLine
 10
-42.19568321704929
 20
230.0178213078278
 30
0.0
 11
-39.70431657759059
 21
230.0178213078278
 31
0.0
  0
LINE
  5
2C9
330
1F
100
AcDbEntity
  8
2
100
AcDbLine
 10
-39.20000002384251
 20
228.7125387150541
 30
0.0
 11
-39.20000002384251
 21
237.5178213078275
 31
0.0
  0
LINE
  5
2CA
330
1F
100
AcDbEntity
  8
2
100
AcDbLine
 10
-41.99568319320706
 20
248.0178213078278
 30
0.0
 11
-38.50000000000023
 21
248.0178213078278
 31
0.0
  0
LINE
  5
2CB
330
1F
100
AcDbEntity
  8
2
100
AcDbLine
 10
58.69568321704872
 20
235.0178213078278
 30
0.0
 11
56.20431657759008
 21
235.0178213078278
 31
0.0
  0
LINE
  5
2CC
330
1F
100
AcDbEntity
  8
2
100
AcDbLine
 10
-41.99568319320706
 20
243.0178213078278
 30
0.0
 11
-38.50000000000023
 21
243.0178213078278
 31
0.0
  0
LINE
  5
2CD
330
1F
100
AcDbEntity
  8
2
100
AcDbLine
 10
65.49999999999972
 20
232.5040387150544
 30
0.0
 11
59.20000002384194
 21
232.5040387150544
 31
0.0
  0
LINE
  5
2CE
330
1F
100
AcDbEntity
  8
2
100
AcDbLine
 10
58.69568321704872
 20
230.0178213078278
 30
0.0
 11
56.20431657759008
 21
230.0178213078278
 31
0.0
  0
LINE
  5
2CF
330
1F
100
AcDbEntity
  8
2
100
AcDbLine
 10
-42.50000000000028
 20
200.5178213078275
 30
0.0
 11
-42.50000000000028
 21
205.5178213078276
 31
0.0
  0
LINE
  5
2D0
330
1F
100
AcDbEntity
  8
2
100
AcDbLine
 10
-38.50000000000023
 20
208.791319842984
 30
0.0
 11
-38.00000000000029
 21
208.791319842984
 31
0.0
  0
LINE
  5
2D1
330
1F
100
AcDbEntity
  8
2
100
AcDbLine
 10
-41.99568319320706
 20
198.0178213078277
 30
0.0
 11
-38.50000000000023
 21
198.0178213078277
 31
0.0
  0
LINE
  5
2D2
330
1F
100
AcDbEntity
  8
2
100
AcDbLine
 10
55.70000002384194
 20
228.7125387150541
 30
0.0
 11
55.70000002384194
 21
237.5178213078275
 31
0.0
  0
LINE
  5
2D3
330
1F
100
AcDbEntity
  8
2
100
AcDbLine
 10
-38.00000000000029
 20
250.0178213078275
 30
0.0
 11
-38.00000000000029
 21
196.0178213078275
 31
0.0
  0
LINE
  5
2D4
330
1F
100
AcDbEntity
  8
2
100
AcDbLine
 10
54.99999999999971
 20
248.791319842984
 30
0.0
 11
54.49999999999971
 21
248.791319842984
 31
0.0
  0
LINE
  5
2D5
330
1F
100
AcDbEntity
  8
2
100
AcDbLine
 10
-41.99568319320706
 20
238.0178213078278
 30
0.0
 11
-38.50000000000023
 21
238.0178213078278
 31
0.0
  0
LINE
  5
2D6
330
1F
100
AcDbEntity
  8
0
100
AcDbLine
 10
15.60000610351528
 20
250.0178213078278
 30
0.0
 11
19.99999999999971
 21
250.0178213078278
 31
0.0
  0
LINE
  5
2D7
330
1F
100
AcDbEntity
  8
2
100
AcDbLine
 10
54.49999999999971
 20
248.5178068481224
 30
0.0
 11
23.84622407162442
 21
248.5178068481224
 31
0.0
  0
LINE
  5
2D8
330
1F
100
AcDbEntity
  8
2
100
AcDbLine
 10
19.99999999999971
 20
248.5178068481224
 30
0.0
 11
15.60000610351534
 21
248.5178068481224
 31
0.0
  0
LINE
  5
2D9
330
1F
100
AcDbEntity
  8
2
100
AcDbLine
 10
-49.00000000000023
 20
232.5040387150544
 30
0.0
 11
-42.7000000238425
 21
232.5040387150544
 31
0.0
  0
LINE
  5
2DA
330
1F
100
AcDbEntity
  8
2
100
AcDbLine
 10
54.49999999999971
 20
250.0178213078278
 30
0.0
 11
23.90108650214267
 21
250.0178213078275
 31
0.0
  0
LINE
  5
2DB
330
1F
100
AcDbEntity
  8
2
100
AcDbLine
 10
-49.00000000000028
 20
232.0178213078275
 30
0.0
 11
-49.00000000000028
 21
238.0178213078275
 31
0.0
  0
LINE
  5
2DC
330
1F
100
AcDbEntity
  8
2
100
AcDbLine
 10
65.49999999999972
 20
237.4210387150543
 30
0.0
 11
59.20000002384194
 21
237.4210387150543
 31
0.0
  0
LINE
  5
2DD
330
1F
100
AcDbEntity
  8
2
100
AcDbLine
 10
65.49999999999972
 20
238.0178213078278
 30
0.0
 11
59.20000002384194
 21
238.0178213078278
 31
0.0
  0
LINE
  5
2DE
330
1F
100
AcDbEntity
  8
2
100
AcDbLine
 10
65.49999999999972
 20
232.0178213078275
 30
0.0
 11
65.49999999999972
 21
238.0178213078275
 31
0.0
  0
LINE
  5
2DF
330
1F
100
AcDbEntity
  8
2
100
AcDbLine
 10
-37.00003051757841
 20
197.517819481262
 30
0.0
 11
-38.00000000000029
 21
197.517819481262
 31
0.0
  0
LINE
  5
2E0
330
1F
100
AcDbEntity
  8
2
100
AcDbLine
 10
-38.50000000000023
 20
197.2443227726715
 30
0.0
 11
-38.00000000000029
 21
197.2443227726715
 31
0.0
  0
LINE
  5
2E1
330
1F
100
AcDbEntity
  8
2
100
AcDbLine
 10
12.71652887182927
 20
196.0178213078278
 30
0.0
 11
-12.71652887183018
 21
196.0178213078278
 31
0.0
  0
LINE
  5
2E2
330
1F
100
AcDbEntity
  8
2
100
AcDbLine
 10
12.17057416569554
 20
197.517819481262
 30
0.0
 11
-12.17057416569679
 21
197.517819481262
 31
0.0
  0
LINE
  5
2E3
330
1F
100
AcDbEntity
  8
2
100
AcDbLine
 10
-34.50000000000029
 20
250.0178213078275
 30
0.0
 11
-34.50000000000029
 21
207.5738845349158
 31
0.0
  0
LINE
  5
2E4
330
1F
100
AcDbEntity
  8
2
100
AcDbLine
 10
50.99999999999972
 20
250.0178213078275
 30
0.0
 11
50.99999999999972
 21
196.0178213078275
 31
0.0
  0
LINE
  5
2E5
330
1F
100
AcDbEntity
  8
2
100
AcDbLine
 10
54.49999999999971
 20
250.0178213078275
 30
0.0
 11
54.49999999999971
 21
196.0178213078275
 31
0.0
  0
LINE
  5
2E6
330
1F
100
AcDbEntity
  8
0
100
AcDbLine
 10
37.0
 20
205.2587881047028
 30
0.0
 11
37.0
 21
182.9279775578277
 31
0.0
  0
LINE
  5
2E7
330
1F
100
AcDbEntity
  8
2
100
AcDbLine
 10
54.49999999999971
 20
197.517819481262
 30
0.0
 11
37.00003051757784
 21
197.517819481262
 31
0.0
  0
LINE
  5
2E8
330
1F
100
AcDbEntity
  8
2
100
AcDbLine
 10
19.99999999999971
 20
250.0178213078273
 30
0.0
 11
15.50579441239648
 21
250.0178213078275
 31
0.0
  0
LINE
  5
2E9
330
1F
100
AcDbEntity
  8
0
100
AcDbLine
 10
-37.00000000000051
 20
191.1130666691559
 30
0.0
 11
-14.50000000000023
 21
191.1130666691559
 31
0.0
  0
LINE
  5
2EA
330
1F
100
AcDbEntity
  8
2
100
AcDbLine
 10
-38.50000000000028
 20
208.7913198429838
 30
0.0
 11
-38.50000000000028
 21
197.2443227726713
 31
0.0
  0
LINE
  5
2EB
330
1F
100
AcDbEntity
  8
2
100
AcDbLine
 10
54.49999999999971
 20
196.0178213078278
 30
0.0
 11
37.00003051757784
 21
196.0178213078278
 31
0.0
  0
LINE
  5
2EC
330
1F
100
AcDbEntity
  8
0
100
AcDbLine
 10
14.61761148156307
 20
214.8057598034489
 30
0.0
 11
35.6839553264204
 21
207.1382374245423
 31
0.0
  0
LINE
  5
2ED
330
1F
100
AcDbEntity
  8
2
100
AcDbLine
 10
-37.00003051757841
 20
196.0178213078278
 30
0.0
 11
-38.00000000000029
 21
196.0178213078278
 31
0.0
  0
LINE
  5
2EE
330
1F
100
AcDbEntity
  8
1
100
AcDbLine
 10
-0.0000000000002842
 20
267.2933691084247
 30
0.0
 11
-0.0000000000002842
 21
133.0178186256187
 31
0.0
  0
LINE
  5
2EF
330
1F
100
AcDbEntity
  8
0
100
AcDbLine
 10
51.99999999999994
 20
171.958312030484
 30
0.0
 11
51.99999999999994
 21
142.1130361515777
 31
0.0
  0
LINE
  5
2F0
330
1F
100
AcDbEntity
  8
0
100
AcDbLine
 10
25.03786182121706
 20
211.0178213078278
 30
0.0
 11
35.68403586935159
 21
207.1429307067361
 31
0.0
  0
LINE
  5
2F1
330
1F
100
AcDbEntity
  8
0
100
AcDbLine
 10
8.209045104856954
 20
208.3972237573919
 30
0.0
 11
14.49999063900833
 21
191.1129935742115
 31
0.0
  0
LINE
  5
2F2
330
1F
100
AcDbEntity
  8
0
100
AcDbLine
 10
-49.99993896484426
 20
140.1129751164213
 30
0.0
 11
49.99993896484324
 21
140.1129751164213
 31
0.0
  0
LINE
  5
2F3
330
1F
100
AcDbEntity
  8
0
100
AcDbLine
 10
-8.209045104858262
 20
208.3972237573922
 30
0.0
 11
-14.49999063900969
 21
191.112993574212
 31
0.0
  0
LINE
  5
2F4
330
1F
100
AcDbEntity
  8
0
100
AcDbLine
 10
-52.0
 20
12.99996948242187
 30
0.0
 11
52.0
 21
12.99996948242187
 31
0.0
  0
LINE
  5
2F5
330
1F
100
AcDbEntity
  8
0
100
AcDbLine
 10
-37.99995199034743
 20
181.1959483900191
 30
0.0
 11
-50.99992671502667
 21
173.6904093485562
 31
0.0
  0
LINE
  5
2F6
330
1F
100
AcDbEntity
  8
0
100
AcDbLine
 10
-52.0
 20
9.999969482421875
 30
0.0
 11
52.0
 21
9.999969482421875
 31
0.0
  0
LINE
  5
2F7
330
1F
100
AcDbEntity
  8
0
100
AcDbLine
 10
-14.50000000000028
 20
191.1130666691559
 30
0.0
 11
-14.50000000000028
 21
185.3395681339996
 31
0.0
  0
LINE
  5
2F8
330
1F
100
AcDbEntity
  8
0
100
AcDbLine
 10
-37.00000000000006
 20
205.2587881047028
 30
0.0
 11
-37.00000000000006
 21
182.9279775578277
 31
0.0
  0
LINE
  5
2F9
330
1F
100
AcDbEntity
  8
0
100
AcDbLine
 10
36.99999999999949
 20
185.3395681339996
 30
0.0
 11
14.49999999999994
 21
185.3395681339996
 31
0.0
  0
LINE
  5
2FA
330
1F
100
AcDbEntity
  8
0
100
AcDbLine
 10
-37.0
 20
9.999969482421875
 30
0.0
 11
-37.0
 21
0.0000000000002274
 31
0.0
  0
LINE
  5
2FB
330
1F
100
AcDbEntity
  8
0
100
AcDbLine
 10
37.0
 20
9.999969482421875
 30
0.0
 11
37.0
 21
0.0000000000002274
 31
0.0
  0
LINE
  5
2FC
330
1F
100
AcDbEntity
  8
0
100
AcDbLine
 10
-11.50000000000051
 20
182.3395681339996
 30
0.0
 11
11.49999999999949
 21
182.3395681339996
 31
0.0
  0
LINE
  5
2FD
330
1F
100
AcDbEntity
  8
0
100
AcDbLine
 10
52.0
 20
12.99996948242187
 30
0.0
 11
52.0
 21
9.999969482421875
 31
0.0
  0
LINE
  5
2FE
330
1F
100
AcDbEntity
  8
0
100
AcDbLine
 10
-52.00000000000006
 20
171.958312030484
 30
0.0
 11
-52.00000000000006
 21
142.1130360641546
 31
0.0
  0
LINE
  5
2FF
330
1F
100
AcDbEntity
  8
0
100
AcDbLine
 10
14.5
 20
191.1130666691559
 30
0.0
 11
14.5
 21
185.3395681339996
 31
0.0
  0
LINE
  5
300
330
1F
100
AcDbEntity
  8
0
100
AcDbLine
 10
37.9999519903476
 20
181.1959483900194
 30
0.0
 11
50.99992671502684
 21
173.6904093485564
 31
0.0
  0
LINE
  5
301
330
1F
100
AcDbEntity
  8
0
100
AcDbLine
 10
36.99999999999949
 20
191.1130666691559
 30
0.0
 11
14.5
 21
191.1130666691559
 31
0.0
  0
LINE
  5
302
330
1F
100
AcDbEntity
  8
0
100
AcDbLine
 10
-37.00000000000051
 20
185.3395681339996
 30
0.0
 11
-14.50000000000028
 21
185.3395681339996
 31
0.0
  0
LINE
  5
303
330
1F
100
AcDbEntity
  8
0
100
AcDbLine
 10
-52.0
 20
12.99996948242187
 30
0.0
 11
-52.0
 21
9.999969482421875
 31
0.0
  0
LINE
  5
304
330
1F
100
AcDbEntity
  8
2
100
AcDbLine
 10
-6.300140196091206
 20
30.99997001886368
 30
0.0
 11
-51.70004389286373
 21
30.99997001886368
 31
0.0
  0
LINE
  5
305
330
1F
100
AcDbEntity
  8
2
100
AcDbLine
 10
-51.70004389286373
 20
30.99997001886368
 30
0.0
 11
-51.70004389286373
 21
12.99996948242187
 31
0.0
  0
LINE
  5
306
330
1F
100
AcDbEntity
  8
2
100
AcDbLine
 10
-6.300140196091206
 20
30.99997001886368
 30
0.0
 11
-6.300140196091206
 21
12.99996948242187
 31
0.0
  0
ARC
  5
307
330
1F
100
AcDbEntity
  8
2
100
AcDbCircle
 10
-40.18231201171897
 20
-49.16987609863281
 30
0.0
 40
2.317657947540283
100
AcDbArc
 50
141.4810575620222
 51
218.5189387955193
  0
ARC
  5
308
330
1F
100
AcDbEntity
  8
2
100
AcDbCircle
 10
-33.98583984375023
 20
-53.5
 30
0.0
 40
8.514156341552734
100
AcDbArc
 50
160.1808041131971
 51
199.8191922443341
  0
ARC
  5
309
330
1F
100
AcDbEntity
  8
2
100
AcDbCircle
 10
-40.18231201171897
 20
-57.83012390136718
 30
0.0
 40
2.317657947540283
100
AcDbArc
 50
141.4810575620222
 51
218.5189387955193
  0
ARC
  5
30A
330
1F
100
AcDbEntity
  8
2
100
AcDbCircle
 10
56.68231201171852
 20
-49.16987609863281
 30
0.0
 40
2.317657947540283
100
AcDbArc
 50
321.4810627983531
 51
38.51894403183291
  0
ARC
  5
30B
330
1F
100
AcDbEntity
  8
2
100
AcDbCircle
 10
50.48583984374977
 20
-53.5
 30
0.0
 40
8.514156341552734
100
AcDbArc
 50
340.1808076419756
 51
19.81919577312618
  0
ARC
  5
30C
330
1F
100
AcDbEntity
  8
2
100
AcDbCircle
 10
56.68231201171852
 20
-57.83012390136718
 30
0.0
 40
2.317657947540283
100
AcDbArc
 50
321.4810627983531
 51
38.51894403183291
  0
ARC
  5
30D
330
1F
100
AcDbEntity
  8
2
100
AcDbCircle
 10
56.68231201171852
 20
-9.830123901367187
 30
0.0
 40
2.317657947540283
100
AcDbArc
 50
321.4810491379628
 51
38.51894403183291
  0
ARC
  5
30E
330
1F
100
AcDbEntity
  8
2
100
AcDbCircle
 10
50.48583984374977
 20
-5.5
 30
0.0
 40
8.514156341552734
100
AcDbArc
 50
340.1808076419756
 51
19.81919577312618
  0
ARC
  5
30F
330
1F
100
AcDbEntity
  8
2
100
AcDbCircle
 10
50.68583679199196
 20
-17.5
 30
0.0
 40
8.514156341552734
100
AcDbArc
 50
340.1807939815961
 51
19.81919577312618
  0
ARC
  5
310
330
1F
100
AcDbEntity
  8
2
100
AcDbCircle
 10
56.68231201171852
 20
-1.169876098632812
 30
0.0
 40
2.317657947540283
100
AcDbArc
 50
321.4810491379628
 51
38.51894403183291
  0
ARC
  5
311
330
1F
100
AcDbEntity
  8
2
100
AcDbCircle
 10
-40.18231201171897
 20
-9.830123901367187
 30
0.0
 40
2.317657947540283
100
AcDbArc
 50
141.4810575620222
 51
218.5189524558933
  0
ARC
  5
312
330
1F
100
AcDbEntity
  8
2
100
AcDbCircle
 10
-33.98583984375023
 20
-5.5
 30
0.0
 40
8.514156341552734
100
AcDbArc
 50
160.1808041131971
 51
199.8192059047136
  0
ARC
  5
313
330
1F
100
AcDbEntity
  8
2
100
AcDbCircle
 10
-40.18231201171897
 20
-1.169876098632812
 30
0.0
 40
2.317657947540283
100
AcDbArc
 50
141.4810575620222
 51
218.5189524558933
  0
ARC
  5
314
330
1F
100
AcDbEntity
  8
2
100
AcDbCircle
 10
-41.51763916015648
 20
-21.83010864257813
 30
0.0
 40
2.317657947540283
100
AcDbArc
 50
321.4810491379628
 51
38.51894403183291
  0
ARC
  5
315
330
1F
100
AcDbEntity
  8
2
100
AcDbCircle
 10
-40.38238525390648
 20
-21.83010864257813
 30
0.0
 40
2.317657947540283
100
AcDbArc
 50
141.4810575620222
 51
218.5189524558933
  0
ARC
  5
316
330
1F
100
AcDbEntity
  8
2
100
AcDbCircle
 10
-47.71417236328147
 20
-17.5
 30
0.0
 40
8.514156341552734
100
AcDbArc
 50
340.1807939815961
 51
19.81919577312618
  0
ARC
  5
317
330
1F
100
AcDbEntity
  8
2
100
AcDbCircle
 10
-41.51763916015648
 20
-13.16984558105469
 30
0.0
 40
2.317657947540283
100
AcDbArc
 50
321.4810491379628
 51
38.51894403183291
  0
ARC
  5
318
330
1F
100
AcDbEntity
  8
2
100
AcDbCircle
 10
-34.18585205078148
 20
-17.5
 30
0.0
 40
8.514156341552734
100
AcDbArc
 50
160.1808041131971
 51
199.8192059047136
  0
ARC
  5
319
330
1F
100
AcDbEntity
  8
2
100
AcDbCircle
 10
-40.38238525390648
 20
-13.16984558105469
 30
0.0
 40
2.317657947540283
100
AcDbArc
 50
141.4810575620222
 51
218.5189524558933
  0
ARC
  5
31A
330
1F
100
AcDbEntity
  8
2
100
AcDbCircle
 10
56.88236999511696
 20
-21.83010864257813
 30
0.0
 40
2.317657947540283
100
AcDbArc
 50
321.4810491379628
 51
38.51894403183291
  0
ARC
  5
31B
330
1F
100
AcDbEntity
  8
2
100
AcDbCircle
 10
58.01762390136696
 20
-13.16984558105469
 30
0.0
 40
2.317657947540283
100
AcDbArc
 50
141.4810575620222
 51
218.5189524558933
  0
ARC
  5
31C
330
1F
100
AcDbEntity
  8
2
100
AcDbCircle
 10
58.01762390136696
 20
-21.83010864257813
 30
0.0
 40
2.317657947540283
100
AcDbArc
 50
141.4810575620222
 51
218.5189524558933
  0
ARC
  5
31D
330
1F
100
AcDbEntity
  8
2
100
AcDbCircle
 10
64.21415710449196
 20
-17.5
 30
0.0
 40
8.514156341552734
100
AcDbArc
 50
160.1808041131971
 51
199.8192059047136
  0
ARC
  5
31E
330
1F
100
AcDbEntity
  8
2
100
AcDbCircle
 10
56.88236999511696
 20
-13.16984558105469
 30
0.0
 40
2.317657947540283
100
AcDbArc
 50
321.4810491379628
 51
38.51894403183291
  0
ARC
  5
31F
330
1F
100
AcDbEntity
  8
2
100
AcDbCircle
 10
24.49999999999977
 20
-44.0
 30
0.0
 40
1.0
100
AcDbArc
 50
90.00000250447845
 51
180.0000050089504
  0
ARC
  5
320
330
1F
100
AcDbEntity
  8
2
100
AcDbCircle
 10
42.49999999999977
 20
-44.0
 30
0.0
 40
1.0
100
AcDbArc
 50
0.0
 51
90.00000250447845
  0
ARC
  5
321
330
1F
100
AcDbEntity
  8
2
100
AcDbCircle
 10
24.49999999999977
 20
-53.0
 30
0.0
 40
1.0
100
AcDbArc
 50
179.9999949910495
 51
269.9999974955215
  0
ARC
  5
322
330
1F
100
AcDbEntity
  8
2
100
AcDbCircle
 10
42.49999999999977
 20
-53.0
 30
0.0
 40
1.0
100
AcDbArc
 50
269.9999974955215
 51
0.0
  0
ARC
  5
323
330
1F
100
AcDbEntity
  8
0
100
AcDbCircle
 10
-13.4163970947269
 20
219.0178213078278
 30
0.0
 40
2.0
100
AcDbArc
 50
269.9999993167538
 51
16.60154841032345
  0
CIRCLE
  5
324
330
1F
100
AcDbEntity
  8
0
100
AcDbCircle
 10
-0.0000000000002842
 20
223.0178213078278
 30
0.0
 40
12.0
  0
CIRCLE
  5
325
330
1F
100
AcDbEntity
  8
0
100
AcDbCircle
 10
-0.0000000000002842
 20
223.0178213078278
 30
0.0
 40
6.999999999999999
  0
CIRCLE
  5
326
330
1F
100
AcDbEntity
  8
0
100
AcDbCircle
 10
-0.0000000000002842
 20
223.0178213078278
 30
0.0
 40
8.0
  0
ARC
  5
327
330
1F
100
AcDbEntity
  8
0
100
AcDbCircle
 10
3.999999999999715
 20
236.4342336613434
 30
0.0
 40
2.0
100
AcDbArc
 50
253.3984490851981
 51
0.0000050089504314
  0
ARC
  5
328
330
1F
100
AcDbEntity
  8
0
100
AcDbCircle
 10
20.99999999999972
 20
245.0178213078278
 30
0.0
 40
9.0
100
AcDbArc
 50
161.2917037595281
 51
198.7082996555621
  0
ARC
  5
329
330
1F
100
AcDbEntity
  8
0
100
AcDbCircle
 10
14.42834472656221
 20
249.347960467984
 30
0.0
 40
2.428322076797485
100
AcDbArc
 50
143.5306830399579
 51
216.469313544943
  0
ARC
  5
32A
330
1F
100
AcDbEntity
  8
0
100
AcDbCircle
 10
14.42834472656221
 20
240.6877126652497
 30
0.0
 40
2.428322076797485
100
AcDbArc
 50
143.5306830399579
 51
216.469313544943
  0
ARC
  5
32B
330
1F
100
AcDbEntity
  8
0
100
AcDbCircle
 10
6.60000610351534
 20
245.0178213078278
 30
0.0
 40
9.0
100
AcDbArc
 50
341.2916970430267
 51
18.70829293906073
  0
ARC
  5
32C
330
1F
100
AcDbEntity
  8
0
100
AcDbCircle
 10
13.17169189453096
 20
240.6877126652497
 30
0.0
 40
2.428322076797485
100
AcDbArc
 50
323.5306916913796
 51
36.46931195108465
  0
ARC
  5
32D
330
1F
100
AcDbEntity
  8
0
100
AcDbCircle
 10
13.17169189453096
 20
249.347960467984
 30
0.0
 40
2.428322076797485
100
AcDbArc
 50
323.5306916913796
 51
36.46931195108465
  0
ARC
  5
32E
330
1F
100
AcDbEntity
  8
0
100
AcDbCircle
 10
21.68234252929659
 20
240.6877126652497
 30
0.0
 40
2.317657947540283
100
AcDbArc
 50
321.4810612044807
 51
38.51894243797781
  0
ARC
  5
32F
330
1F
100
AcDbEntity
  8
0
100
AcDbCircle
 10
15.48583984374971
 20
245.0178213078278
 30
0.0
 40
8.514156341552734
100
AcDbArc
 50
340.1808077556659
 51
19.81919588680288
  0
ARC
  5
330
330
1F
100
AcDbEntity
  8
0
100
AcDbCircle
 10
21.68234252929659
 20
249.347960467984
 30
0.0
 40
2.317657947540283
100
AcDbArc
 50
321.4810612044807
 51
38.51894243797781
  0
ARC
  5
331
330
1F
100
AcDbEntity
  8
2
100
AcDbCircle
 10
-36.05134034156828
 20
240.5178213078278
 30
0.0
 40
6.448659420013426
100
AcDbArc
 50
157.1899369032458
 51
202.810061275516
  0
ARC
  5
332
330
1F
100
AcDbEntity
  8
2
100
AcDbCircle
 10
52.55134034156771
 20
240.5178213078278
 30
0.0
 40
6.448659420013426
100
AcDbArc
 50
337.189938724484
 51
22.81006309675413
  0
ARC
  5
333
330
1F
100
AcDbEntity
  8
2
100
AcDbCircle
 10
52.75133988857277
 20
237.5178213078278
 30
0.0
 40
6.448660373687744
100
AcDbArc
 50
337.189938724484
 51
7.275611288554689
  0
ARC
  5
334
330
1F
100
AcDbEntity
  8
2
100
AcDbCircle
 10
62.1486601591111
 20
237.5178213078278
 30
0.0
 40
6.448660373687744
100
AcDbArc
 50
180.0
 51
202.8100562665666
  0
ARC
  5
335
330
1F
100
AcDbEntity
  8
2
100
AcDbCircle
 10
-36.25133988857334
 20
232.5178213078278
 30
0.0
 40
6.448660373687744
100
AcDbArc
 50
157.1899437334334
 51
202.810061275516
  0
ARC
  5
336
330
1F
100
AcDbEntity
  8
2
100
AcDbCircle
 10
-36.25133988857334
 20
237.5178213078278
 30
0.0
 40
6.448660373687744
100
AcDbArc
 50
172.7243887114453
 51
202.810061275516
  0
ARC
  5
337
330
1F
100
AcDbEntity
  8
2
100
AcDbCircle
 10
-45.64866015911166
 20
237.5178213078278
 30
0.0
 40
6.448660373687744
100
AcDbArc
 50
337.1899437334334
 51
0.0
  0
ARC
  5
338
330
1F
100
AcDbEntity
  8
2
100
AcDbCircle
 10
52.55134034156771
 20
200.5178213078278
 30
0.0
 40
6.448659420013426
100
AcDbArc
 50
337.189938724484
 51
22.81006309675413
  0
ARC
  5
339
330
1F
100
AcDbEntity
  8
2
100
AcDbCircle
 10
52.55134034156771
 20
245.5178213078278
 30
0.0
 40
6.448659420013426
100
AcDbArc
 50
337.189938724484
 51
22.81006309675413
  0
ARC
  5
33A
330
1F
100
AcDbEntity
  8
2
100
AcDbCircle
 10
62.1486601591111
 20
232.5178213078278
 30
0.0
 40
6.448660373687744
100
AcDbArc
 50
157.189938724484
 51
202.8100562665666
  0
ARC
  5
33B
330
1F
100
AcDbEntity
  8
2
100
AcDbCircle
 10
-36.05134034156828
 20
200.5178213078278
 30
0.0
 40
6.448659420013426
100
AcDbArc
 50
157.1899369032458
 51
202.810061275516
  0
ARC
  5
33C
330
1F
100
AcDbEntity
  8
2
100
AcDbCircle
 10
52.55134034156771
 20
205.5178213078278
 30
0.0
 40
6.448659420013426
100
AcDbArc
 50
337.189938724484
 51
22.81006309675413
  0
ARC
  5
33D
330
1F
100
AcDbEntity
  8
2
100
AcDbCircle
 10
-36.05134034156828
 20
205.5178213078278
 30
0.0
 40
6.448659420013426
100
AcDbArc
 50
157.1899369032458
 51
202.810061275516
  0
ARC
  5
33E
330
1F
100
AcDbEntity
  8
2
100
AcDbCircle
 10
-36.05134034156828
 20
245.5178213078278
 30
0.0
 40
6.448659420013426
100
AcDbArc
 50
157.1899369032458
 51
202.810061275516
  0
ARC
  5
33F
330
1F
100
AcDbEntity
  8
2
100
AcDbCircle
 10
-45.64866015911166
 20
232.5178213078278
 30
0.0
 40
6.448660373687744
100
AcDbArc
 50
337.1899437334334
 51
22.81006127551601
  0
ARC
  5
340
330
1F
100
AcDbEntity
  8
2
100
AcDbCircle
 10
52.75133988857277
 20
232.5178213078278
 30
0.0
 40
6.448660373687744
100
AcDbArc
 50
337.189938724484
 51
22.8100562665666
  0
ARC
  5
341
330
1F
100
AcDbEntity
  8
0
100
AcDbCircle
 10
-12.91461181640653
 20
210.113097186734
 30
0.0
 40
3.0
100
AcDbArc
 50
162.4477917493323
 51
17.55220825066765
  0
ARC
  5
342
330
1F
100
AcDbEntity
  8
0
100
AcDbCircle
 10
-12.90756225585966
 20
210.1120901066559
 30
0.0
 40
4.99999988079071
100
AcDbArc
 50
340.0000014924303
 51
10.43653242223835
  0
ARC
  5
343
330
1F
100
AcDbEntity
  8
0
100
AcDbCircle
 10
12.90753173828096
 20
210.107237811734
 30
0.0
 40
4.99999988079071
100
AcDbArc
 50
70.00000058181574
 51
199.9999985075697
  0
ARC
  5
344
330
1F
100
AcDbEntity
  8
0
100
AcDbCircle
 10
49.99993896484369
 20
142.1130361515775
 30
0.0
 40
2.000000059604644
100
AcDbArc
 50
269.9999949910431
 51
359.9999974955182
  0
ARC
  5
345
330
1F
100
AcDbEntity
  8
0
100
AcDbCircle
 10
-49.9999389648438
 20
171.958312030484
 30
0.0
 40
2.000000059604644
100
AcDbArc
 50
120.0000008348216
 51
180.0000025044817
  0
ARC
  5
346
330
1F
100
AcDbEntity
  8
0
100
AcDbCircle
 10
-38.99996948242193
 20
182.9279775578277
 30
0.0
 40
2.000000059604644
100
AcDbArc
 50
300.0000026560555
 51
359.9999974955182
  0
ARC
  5
347
330
1F
100
AcDbEntity
  8
0
100
AcDbCircle
 10
-49.9999389648438
 20
142.1130361515775
 30
0.0
 40
2.000000059604644
100
AcDbArc
 50
180.0000025044817
 51
270.0000050089569
  0
ARC
  5
348
330
1F
100
AcDbEntity
  8
0
100
AcDbCircle
 10
-34.99993896484381
 20
205.2587881047028
 30
0.0
 40
2.000000059604644
100
AcDbArc
 50
109.9999994181843
 51
180.0000025044817
  0
ARC
  5
349
330
1F
100
AcDbEntity
  8
0
100
AcDbCircle
 10
38.99996948242188
 20
182.9279775578277
 30
0.0
 40
2.000000059604644
100
AcDbArc
 50
180.0000025044817
 51
239.9999973439445
  0
CIRCLE
  5
34A
330
1F
100
AcDbEntity
  8
0
100
AcDbCircle
 10
12.90936279296846
 20
210.113097186734
 30
0.0
 40
3.0
  0
ARC
  5
34B
330
1F
100
AcDbEntity
  8
0
100
AcDbCircle
 10
49.99993896484369
 20
171.958312030484
 30
0.0
 40
2.000000059604644
100
AcDbArc
 50
359.9999974955182
 51
59.99999916517834
  0
ARC
  5
34C
330
1F
100
AcDbEntity
  8
0
100
AcDbCircle
 10
34.99993896484375
 20
205.2587881047028
 30
0.0
 40
2.000000059604644
100
AcDbArc
 50
359.9999974955182
 51
70.00000058181574
  0
ARC
  5
34D
330
1F
100
AcDbEntity
  8
0
100
AcDbCircle
 10
11.5
 20
185.3395681339996
 30
0.0
 40
3.0
100
AcDbArc
 50
269.9999949910431
 51
0.0
  0
ARC
  5
34E
330
1F
100
AcDbEntity
  8
0
100
AcDbCircle
 10
-11.50000000000028
 20
185.3395681339996
 30
0.0
 40
3.0
100
AcDbArc
 50
180.0
 51
270.0000050089569
  0
LINE
  5
34F
330
1F
100
AcDbEntity
  8
0
100
AcDbLine
 10
-18.9999845033044
 20
203.0178368045234
 30
0.0
 11
-18.9999845033044
 21
207.4178307010078
 31
0.0
  0
LINE
  5
350
330
1F
100
AcDbEntity
  8
0
100
AcDbLine
 10
-27.77348303846066
 20
207.8933556033515
 30
0.0
 11
-27.77348303846066
 21
210.5422966433906
 31
0.0
  0
LINE
  5
351
330
1F
100
AcDbEntity
  8
0
100
AcDbLine
 10
-27.77348303846066
 20
203.0178368045234
 30
0.0
 11
-16.22648596814815
 21
203.0178368045234
 31
0.0
  0
LINE
  5
352
330
1F
100
AcDbEntity
  8
0
100
AcDbLine
 10
-24.88673377088253
 20
207.8933556033515
 30
0.0
 11
-24.88673377088253
 21
210.5422966433906
 31
0.0
  0
LINE
  5
353
330
1F
100
AcDbEntity
  8
0
100
AcDbLine
 10
-26.33012366346065
 20
207.4178307010078
 30
0.0
 11
-17.66987586072628
 21
207.4178307010078
 31
0.0
  0
LINE
  5
354
330
1F
100
AcDbEntity
  8
0
100
AcDbLine
 10
-16.22648596814815
 20
207.9221336795234
 30
0.0
 11
-16.22648596814815
 21
210.5422966433908
 31
0.0
  0
LINE
  5
355
330
1F
100
AcDbEntity
  8
0
100
AcDbLine
 10
-19.11323523572628
 20
207.8933556033515
 30
0.0
 11
-19.11323523572628
 21
210.5422966433906
 31
0.0
  0
LINE
  5
356
330
1F
100
AcDbEntity
  8
0
100
AcDbLine
 10
-18.99998450330463
 20
217.0178368045234
 30
0.0
 11
-18.99998450330463
 21
222.0178215457343
 31
0.0
  0
LINE
  5
357
330
1F
100
AcDbEntity
  8
0
100
AcDbLine
 10
-24.99998450330463
 20
222.0178368045234
 30
0.0
 11
-18.99998450330463
 21
222.0178368045234
 31
0.0
  0
LINE
  5
358
330
1F
100
AcDbEntity
  8
0
100
AcDbLine
 10
-18.99998932029871
 20
222.0178350479212
 30
0.0
 11
-19.9999903990024
 21
223.0178361266249
 31
0.0
  0
LINE
  5
359
330
1F
100
AcDbEntity
  8
0
100
AcDbLine
 10
-24.99998500292986
 20
222.0178242583273
 30
0.0
 11
-23.99998392422594
 21
223.017825337031
 31
0.0
  0
LINE
  5
35A
330
1F
100
AcDbEntity
  8
0
100
AcDbLine
 10
-27.77348303846066
 20
199.522139783039
 30
0.0
 11
-27.77348303846066
 21
203.0178368045234
 31
0.0
  0
LINE
  5
35B
330
1F
100
AcDbEntity
  8
0
100
AcDbLine
 10
-24.88673377088253
 20
199.522139783039
 30
0.0
 11
-24.88673377088253
 21
203.0178368045234
 31
0.0
  0
LINE
  5
35C
330
1F
100
AcDbEntity
  8
0
100
AcDbLine
 10
-16.22648596814815
 20
199.522139783039
 30
0.0
 11
-16.22648596814815
 21
203.0178368045234
 31
0.0
  0
LINE
  5
35D
330
1F
100
AcDbEntity
  8
0
100
AcDbLine
 10
-26.33012366346065
 20
199.0178368045233
 30
0.0
 11
-17.66987586072628
 21
199.0178368045233
 31
0.0
  0
LINE
  5
35E
330
1F
100
AcDbEntity
  8
0
100
AcDbLine
 10
-19.11323523572628
 20
199.522139783039
 30
0.0
 11
-19.11323523572628
 21
203.0178368045234
 31
0.0
  0
LINE
  5
35F
330
1F
100
AcDbEntity
  8
0
100
AcDbLine
 10
-24.39997839978901
 20
217.0178368045234
 30
0.0
 11
-24.39997839978901
 21
222.6178276492499
 31
0.0
  0
LINE
  5
360
330
1F
100
AcDbEntity
  8
0
100
AcDbLine
 10
-19.59999060682025
 20
217.0178368045234
 30
0.0
 11
-19.59999060682025
 21
222.6178276492499
 31
0.0
  0
LINE
  5
361
330
1F
100
AcDbEntity
  8
0
100
AcDbLine
 10
-24.99998450330463
 20
217.0178368045234
 30
0.0
 11
-24.99998450330463
 21
222.0178215457343
 31
0.0
  0
LINE
  5
362
330
1F
100
AcDbEntity
  8
0
100
AcDbLine
 10
-24.39997839978878
 20
203.0178368045234
 30
0.0
 11
-24.39997839978878
 21
207.4178307010078
 31
0.0
  0
LINE
  5
363
330
1F
100
AcDbEntity
  8
0
100
AcDbLine
 10
-19.59999060682003
 20
203.0178368045234
 30
0.0
 11
-19.59999060682003
 21
207.4178307010078
 31
0.0
  0
LINE
  5
364
330
1F
100
AcDbEntity
  8
0
100
AcDbLine
 10
-24.99998450330441
 20
203.0178368045234
 30
0.0
 11
-24.99998450330441
 21
207.4178307010078
 31
0.0
  0
ARC
  5
365
330
1F
100
AcDbEntity
  8
0
100
AcDbCircle
 10
-21.9999845033044
 20
202.0178368045234
 30
0.0
 40
9.0
100
AcDbArc
 50
71.29170034443425
 51
108.7082962404675
  0
ARC
  5
366
330
1F
100
AcDbEntity
  8
0
100
AcDbCircle
 10
-26.33012366346065
 20
208.5894920779609
 30
0.0
 40
2.428322076797485
100
AcDbArc
 50
53.53068645505588
 51
126.4693169600449
  0
ARC
  5
367
330
1F
100
AcDbEntity
  8
0
100
AcDbCircle
 10
-17.66987586072628
 20
208.5894920779609
 30
0.0
 40
2.428322076797485
100
AcDbArc
 50
53.53068645505588
 51
126.4693169600449
  0
ARC
  5
368
330
1F
100
AcDbEntity
  8
0
100
AcDbCircle
 10
-21.99998450330463
 20
216.4178307010077
 30
0.0
 40
9.0
100
AcDbArc
 50
251.2917070609429
 51
288.7083029569726
  0
ARC
  5
369
330
1F
100
AcDbEntity
  8
0
100
AcDbCircle
 10
-17.66987586072628
 20
209.8461449099921
 30
0.0
 40
2.428322076797485
100
AcDbArc
 50
233.5306880489151
 51
306.4693083086281
  0
ARC
  5
36A
330
1F
100
AcDbEntity
  8
0
100
AcDbCircle
 10
-26.33012366346065
 20
209.8461449099921
 30
0.0
 40
2.428322076797485
100
AcDbArc
 50
233.5306880489151
 51
306.4693083086281
  0
ARC
  5
36B
330
1F
100
AcDbEntity
  8
0
100
AcDbCircle
 10
-17.66987586072628
 20
201.3354942752265
 30
0.0
 40
2.317657947540283
100
AcDbArc
 50
231.4810575620262
 51
308.5189387955217
  0
ARC
  5
36C
330
1F
100
AcDbEntity
  8
0
100
AcDbCircle
 10
-21.9999845033044
 20
207.5319969607734
 30
0.0
 40
8.514156341552734
100
AcDbArc
 50
250.180804113201
 51
289.8191922443382
  0
ARC
  5
36D
330
1F
100
AcDbEntity
  8
0
100
AcDbCircle
 10
-26.33012366346065
 20
201.3354942752265
 30
0.0
 40
2.317657947540283
100
AcDbArc
 50
231.4810575620262
 51
308.5189387955217
  0
LINE
  5
36E
330
1F
100
AcDbEntity
  8
0
100
AcDbLine
 10
-14.50000000000023
 20
9.999969482421875
 30
0.0
 11
-14.50000000000023
 21
0.0
 31
0.0
  0
LINE
  5
36F
330
1F
100
AcDbEntity
  8
0
100
AcDbLine
 10
14.49999999999977
 20
9.999969482421875
 30
0.0
 11
14.49999999999977
 21
0.0
 31
0.0
  0
LINE
  5
370
330
1F
100
AcDbEntity
  8
0
100
AcDbLine
 10
7.904768961432921
 20
2.999981877969162
 30
0.0
 11
7.904768961432921
 21
0.0
 31
0.0
  0
LINE
  5
371
330
1F
100
AcDbEntity
  8
0
100
AcDbLine
 10
7.904768961432921
 20
2.999981877969162
 30
0.0
 11
14.49999999999977
 21
3.0
 31
0.0
  0
LINE
  5
372
330
1F
100
AcDbEntity
  8
0
100
AcDbLine
 10
-7.904768961433376
 20
2.999981877969275
 30
0.0
 11
-7.904768961433376
 21
0.0
 31
0.0
  0
LINE
  5
373
330
1F
100
AcDbEntity
  8
0
100
AcDbLine
 10
-7.904768961433376
 20
2.999981877969275
 30
0.0
 11
-14.50000000000023
 21
3.0
 31
0.0
  0
CIRCLE
  5
374
330
1F
100
AcDbEntity
  8
2
100
AcDbCircle
 10
-21.21323394775408
 20
244.2309560734528
 30
0.0
 40
2.599999904632568
  0
CIRCLE
  5
375
330
1F
100
AcDbEntity
  8
2
100
AcDbCircle
 10
-21.21323394775408
 20
244.2309560734528
 30
0.0
 40
3.0
  0
LINE
  5
376
330
1F
100
AcDbEntity
  8
0
100
AcDbLine
 10
24.09998394775346
 20
206.8046842109522
 30
0.0
 11
18.3264839477535
 21
206.8046842109522
 31
0.0
  0
LINE
  5
377
330
1F
100
AcDbEntity
  8
0
100
AcDbLine
 10
18.3264839477535
 20
196.8046888734534
 30
0.0
 11
24.09998394775346
 21
196.8046888734534
 31
0.0
  0
CIRCLE
  5
378
330
1F
100
AcDbEntity
  8
0
100
AcDbCircle
 10
21.21323394775351
 20
201.8046865422028
 30
0.0
 40
4.899999999999998
  0
LINE
  5
379
330
1F
100
AcDbEntity
  8
0
100
AcDbLine
 10
18.3264839477535
 20
206.8046842109522
 30
0.0
 11
15.43973394775349
 21
201.8046865422028
 31
0.0
  0
LINE
  5
37A
330
1F
100
AcDbEntity
  8
0
100
AcDbLine
 10
15.43973394775349
 20
201.8046865422028
 30
0.0
 11
18.3264839477535
 21
196.8046888734534
 31
0.0
  0
LINE
  5
37B
330
1F
100
AcDbEntity
  8
0
100
AcDbLine
 10
26.98673394775352
 20
201.8046865422028
 30
0.0
 11
24.09998394775346
 21
206.8046842109522
 31
0.0
  0
LINE
  5
37C
330
1F
100
AcDbEntity
  8
0
100
AcDbLine
 10
24.09998394775346
 20
196.8046888734534
 30
0.0
 11
26.98673394775352
 21
201.8046865422028
 31
0.0
  0
CIRCLE
  5
37D
330
1F
100
AcDbEntity
  8
0
100
AcDbCircle
 10
21.21323394775351
 20
201.8046865422028
 30
0.0
 40
6.099999999999999
  0
LINE
  5
37F
330
1F
100
AcDbEntity
  8
0
100
AcDbLine
 10
-18.32648394775407
 20
196.8046888734534
 30
0.0
 11
-24.09998394775403
 21
196.8046888734534
 31
0.0
  0
ARC
  5
380
330
1F
100
AcDbEntity
  8
0
100
AcDbCircle
 10
-21.21323394775408
 20
201.8046865422028
 30
0.0
 40
4.899999999999998
100
AcDbArc
 50
211.8003412486231
 51
326.2008695566586
  0
LINE
  5
381
330
1F
100
AcDbEntity
  8
0
100
AcDbLine
 10
-18.32648394775407
 20
206.8046842109522
 30
0.0
 11
-15.43973394775406
 21
201.8046865422028
 31
0.0
  0
LINE
  5
382
330
1F
100
AcDbEntity
  8
0
100
AcDbLine
 10
-15.43973394775406
 20
201.8046865422028
 30
0.0
 11
-16.22648596814815
 21
200.4419920699228
 31
0.0
  0
LINE
  5
383
330
1F
100
AcDbEntity
  8
0
100
AcDbLine
 10
-26.28632131723581
 20
203.0178368045234
 30
0.0
 11
-24.99998450330441
 21
205.2458375218988
 31
0.0
  0
LINE
  5
384
330
1F
100
AcDbEntity
  8
0
100
AcDbLine
 10
-24.09998394775403
 20
196.8046888734534
 30
0.0
 11
-25.4726858747829
 21
199.182278354715
 31
0.0
  0
ARC
  5
385
330
1F
100
AcDbEntity
  8
0
100
AcDbCircle
 10
-21.21323394775408
 20
201.8046865422028
 30
0.0
 40
6.099999999999999
100
AcDbArc
 50
206.9495683456876
 51
66.95351836891752
  0
LINE
  5
386
330
1F
100
AcDbEntity
  8
0
100
AcDbLine
 10
-27.77348303846066
 20
210.0174139794461
 30
0.0
 11
-35.68395532642097
 21
207.1382374245423
 31
0.0
  0
LINE
  5
387
330
1F
100
AcDbEntity
  8
2
100
AcDbLine
 10
-29.80114720522948
 20
199.0177026610311
 30
0.0
 11
-29.8007128290401
 21
173.1124687683335
 31
0.0
  0
LINE
  5
388
330
1F
100
AcDbEntity
  8
2
100
AcDbLine
 10
-13.80107520747811
 20
199.017970948526
 30
0.0
 11
-13.80064083128866
 21
173.1127370558283
 31
0.0
  0
LINE
  5
389
330
1F
100
AcDbEntity
  8
2
100
AcDbLine
 10
-6.100146152219679
 20
140.7128411723433
 30
0.0
 11
-77.30024654220972
 21
140.7116472966801
 31
0.0
  0
LINE
  5
38A
330
1F
100
AcDbEntity
  8
2
100
AcDbLine
 10
-77.30052824363326
 20
157.5116962943178
 30
0.0
 11
-77.30024654220972
 21
140.7116472966801
 31
0.0
  0
LINE
  5
38B
330
1F
100
AcDbEntity
  8
2
100
AcDbLine
 10
-6.100689432371211
 20
173.1128661677893
 30
0.0
 11
-6.100146152219679
 21
140.7128411723433
 31
0.0
  0
LINE
  5
38C
330
1F
100
AcDbEntity
  8
2
100
AcDbLine
 10
-51.50077082598802
 20
173.1121049040834
 30
0.0
 11
-51.50022754583648
 21
140.7120799086374
 31
0.0
  0
LINE
  5
38D
330
1F
100
AcDbEntity
  8
2
100
AcDbLine
 10
-6.100689432371211
 20
173.1128661677893
 30
0.0
 11
-51.50077082598802
 21
173.1121049040834
 31
0.0
  0
LINE
  5
38E
330
1F
100
AcDbEntity
  8
2
100
AcDbLine
 10
-51.50050924726002
 20
157.5121289062751
 30
0.0
 11
-77.30052824363326
 21
157.5116962943178
 31
0.0
  0
CIRCLE
  5
38F
330
1F
100
AcDbEntity
  8
0
100
AcDbCircle
 10
-12.10003974121224
 20
169.1130361515778
 30
0.0
 40
2.0
  0
CIRCLE
  5
390
330
1F
100
AcDbEntity
  8
0
100
AcDbCircle
 10
-12.10003974121224
 20
169.1130361515778
 30
0.0
 40
1.5
  0
CIRCLE
  5
391
330
1F
100
AcDbEntity
  8
0
100
AcDbCircle
 10
-45.49998474121145
 20
169.1130361515778
 30
0.0
 40
2.0
  0
CIRCLE
  5
392
330
1F
100
AcDbEntity
  8
0
100
AcDbCircle
 10
-45.49998474121145
 20
169.1130361515778
 30
0.0
 40
1.5
  0
LINE
  5
393
330
1F
100
AcDbEntity
  8
2
100
AcDbLine
 10
-29.80114720522948
 20
199.0177026610311
 30
0.0
 11
-13.80107520747811
 21
199.017970948526
 31
0.0
  0
LINE
  5
394
330
1F
100
AcDbEntity
  8
2
100
AcDbLine
 10
29.80114720522891
 20
199.0177026610311
 30
0.0
 11
29.80071282903953
 21
173.1124687683335
 31
0.0
  0
LINE
  5
395
330
1F
100
AcDbEntity
  8
2
100
AcDbLine
 10
13.80107520747754
 20
199.017970948526
 30
0.0
 11
13.80064083128809
 21
173.1127370558283
 31
0.0
  0
LINE
  5
396
330
1F
100
AcDbEntity
  8
2
100
AcDbLine
 10
6.10014615221911
 20
140.7128411723433
 30
0.0
 11
77.30024654220915
 21
140.7116472966801
 31
0.0
  0
LINE
  5
397
330
1F
100
AcDbEntity
  8
2
100
AcDbLine
 10
77.30052824363269
 20
157.5116962943178
 30
0.0
 11
77.30024654220915
 21
140.7116472966801
 31
0.0
  0
LINE
  5
398
330
1F
100
AcDbEntity
  8
2
100
AcDbLine
 10
6.100689432370643
 20
173.1128661677893
 30
0.0
 11
6.10014615221911
 21
140.7128411723433
 31
0.0
  0
LINE
  5
399
330
1F
100
AcDbEntity
  8
2
100
AcDbLine
 10
51.50077082598745
 20
173.1121049040834
 30
0.0
 11
51.50022754583591
 21
140.7120799086374
 31
0.0
  0
LINE
  5
39A
330
1F
100
AcDbEntity
  8
2
100
AcDbLine
 10
6.100689432370643
 20
173.1128661677893
 30
0.0
 11
51.50077082598745
 21
173.1121049040834
 31
0.0
  0
LINE
  5
39B
330
1F
100
AcDbEntity
  8
2
100
AcDbLine
 10
51.50050924725945
 20
157.5121289062751
 30
0.0
 11
77.30052824363269
 21
157.5116962943178
 31
0.0
  0
CIRCLE
  5
39C
330
1F
100
AcDbEntity
  8
0
100
AcDbCircle
 10
12.10003974121167
 20
169.1130361515778
 30
0.0
 40
2.0
  0
CIRCLE
  5
39D
330
1F
100
AcDbEntity
  8
0
100
AcDbCircle
 10
12.10003974121167
 20
169.1130361515778
 30
0.0
 40
1.5
  0
CIRCLE
  5
39E
330
1F
100
AcDbEntity
  8
0
100
AcDbCircle
 10
45.49998474121088
 20
169.1130361515778
 30
0.0
 40
2.0
  0
CIRCLE
  5
39F
330
1F
100
AcDbEntity
  8
0
100
AcDbCircle
 10
45.49998474121088
 20
169.1130361515778
 30
0.0
 40
1.5
  0
LINE
  5
3A0
330
1F
100
AcDbEntity
  8
2
100
AcDbLine
 10
29.80114720522891
 20
199.0177026610311
 30
0.0
 11
13.80107520747754
 21
199.017970948526
 31
0.0
  0
LINE
  5
3A1
330
1F
100
AcDbEntity
  8
0
100
AcDbLine
 10
0.0000114674920155
 20
247.0178207287491
 30
0.0
 11
-0.0000000000002842
 21
243.017827881424
 31
0.0
  0
LINE
  5
3A2
330
1F
100
AcDbEntity
  8
0
100
AcDbLine
 10
-23.99998392422594
 20
223.017825337031
 30
0.0
 11
-19.9999903990024
 21
223.0178361266249
 31
0.0
  0
LINE
  5
3A3
330
1F
100
AcDbEntity
  8
1
100
AcDbLine
 10
26.6745392711897
 20
245.0178365666168
 30
0.0
 11
-2.062442589668876
 21
245.0178365666168
 31
0.0
  0
LINE
  5
3A4
330
1F
100
AcDbEntity
  8
1
100
AcDbLine
 10
-21.99998716161417
 20
225.3163012796437
 30
0.0
 11
-21.99998716161417
 21
196.9682602396028
 31
0.0
  0
LINE
  5
3A5
330
1F
100
AcDbEntity
  8
0
100
AcDbLine
 10
11.99999999999971
 20
25.15000344827683
 30
0.0
 11
11.99999999999971
 21
12.99996948242187
 31
0.0
  0
LINE
  5
3A6
330
1F
100
AcDbEntity
  8
0
100
AcDbLine
 10
11.99999999999971
 20
9.999969482421875
 30
0.0
 11
11.99999999999971
 21
2.999927184686612
 31
0.0
  0
LINE
  5
3A7
330
1F
100
AcDbEntity
  8
0
100
AcDbLine
 10
-12.00000000000017
 20
24.50000000000034
 30
0.0
 11
-12.00000000000017
 21
23.50000000000068
 31
0.0
  0
LINE
  5
3A8
330
1F
100
AcDbEntity
  8
0
100
AcDbLine
 10
-12.00000000000017
 20
16.99999999999988
 30
0.0
 11
-12.00000000000017
 21
12.99996948242187
 31
0.0
  0
LINE
  5
3A9
330
1F
100
AcDbEntity
  8
0
100
AcDbLine
 10
-12.00000000000017
 20
9.999969482421875
 30
0.0
 11
-12.00000000000017
 21
2.999993130630741
 31
0.0
  0
LINE
  5
3AA
330
1F
100
AcDbEntity
  8
0
100
AcDbLine
 10
-19.1132183740329
 20
25.25000111702627
 30
0.0
 11
-24.88671837403285
 21
25.25000111702627
 31
0.0
  0
LINE
  5
3AB
330
1F
100
AcDbEntity
  8
0
100
AcDbLine
 10
-24.88671837403285
 20
15.25000577952744
 30
0.0
 11
-19.1132183740329
 21
15.25000577952744
 31
0.0
  0
CIRCLE
  5
3AC
330
1F
100
AcDbEntity
  8
0
100
AcDbCircle
 10
-21.99996837403284
 20
20.25000344827686
 30
0.0
 40
4.899999999999998
  0
LINE
  5
3AD
330
1F
100
AcDbEntity
  8
0
100
AcDbLine
 10
-24.88671837403285
 20
25.25000111702627
 30
0.0
 11
-27.77346837403286
 21
20.25000344827686
 31
0.0
  0
LINE
  5
3AE
330
1F
100
AcDbEntity
  8
0
100
AcDbLine
 10
-27.77346837403286
 20
20.25000344827686
 30
0.0
 11
-24.88671837403285
 21
15.25000577952744
 31
0.0
  0
LINE
  5
3AF
330
1F
100
AcDbEntity
  8
0
100
AcDbLine
 10
-16.22646837403283
 20
20.25000344827686
 30
0.0
 11
-19.1132183740329
 21
25.25000111702627
 31
0.0
  0
LINE
  5
3B0
330
1F
100
AcDbEntity
  8
0
100
AcDbLine
 10
-19.1132183740329
 20
15.25000577952744
 30
0.0
 11
-16.22646837403283
 21
20.25000344827686
 31
0.0
  0
LINE
  5
3B1
330
1F
100
AcDbEntity
  8
2
100
AcDbLine
 10
-77.30052824363326
 20
30.39956498564175
 30
0.0
 11
-77.30052824363326
 21
13.59951598328041
 31
0.0
  0
LINE
  5
3B2
330
1F
100
AcDbEntity
  8
2
100
AcDbLine
 10
-51.70004389286373
 20
13.59994524946216
 30
0.0
 11
-77.30052824363326
 21
13.59951598328041
 31
0.0
  0
LINE
  5
3B3
330
1F
100
AcDbEntity
  8
2
100
AcDbLine
 10
-51.70004389286373
 20
30.3999942518235
 30
0.0
 11
-77.30052824363326
 21
30.39956498564175
 31
0.0
  0
LINE
  5
3B4
330
1F
100
AcDbEntity
  8
2
100
AcDbLine
 10
6.300140196090751
 20
30.99997001886368
 30
0.0
 11
51.70004389286328
 21
30.99997001886368
 31
0.0
  0
LINE
  5
3B5
330
1F
100
AcDbEntity
  8
2
100
AcDbLine
 10
51.70004389286328
 20
30.99997001886368
 30
0.0
 11
51.70004389286328
 21
12.99996948242187
 31
0.0
  0
LINE
  5
3B6
330
1F
100
AcDbEntity
  8
2
100
AcDbLine
 10
77.30052824363281
 20
30.39956498564175
 30
0.0
 11
77.30052824363281
 21
13.59951598328041
 31
0.0
  0
LINE
  5
3B7
330
1F
100
AcDbEntity
  8
2
100
AcDbLine
 10
51.70004389286328
 20
13.59994524946216
 30
0.0
 11
77.30052824363281
 21
13.59951598328041
 31
0.0
  0
LINE
  5
3B8
330
1F
100
AcDbEntity
  8
2
100
AcDbLine
 10
51.70004389286328
 20
30.3999942518235
 30
0.0
 11
77.30052824363281
 21
30.39956498564175
 31
0.0
  0
LINE
  5
3B9
330
1F
100
AcDbEntity
  8
2
100
AcDbLine
 10
6.300140196090751
 20
30.99997001886368
 30
0.0
 11
6.300140196090751
 21
12.99996948242187
 31
0.0
  0
LINE
  5
3BA
330
1F
100
AcDbEntity
  8
0
100
AcDbLine
 10
19.99999618530245
 20
17.85000344827688
 30
0.0
 11
15.59999999999968
 21
17.85000344827688
 31
0.0
  0
LINE
  5
3BB
330
1F
100
AcDbEntity
  8
0
100
AcDbLine
 10
19.99999618530245
 20
22.65000344827683
 30
0.0
 11
15.59999999999974
 21
22.65000344827683
 31
0.0
  0
LINE
  5
3BC
330
1F
100
AcDbEntity
  8
0
100
AcDbLine
 10
19.99999618530245
 20
17.25000344827686
 30
0.0
 11
15.59999999999968
 21
17.25000344827686
 31
0.0
  0
LINE
  5
3BD
330
1F
100
AcDbEntity
  8
0
100
AcDbLine
 10
19.99999618530245
 20
23.25000344827686
 30
0.0
 11
15.59999999999974
 21
23.25000344827686
 31
0.0
  0
LINE
  5
3BE
330
1F
100
AcDbEntity
  8
0
100
AcDbLine
 10
19.99999618530245
 20
20.25000344827686
 30
0.0
 11
23.49568096030242
 21
20.25000344827686
 31
0.0
  0
ARC
  5
3BF
330
1F
100
AcDbEntity
  8
0
100
AcDbCircle
 10
16.72131105865458
 20
17.75000344827686
 30
0.0
 40
7.220950126647949
100
AcDbArc
 50
339.7444344830269
 51
20.25541343158161
  0
ARC
  5
3C0
330
1F
100
AcDbEntity
  8
0
100
AcDbCircle
 10
16.72131105865458
 20
22.75000344827686
 30
0.0
 40
7.220950126647949
100
AcDbArc
 50
339.7444344830269
 51
20.25541343158161
  0
LINE
  5
3C1
330
1F
100
AcDbEntity
  8
0
100
AcDbLine
 10
23.99999618530245
 20
15.35000344827688
 30
0.0
 11
23.99999618530245
 21
25.15000344827683
 31
0.0
  0
LINE
  5
3C2
330
1F
100
AcDbEntity
  8
0
100
AcDbLine
 10
23.89999618530243
 20
15.25000344827686
 30
0.0
 11
23.99999618530245
 21
15.35000344827688
 31
0.0
  0
LINE
  5
3C3
330
1F
100
AcDbEntity
  8
0
100
AcDbLine
 10
23.89999618530243
 20
25.25000344827686
 30
0.0
 11
23.99999618530245
 21
25.15000344827683
 31
0.0
  0
LINE
  5
3C4
330
1F
100
AcDbEntity
  8
0
100
AcDbLine
 10
19.99999618530245
 20
15.25000344827686
 30
0.0
 11
23.89999618530243
 21
15.25000344827686
 31
0.0
  0
LINE
  5
3C5
330
1F
100
AcDbEntity
  8
0
100
AcDbLine
 10
19.99999618530245
 20
25.25000344827686
 30
0.0
 11
23.89999618530243
 21
25.25000344827686
 31
0.0
  0
LINE
  5
3C6
330
1F
100
AcDbEntity
  8
0
100
AcDbLine
 10
19.99999618530245
 20
15.25000344827686
 30
0.0
 11
19.99999618530245
 21
25.25000344827686
 31
0.0
  0
LINE
  5
3C7
330
1F
100
AcDbEntity
  8
0
100
AcDbLine
 10
15.59999999999968
 20
15.35000344827688
 30
0.0
 11
15.59999999999974
 21
25.15000344827683
 31
0.0
  0
ARC
  5
3C8
330
1F
100
AcDbEntity
  8
0
100
AcDbCircle
 10
8.321314873351695
 20
17.75000344827686
 30
0.0
 40
7.220950126647949
100
AcDbArc
 50
339.7444458007813
 51
20.25555419921869
  0
ARC
  5
3C9
330
1F
100
AcDbEntity
  8
0
100
AcDbCircle
 10
19.2786851266477
 20
17.75000344827686
 30
0.0
 40
7.220950126647949
100
AcDbArc
 50
159.7440290212194
 51
200.2555541992187
  0
ARC
  5
3CA
330
1F
100
AcDbEntity
  8
0
100
AcDbCircle
 10
8.321314873351752
 20
22.75000344827686
 30
0.0
 40
7.220950126647949
100
AcDbArc
 50
339.7444458007813
 51
20.25555419921869
  0
ARC
  5
3CB
330
1F
100
AcDbEntity
  8
0
100
AcDbCircle
 10
19.2786851266477
 20
22.75000344827686
 30
0.0
 40
7.220950126647949
100
AcDbArc
 50
159.7444458007813
 51
200.2559709787806
  0
LINE
  5
3CC
330
1F
100
AcDbEntity
  8
0
100
AcDbLine
 10
12.05773499999975
 20
25.25000344827686
 30
0.0
 11
15.5422649999997
 21
25.25000344827686
 31
0.0
  0
LINE
  5
3CD
330
1F
100
AcDbEntity
  8
0
100
AcDbLine
 10
15.5422649999997
 20
25.25000344827686
 30
0.0
 11
15.59999999999974
 21
25.15000344827683
 31
0.0
  0
LINE
  5
3CE
330
1F
100
AcDbEntity
  8
0
100
AcDbLine
 10
12.05773499999975
 20
25.25000344827686
 30
0.0
 11
11.99999999999971
 21
25.15000344827683
 31
0.0
  0
LINE
  5
3CF
330
1F
100
AcDbEntity
  8
0
100
AcDbLine
 10
12.50431277700988
 20
20.25000344827686
 30
0.0
 11
15.09568477499971
 21
20.25000344827686
 31
0.0
  0
LINE
  5
3D0
330
1F
100
AcDbEntity
  8
0
100
AcDbLine
 10
12.05773499999969
 20
15.25000344827686
 30
0.0
 11
15.5422649999997
 21
15.25000344827686
 31
0.0
  0
LINE
  5
3D1
330
1F
100
AcDbEntity
  8
0
100
AcDbLine
 10
15.5422649999997
 20
15.25000344827686
 30
0.0
 11
15.59999999999968
 21
15.35000344827688
 31
0.0
  0
LINE
  5
3D2
330
1F
100
AcDbEntity
  8
0
100
AcDbLine
 10
12.05773499999969
 20
15.25000344827686
 30
0.0
 11
11.99999999999971
 21
15.35000344827688
 31
0.0
  0
LINE
  5
3D3
330
1F
100
AcDbEntity
  8
1
100
AcDbLine
 10
27.13541492525167
 20
20.25000344827686
 30
0.0
 11
7.648783404844493
 21
20.25000344827686
 31
0.0
  0
LINE
  5
3D4
330
1F
100
AcDbEntity
  8
1
100
AcDbLine
 10
-21.99996837403262
 20
12.78315571717417
 30
0.0
 11
-21.99996837403262
 21
27.71685117937864
 31
0.0
  0
LINE
  5
3D5
330
1F
100
AcDbEntity
  8
1
100
AcDbLine
 10
-29.46681610513485
 20
20.2500034482764
 30
0.0
 11
-14.53312064293038
 21
20.2500034482764
 31
0.0
  0
LINE
  5
3D6
330
1F
100
AcDbEntity
  8
0
100
AcDbLine
 10
7.904768961432921
 20
2.000000000000113
 30
0.0
 11
-7.904768961433376
 21
2.000000000000113
 31
0.0
  0
ARC
  5
3D7
330
1F
100
AcDbEntity
  8
1
100
AcDbCircle
 10
-0.0000000000002842
 20
223.0178213078278
 30
0.0
 40
30.0
100
AcDbArc
 50
115.8419344367528
 51
244.1580619207717
  0
ARC
  5
3D8
330
1F
100
AcDbEntity
  8
1
100
AcDbCircle
 10
-0.0000000000002842
 20
223.0178213078278
 30
0.0
 40
30.0
100
AcDbArc
 50
295.8419294277998
 51
64.15807057220013
  0
LINE
  5
3DA
330
1F
100
AcDbEntity
  8
0
100
AcDbLine
 10
-37.0
 20
0.0
 30
0.0
 11
37.0
 21
0.0
 31
0.0
  0
ARC
  5
3E0
330
1F
100
AcDbEntity
  8
0
100
AcDbCircle
 10
-21.21323394775408
 20
201.8046865422028
 30
0.0
 40
4.899999999999998
100
AcDbArc
 50
14.33445484955252
 51
63.14824917351732
  0
LINE
  5
3E1
330
1F
100
AcDbEntity
  8
0
100
AcDbLine
 10
-16.98982341707362
 20
199.1198528250638
 30
0.0
 11
-18.32648394775407
 21
196.8046888734534
 31
0.0
  0
ARC
  5
3E3
330
1F
100
AcDbEntity
  8
0
100
AcDbCircle
 10
-21.21323394775408
 20
201.8046865422028
 30
0.0
 40
4.899999999999998
100
AcDbArc
 50
140.606559531751
 51
165.6655451504475
  0
ARC
  5
3E4
330
1F
100
AcDbEntity
  8
0
100
AcDbCircle
 10
-21.21323394775408
 20
201.8046865422028
 30
0.0
 40
6.099999999999999
100
AcDbArc
 50
128.3730274144467
 51
168.5286978750249
  0
LINE
  5
3E5
330
1F
100
AcDbEntity
  8
0
100
AcDbLine
 10
-18.32648394775407
 20
206.8046842109522
 30
0.0
 11
-18.9999845033044
 21
206.8046842109522
 31
0.0
  0
VIEWPORT
  5
71
330
55
100
AcDbEntity
 67
     1
  8
0
100
AcDbViewport
 10
133.3499908447266
 20
101.5999970436096
 30
0.0
 40
381.3957395593835
 41
218.2856291881582
 68
     1
 69
     1
 12
133.3499908447266
 22
101.5999970436096
 13
0.0
 23
0.0
 14
10.0
 24
10.0
 15
10.0
 25
10.0
 16
0.0
 26
0.0
 36
1.0
 17
0.0
 27
0.0
 37
0.0
 42
50.0
 43
0.0
 44
0.0
 45
218.2856291881582
 50
0.0
 51
0.0
 72
   100
 90
    32800
  1

281
     0
 71
     1
 74
     0
110
0.0
120
0.0
130
0.0
111
1.0
121
0.0
131
0.0
112
0.0
122
1.0
132
0.0
 79
     0
146
0.0
170
     0
 61
     5
348
40C
292
     1
282
     1
141
0.0
142
0.0
 63
   250
421
  3355443
  0
VIEWPORT
  5
73
330
55
100
AcDbEntity
 67
     1
  8
0
100
AcDbViewport
 10
133.3499939441681
 20
101.5999939441681
 30
0.0
 40
213.3599903106689
 41
162.5599903106689
 68
     2
 69
     2
 12
210.0
 22
148.5
 13
0.0
 23
0.0
 14
10.0
 24
10.0
 15
10.0
 25
10.0
 16
0.0
 26
0.0
 36
1.0
 17
0.0
 27
0.0
 37
0.0
 42
50.0
 43
0.0
 44
0.0
 45
324.0677920111345
 50
0.0
 51
0.0
 72
   100
 90
    32864
  1

281
     0
 71
     1
 74
     0
110
0.0
120
0.0
130
0.0
111
1.0
121
0.0
131
0.0
112
0.0
122
1.0
132
0.0
 79
     0
146
0.0
170
     0
 61
     5
348
40C
292
     1
282
     1
141
0.0
142
0.0
 63
   250
421
  3355443
  0
ENDSEC
  0
SECTION
  2
OBJECTS
  0
DICTIONARY
  5
C
330
0
100
AcDbDictionary
281
     1
  3
ACAD_COLOR
350
41A
  3
ACAD_GROUP
350
D
  3
ACAD_LAYOUT
350
1A
  3
ACAD_MATERIAL
350
3ED
  3
ACAD_MLEADERSTYLE
350
42F
  3
ACAD_MLINESTYLE
350
17
  3
ACAD_PLOTSETTINGS
350
19
  3
ACAD_PLOTSTYLENAME
350
E
  3
ACAD_SCALELIST
350
41D
  3
ACAD_TABLESTYLE
350
41B
  3
ACAD_VISUALSTYLE
350
406
  3
ACDB_RECOMPOSE_DATA
350
43E
  3
AcDbVariableDictionary
350
5E
  0
DICTIONARY
  5
97
330
2
100
AcDbDictionary
280
     1
281
     1
  3
ACAD_LAYERSTATES
360
98
  0
DICTIONARY
  5
433
330
10
100
AcDbDictionary
280
     1
281
     1
  3
ADSK_XREC_LAYER_RECONCILED
360
434
  0
DICTIONARY
  5
90
330
8F
100
AcDbDictionary
280
     1
281
     1
  3
ADSK_XREC_LAYER_RECONCILED
360
91
  0
DICTIONARY
  5
93
330
92
100
AcDbDictionary
280
     1
281
     1
  3
ADSK_XREC_LAYER_RECONCILED
360
94
  0
DICTIONARY
  5
41A
102
{ACAD_REACTORS
330
C
102
}
330
C
100
AcDbDictionary
281
     1
  0
DICTIONARY
  5
D
102
{ACAD_REACTORS
330
C
102
}
330
C
100
AcDbDictionary
281
     1
  0
DICTIONARY
  5
1A
102
{ACAD_REACTORS
330
C
102
}
330
C
100
AcDbDictionary
281
     1
  3
Model
350
22
  3
ﾚｲｱｳﾄ1
350
51
  3
ﾚｲｱｳﾄ2
350
56
  0
DICTIONARY
  5
3ED
102
{ACAD_REACTORS
330
C
102
}
330
C
100
AcDbDictionary
281
     1
  3
ByBlock
350
3F6
  3
ByLayer
350
3EE
  3
Global
350
3FE
  0
DICTIONARY
  5
42F
102
{ACAD_REACTORS
330
C
102
}
330
C
100
AcDbDictionary
281
     1
  3
Standard
350
430
  0
DICTIONARY
  5
17
102
{ACAD_REACTORS
330
C
102
}
330
C
100
AcDbDictionary
281
     1
  3
Standard
350
18
  0
DICTIONARY
  5
19
102
{ACAD_REACTORS
330
C
102
}
330
C
100
AcDbDictionary
281
     1
  0
ACDBDICTIONARYWDFLT
  5
E
102
{ACAD_REACTORS
330
C
102
}
330
C
100
AcDbDictionary
281
     1
  3
Normal
350
F
100
AcDbDictionaryWithDefault
340
F
  0
DICTIONARY
  5
41D
102
{ACAD_REACTORS
330
C
102
}
330
C
100
AcDbDictionary
281
     1
  3
A0
350
41E
  3
A1
350
41F
  3
A2
350
420
  3
A3
350
421
  3
A4
350
422
  3
A5
350
423
  3
A6
350
424
  3
A7
350
425
  3
A8
350
426
  3
A9
350
427
  3
B0
350
428
  3
B1
350
429
  3
B2
350
42A
  3
B3
350
42B
  3
B4
350
42C
  3
B5
350
42D
  3
B6
350
42E
  0
DICTIONARY
  5
41B
102
{ACAD_REACTORS
330
C
102
}
330
C
100
AcDbDictionary
281
     1
  3
Standard
350
41C
  0
DICTIONARY
  5
406
102
{ACAD_REACTORS
330
C
102
}
330
C
100
AcDbDictionary
281
     1
  3
2dWireframe
350
40C
  3
3D Hidden
350
40E
  3
3dWireframe
350
40D
  3
Basic
350
40B
  3
Brighten
350
412
  3
ColorChange
350
416
  3
Conceptual
350
40F
  3
Dim
350
411
  3
EdgeColorOff
350
419
  3
Facepattern
350
415
  3
Flat
350
407
  3
FlatWithEdges
350
408
  3
Gouraud
350
409
  3
GouraudWithEdges
350
40A
  3
JitterOff
350
417
  3
Linepattern
350
414
  3
OverhangOff
350
418
  3
Realistic
350
410
  3
Thicken
350
413
  0
XRECORD
  5
43E
102
{ACAD_REACTORS
330
C
102
}
330
C
100
AcDbXrecord
280
     1
 90
        1
330
41C
  0
DICTIONARY
  5
5E
102
{ACAD_REACTORS
330
C
102
}
330
C
100
AcDbDictionary
281
     1
  3
CANNOSCALE
350
438
  3
CMLEADERSTYLE
350
436
  3
CTABLESTYLE
350
435
  3
DIMASSOC
350
5F
  3
HIDETEXT
350
63
  3
LAYEREVAL
350
43A
  3
LAYERNOTIFY
350
43B
  3
LIGHTINGUNITS
350
439
  3
MSLTSCALE
350
437
  0
DICTIONARY
  5
98
102
{ACAD_REACTORS
330
97
102
}
330
97
100
AcDbDictionary
281
     1
  0
XRECORD
  5
434
102
{ACAD_REACTORS
330
433
102
}
330
433
100
AcDbXrecord
280
     1
290
     1
  0
XRECORD
  5
91
102
{ACAD_REACTORS
330
90
102
}
330
90
100
AcDbXrecord
280
     1
290
     1
  0
XRECORD
  5
94
102
{ACAD_REACTORS
330
93
102
}
330
93
100
AcDbXrecord
280
     1
290
     1
  0
LAYOUT
  5
22
102
{ACAD_REACTORS
330
1A
102
}
330
1A
100
AcDbPlotSettings
  1

  2
none_device
  4
ANSI_A_(8.50_x_11.00_Inches)
  6

 40
6.349999904632568
 41
19.04999923706055
 42
6.350006103515625
 43
19.04998779296875
 44
215.8999938964844
 45
279.3999938964844
 46
0.0
 47
0.0
 48
0.0
 49
0.0
140
0.0
141
0.0
142
1.0
143
78.436453180766
 70
 11952
 72
     0
 73
     1
 74
     0
  7

 75
     0
147
0.0127491741332998
 76
     0
 77
     2
 78
   300
148
0.0
149
0.0
100
AcDbLayout
  1
Model
 70
     1
 71
     0
 10
0.0
 20
0.0
 11
12.0
 21
9.0
 12
0.0
 22
0.0
 32
0.0
 14
0.0
 24
0.0
 34
0.0
 15
0.0
 25
0.0
 35
0.0
146
0.0
 13
0.0
 23
0.0
 33
0.0
 16
1.0
 26
0.0
 36
0.0
 17
0.0
 27
1.0
 37
0.0
 76
     0
330
1F
331
3EB
  0
LAYOUT
  5
51
102
{ACAD_REACTORS
330
1A
102
}
330
1A
100
AcDbPlotSettings
  1

  2
none_device
  4
Letter_(8.50_x_11.00_Inches)
  6

 40
6.349999904632568
 41
6.349999904632568
 42
6.350006103515625
 43
6.350006103515625
 44
215.8999938964844
 45
279.3999938964844
 46
0.0
 47
0.0
 48
0.0
 49
0.0
140
0.0
141
0.0
142
1.0
143
1.0
 70
   688
 72
     1
 73
     1
 74
     5
  7

 75
    16
147
1.0
 76
     0
 77
     2
 78
   300
148
0.0
149
0.0
100
AcDbLayout
  1
ﾚｲｱｳﾄ1
 70
     1
 71
     1
 10
-6.350006103515625
 20
-6.349999904632568
 11
273.0499877929688
 21
209.5499939918518
 12
0.0
 22
0.0
 32
0.0
 14
26.66076962115563
 24
20.31135699206658
 34
-0.0015258207003583
 15
240.039213369355
 25
182.8886381005154
 35
0.0000000349246037
146
0.0
 13
0.0
 23
0.0
 33
0.0
 16
1.0
 26
0.0
 36
0.0
 17
0.0
 27
1.0
 37
0.0
 76
     0
330
50
331
6B
  0
LAYOUT
  5
56
102
{ACAD_REACTORS
330
1A
102
}
330
1A
100
AcDbPlotSettings
  1

  2
none_device
  4
Letter_(8.50_x_11.00_Inches)
  6

 40
6.349999904632568
 41
6.349999904632568
 42
6.350006103515625
 43
6.350006103515625
 44
215.8999938964844
 45
279.3999938964844
 46
0.0
 47
0.0
 48
0.0
 49
0.0
140
0.0
141
0.0
142
1.0
143
1.0
 70
   688
 72
     1
 73
     1
 74
     5
  7

 75
    16
147
1.0
 76
     0
 77
     2
 78
   300
148
0.0
149
0.0
100
AcDbLayout
  1
ﾚｲｱｳﾄ2
 70
     1
 71
     2
 10
-6.350006103515625
 20
-6.349999904632568
 11
273.0499877929688
 21
209.5499939918518
 12
0.0
 22
0.0
 32
0.0
 14
26.66076962115563
 24
20.31135699206658
 34
-0.0015258207003583
 15
240.039213369355
 25
182.8886381005154
 35
0.0000000349246037
146
0.0
 13
0.0
 23
0.0
 33
0.0
 16
1.0
 26
0.0
 36
0.0
 17
0.0
 27
1.0
 37
0.0
 76
     0
330
55
331
71
  0
MATERIAL
  5
3F6
102
{ACAD_XDICTIONARY
360
3F7
102
}
102
{ACAD_REACTORS
330
3ED
102
}
330
3ED
100
AcDbMaterial
  1
ByBlock
 72
     0
 43
0.0008202099737533
 43
0.0
 43
0.0
 43
0.0
 43
0.0
 43
0.0008202099737533
 43
0.0
 43
0.0
 43
0.0
 43
0.0
 43
1.0
 43
0.0
 43
0.0
 43
0.0
 43
0.0
 43
1.0
 77
     0
 47
0.0008202099737533
 47
0.0
 47
0.0
 47
0.0
 47
0.0
 47
0.0008202099737533
 47
0.0
 47
0.0
 47
0.0
 47
0.0
 47
1.0
 47
0.0
 47
0.0
 47
0.0
 47
0.0
 47
1.0
171
     0
 49
0.0008202099737533
 49
0.0
 49
0.0
 49
0.0
 49
0.0
 49
0.0008202099737533
 49
0.0
 49
0.0
 49
0.0
 49
0.0
 49
1.0
 49
0.0
 49
0.0
 49
0.0
 49
0.0
 49
1.0
175
     0
142
0.0008202099737533
142
0.0
142
0.0
142
0.0
142
0.0
142
0.0008202099737533
142
0.0
142
0.0
142
0.0
142
0.0
142
1.0
142
0.0
142
0.0
142
0.0
142
0.0
142
1.0
179
     0
144
0.0008202099737533
144
0.0
144
0.0
144
0.0
144
0.0
144
0.0008202099737533
144
0.0
144
0.0
144
0.0
144
0.0
144
1.0
144
0.0
144
0.0
144
0.0
144
0.0
144
1.0
147
0.0008202099737533
147
0.0
147
0.0
147
0.0
147
0.0
147
0.0008202099737533
147
0.0
147
0.0
147
0.0
147
0.0
147
1.0
147
0.0
147
0.0
147
0.0
147
0.0
147
1.0
  0
MATERIAL
  5
3EE
102
{ACAD_XDICTIONARY
360
3EF
102
}
102
{ACAD_REACTORS
330
3ED
102
}
330
3ED
100
AcDbMaterial
  1
ByLayer
 72
     0
 43
0.0008202099737533
 43
0.0
 43
0.0
 43
0.0
 43
0.0
 43
0.0008202099737533
 43
0.0
 43
0.0
 43
0.0
 43
0.0
 43
1.0
 43
0.0
 43
0.0
 43
0.0
 43
0.0
 43
1.0
 77
     0
 47
0.0008202099737533
 47
0.0
 47
0.0
 47
0.0
 47
0.0
 47
0.0008202099737533
 47
0.0
 47
0.0
 47
0.0
 47
0.0
 47
1.0
 47
0.0
 47
0.0
 47
0.0
 47
0.0
 47
1.0
171
     0
 49
0.0008202099737533
 49
0.0
 49
0.0
 49
0.0
 49
0.0
 49
0.0008202099737533
 49
0.0
 49
0.0
 49
0.0
 49
0.0
 49
1.0
 49
0.0
 49
0.0
 49
0.0
 49
0.0
 49
1.0
175
     0
142
0.0008202099737533
142
0.0
142
0.0
142
0.0
142
0.0
142
0.0008202099737533
142
0.0
142
0.0
142
0.0
142
0.0
142
1.0
142
0.0
142
0.0
142
0.0
142
0.0
142
1.0
179
     0
144
0.0008202099737533
144
0.0
144
0.0
144
0.0
144
0.0
144
0.0008202099737533
144
0.0
144
0.0
144
0.0
144
0.0
144
1.0
144
0.0
144
0.0
144
0.0
144
0.0
144
1.0
147
0.0008202099737533
147
0.0
147
0.0
147
0.0
147
0.0
147
0.0008202099737533
147
0.0
147
0.0
147
0.0
147
0.0
147
1.0
147
0.0
147
0.0
147
0.0
147
0.0
147
1.0
  0
MATERIAL
  5
3FE
102
{ACAD_XDICTIONARY
360
3FF
102
}
102
{ACAD_REACTORS
330
3ED
102
}
330
3ED
100
AcDbMaterial
  1
Global
 72
     0
 43
0.0008202099737533
 43
0.0
 43
0.0
 43
0.0
 43
0.0
 43
0.0008202099737533
 43
0.0
 43
0.0
 43
0.0
 43
0.0
 43
1.0
 43
0.0
 43
0.0
 43
0.0
 43
0.0
 43
1.0
 77
     0
 47
0.0008202099737533
 47
0.0
 47
0.0
 47
0.0
 47
0.0
 47
0.0008202099737533
 47
0.0
 47
0.0
 47
0.0
 47
0.0
 47
1.0
 47
0.0
 47
0.0
 47
0.0
 47
0.0
 47
1.0
171
     0
 49
0.0008202099737533
 49
0.0
 49
0.0
 49
0.0
 49
0.0
 49
0.0008202099737533
 49
0.0
 49
0.0
 49
0.0
 49
0.0
 49
1.0
 49
0.0
 49
0.0
 49
0.0
 49
0.0
 49
1.0
175
     0
142
0.0008202099737533
142
0.0
142
0.0
142
0.0
142
0.0
142
0.0008202099737533
142
0.0
142
0.0
142
0.0
142
0.0
142
1.0
142
0.0
142
0.0
142
0.0
142
0.0
142
1.0
179
     0
144
0.0008202099737533
144
0.0
144
0.0
144
0.0
144
0.0
144
0.0008202099737533
144
0.0
144
0.0
144
0.0
144
0.0
144
1.0
144
0.0
144
0.0
144
0.0
144
0.0
144
1.0
147
0.0008202099737533
147
0.0
147
0.0
147
0.0
147
0.0
147
0.0008202099737533
147
0.0
147
0.0
147
0.0
147
0.0
147
1.0
147
0.0
147
0.0
147
0.0
147
0.0
147
1.0
  0
MLEADERSTYLE
  5
430
102
{ACAD_REACTORS
330
42F
102
}
330
42F
100
AcDbMLeaderStyle
179
     2
170
     2
171
     1
172
     0
 90
        2
 40
0.0
 41
0.0
173
     1
 91
-1056964608
340
14
 92
       -2
290
     1
 42
2.0
291
     1
 43
0.36
  3
Standard
 44
4.0
300

342
11
174
     1
178
     6
175
     1
176
     0
 93
-1056964608
 45
4.0
292
     0
297
     0
 46
4.0
 94
-1056964608
 47
1.0
 49
1.0
140
1.0
293
     1
141
0.0
294
     1
177
     0
142
1.0
295
     1
296
     0
143
0.125
271
     0
272
     9
273
     9
  0
MLINESTYLE
  5
18
102
{ACAD_REACTORS
330
17
102
}
330
17
100
AcDbMlineStyle
  2
STANDARD
 70
     0
  3

 62
   256
 51
90.0
 52
90.0
 71
     2
 49
0.5
 62
   256
  6
BYLAYER
 49
-0.5
 62
   256
  6
BYLAYER
  0
ACDBPLACEHOLDER
  5
F
102
{ACAD_REACTORS
330
E
102
}
330
E
  0
SCALE
  5
41E
102
{ACAD_REACTORS
330
41D
102
}
330
41D
100
AcDbScale
 70
     0
300
1:1
140
1.0
141
1.0
290
     1
  0
SCALE
  5
41F
102
{ACAD_REACTORS
330
41D
102
}
330
41D
100
AcDbScale
 70
     0
300
1:2
140
1.0
141
2.0
290
     0
  0
SCALE
  5
420
102
{ACAD_REACTORS
330
41D
102
}
330
41D
100
AcDbScale
 70
     0
300
1:4
140
1.0
141
4.0
290
     0
  0
SCALE
  5
421
102
{ACAD_REACTORS
330
41D
102
}
330
41D
100
AcDbScale
 70
     0
300
1:5
140
1.0
141
5.0
290
     0
  0
SCALE
  5
422
102
{ACAD_REACTORS
330
41D
102
}
330
41D
100
AcDbScale
 70
     0
300
1:8
140
1.0
141
8.0
290
     0
  0
SCALE
  5
423
102
{ACAD_REACTORS
330
41D
102
}
330
41D
100
AcDbScale
 70
     0
300
1:10
140
1.0
141
10.0
290
     0
  0
SCALE
  5
424
102
{ACAD_REACTORS
330
41D
102
}
330
41D
100
AcDbScale
 70
     0
300
1:16
140
1.0
141
16.0
290
     0
  0
SCALE
  5
425
102
{ACAD_REACTORS
330
41D
102
}
330
41D
100
AcDbScale
 70
     0
300
1:20
140
1.0
141
20.0
290
     0
  0
SCALE
  5
426
102
{ACAD_REACTORS
330
41D
102
}
330
41D
100
AcDbScale
 70
     0
300
1:30
140
1.0
141
30.0
290
     0
  0
SCALE
  5
427
102
{ACAD_REACTORS
330
41D
102
}
330
41D
100
AcDbScale
 70
     0
300
1:40
140
1.0
141
40.0
290
     0
  0
SCALE
  5
428
102
{ACAD_REACTORS
330
41D
102
}
330
41D
100
AcDbScale
 70
     0
300
1:50
140
1.0
141
50.0
290
     0
  0
SCALE
  5
429
102
{ACAD_REACTORS
330
41D
102
}
330
41D
100
AcDbScale
 70
     0
300
1:100
140
1.0
141
100.0
290
     0
  0
SCALE
  5
42A
102
{ACAD_REACTORS
330
41D
102
}
330
41D
100
AcDbScale
 70
     0
300
2:1
140
2.0
141
1.0
290
     0
  0
SCALE
  5
42B
102
{ACAD_REACTORS
330
41D
102
}
330
41D
100
AcDbScale
 70
     0
300
4:1
140
4.0
141
1.0
290
     0
  0
SCALE
  5
42C
102
{ACAD_REACTORS
330
41D
102
}
330
41D
100
AcDbScale
 70
     0
300
8:1
140
8.0
141
1.0
290
     0
  0
SCALE
  5
42D
102
{ACAD_REACTORS
330
41D
102
}
330
41D
100
AcDbScale
 70
     0
300
10:1
140
10.0
141
1.0
290
     0
  0
SCALE
  5
42E
102
{ACAD_REACTORS
330
41D
102
}
330
41D
100
AcDbScale
 70
     0
300
100:1
140
100.0
141
1.0
290
     0
  0
TABLESTYLE
  5
41C
102
{ACAD_XDICTIONARY
360
43C
102
}
102
{ACAD_REACTORS
330
41B
102
}
330
41B
100
AcDbTableStyle
280
     0
  3
Standard
 70
     0
 71
     0
 40
1.5
 41
1.5
280
     0
281
     0
  7
Standard
140
4.5
170
     2
 62
     0
 63
     7
283
     0
 90
      512
 91
        0
  1

274
    -2
284
     1
 64
     0
275
    -2
285
     1
 65
     0
276
    -2
286
     1
 66
     0
277
    -2
287
     1
 67
     0
278
    -2
288
     1
 68
     0
279
    -2
289
     1
 69
     0
  7
Standard
140
6.0
170
     5
 62
     0
 63
     7
283
     0
 90
      512
 91
        0
  1

274
    -2
284
     1
 64
     0
275
    -2
285
     1
 65
     0
276
    -2
286
     1
 66
     0
277
    -2
287
     1
 67
     0
278
    -2
288
     1
 68
     0
279
    -2
289
     1
 69
     0
  7
Standard
140
4.5
170
     5
 62
     0
 63
     7
283
     0
 90
      512
 91
        0
  1

274
    -2
284
     1
 64
     0
275
    -2
285
     1
 65
     0
276
    -2
286
     1
 66
     0
277
    -2
287
     1
 67
     0
278
    -2
288
     1
 68
     0
279
    -2
289
     1
 69
     0
  0
VISUALSTYLE
  5
40C
102
{ACAD_REACTORS
330
406
102
}
330
406
100
AcDbVisualStyle
  2
2dWireframe
 70
     4
177
     2
291
     0
 71
     0
176
     1
 72
     2
176
     1
 73
     0
176
     1
 90
        0
176
     1
 40
0.6
176
     1
 41
30.0
176
     1
 63
     7
421
 16777215
176
     1
 74
     1
176
     1
 91
        4
176
     1
 64
     7
176
     1
 65
   257
176
     1
 75
     1
176
     1
175
     1
176
     1
 42
1.0
176
     1
 92
        0
176
     1
 66
   257
176
     1
 43
1.0
176
     1
 76
     1
176
     1
 77
     6
176
     1
 78
     2
176
     1
 67
     7
176
     1
 79
     5
176
     1
170
     0
176
     1
171
     0
176
     1
290
     0
176
     1
 93
        1
176
     1
 44
0.0
176
     1
173
     0
176
     1
  0
VISUALSTYLE
  5
40E
102
{ACAD_REACTORS
330
406
102
}
330
406
100
AcDbVisualStyle
  2
3D Hidden
 70
     6
177
     2
291
     0
 71
     1
176
     1
 72
     2
176
     1
 73
     2
176
     1
 90
        0
176
     1
 40
0.6
176
     1
 41
30.0
176
     1
 63
     7
421
 16777215
176
     1
 74
     2
176
     1
 91
        2
176
     1
 64
     7
176
     1
 65
   257
176
     1
 75
     2
176
     1
175
     1
176
     1
 42
179.0
176
     1
 92
        0
176
     1
 66
   257
176
     1
 43
1.0
176
     1
 76
     1
176
     1
 77
     6
176
     1
 78
     2
176
     1
 67
     7
176
     1
 79
     3
176
     1
170
     0
176
     1
171
     0
176
     1
290
     0
176
     1
 93
        1
176
     1
 44
0.0
176
     1
173
     0
176
     1
  0
VISUALSTYLE
  5
40D
102
{ACAD_REACTORS
330
406
102
}
330
406
100
AcDbVisualStyle
  2
3dWireframe
 70
     5
177
     2
291
     0
 71
     0
176
     1
 72
     2
176
     1
 73
     0
176
     1
 90
        0
176
     1
 40
0.6
176
     1
 41
30.0
176
     1
 63
     7
421
 16777215
176
     1
 74
     1
176
     1
 91
        4
176
     1
 64
     7
176
     1
 65
   257
176
     1
 75
     1
176
     1
175
     1
176
     1
 42
1.0
176
     1
 92
        0
176
     1
 66
   257
176
     1
 43
1.0
176
     1
 76
     1
176
     1
 77
     6
176
     1
 78
     2
176
     1
 67
     7
176
     1
 79
     5
176
     1
170
     0
176
     1
171
     0
176
     1
290
     0
176
     1
 93
        1
176
     1
 44
0.0
176
     1
173
     0
176
     1
  0
VISUALSTYLE
  5
40B
102
{ACAD_REACTORS
330
406
102
}
330
406
100
AcDbVisualStyle
  2
Basic
 70
     7
177
     2
291
     1
 71
     1
176
     1
 72
     0
176
     1
 73
     1
176
     1
 90
        0
176
     1
 40
0.6
176
     1
 41
30.0
176
     1
 63
     7
421
 16777215
176
     1
 74
     0
176
     1
 91
        4
176
     1
 64
     7
176
     1
 65
   257
176
     1
 75
     1
176
     1
175
     1
176
     1
 42
1.0
176
     1
 92
        8
176
     1
 66
     7
176
     1
 43
1.0
176
     1
 76
     1
176
     1
 77
     6
176
     1
 78
     2
176
     1
 67
     7
176
     1
 79
     5
176
     1
170
     0
176
     1
171
     0
176
     1
290
     0
176
     1
 93
        1
176
     1
 44
0.0
176
     1
173
     0
176
     1
  0
VISUALSTYLE
  5
412
102
{ACAD_REACTORS
330
406
102
}
330
406
100
AcDbVisualStyle
  2
Brighten
 70
    12
177
     2
291
     1
 71
     2
176
     1
 72
     2
176
     1
 73
     0
176
     1
 90
        0
176
     1
 40
0.6
176
     1
 41
30.0
176
     1
 63
     7
421
 16777215
176
     1
 74
     1
176
     1
 91
        4
176
     1
 64
     7
176
     1
 65
   257
176
     1
 75
     1
176
     1
175
     1
176
     1
 42
1.0
176
     1
 92
        8
176
     1
 66
     7
176
     1
 43
1.0
176
     1
 76
     1
176
     1
 77
     6
176
     1
 78
     2
176
     1
 67
     7
176
     1
 79
     5
176
     1
170
     0
176
     1
171
     0
176
     1
290
     0
176
     1
 93
        1
176
     1
 44
50.0
176
     1
173
     0
176
     1
  0
VISUALSTYLE
  5
416
102
{ACAD_REACTORS
330
406
102
}
330
406
100
AcDbVisualStyle
  2
ColorChange
 70
    16
177
     2
291
     1
 71
     2
176
     1
 72
     2
176
     1
 73
     3
176
     1
 90
        0
176
     1
 40
0.6
176
     1
 41
30.0
176
     1
 63
     8
421
  8421504
176
     1
 74
     1
176
     1
 91
        4
176
     1
 64
     7
176
     1
 65
   257
176
     1
 75
     1
176
     1
175
     1
176
     1
 42
1.0
176
     1
 92
        8
176
     1
 66
     8
424
  8421504
176
     1
 43
1.0
176
     1
 76
     1
176
     1
 77
     6
176
     1
 78
     2
176
     1
 67
     7
176
     1
 79
     5
176
     1
170
     0
176
     1
171
     0
176
     1
290
     0
176
     1
 93
        1
176
     1
 44
0.0
176
     1
173
     0
176
     1
  0
VISUALSTYLE
  5
40F
102
{ACAD_REACTORS
330
406
102
}
330
406
100
AcDbVisualStyle
  2
Conceptual
 70
     9
177
     2
291
     0
 71
     3
176
     1
 72
     2
176
     1
 73
     0
176
     1
 90
        0
176
     1
 40
0.6
176
     1
 41
30.0
176
     1
 63
     7
421
 16777215
176
     1
 74
     2
176
     1
 91
        2
176
     1
 64
     7
176
     1
 65
   257
176
     1
 75
     1
176
     1
175
     1
176
     1
 42
179.0
176
     1
 92
        8
176
     1
 66
     7
176
     1
 43
1.0
176
     1
 76
     1
176
     1
 77
     6
176
     1
 78
     2
176
     1
 67
     7
176
     1
 79
     3
176
     1
170
     0
176
     1
171
     0
176
     1
290
     0
176
     1
 93
        1
176
     1
 44
0.0
176
     1
173
     0
176
     1
  0
VISUALSTYLE
  5
411
102
{ACAD_REACTORS
330
406
102
}
330
406
100
AcDbVisualStyle
  2
Dim
 70
    11
177
     2
291
     1
 71
     2
176
     1
 72
     2
176
     1
 73
     0
176
     1
 90
        0
176
     1
 40
0.6
176
     1
 41
30.0
176
     1
 63
     7
421
 16777215
176
     1
 74
     1
176
     1
 91
        4
176
     1
 64
     7
176
     1
 65
   257
176
     1
 75
     1
176
     1
175
     1
176
     1
 42
1.0
176
     1
 92
        8
176
     1
 66
     7
176
     1
 43
1.0
176
     1
 76
     1
176
     1
 77
     6
176
     1
 78
     2
176
     1
 67
     7
176
     1
 79
     5
176
     1
170
     0
176
     1
171
     0
176
     1
290
     0
176
     1
 93
        1
176
     1
 44
-50.0
176
     1
173
     0
176
     1
  0
VISUALSTYLE
  5
419
102
{ACAD_REACTORS
330
406
102
}
330
406
100
AcDbVisualStyle
  2
EdgeColorOff
 70
    22
177
     2
291
     1
 71
     2
176
     0
 72
     2
176
     0
 73
     0
176
     0
 90
        0
176
     0
 40
0.6
176
     0
 41
30.0
176
     0
 63
     7
421
 16777215
176
     0
 74
     1
176
     0
 91
        4
176
     0
 64
     7
176
     0
 65
   257
176
     0
 75
     1
176
     0
175
     1
176
     0
 42
1.0
176
     0
 92
        8
176
     2
 66
     7
176
     0
 43
1.0
176
     0
 76
     1
176
     0
 77
     6
176
     0
 78
     2
176
     0
 67
     7
176
     0
 79
     5
176
     0
170
     0
176
     0
171
     0
176
     0
290
     0
176
     0
 93
        1
176
     0
 44
0.0
176
     0
173
     0
176
     0
  0
VISUALSTYLE
  5
415
102
{ACAD_REACTORS
330
406
102
}
330
406
100
AcDbVisualStyle
  2
Facepattern
 70
    15
177
     2
291
     1
 71
     2
176
     1
 72
     2
176
     1
 73
     0
176
     1
 90
        0
176
     1
 40
0.6
176
     1
 41
30.0
176
     1
 63
     7
421
 16777215
176
     1
 74
     1
176
     1
 91
        4
176
     1
 64
     7
176
     1
 65
   257
176
     1
 75
     1
176
     1
175
     1
176
     1
 42
1.0
176
     1
 92
        8
176
     1
 66
     7
176
     1
 43
1.0
176
     1
 76
     1
176
     1
 77
     6
176
     1
 78
     2
176
     1
 67
     7
176
     1
 79
     5
176
     1
170
     0
176
     1
171
     0
176
     1
290
     0
176
     1
 93
        1
176
     1
 44
0.0
176
     1
173
     0
176
     1
  0
VISUALSTYLE
  5
407
102
{ACAD_REACTORS
330
406
102
}
330
406
100
AcDbVisualStyle
  2
Flat
 70
     0
177
     2
291
     1
 71
     2
176
     1
 72
     1
176
     1
 73
     1
176
     1
 90
        2
176
     1
 40
0.6
176
     1
 41
30.0
176
     1
 63
     7
421
 16777215
176
     1
 74
     0
176
     1
 91
        4
176
     1
 64
     7
176
     1
 65
   257
176
     1
 75
     1
176
     1
175
     1
176
     1
 42
1.0
176
     1
 92
        8
176
     1
 66
     7
176
     1
 43
1.0
176
     1
 76
     1
176
     1
 77
     6
176
     1
 78
     2
176
     1
 67
     7
176
     1
 79
     5
176
     1
170
     0
176
     1
171
     0
176
     1
290
     0
176
     1
 93
       13
176
     1
 44
0.0
176
     1
173
     0
176
     1
  0
VISUALSTYLE
  5
408
102
{ACAD_REACTORS
330
406
102
}
330
406
100
AcDbVisualStyle
  2
FlatWithEdges
 70
     1
177
     2
291
     1
 71
     2
176
     1
 72
     1
176
     1
 73
     1
176
     1
 90
        2
176
     1
 40
0.6
176
     1
 41
30.0
176
     1
 63
     7
421
 16777215
176
     1
 74
     1
176
     1
 91
        4
176
     1
 64
     7
176
     1
 65
   257
176
     1
 75
     1
176
     1
175
     1
176
     1
 42
1.0
176
     1
 92
        0
176
     1
 66
   257
176
     1
 43
1.0
176
     1
 76
     1
176
     1
 77
     6
176
     1
 78
     2
176
     1
 67
     7
176
     1
 79
     5
176
     1
170
     0
176
     1
171
     0
176
     1
290
     0
176
     1
 93
       13
176
     1
 44
0.0
176
     1
173
     0
176
     1
  0
VISUALSTYLE
  5
409
102
{ACAD_REACTORS
330
406
102
}
330
406
100
AcDbVisualStyle
  2
Gouraud
 70
     2
177
     2
291
     1
 71
     2
176
     1
 72
     2
176
     1
 73
     1
176
     1
 90
        2
176
     1
 40
0.6
176
     1
 41
30.0
176
     1
 63
     7
421
 16777215
176
     1
 74
     0
176
     1
 91
        4
176
     1
 64
     7
176
     1
 65
   257
176
     1
 75
     1
176
     1
175
     1
176
     1
 42
1.0
176
     1
 92
        0
176
     1
 66
     7
176
     1
 43
1.0
176
     1
 76
     1
176
     1
 77
     6
176
     1
 78
     2
176
     1
 67
     7
176
     1
 79
     5
176
     1
170
     0
176
     1
171
     0
176
     1
290
     0
176
     1
 93
       13
176
     1
 44
0.0
176
     1
173
     0
176
     1
  0
VISUALSTYLE
  5
40A
102
{ACAD_REACTORS
330
406
102
}
330
406
100
AcDbVisualStyle
  2
GouraudWithEdges
 70
     3
177
     2
291
     1
 71
     2
176
     1
 72
     2
176
     1
 73
     1
176
     1
 90
        2
176
     1
 40
0.6
176
     1
 41
30.0
176
     1
 63
     7
421
 16777215
176
     1
 74
     1
176
     1
 91
        4
176
     1
 64
     7
176
     1
 65
   257
176
     1
 75
     1
176
     1
175
     1
176
     1
 42
1.0
176
     1
 92
        0
176
     1
 66
   257
176
     1
 43
1.0
176
     1
 76
     1
176
     1
 77
     6
176
     1
 78
     2
176
     1
 67
     7
176
     1
 79
     5
176
     1
170
     0
176
     1
171
     0
176
     1
290
     0
176
     1
 93
       13
176
     1
 44
0.0
176
     1
173
     0
176
     1
  0
VISUALSTYLE
  5
417
102
{ACAD_REACTORS
330
406
102
}
330
406
100
AcDbVisualStyle
  2
JitterOff
 70
    20
177
     2
291
     1
 71
     2
176
     0
 72
     2
176
     0
 73
     0
176
     0
 90
        0
176
     0
 40
0.6
176
     0
 41
30.0
176
     0
 63
     7
421
 16777215
176
     0
 74
     1
176
     0
 91
        4
176
     0
 64
     7
176
     0
 65
   257
176
     0
 75
     1
176
     0
175
     1
176
     0
 42
1.0
176
     0
 92
       10
176
     2
 66
     7
176
     0
 43
1.0
176
     0
 76
     1
176
     0
 77
     6
176
     0
 78
     2
176
     0
 67
     7
176
     0
 79
     5
176
     0
170
     0
176
     0
171
     0
176
     0
290
     0
176
     0
 93
        1
176
     0
 44
0.0
176
     0
173
     0
176
     0
  0
VISUALSTYLE
  5
414
102
{ACAD_REACTORS
330
406
102
}
330
406
100
AcDbVisualStyle
  2
Linepattern
 70
    14
177
     2
291
     1
 71
     2
176
     1
 72
     2
176
     1
 73
     0
176
     1
 90
        0
176
     1
 40
0.6
176
     1
 41
30.0
176
     1
 63
     7
421
 16777215
176
     1
 74
     1
176
     1
 91
        4
176
     1
 64
     7
176
     1
 65
   257
176
     1
 75
     7
176
     1
175
     7
176
     1
 42
1.0
176
     1
 92
        8
176
     1
 66
     7
176
     1
 43
1.0
176
     1
 76
     1
176
     1
 77
     6
176
     1
 78
     2
176
     1
 67
     7
176
     1
 79
     5
176
     1
170
     0
176
     1
171
     0
176
     1
290
     0
176
     1
 93
        1
176
     1
 44
0.0
176
     1
173
     0
176
     1
  0
VISUALSTYLE
  5
418
102
{ACAD_REACTORS
330
406
102
}
330
406
100
AcDbVisualStyle
  2
OverhangOff
 70
    21
177
     2
291
     1
 71
     2
176
     0
 72
     2
176
     0
 73
     0
176
     0
 90
        0
176
     0
 40
0.6
176
     0
 41
30.0
176
     0
 63
     7
421
 16777215
176
     0
 74
     1
176
     0
 91
        4
176
     0
 64
     7
176
     0
 65
   257
176
     0
 75
     1
176
     0
175
     1
176
     0
 42
1.0
176
     0
 92
        9
176
     2
 66
     7
176
     0
 43
1.0
176
     0
 76
     1
176
     0
 77
     6
176
     0
 78
     2
176
     0
 67
     7
176
     0
 79
     5
176
     0
170
     0
176
     0
171
     0
176
     0
290
     0
176
     0
 93
        1
176
     0
 44
0.0
176
     0
173
     0
176
     0
  0
VISUALSTYLE
  5
410
102
{ACAD_REACTORS
330
406
102
}
330
406
100
AcDbVisualStyle
  2
Realistic
 70
     8
177
     2
291
     0
 71
     2
176
     1
 72
     2
176
     1
 73
     0
176
     1
 90
        0
176
     1
 40
0.6
176
     1
 41
30.0
176
     1
 63
     7
421
 16777215
176
     1
 74
     1
176
     1
 91
        0
176
     1
 64
     7
176
     1
 65
   257
176
     1
 75
     1
176
     1
175
     1
176
     1
 42
1.0
176
     1
 92
        8
176
     1
 66
     8
424
  7895160
176
     1
 43
1.0
176
     1
 76
     1
176
     1
 77
     6
176
     1
 78
     2
176
     1
 67
     7
176
     1
 79
     5
176
     1
170
     0
176
     1
171
     0
176
     1
290
     0
176
     1
 93
       13
176
     1
 44
0.0
176
     1
173
     0
176
     1
  0
VISUALSTYLE
  5
413
102
{ACAD_REACTORS
330
406
102
}
330
406
100
AcDbVisualStyle
  2
Thicken
 70
    13
177
     2
291
     1
 71
     2
176
     1
 72
     2
176
     1
 73
     0
176
     1
 90
        0
176
     1
 40
0.6
176
     1
 41
30.0
176
     1
 63
     7
421
 16777215
176
     1
 74
     1
176
     1
 91
        4
176
     1
 64
     7
176
     1
 65
   257
176
     1
 75
     1
176
     1
175
     1
176
     1
 42
1.0
176
     1
 92
       12
176
     1
 66
     7
176
     1
 43
1.0
176
     1
 76
     1
176
     1
 77
     6
176
     1
 78
     2
176
     1
 67
     7
176
     1
 79
     5
176
     1
170
     0
176
     1
171
     0
176
     1
290
     0
176
     1
 93
        1
176
     1
 44
0.0
176
     1
173
     0
176
     1
  0
DICTIONARYVAR
  5
438
102
{ACAD_REACTORS
330
5E
102
}
330
5E
100
DictionaryVariables
280
     0
  1
1:1
  0
DICTIONARYVAR
  5
436
102
{ACAD_REACTORS
330
5E
102
}
330
5E
100
DictionaryVariables
280
     0
  1
STANDARD
  0
DICTIONARYVAR
  5
435
102
{ACAD_REACTORS
330
5E
102
}
330
5E
100
DictionaryVariables
280
     0
  1
STANDARD
  0
DICTIONARYVAR
  5
5F
102
{ACAD_REACTORS
330
5E
102
}
330
5E
100
DictionaryVariables
280
     0
  1
2
  0
DICTIONARYVAR
  5
63
102
{ACAD_REACTORS
330
5E
102
}
330
5E
100
DictionaryVariables
280
     0
  1
1
  0
DICTIONARYVAR
  5
43A
102
{ACAD_REACTORS
330
5E
102
}
330
5E
100
DictionaryVariables
280
     0
  1
1
  0
DICTIONARYVAR
  5
43B
102
{ACAD_REACTORS
330
5E
102
}
330
5E
100
DictionaryVariables
280
     0
  1
15
  0
DICTIONARYVAR
  5
439
102
{ACAD_REACTORS
330
5E
102
}
330
5E
100
DictionaryVariables
280
     0
  1
0
  0
DICTIONARYVAR
  5
437
102
{ACAD_REACTORS
330
5E
102
}
330
5E
100
DictionaryVariables
280
     0
  1
0
  0
DICTIONARY
  5
3F7
330
3F6
100
AcDbDictionary
280
     1
281
     1
  3
BUMPTILE
360
3F9
  3
DIFFUSETILE
360
3F8
  3
OPACITYTILE
360
3FC
  3
REFLECTIONTILE
360
3FB
  3
REFRACTIONTILE
360
3FD
  3
SPECULARTILE
360
3FA
  0
DICTIONARY
  5
3EF
330
3EE
100
AcDbDictionary
280
     1
281
     1
  3
BUMPTILE
360
3F1
  3
DIFFUSETILE
360
3F0
  3
OPACITYTILE
360
3F4
  3
REFLECTIONTILE
360
3F3
  3
REFRACTIONTILE
360
3F5
  3
SPECULARTILE
360
3F2
  0
DICTIONARY
  5
3FF
330
3FE
100
AcDbDictionary
280
     1
281
     1
  3
BUMPTILE
360
401
  3
DIFFUSETILE
360
400
  3
OPACITYTILE
360
404
  3
REFLECTIONTILE
360
403
  3
REFRACTIONTILE
360
405
  3
SPECULARTILE
360
402
  0
DICTIONARY
  5
43C
330
41C
100
AcDbDictionary
280
     1
281
     1
  3
ACAD_ROUNDTRIP_2008_TABLESTYLE_CELLSTYLEMAP
360
43D
  0
XRECORD
  5
3F9
102
{ACAD_REACTORS
330
3F7
102
}
330
3F7
100
AcDbXrecord
280
     1
270
     1
271
     1
  0
XRECORD
  5
3F8
102
{ACAD_REACTORS
330
3F7
102
}
330
3F7
100
AcDbXrecord
280
     1
270
     1
271
     1
  0
XRECORD
  5
3FC
102
{ACAD_REACTORS
330
3F7
102
}
330
3F7
100
AcDbXrecord
280
     1
270
     1
271
     1
  0
XRECORD
  5
3FB
102
{ACAD_REACTORS
330
3F7
102
}
330
3F7
100
AcDbXrecord
280
     1
270
     1
271
     1
  0
XRECORD
  5
3FD
102
{ACAD_REACTORS
330
3F7
102
}
330
3F7
100
AcDbXrecord
280
     1
270
     1
271
     1
  0
XRECORD
  5
3FA
102
{ACAD_REACTORS
330
3F7
102
}
330
3F7
100
AcDbXrecord
280
     1
270
     1
271
     1
  0
XRECORD
  5
3F1
102
{ACAD_REACTORS
330
3EF
102
}
330
3EF
100
AcDbXrecord
280
     1
270
     1
271
     1
  0
XRECORD
  5
3F0
102
{ACAD_REACTORS
330
3EF
102
}
330
3EF
100
AcDbXrecord
280
     1
270
     1
271
     1
  0
XRECORD
  5
3F4
102
{ACAD_REACTORS
330
3EF
102
}
330
3EF
100
AcDbXrecord
280
     1
270
     1
271
     1
  0
XRECORD
  5
3F3
102
{ACAD_REACTORS
330
3EF
102
}
330
3EF
100
AcDbXrecord
280
     1
270
     1
271
     1
  0
XRECORD
  5
3F5
102
{ACAD_REACTORS
330
3EF
102
}
330
3EF
100
AcDbXrecord
280
     1
270
     1
271
     1
  0
XRECORD
  5
3F2
102
{ACAD_REACTORS
330
3EF
102
}
330
3EF
100
AcDbXrecord
280
     1
270
     1
271
     1
  0
XRECORD
  5
401
102
{ACAD_REACTORS
330
3FF
102
}
330
3FF
100
AcDbXrecord
280
     1
270
     1
271
     1
  0
XRECORD
  5
400
102
{ACAD_REACTORS
330
3FF
102
}
330
3FF
100
AcDbXrecord
280
     1
270
     1
271
     1
  0
XRECORD
  5
404
102
{ACAD_REACTORS
330
3FF
102
}
330
3FF
100
AcDbXrecord
280
     1
270
     1
271
     1
  0
XRECORD
  5
403
102
{ACAD_REACTORS
330
3FF
102
}
330
3FF
100
AcDbXrecord
280
     1
270
     1
271
     1
  0
XRECORD
  5
405
102
{ACAD_REACTORS
330
3FF
102
}
330
3FF
100
AcDbXrecord
280
     1
270
     1
271
     1
  0
XRECORD
  5
402
102
{ACAD_REACTORS
330
3FF
102
}
330
3FF
100
AcDbXrecord
280
     1
270
     1
271
     1
  0
CELLSTYLEMAP
  5
43D
102
{ACAD_REACTORS
330
43C
102
}
330
43C
100
AcDbCellStyleMap
 90
        3
300
CELLSTYLE
  1
TABLEFORMAT_BEGIN
 90
        5
170
     1
 91
        0
 92
    32768
 62
   257
 93
        1
300
CONTENTFORMAT
  1
CONTENTFORMAT_BEGIN
 90
        0
 91
        0
 92
      512
 93
        0
300

 40
0.0
140
1.0
 94
        5
 62
     0
340
11
144
6.0
309
CONTENTFORMAT_END
171
     1
301
MARGIN
  1
CELLMARGIN_BEGIN
 40
1.5
 40
1.5
 40
1.5
 40
1.5
 40
4.5
 40
4.5
309
CELLMARGIN_END
 94
        6
 95
        1
302
GRIDFORMAT
  1
GRIDFORMAT_BEGIN
 90
        0
 91
        1
 62
     0
 92
       -2
340
0
 93
        0
 40
1.125
309
GRIDFORMAT_END
 95
        2
302
GRIDFORMAT
  1
GRIDFORMAT_BEGIN
 90
        0
 91
        1
 62
     0
 92
       -2
340
0
 93
        0
 40
1.125
309
GRIDFORMAT_END
 95
        4
302
GRIDFORMAT
  1
GRIDFORMAT_BEGIN
 90
        0
 91
        1
 62
     0
 92
       -2
340
0
 93
        0
 40
1.125
309
GRIDFORMAT_END
 95
        8
302
GRIDFORMAT
  1
GRIDFORMAT_BEGIN
 90
        0
 91
        1
 62
     0
 92
       -2
340
0
 93
        0
 40
1.125
309
GRIDFORMAT_END
 95
       16
302
GRIDFORMAT
  1
GRIDFORMAT_BEGIN
 90
        0
 91
        1
 62
     0
 92
       -2
340
0
 93
        0
 40
1.125
309
GRIDFORMAT_END
 95
       32
302
GRIDFORMAT
  1
GRIDFORMAT_BEGIN
 90
        0
 91
        1
 62
     0
 92
       -2
340
0
 93
        0
 40
1.125
309
GRIDFORMAT_END
309
TABLEFORMAT_END
  1
CELLSTYLE_BEGIN
 90
        1
 91
        1
300
_TITLE
309
CELLSTYLE_END
300
CELLSTYLE
  1
TABLEFORMAT_BEGIN
 90
        5
170
     1
 91
        0
 92
        0
 62
   257
 93
        1
300
CONTENTFORMAT
  1
CONTENTFORMAT_BEGIN
 90
        0
 91
        0
 92
      512
 93
        0
300

 40
0.0
140
1.0
 94
        5
 62
     0
340
11
144
4.5
309
CONTENTFORMAT_END
171
     1
301
MARGIN
  1
CELLMARGIN_BEGIN
 40
1.5
 40
1.5
 40
1.5
 40
1.5
 40
4.5
 40
4.5
309
CELLMARGIN_END
 94
        6
 95
        1
302
GRIDFORMAT
  1
GRIDFORMAT_BEGIN
 90
        0
 91
        1
 62
     0
 92
       -2
340
0
 93
        0
 40
1.125
309
GRIDFORMAT_END
 95
        2
302
GRIDFORMAT
  1
GRIDFORMAT_BEGIN
 90
        0
 91
        1
 62
     0
 92
       -2
340
0
 93
        0
 40
1.125
309
GRIDFORMAT_END
 95
        4
302
GRIDFORMAT
  1
GRIDFORMAT_BEGIN
 90
        0
 91
        1
 62
     0
 92
       -2
340
0
 93
        0
 40
1.125
309
GRIDFORMAT_END
 95
        8
302
GRIDFORMAT
  1
GRIDFORMAT_BEGIN
 90
        0
 91
        1
 62
     0
 92
       -2
340
0
 93
        0
 40
1.125
309
GRIDFORMAT_END
 95
       16
302
GRIDFORMAT
  1
GRIDFORMAT_BEGIN
 90
        0
 91
        1
 62
     0
 92
       -2
340
0
 93
        0
 40
1.125
309
GRIDFORMAT_END
 95
       32
302
GRIDFORMAT
  1
GRIDFORMAT_BEGIN
 90
        0
 91
        1
 62
     0
 92
       -2
340
0
 93
        0
 40
1.125
309
GRIDFORMAT_END
309
TABLEFORMAT_END
  1
CELLSTYLE_BEGIN
 90
        2
 91
        1
300
_HEADER
309
CELLSTYLE_END
300
CELLSTYLE
  1
TABLEFORMAT_BEGIN
 90
        5
170
     1
 91
        0
 92
        0
 62
   257
 93
        1
300
CONTENTFORMAT
  1
CONTENTFORMAT_BEGIN
 90
        0
 91
        0
 92
      512
 93
        0
300

 40
0.0
140
1.0
 94
        2
 62
     0
340
11
144
4.5
309
CONTENTFORMAT_END
171
     1
301
MARGIN
  1
CELLMARGIN_BEGIN
 40
1.5
 40
1.5
 40
1.5
 40
1.5
 40
4.5
 40
4.5
309
CELLMARGIN_END
 94
        6
 95
        1
302
GRIDFORMAT
  1
GRIDFORMAT_BEGIN
 90
        0
 91
        1
 62
     0
 92
       -2
340
0
 93
        0
 40
1.125
309
GRIDFORMAT_END
 95
        2
302
GRIDFORMAT
  1
GRIDFORMAT_BEGIN
 90
        0
 91
        1
 62
     0
 92
       -2
340
0
 93
        0
 40
1.125
309
GRIDFORMAT_END
 95
        4
302
GRIDFORMAT
  1
GRIDFORMAT_BEGIN
 90
        0
 91
        1
 62
     0
 92
       -2
340
0
 93
        0
 40
1.125
309
GRIDFORMAT_END
 95
        8
302
GRIDFORMAT
  1
GRIDFORMAT_BEGIN
 90
        0
 91
        1
 62
     0
 92
       -2
340
0
 93
        0
 40
1.125
309
GRIDFORMAT_END
 95
       16
302
GRIDFORMAT
  1
GRIDFORMAT_BEGIN
 90
        0
 91
        1
 62
     0
 92
       -2
340
0
 93
        0
 40
1.125
309
GRIDFORMAT_END
 95
       32
302
GRIDFORMAT
  1
GRIDFORMAT_BEGIN
 90
        0
 91
        1
 62
     0
 92
       -2
340
0
 93
        0
 40
1.125
309
GRIDFORMAT_END
309
TABLEFORMAT_END
  1
CELLSTYLE_BEGIN
 90
        3
 91
        2
300
_DATA
309
CELLSTYLE_END
  0
ENDSEC
  0
EOF
