  0
SECTION
  2
HEADER
  9
$ACADVER
  1
AC1024
  9
$ACADMAINTVER
 70
     6
  9
$DWGCODEPAGE
  3
ANSI_932
  9
$LASTSAVEDBY
  1
kanatani
  9
$INSBASE
 10
0.0
 20
0.0
 30
0.0
  9
$EXTMIN
 10
-198.5000369434814
 20
-253.0172741967612
 30
0.0
  9
$EXTMAX
 10
198.4999802226564
 20
390.2978551591823
 30
0.0
  9
$LIMMIN
 10
0.0
 20
0.0
  9
$LIMMAX
 10
420.0
 20
297.0
  9
$ORTHOMODE
 70
     0
  9
$REGENMODE
 70
     1
  9
$FILLMODE
 70
     1
  9
$QTEXTMODE
 70
     0
  9
$MIRRTEXT
 70
     1
  9
$LTSCALE
 40
0.2
  9
$ATTMODE
 70
     1
  9
$TEXTSIZE
 40
2.5
  9
$TRACEWID
 40
1.0
  9
$TEXTSTYLE
  7
Standard
  9
$CLAYER
  8
0
  9
$CELTYPE
  6
ByLayer
  9
$CECOLOR
 62
   256
  9
$CELTSCALE
 40
1.0
  9
$DISPSILH
 70
     0
  9
$DIMSCALE
 40
1.0
  9
$DIMASZ
 40
2.5
  9
$DIMEXO
 40
0.625
  9
$DIMDLI
 40
3.75
  9
$DIMRND
 40
0.0
  9
$DIMDLE
 40
0.0
  9
$DIMEXE
 40
1.25
  9
$DIMTP
 40
0.0
  9
$DIMTM
 40
0.0
  9
$DIMTXT
 40
2.5
  9
$DIMCEN
 40
2.5
  9
$DIMTSZ
 40
0.0
  9
$DIMTOL
 70
     0
  9
$DIMLIM
 70
     0
  9
$DIMTIH
 70
     0
  9
$DIMTOH
 70
     0
  9
$DIMSE1
 70
     0
  9
$DIMSE2
 70
     0
  9
$DIMTAD
 70
     1
  9
$DIMZIN
 70
     8
  9
$DIMBLK
  1

  9
$DIMASO
 70
     1
  9
$DIMSHO
 70
     1
  9
$DIMPOST
  1

  9
$DIMAPOST
  1

  9
$DIMALT
 70
     0
  9
$DIMALTD
 70
     3
  9
$DIMALTF
 40
0.03937007874016
  9
$DIMLFAC
 40
1.0
  9
$DIMTOFL
 70
     1
  9
$DIMTVP
 40
0.0
  9
$DIMTIX
 70
     0
  9
$DIMSOXD
 70
     0
  9
$DIMSAH
 70
     0
  9
$DIMBLK1
  1

  9
$DIMBLK2
  1

  9
$DIMSTYLE
  2
ISO-25
  9
$DIMCLRD
 70
     0
  9
$DIMCLRE
 70
     0
  9
$DIMCLRT
 70
     0
  9
$DIMTFAC
 40
1.0
  9
$DIMGAP
 40
0.625
  9
$DIMJUST
 70
     0
  9
$DIMSD1
 70
     0
  9
$DIMSD2
 70
     0
  9
$DIMTOLJ
 70
     0
  9
$DIMTZIN
 70
     8
  9
$DIMALTZ
 70
     0
  9
$DIMALTTZ
 70
     0
  9
$DIMUPT
 70
     0
  9
$DIMDEC
 70
     2
  9
$DIMTDEC
 70
     2
  9
$DIMALTU
 70
     2
  9
$DIMALTTD
 70
     3
  9
$DIMTXSTY
  7
Standard
  9
$DIMAUNIT
 70
     0
  9
$DIMADEC
 70
     0
  9
$DIMALTRND
 40
0.0
  9
$DIMAZIN
 70
     0
  9
$DIMDSEP
 70
    44
  9
$DIMATFIT
 70
     3
  9
$DIMFRAC
 70
     0
  9
$DIMLDRBLK
  1

  9
$DIMLUNIT
 70
     2
  9
$DIMLWD
 70
    -2
  9
$DIMLWE
 70
    -2
  9
$DIMTMOVE
 70
     0
  9
$DIMFXL
 40
1.0
  9
$DIMFXLON
 70
     0
  9
$DIMJOGANG
 40
0.7853981633974483
  9
$DIMTFILL
 70
     0
  9
$DIMTFILLCLR
 70
     0
  9
$DIMARCSYM
 70
     0
  9
$DIMLTYPE
  6

  9
$DIMLTEX1
  6

  9
$DIMLTEX2
  6

  9
$DIMTXTDIRECTION
 70
     0
  9
$LUNITS
 70
     2
  9
$LUPREC
 70
     4
  9
$SKETCHINC
 40
1.0
  9
$FILLETRAD
 40
10.0
  9
$AUNITS
 70
     0
  9
$AUPREC
 70
     0
  9
$MENU
  1
.
  9
$ELEVATION
 40
0.0
  9
$PELEVATION
 40
0.0
  9
$THICKNESS
 40
0.0
  9
$LIMCHECK
 70
     0
  9
$CHAMFERA
 40
10.0
  9
$CHAMFERB
 40
10.0
  9
$CHAMFERC
 40
20.0
  9
$CHAMFERD
 40
0.0
  9
$SKPOLY
 70
     0
  9
$TDCREATE
 40
2456874.593217083
  9
$TDUCREATE
 40
2456874.218217083
  9
$TDUPDATE
 40
2456910.415855359
  9
$TDUUPDATE
 40
2456910.040855359
  9
$TDINDWG
 40
0.0103386343
  9
$TDUSRTIMER
 40
0.0103386227
  9
$USRTIMER
 70
     1
  9
$ANGBASE
 50
0.0
  9
$ANGDIR
 70
     0
  9
$PDMODE
 70
     0
  9
$PDSIZE
 40
0.0
  9
$PLINEWID
 40
0.0
  9
$SPLFRAME
 70
     0
  9
$SPLINETYPE
 70
     6
  9
$SPLINESEGS
 70
     8
  9
$HANDSEED
  5
47F
  9
$SURFTAB1
 70
     6
  9
$SURFTAB2
 70
     6
  9
$SURFTYPE
 70
     6
  9
$SURFU
 70
     6
  9
$SURFV
 70
     6
  9
$UCSBASE
  2

  9
$UCSNAME
  2

  9
$UCSORG
 10
0.0
 20
0.0
 30
0.0
  9
$UCSXDIR
 10
1.0
 20
0.0
 30
0.0
  9
$UCSYDIR
 10
0.0
 20
1.0
 30
0.0
  9
$UCSORTHOREF
  2

  9
$UCSORTHOVIEW
 70
     0
  9
$UCSORGTOP
 10
0.0
 20
0.0
 30
0.0
  9
$UCSORGBOTTOM
 10
0.0
 20
0.0
 30
0.0
  9
$UCSORGLEFT
 10
0.0
 20
0.0
 30
0.0
  9
$UCSORGRIGHT
 10
0.0
 20
0.0
 30
0.0
  9
$UCSORGFRONT
 10
0.0
 20
0.0
 30
0.0
  9
$UCSORGBACK
 10
0.0
 20
0.0
 30
0.0
  9
$PUCSBASE
  2

  9
$PUCSNAME
  2

  9
$PUCSORG
 10
0.0
 20
0.0
 30
0.0
  9
$PUCSXDIR
 10
1.0
 20
0.0
 30
0.0
  9
$PUCSYDIR
 10
0.0
 20
1.0
 30
0.0
  9
$PUCSORTHOREF
  2

  9
$PUCSORTHOVIEW
 70
     0
  9
$PUCSORGTOP
 10
0.0
 20
0.0
 30
0.0
  9
$PUCSORGBOTTOM
 10
0.0
 20
0.0
 30
0.0
  9
$PUCSORGLEFT
 10
0.0
 20
0.0
 30
0.0
  9
$PUCSORGRIGHT
 10
0.0
 20
0.0
 30
0.0
  9
$PUCSORGFRONT
 10
0.0
 20
0.0
 30
0.0
  9
$PUCSORGBACK
 10
0.0
 20
0.0
 30
0.0
  9
$USERI1
 70
     0
  9
$USERI2
 70
     0
  9
$USERI3
 70
     0
  9
$USERI4
 70
     0
  9
$USERI5
 70
     0
  9
$USERR1
 40
0.0
  9
$USERR2
 40
0.0
  9
$USERR3
 40
0.0
  9
$USERR4
 40
0.0
  9
$USERR5
 40
0.0
  9
$WORLDVIEW
 70
     1
  9
$SHADEDGE
 70
     3
  9
$SHADEDIF
 70
    70
  9
$TILEMODE
 70
     1
  9
$MAXACTVP
 70
    64
  9
$PINSBASE
 10
0.0
 20
0.0
 30
0.0
  9
$PLIMCHECK
 70
     0
  9
$PEXTMIN
 10
26.66076962115563
 20
20.31135699206658
 30
-0.0015258207003583
  9
$PEXTMAX
 10
240.039213369355
 20
182.8886381005154
 30
0.0000000349246037
  9
$PLIMMIN
 10
-6.350006103515625
 20
-6.349999904632568
  9
$PLIMMAX
 10
273.0499877929688
 20
209.5499939918518
  9
$UNITMODE
 70
     0
  9
$VISRETAIN
 70
     1
  9
$PLINEGEN
 70
     0
  9
$PSLTSCALE
 70
     1
  9
$TREEDEPTH
 70
  3020
  9
$CMLSTYLE
  2
Standard
  9
$CMLJUST
 70
     0
  9
$CMLSCALE
 40
20.0
  9
$PROXYGRAPHICS
 70
     1
  9
$MEASUREMENT
 70
     1
  9
$CELWEIGHT
370
    -1
  9
$ENDCAPS
280
     0
  9
$JOINSTYLE
280
     0
  9
$LWDISPLAY
290
     0
  9
$INSUNITS
 70
     4
  9
$HYPERLINKBASE
  1

  9
$STYLESHEET
  1

  9
$XEDIT
290
     1
  9
$CEPSNTYPE
380
     0
  9
$PSTYLEMODE
290
     1
  9
$FINGERPRINTGUID
  2
{FDEAD578-A652-11D2-9A35-0060089B3A3F}
  9
$VERSIONGUID
  2
{B9B753AA-9422-44B2-A7E5-E7DD75846E02}
  9
$EXTNAMES
290
     1
  9
$PSVPSCALE
 40
0.0
  9
$OLESTARTUP
290
     0
  9
$SORTENTS
280
   127
  9
$INDEXCTL
280
     0
  9
$HIDETEXT
280
     1
  9
$XCLIPFRAME
280
     2
  9
$HALOGAP
280
     0
  9
$OBSCOLOR
 70
   257
  9
$OBSLTYPE
280
     0
  9
$INTERSECTIONDISPLAY
280
     0
  9
$INTERSECTIONCOLOR
 70
   257
  9
$DIMASSOC
280
     2
  9
$PROJECTNAME
  1

  9
$CAMERADISPLAY
290
     0
  9
$LENSLENGTH
 40
50.0
  9
$CAMERAHEIGHT
 40
0.0
  9
$STEPSPERSEC
 40
2.0
  9
$STEPSIZE
 40
6.0
  9
$3DDWFPREC
 40
2.0
  9
$PSOLWIDTH
 40
0.25
  9
$PSOLHEIGHT
 40
4.0
  9
$LOFTANG1
 40
1.570796326794896
  9
$LOFTANG2
 40
1.570796326794896
  9
$LOFTMAG1
 40
0.0
  9
$LOFTMAG2
 40
0.0
  9
$LOFTPARAM
 70
     7
  9
$LOFTNORMALS
280
     1
  9
$LATITUDE
 40
37.795
  9
$LONGITUDE
 40
-122.394
  9
$NORTHDIRECTION
 40
0.0
  9
$TIMEZONE
 70
 -8000
  9
$LIGHTGLYPHDISPLAY
280
     1
  9
$TILEMODELIGHTSYNCH
280
     1
  9
$CMATERIAL
347
42E
  9
$SOLIDHIST
280
     1
  9
$SHOWHIST
280
     1
  9
$DWFFRAME
280
     2
  9
$DGNFRAME
280
     0
  9
$REALWORLDSCALE
290
     1
  9
$INTERFERECOLOR
 62
     1
  9
$INTERFEREOBJVS
345
450
  9
$INTERFEREVPVS
346
44D
  9
$CSHADOW
280
     0
  9
$SHADOWPLANELOCATION
 40
0.0
  0
ENDSEC
  0
SECTION
  2
CLASSES
  0
CLASS
  1
ACDBDICTIONARYWDFLT
  2
AcDbDictionaryWithDefault
  3
ObjectDBX Classes
 90
        0
 91
        1
280
     0
281
     0
  0
CLASS
  1
DICTIONARYVAR
  2
AcDbDictionaryVar
  3
ObjectDBX Classes
 90
        0
 91
        9
280
     0
281
     0
  0
CLASS
  1
MATERIAL
  2
AcDbMaterial
  3
ObjectDBX Classes
 90
     1153
 91
        3
280
     0
281
     0
  0
CLASS
  1
VISUALSTYLE
  2
AcDbVisualStyle
  3
ObjectDBX Classes
 90
     4095
 91
       19
280
     0
281
     0
  0
CLASS
  1
TABLESTYLE
  2
AcDbTableStyle
  3
ObjectDBX Classes
 90
     4095
 91
        1
280
     0
281
     0
  0
CLASS
  1
SCALE
  2
AcDbScale
  3
ObjectDBX Classes
 90
     1153
 91
       17
280
     0
281
     0
  0
CLASS
  1
MLEADERSTYLE
  2
AcDbMLeaderStyle
  3
ACDB_MLEADERSTYLE_CLASS
 90
     4095
 91
        1
280
     0
281
     0
  0
CLASS
  1
CELLSTYLEMAP
  2
AcDbCellStyleMap
  3
ObjectDBX Classes
 90
     1152
 91
        1
280
     0
281
     0
  0
ENDSEC
  0
SECTION
  2
TABLES
  0
TABLE
  2
VPORT
  5
8
330
0
100
AcDbSymbolTable
 70
     1
  0
VPORT
  5
42B
330
8
100
AcDbSymbolTableRecord
100
AcDbViewportTableRecord
  2
*Active
 70
     0
 10
0.0
 20
0.0
 11
1.0
 21
1.0
 12
-0.0039605610005538
 22
85.40141204863974
 13
0.0
 23
0.0
 14
10.0
 24
10.0
 15
10.0
 25
10.0
 16
0.0
 26
0.0
 36
1.0
 17
0.0
 27
0.0
 37
0.0
 40
681.0119108526809
 41
1.857142857142857
 42
50.0
 43
0.0
 44
0.0
 50
0.0
 51
0.0
 71
     0
 72
   100
 73
     1
 74
     3
 75
     0
 76
     0
 77
     0
 78
     0
281
     0
 65
     1
110
0.0
120
0.0
130
0.0
111
1.0
121
0.0
131
0.0
112
0.0
122
1.0
132
0.0
 79
     0
146
0.0
348
44C
 60
     3
 61
     5
292
     1
282
     1
141
0.0
142
0.0
 63
   250
421
  3355443
  0
ENDTAB
  0
TABLE
  2
LTYPE
  5
5
330
0
100
AcDbSymbolTable
 70
     3
  0
LTYPE
  5
14
330
5
100
AcDbSymbolTableRecord
100
AcDbLinetypeTableRecord
  2
ByBlock
 70
     0
  3

 72
    65
 73
     0
 40
0.0
  0
LTYPE
  5
15
330
5
100
AcDbSymbolTableRecord
100
AcDbLinetypeTableRecord
  2
ByLayer
 70
     0
  3

 72
    65
 73
     0
 40
0.0
  0
LTYPE
  5
16
330
5
100
AcDbSymbolTableRecord
100
AcDbLinetypeTableRecord
  2
Continuous
 70
     0
  3
Solid line
 72
    65
 73
     0
 40
0.0
  0
LTYPE
  5
8D
330
5
100
AcDbSymbolTableRecord
100
AcDbLinetypeTableRecord
  2
CENTER
 70
     0
  3
Center ____ _ ____ _ ____ _ ____ _ ____ _ ____
 72
    65
 73
     4
 40
50.8
 49
31.75
 74
     0
 49
-6.349999999999999
 74
     0
 49
6.349999999999999
 74
     0
 49
-6.349999999999999
 74
     0
  0
LTYPE
  5
8E
330
5
100
AcDbSymbolTableRecord
100
AcDbLinetypeTableRecord
  2
PHANTOM
 70
     0
  3
Phantom ______  __  __  ______  __  __  ______
 72
    65
 73
     6
 40
63.5
 49
31.75
 74
     0
 49
-6.349999999999999
 74
     0
 49
6.349999999999999
 74
     0
 49
-6.349999999999999
 74
     0
 49
6.349999999999999
 74
     0
 49
-6.349999999999999
 74
     0
  0
ENDTAB
  0
TABLE
  2
LAYER
  5
2
102
{ACAD_XDICTIONARY
360
97
102
}
330
0
100
AcDbSymbolTable
 70
     3
  0
LAYER
  5
10
102
{ACAD_XDICTIONARY
360
473
102
}
330
2
100
AcDbSymbolTableRecord
100
AcDbLayerTableRecord
  2
0
 70
     0
 62
     7
  6
Continuous
370
    -3
390
F
347
43E
  0
LAYER
  5
8F
102
{ACAD_XDICTIONARY
360
90
102
}
330
2
100
AcDbSymbolTableRecord
100
AcDbLayerTableRecord
  2
2
 70
     0
 62
     2
  6
PHANTOM
370
    -3
390
F
347
43E
1001
AcAecLayerStandard
1000

1000

1001
ACCMTRANSPARENCY
1071
        0
  0
LAYER
  5
92
102
{ACAD_XDICTIONARY
360
93
102
}
330
2
100
AcDbSymbolTableRecord
100
AcDbLayerTableRecord
  2
1
 70
     0
 62
     5
  6
CENTER
370
    -3
390
F
347
43E
1001
AcAecLayerStandard
1000

1000

1001
ACCMTRANSPARENCY
1071
        0
  0
ENDTAB
  0
TABLE
  2
STYLE
  5
3
330
0
100
AcDbSymbolTable
 70
     1
  0
STYLE
  5
11
330
3
100
AcDbSymbolTableRecord
100
AcDbTextStyleTableRecord
  2
Standard
 70
     0
 40
0.0
 41
1.0
 50
0.0
 71
     0
 42
2.5
  3
txt
  4

  0
ENDTAB
  0
TABLE
  2
VIEW
  5
6
330
0
100
AcDbSymbolTable
 70
     0
  0
ENDTAB
  0
TABLE
  2
UCS
  5
7
330
0
100
AcDbSymbolTable
 70
     0
  0
ENDTAB
  0
TABLE
  2
APPID
  5
9
330
0
100
AcDbSymbolTable
 70
     3
  0
APPID
  5
12
330
9
100
AcDbSymbolTableRecord
100
AcDbRegAppTableRecord
  2
ACAD
 70
     0
  0
APPID
  5
95
330
9
100
AcDbSymbolTableRecord
100
AcDbRegAppTableRecord
  2
AcAecLayerStandard
 70
     0
  0
APPID
  5
96
330
9
100
AcDbSymbolTableRecord
100
AcDbRegAppTableRecord
  2
ACCMTRANSPARENCY
 70
     0
  0
ENDTAB
  0
TABLE
  2
DIMSTYLE
  5
A
330
0
100
AcDbSymbolTable
 70
     1
100
AcDbDimStyleTable
 71
     0
  0
DIMSTYLE
105
27
330
A
100
AcDbSymbolTableRecord
100
AcDbDimStyleTableRecord
  2
ISO-25
 70
     0
 41
2.5
 42
0.625
 43
3.75
 44
1.25
 73
     0
 74
     0
 77
     1
 78
     8
140
2.5
141
2.5
143
0.03937007874016
147
0.625
171
     3
172
     1
271
     2
272
     2
274
     3
278
    44
283
     0
284
     8
340
11
  0
ENDTAB
  0
TABLE
  2
BLOCK_RECORD
  5
1
330
0
100
AcDbSymbolTable
 70
     1
  0
BLOCK_RECORD
  5
1F
330
1
100
AcDbSymbolTableRecord
100
AcDbBlockTableRecord
  2
*Model_Space
340
22
 70
     0
280
     1
281
     0
  0
BLOCK_RECORD
  5
55
330
1
100
AcDbSymbolTableRecord
100
AcDbBlockTableRecord
  2
*Paper_Space
340
56
 70
     0
280
     1
281
     0
  0
BLOCK_RECORD
  5
50
330
1
100
AcDbSymbolTableRecord
100
AcDbBlockTableRecord
  2
*Paper_Space0
340
51
 70
     0
280
     1
281
     0
  0
ENDTAB
  0
ENDSEC
  0
SECTION
  2
BLOCKS
  0
BLOCK
  5
20
330
1F
100
AcDbEntity
  8
0
100
AcDbBlockBegin
  2
*Model_Space
 70
     0
 10
0.0
 20
0.0
 30
0.0
  3
*Model_Space
  1

  0
ENDBLK
  5
21
330
1F
100
AcDbEntity
  8
0
100
AcDbBlockEnd
  0
BLOCK
  5
57
330
55
100
AcDbEntity
 67
     1
  8
0
100
AcDbBlockBegin
  2
*Paper_Space
 70
     0
 10
0.0
 20
0.0
 30
0.0
  3
*Paper_Space
  1

  0
ENDBLK
  5
58
330
55
100
AcDbEntity
 67
     1
  8
0
100
AcDbBlockEnd
  0
BLOCK
  5
52
330
50
100
AcDbEntity
 67
     1
  8
0
100
AcDbBlockBegin
  2
*Paper_Space0
 70
     0
 10
0.0
 20
0.0
 30
0.0
  3
*Paper_Space0
  1

  0
VIEWPORT
  5
6B
330
50
100
AcDbEntity
 67
     1
  8
0
100
AcDbViewport
 10
133.3499908447266
 20
101.5999970436096
 30
0.0
 40
381.3957395593835
 41
218.2856291881582
 68
     0
 69
     0
 12
133.3499908447266
 22
101.5999970436096
 13
0.0
 23
0.0
 14
10.0
 24
10.0
 15
10.0
 25
10.0
 16
0.0
 26
0.0
 36
1.0
 17
0.0
 27
0.0
 37
0.0
 42
50.0
 43
0.0
 44
0.0
 45
218.2856291881582
 50
0.0
 51
0.0
 72
   100
 90
    32800
  1

281
     0
 71
     1
 74
     0
110
0.0
120
0.0
130
0.0
111
1.0
121
0.0
131
0.0
112
0.0
122
1.0
132
0.0
 79
     0
146
0.0
170
     0
 61
     5
348
44C
292
     1
282
     1
141
0.0
142
0.0
 63
   250
421
  3355443
  0
VIEWPORT
  5
6D
330
50
100
AcDbEntity
 67
     1
  8
0
100
AcDbViewport
 10
133.3499939441681
 20
101.5999939441681
 30
0.0
 40
213.3599903106689
 41
162.5599903106689
 68
     0
 69
     0
 12
210.0
 22
148.5
 13
0.0
 23
0.0
 14
10.0
 24
10.0
 15
10.0
 25
10.0
 16
0.0
 26
0.0
 36
1.0
 17
0.0
 27
0.0
 37
0.0
 42
50.0
 43
0.0
 44
0.0
 45
324.0677920111345
 50
0.0
 51
0.0
 72
   100
 90
    32864
  1

281
     0
 71
     1
 74
     0
110
0.0
120
0.0
130
0.0
111
1.0
121
0.0
131
0.0
112
0.0
122
1.0
132
0.0
 79
     0
146
0.0
170
     0
 61
     5
348
44C
292
     1
282
     1
141
0.0
142
0.0
 63
   250
421
  3355443
  0
ENDBLK
  5
53
330
50
100
AcDbEntity
 67
     1
  8
0
100
AcDbBlockEnd
  0
ENDSEC
  0
SECTION
  2
ENTITIES
  0
LINE
  5
25F
330
1F
100
AcDbEntity
  8
1
100
AcDbLine
 10
-0.0000054722287928
 20
79.5
 30
0.0
 11
0.000017415954801
 21
-253.0172741967612
 31
0.0
  0
LINE
  5
260
330
1F
100
AcDbEntity
  8
2
100
AcDbLine
 10
161.2500465465171
 20
-184.0000164445403
 30
0.0
 11
166.2500470683361
 21
-122.0000086763716
 31
0.0
  0
LINE
  5
261
330
1F
100
AcDbEntity
  8
2
100
AcDbLine
 10
35.00003267474387
 20
-106.5000000000002
 30
0.0
 11
35.00003267474387
 21
-164.5000305175781
 31
0.0
  0
LINE
  5
262
330
1F
100
AcDbEntity
  8
2
100
AcDbLine
 10
30.0000174159548
 20
-107.5000305175783
 30
0.0
 11
30.0000174159548
 21
-163.5
 31
0.0
  0
LINE
  5
263
330
1F
100
AcDbEntity
  8
2
100
AcDbLine
 10
31.00004793353293
 20
-107.5000305175783
 30
0.0
 11
31.00004793353293
 21
-163.5
 31
0.0
  0
LINE
  5
264
330
1F
100
AcDbEntity
  8
2
100
AcDbLine
 10
-31.00001310162332
 20
-107.5000305175783
 30
0.0
 11
-31.00001310162332
 21
-163.5
 31
0.0
  0
LINE
  5
265
330
1F
100
AcDbEntity
  8
2
100
AcDbLine
 10
-29.9999825840452
 20
-107.5000305175783
 30
0.0
 11
-29.9999825840452
 21
-163.5
 31
0.0
  0
LINE
  5
266
330
1F
100
AcDbEntity
  8
2
100
AcDbLine
 10
-34.9999520664673
 20
-106.5000000000002
 30
0.0
 11
-34.9999520664673
 21
-164.5000305175781
 31
0.0
  0
LINE
  5
267
330
1F
100
AcDbEntity
  8
2
100
AcDbLine
 10
-161.2499266356385
 20
-183.9999733256879
 30
0.0
 11
-166.2499271574574
 21
-121.9999655575193
 31
0.0
  0
LINE
  5
268
330
1F
100
AcDbEntity
  8
2
100
AcDbLine
 10
161.2499716395876
 20
-30.0
 30
0.0
 11
161.2499716395876
 21
-184.0000305175781
 31
0.0
  0
LINE
  5
269
330
1F
100
AcDbEntity
  8
2
100
AcDbLine
 10
149.2499716395876
 20
-4.000030517578125
 30
0.0
 11
149.2499716395876
 21
-210.0
 31
0.0
  0
LINE
  5
26A
330
1F
100
AcDbEntity
  8
2
100
AcDbLine
 10
135.2500021571657
 20
-3.0
 30
0.0
 11
135.2500021571657
 21
-211.0000305175781
 31
0.0
  0
LINE
  5
26B
330
1F
100
AcDbEntity
  8
2
100
AcDbLine
 10
-161.2499825840454
 20
-30.0
 30
0.0
 11
-161.2499825840454
 21
-184.0000305175781
 31
0.0
  0
LINE
  5
26C
330
1F
100
AcDbEntity
  8
2
100
AcDbLine
 10
-149.2499825840454
 20
-4.000030517578125
 30
0.0
 11
-149.2499825840454
 21
-210.0
 31
0.0
  0
LINE
  5
26D
330
1F
100
AcDbEntity
  8
2
100
AcDbLine
 10
-135.2500131016235
 20
-3.0
 30
0.0
 11
-135.2500131016235
 21
-211.0000305175781
 31
0.0
  0
LINE
  5
26E
330
1F
100
AcDbEntity
  8
2
100
AcDbLine
 10
-28.00001310162333
 20
-166.5
 30
0.0
 11
28.00004793353293
 21
-166.5
 31
0.0
  0
LINE
  5
26F
330
1F
100
AcDbEntity
  8
2
100
AcDbLine
 10
-28.99995206646707
 20
-170.5000305175781
 30
0.0
 11
29.00007845111105
 21
-170.5000305175781
 31
0.0
  0
LINE
  5
270
330
1F
100
AcDbEntity
  8
2
100
AcDbLine
 10
-28.00001310162333
 20
-165.5000152587888
 30
0.0
 11
28.00004793353293
 21
-165.5000152587888
 31
0.0
  0
LINE
  5
271
330
1F
100
AcDbEntity
  8
2
100
AcDbLine
 10
-62.99998258404542
 20
-220.0000305175781
 30
0.0
 11
62.99997163958761
 21
-220.0000305175781
 31
0.0
  0
LINE
  5
272
330
1F
100
AcDbEntity
  8
2
100
AcDbLine
 10
-68.99998258404543
 20
-207.0
 30
0.0
 11
-149.2499825840454
 21
-207.0
 31
0.0
  0
LINE
  5
273
330
1F
100
AcDbEntity
  8
2
100
AcDbLine
 10
-148.2499520664673
 20
-211.0000305175781
 30
0.0
 11
-67.9999520664673
 21
-211.0000305175781
 31
0.0
  0
LINE
  5
274
330
1F
100
AcDbEntity
  8
2
100
AcDbLine
 10
-150.6108224277954
 20
-181.9280090332031
 30
0.0
 11
-150.6108224277954
 21
-200.072021484375
 31
0.0
  0
LINE
  5
275
330
1F
100
AcDbEntity
  8
2
100
AcDbLine
 10
-160.589978921936
 20
-183.1064758300781
 30
0.0
 11
-160.589978921936
 21
-198.8935546875
 31
0.0
  0
LINE
  5
276
330
1F
100
AcDbEntity
  8
2
100
AcDbLine
 10
-159.909559000061
 20
-181.9280090332031
 30
0.0
 11
-159.909559000061
 21
-200.072021484375
 31
0.0
  0
ARC
  5
277
330
1F
100
AcDbEntity
  8
2
100
AcDbCircle
 10
-148.2499520664673
 20
-210.0
 30
0.0
 40
1.000000029802322
100
AcDbArc
 50
179.999991348572
 51
270.000000683243
  0
LINE
  5
278
330
1F
100
AcDbEntity
  8
2
100
AcDbLine
 10
-160.5900309034927
 20
-198.8934557831576
 30
0.0
 11
-159.9096109724591
 21
-200.0719776530389
 31
0.0
  0
LINE
  5
279
330
1F
100
AcDbEntity
  8
2
100
AcDbLine
 10
-159.909559000061
 20
-200.072021484375
 30
0.0
 11
-149.2499825840454
 21
-200.072021484375
 31
0.0
  0
ARC
  5
27A
330
1F
100
AcDbEntity
  8
2
100
AcDbCircle
 10
-155.2499825840454
 20
-184.0000305175781
 30
0.0
 40
6.0
100
AcDbArc
 50
179.999991348572
 51
207.1267569958333
  0
LINE
  5
27B
330
1F
100
AcDbEntity
  8
2
100
AcDbLine
 10
-160.5900554897848
 20
-183.1064475321307
 30
0.0
 11
-159.9096527248889
 21
-181.9279553948715
 31
0.0
  0
LINE
  5
27C
330
1F
100
AcDbEntity
  8
2
100
AcDbLine
 10
-159.909559000061
 20
-181.9280090332031
 30
0.0
 11
-149.2499825840454
 21
-181.9280090332031
 31
0.0
  0
ARC
  5
27D
330
1F
100
AcDbEntity
  8
2
100
AcDbCircle
 10
-68.99998258404543
 20
-213.0
 30
0.0
 40
6.0
100
AcDbArc
 50
0.0
 51
90.00000250446868
  0
LINE
  5
27E
330
1F
100
AcDbEntity
  8
2
100
AcDbLine
 10
-62.99998258404542
 20
-213.0
 30
0.0
 11
-62.99998258404542
 21
-220.0000305175781
 31
0.0
  0
ARC
  5
27F
330
1F
100
AcDbEntity
  8
2
100
AcDbCircle
 10
-67.9999520664673
 20
-216.0
 30
0.0
 40
4.999999880790709
100
AcDbArc
 50
0.0
 51
90.00000250446868
  0
ARC
  5
280
330
1F
100
AcDbEntity
  8
2
100
AcDbCircle
 10
-28.00001310162333
 20
-163.5
 30
0.0
 40
3.0
100
AcDbArc
 50
179.999991348572
 51
270.000000683243
  0
ARC
  5
281
330
1F
100
AcDbEntity
  8
2
100
AcDbCircle
 10
-28.00001310162333
 20
-163.5
 30
0.0
 40
2.000000059604645
100
AcDbArc
 50
179.999991348572
 51
270.000000683243
  0
ARC
  5
282
330
1F
100
AcDbEntity
  8
2
100
AcDbCircle
 10
-28.99995206646707
 20
-164.5000305175781
 30
0.0
 40
6.0
100
AcDbArc
 50
179.999991348572
 51
270.000000683243
  0
LINE
  5
283
330
1F
100
AcDbEntity
  8
2
100
AcDbLine
 10
68.99997163958762
 20
-207.0
 30
0.0
 11
149.2499716395876
 21
-207.0
 31
0.0
  0
LINE
  5
284
330
1F
100
AcDbEntity
  8
2
100
AcDbLine
 10
68.00003267474386
 20
-211.0000305175781
 30
0.0
 11
148.2500326747438
 21
-211.0000305175781
 31
0.0
  0
ARC
  5
285
330
1F
100
AcDbEntity
  8
2
100
AcDbCircle
 10
68.99997163958762
 20
-213.0
 30
0.0
 40
6.0
100
AcDbArc
 50
90.00000250446868
 51
180.0000050089504
  0
LINE
  5
286
330
1F
100
AcDbEntity
  8
2
100
AcDbLine
 10
62.99997163958761
 20
-213.0
 30
0.0
 11
62.99997163958761
 21
-220.0000305175781
 31
0.0
  0
ARC
  5
287
330
1F
100
AcDbEntity
  8
2
100
AcDbCircle
 10
68.00003267474386
 20
-216.0
 30
0.0
 40
4.999999880790709
100
AcDbArc
 50
90.00000250446868
 51
180.0000050089504
  0
ARC
  5
288
330
1F
100
AcDbEntity
  8
2
100
AcDbCircle
 10
28.00004793353293
 20
-163.5
 30
0.0
 40
3.0
100
AcDbArc
 50
269.9999974955313
 51
0.0
  0
ARC
  5
289
330
1F
100
AcDbEntity
  8
2
100
AcDbCircle
 10
29.00007845111105
 20
-164.5000305175781
 30
0.0
 40
6.0
100
AcDbArc
 50
269.9999974955313
 51
0.0
  0
ARC
  5
28A
330
1F
100
AcDbEntity
  8
2
100
AcDbCircle
 10
28.00004793353293
 20
-163.5
 30
0.0
 40
2.000000059604645
100
AcDbArc
 50
269.9999974955313
 51
0.0
  0
LINE
  5
28B
330
1F
100
AcDbEntity
  8
2
100
AcDbLine
 10
160.5899679774782
 20
-183.1064758300781
 30
0.0
 11
160.5899679774782
 21
-198.8935546875
 31
0.0
  0
LINE
  5
28C
330
1F
100
AcDbEntity
  8
2
100
AcDbLine
 10
159.9096396083376
 20
-181.9280090332031
 30
0.0
 11
159.9096396083376
 21
-200.072021484375
 31
0.0
  0
LINE
  5
28D
330
1F
100
AcDbEntity
  8
2
100
AcDbLine
 10
150.6108114833376
 20
-181.9280090332031
 30
0.0
 11
150.6108114833376
 21
-200.072021484375
 31
0.0
  0
LINE
  5
28E
330
1F
100
AcDbEntity
  8
2
100
AcDbLine
 10
160.5899927541484
 20
-198.8935071181356
 30
0.0
 11
159.9095957112984
 21
-200.07198934452
 31
0.0
  0
LINE
  5
28F
330
1F
100
AcDbEntity
  8
2
100
AcDbLine
 10
159.9096396083376
 20
-200.072021484375
 30
0.0
 11
149.2499716395876
 21
-200.072021484375
 31
0.0
  0
ARC
  5
290
330
1F
100
AcDbEntity
  8
2
100
AcDbCircle
 10
148.2500326747438
 20
-210.0
 30
0.0
 40
1.000000029802322
100
AcDbArc
 50
269.9999974955313
 51
0.0
  0
LINE
  5
291
330
1F
100
AcDbEntity
  8
2
100
AcDbLine
 10
159.9096396083376
 20
-181.9280090332031
 30
0.0
 11
149.2499716395876
 21
-181.9280090332031
 31
0.0
  0
ARC
  5
292
330
1F
100
AcDbEntity
  8
2
100
AcDbCircle
 10
155.2499716395876
 20
-184.0000305175781
 30
0.0
 40
6.0
100
AcDbArc
 50
332.8732394753966
 51
0.0
  0
LINE
  5
293
330
1F
100
AcDbEntity
  8
2
100
AcDbLine
 10
160.5900347119903
 20
-183.106472061927
 30
0.0
 11
159.9096376691403
 21
-181.9279898355423
 31
0.0
  0
ARC
  5
294
330
1F
100
AcDbEntity
  8
2
100
AcDbCircle
 10
-181.0000131016235
 20
-106.9999694824218
 30
0.0
 40
12.50000095367432
100
AcDbArc
 50
90.00000250446868
 51
269.9777130656391
  0
LINE
  5
295
330
1F
100
AcDbEntity
  8
2
100
AcDbLine
 10
85.00000215716573
 20
0.0
 30
0.0
 11
85.00000215716573
 21
-10.99996948242187
 31
0.0
  0
ARC
  5
296
330
1F
100
AcDbEntity
  8
2
100
AcDbCircle
 10
42.50003267474386
 20
-19.99996948242187
 30
0.0
 40
16.5
100
AcDbArc
 50
0.0
 51
180.0000050089504
  0
ARC
  5
297
330
1F
100
AcDbEntity
  8
2
100
AcDbCircle
 10
-42.4999520664673
 20
-19.99996948242187
 30
0.0
 40
16.5
100
AcDbArc
 50
0.0
 51
180.0000050089504
  0
LINE
  5
298
330
1F
100
AcDbEntity
  8
2
100
AcDbLine
 10
-85.00001310162355
 20
0.0
 30
0.0
 11
-85.00001310162355
 21
-10.99996948242187
 31
0.0
  0
ARC
  5
299
330
1F
100
AcDbEntity
  8
2
100
AcDbCircle
 10
0.000017415954801
 20
273.0673828125
 30
0.0
 40
286.0673904418945
100
AcDbArc
 50
264.322532521529
 51
275.6774692996937
  0
LINE
  5
29A
330
1F
100
AcDbEntity
  8
2
100
AcDbLine
 10
-148.2499520664673
 20
-22.99996948242188
 30
0.0
 11
148.2500326747438
 21
-22.99996948242188
 31
0.0
  0
LINE
  5
29B
330
1F
100
AcDbEntity
  8
2
100
AcDbLine
 10
-28.00001310162333
 20
-105.5000152587888
 30
0.0
 11
28.00004793353293
 21
-105.5000152587888
 31
0.0
  0
LINE
  5
29C
330
1F
100
AcDbEntity
  8
2
100
AcDbLine
 10
-28.99995206646707
 20
-100.5
 30
0.0
 11
29.00007845111105
 21
-100.5
 31
0.0
  0
LINE
  5
29D
330
1F
100
AcDbEntity
  8
2
100
AcDbLine
 10
-28.00001310162333
 20
-104.5000305175781
 30
0.0
 11
28.00004793353293
 21
-104.5000305175781
 31
0.0
  0
LINE
  5
29E
330
1F
100
AcDbEntity
  8
2
100
AcDbLine
 10
-149.2499825840454
 20
-87.0
 30
0.0
 11
149.2499716395876
 21
-87.0
 31
0.0
  0
LINE
  5
29F
330
1F
100
AcDbEntity
  8
2
100
AcDbLine
 10
-161.2499705250688
 20
-30.00003524395424
 30
0.0
 11
-166.2499710468877
 21
-92.00004301212288
 31
0.0
  0
LINE
  5
2A0
330
1F
100
AcDbEntity
  8
2
100
AcDbLine
 10
-149.2499825840454
 20
-127.0000305175781
 30
0.0
 11
-34.9999520664673
 21
-127.0000305175781
 31
0.0
  0
ARC
  5
2A1
330
1F
100
AcDbEntity
  8
2
100
AcDbCircle
 10
-174.1061837559204
 20
-118.2237854003906
 30
0.0
 40
6.893842935562133
100
AcDbArc
 50
147.1327658926417
 51
212.8672304648811
  0
LINE
  5
2A2
330
1F
100
AcDbEntity
  8
2
100
AcDbLine
 10
-167.2499825840454
 20
-91.99996948242187
 30
0.0
 11
-167.2499825840454
 21
-121.9999694824221
 31
0.0
  0
LINE
  5
2A3
330
1F
100
AcDbEntity
  8
2
100
AcDbLine
 10
-166.2499520664673
 20
-91.99996948242187
 30
0.0
 11
-166.2499520664673
 21
-121.9999694824221
 31
0.0
  0
LINE
  5
2A4
330
1F
100
AcDbEntity
  8
2
100
AcDbLine
 10
-166.2499520664673
 20
-121.9999694824216
 30
0.0
 11
-167.2499825840454
 21
-121.9999694824216
 31
0.0
  0
LINE
  5
2A5
330
1F
100
AcDbEntity
  8
2
100
AcDbLine
 10
-179.8965279942017
 20
-121.9649963378906
 30
0.0
 11
-167.2499825840454
 21
-121.9649963378906
 31
0.0
  0
LINE
  5
2A6
330
1F
100
AcDbEntity
  8
2
100
AcDbLine
 10
-166.2499520664673
 20
-91.99996948242187
 30
0.0
 11
-167.2499825840454
 21
-91.99996948242187
 31
0.0
  0
LINE
  5
2A7
330
1F
100
AcDbEntity
  8
2
100
AcDbLine
 10
-179.8965279942017
 20
-92.0350341796875
 30
0.0
 11
-167.2499825840454
 21
-92.0350341796875
 31
0.0
  0
LINE
  5
2A8
330
1F
100
AcDbEntity
  8
2
100
AcDbLine
 10
-179.8965279942017
 20
-99.51754760742188
 30
0.0
 11
-167.2499825840454
 21
-99.51754760742188
 31
0.0
  0
ARC
  5
2A9
330
1F
100
AcDbEntity
  8
2
100
AcDbCircle
 10
-174.1061837559204
 20
-95.77624511718751
 30
0.0
 40
6.893842935562133
100
AcDbArc
 50
147.1327658926417
 51
212.8672304648811
  0
LINE
  5
2AA
330
1F
100
AcDbEntity
  8
2
100
AcDbLine
 10
-179.8965279942017
 20
-114.4824829101562
 30
0.0
 11
-167.2499825840454
 21
-114.4824829101562
 31
0.0
  0
LINE
  5
2AB
330
1F
100
AcDbEntity
  8
2
100
AcDbLine
 10
-181.0000131016235
 20
-95.77624511718772
 30
0.0
 11
-181.0000131016235
 21
-118.2237854003908
 31
0.0
  0
ARC
  5
2AC
330
1F
100
AcDbEntity
  8
2
100
AcDbCircle
 10
-155.0798776035767
 20
-106.9999694824218
 30
0.0
 40
25.92012977600098
100
AcDbArc
 50
163.2213447844912
 51
196.7786515730275
  0
CIRCLE
  5
2AD
330
1F
100
AcDbEntity
  8
2
100
AcDbCircle
 10
0.000017415954801
 20
-119.5000305175781
 30
0.0
 40
2.000000059604645
  0
CIRCLE
  5
2AE
330
1F
100
AcDbEntity
  8
2
100
AcDbCircle
 10
0.000017415954801
 20
-119.5000305175781
 30
0.0
 40
2.499999940395354
  0
CIRCLE
  5
2AF
330
1F
100
AcDbEntity
  8
2
100
AcDbCircle
 10
-11.9999825840452
 20
-119.5000305175781
 30
0.0
 40
2.499999940395354
  0
CIRCLE
  5
2B0
330
1F
100
AcDbEntity
  8
2
100
AcDbCircle
 10
-11.9999825840452
 20
-119.5000305175781
 30
0.0
 40
2.000000059604645
  0
CIRCLE
  5
2B1
330
1F
100
AcDbEntity
  8
2
100
AcDbCircle
 10
12.0000174159548
 20
-151.5
 30
0.0
 40
2.000000059604645
  0
CIRCLE
  5
2B2
330
1F
100
AcDbEntity
  8
2
100
AcDbCircle
 10
12.0000174159548
 20
-151.5
 30
0.0
 40
2.499999940395354
  0
CIRCLE
  5
2B3
330
1F
100
AcDbEntity
  8
2
100
AcDbCircle
 10
0.000017415954801
 20
-151.5
 30
0.0
 40
2.000000059604645
  0
CIRCLE
  5
2B4
330
1F
100
AcDbEntity
  8
2
100
AcDbCircle
 10
0.000017415954801
 20
-151.5
 30
0.0
 40
2.499999940395354
  0
CIRCLE
  5
2B5
330
1F
100
AcDbEntity
  8
2
100
AcDbCircle
 10
-11.9999825840452
 20
-135.5000152587888
 30
0.0
 40
6.578081846237182
  0
CIRCLE
  5
2B6
330
1F
100
AcDbEntity
  8
2
100
AcDbCircle
 10
-11.9999825840452
 20
-135.5000152587888
 30
0.0
 40
5.727081656455993
  0
CIRCLE
  5
2B7
330
1F
100
AcDbEntity
  8
2
100
AcDbCircle
 10
12.0000174159548
 20
-135.5000152587888
 30
0.0
 40
6.578081846237182
  0
CIRCLE
  5
2B8
330
1F
100
AcDbEntity
  8
2
100
AcDbCircle
 10
12.0000174159548
 20
-135.5000152587888
 30
0.0
 40
5.727081656455993
  0
ARC
  5
2B9
330
1F
100
AcDbEntity
  8
2
100
AcDbCircle
 10
-28.00001310162333
 20
-107.5000305175781
 30
0.0
 40
3.0
100
AcDbArc
 50
90.00000250446868
 51
180.0000050089504
  0
ARC
  5
2BA
330
1F
100
AcDbEntity
  8
2
100
AcDbCircle
 10
-28.00001310162333
 20
-107.5000305175781
 30
0.0
 40
2.000000059604645
100
AcDbArc
 50
90.00000250446868
 51
180.0000050089504
  0
ARC
  5
2BB
330
1F
100
AcDbEntity
  8
2
100
AcDbCircle
 10
-28.99995206646707
 20
-106.5
 30
0.0
 40
6.0
100
AcDbArc
 50
90.00000250446868
 51
180.0000050089504
  0
LINE
  5
2BC
330
1F
100
AcDbEntity
  8
2
100
AcDbLine
 10
-85.00001310162355
 20
-10.99996948242187
 30
0.0
 11
-56.32926725201418
 21
-10.99996948242187
 31
0.0
  0
LINE
  5
2BD
330
1F
100
AcDbEntity
  8
2
100
AcDbLine
 10
-159.909559000061
 20
-23.92803955078125
 30
0.0
 11
-149.2499825840454
 21
-23.92803955078125
 31
0.0
  0
ARC
  5
2BE
330
1F
100
AcDbEntity
  8
2
100
AcDbCircle
 10
-155.2499825840454
 20
-30.0
 30
0.0
 40
6.0
100
AcDbArc
 50
152.8732393617247
 51
180.0000050089504
  0
LINE
  5
2BF
330
1F
100
AcDbEntity
  8
2
100
AcDbLine
 10
-160.5899839108928
 20
-40.89347826843777
 30
0.0
 11
-159.9096097562264
 21
-42.07192085132601
 31
0.0
  0
LINE
  5
2C0
330
1F
100
AcDbEntity
  8
2
100
AcDbLine
 10
-159.909559000061
 20
-42.07196044921874
 30
0.0
 11
-149.2499825840454
 21
-42.07196044921874
 31
0.0
  0
LINE
  5
2C1
330
1F
100
AcDbEntity
  8
2
100
AcDbLine
 10
-160.589978921936
 20
-25.10650634765625
 30
0.0
 11
-160.589978921936
 21
-40.89349365234375
 31
0.0
  0
ARC
  5
2C2
330
1F
100
AcDbEntity
  8
2
100
AcDbCircle
 10
-155.2499825840454
 20
-18.0
 30
0.0
 40
6.0
100
AcDbArc
 50
278.8851105490366
 51
0.0
  0
LINE
  5
2C3
330
1F
100
AcDbEntity
  8
2
100
AcDbLine
 10
-160.5900767331781
 20
-25.10642541847687
 30
0.0
 11
-159.9096796903281
 21
-23.92794319209224
 31
0.0
  0
LINE
  5
2C4
330
1F
100
AcDbEntity
  8
2
100
AcDbLine
 10
-150.6108224277954
 20
-23.92803955078125
 30
0.0
 11
-150.6108224277954
 21
-42.07196044921874
 31
0.0
  0
LINE
  5
2C5
330
1F
100
AcDbEntity
  8
2
100
AcDbLine
 10
-159.909559000061
 20
-23.92803955078125
 30
0.0
 11
-159.909559000061
 21
-42.07196044921874
 31
0.0
  0
LINE
  5
2C6
330
1F
100
AcDbEntity
  8
2
100
AcDbLine
 10
-25.99995206646708
 20
-19.99996948242187
 30
0.0
 11
-25.99995206646708
 21
-22.99996948242188
 31
0.0
  0
LINE
  5
2C7
330
1F
100
AcDbEntity
  8
2
100
AcDbLine
 10
161.2499991794828
 20
-29.99999948449385
 30
0.0
 11
166.2499997013017
 21
-92.00000725266249
 31
0.0
  0
LINE
  5
2C8
330
1F
100
AcDbEntity
  8
2
100
AcDbLine
 10
35.00003267474387
 20
-127.0000305175781
 30
0.0
 11
149.2499716395876
 21
-127.0000305175781
 31
0.0
  0
ARC
  5
2C9
330
1F
100
AcDbEntity
  8
2
100
AcDbCircle
 10
28.00004793353293
 20
-107.5000305175781
 30
0.0
 40
3.0
100
AcDbArc
 50
0.0
 51
90.00000250446868
  0
ARC
  5
2CA
330
1F
100
AcDbEntity
  8
2
100
AcDbCircle
 10
28.00004793353293
 20
-107.5000305175781
 30
0.0
 40
2.000000059604645
100
AcDbArc
 50
0.0
 51
90.00000250446868
  0
ARC
  5
2CB
330
1F
100
AcDbEntity
  8
2
100
AcDbCircle
 10
29.00007845111105
 20
-106.5
 30
0.0
 40
6.0
100
AcDbArc
 50
0.0
 51
90.00000250446868
  0
ARC
  5
2CC
330
1F
100
AcDbEntity
  8
2
100
AcDbCircle
 10
174.1061728114626
 20
-118.2237854003906
 30
0.0
 40
6.893842935562133
100
AcDbArc
 50
327.1327677138755
 51
32.86723570121143
  0
ARC
  5
2CD
330
1F
100
AcDbEntity
  8
2
100
AcDbCircle
 10
181.0000021571657
 20
-106.9999694824218
 30
0.0
 40
12.50000095367432
100
AcDbArc
 50
269.9999974955313
 51
90.00105229574275
  0
LINE
  5
2CE
330
1F
100
AcDbEntity
  8
2
100
AcDbLine
 10
167.2499716395876
 20
-91.99996948242187
 30
0.0
 11
167.2499716395876
 21
-121.9999694824221
 31
0.0
  0
LINE
  5
2CF
330
1F
100
AcDbEntity
  8
2
100
AcDbLine
 10
166.2500326747438
 20
-91.99996948242187
 30
0.0
 11
166.2500326747438
 21
-121.9999694824221
 31
0.0
  0
LINE
  5
2D0
330
1F
100
AcDbEntity
  8
2
100
AcDbLine
 10
166.2500326747438
 20
-121.9999694824216
 30
0.0
 11
167.2499716395876
 21
-121.9999694824216
 31
0.0
  0
LINE
  5
2D1
330
1F
100
AcDbEntity
  8
2
100
AcDbLine
 10
179.8965170497439
 20
-121.9649963378906
 30
0.0
 11
167.2499716395876
 21
-121.9649963378906
 31
0.0
  0
LINE
  5
2D2
330
1F
100
AcDbEntity
  8
2
100
AcDbLine
 10
166.2500326747438
 20
-91.99996948242187
 30
0.0
 11
167.2499716395876
 21
-91.99996948242187
 31
0.0
  0
LINE
  5
2D3
330
1F
100
AcDbEntity
  8
2
100
AcDbLine
 10
179.8965170497439
 20
-92.0350341796875
 30
0.0
 11
167.2499716395876
 21
-92.0350341796875
 31
0.0
  0
LINE
  5
2D4
330
1F
100
AcDbEntity
  8
2
100
AcDbLine
 10
179.8965170497439
 20
-99.51754760742188
 30
0.0
 11
167.2499716395876
 21
-99.51754760742188
 31
0.0
  0
ARC
  5
2D5
330
1F
100
AcDbEntity
  8
2
100
AcDbCircle
 10
174.1061728114626
 20
-95.77624511718751
 30
0.0
 40
6.893842935562133
100
AcDbArc
 50
327.1327677138755
 51
32.86723570121143
  0
LINE
  5
2D6
330
1F
100
AcDbEntity
  8
2
100
AcDbLine
 10
179.8965170497439
 20
-114.4824829101562
 30
0.0
 11
167.2499716395876
 21
-114.4824829101562
 31
0.0
  0
LINE
  5
2D7
330
1F
100
AcDbEntity
  8
2
100
AcDbLine
 10
181.0000021571657
 20
-95.77624511718772
 30
0.0
 11
181.0000021571657
 21
-118.2237854003908
 31
0.0
  0
ARC
  5
2D8
330
1F
100
AcDbEntity
  8
2
100
AcDbCircle
 10
155.0798666591188
 20
-106.9999694824218
 30
0.0
 40
25.92012977600098
100
AcDbArc
 50
343.2213414830929
 51
16.77865510182368
  0
LINE
  5
2D9
330
1F
100
AcDbEntity
  8
2
100
AcDbLine
 10
56.32934786029074
 20
-10.99996948242187
 30
0.0
 11
85.00000215716573
 21
-10.99996948242187
 31
0.0
  0
LINE
  5
2DA
330
1F
100
AcDbEntity
  8
2
100
AcDbLine
 10
159.9096396083376
 20
-23.92803955078125
 30
0.0
 11
149.2499716395876
 21
-23.92803955078125
 31
0.0
  0
ARC
  5
2DB
330
1F
100
AcDbEntity
  8
2
100
AcDbCircle
 10
155.2499716395876
 20
-30.0
 30
0.0
 40
6.0
100
AcDbArc
 50
0.0
 51
27.12676052460265
  0
LINE
  5
2DC
330
1F
100
AcDbEntity
  8
2
100
AcDbLine
 10
160.5899800938239
 20
-40.89347013817064
 30
0.0
 11
159.9095716068812
 21
-42.07197218630381
 31
0.0
  0
LINE
  5
2DD
330
1F
100
AcDbEntity
  8
2
100
AcDbLine
 10
159.9096396083376
 20
-42.07196044921874
 30
0.0
 11
149.2499716395876
 21
-42.07196044921874
 31
0.0
  0
LINE
  5
2DE
330
1F
100
AcDbEntity
  8
2
100
AcDbLine
 10
160.5899679774782
 20
-25.10650634765625
 30
0.0
 11
160.5899679774782
 21
-40.89349365234375
 31
0.0
  0
LINE
  5
2DF
330
1F
100
AcDbEntity
  8
2
100
AcDbLine
 10
160.5899733965423
 20
-25.10639850490088
 30
0.0
 11
159.9095992418759
 21
-23.92795592201287
 31
0.0
  0
ARC
  5
2E0
330
1F
100
AcDbEntity
  8
2
100
AcDbCircle
 10
155.2499716395876
 20
-18.0
 30
0.0
 40
6.0
100
AcDbArc
 50
179.999991348572
 51
261.1148807995368
  0
LINE
  5
2E1
330
1F
100
AcDbEntity
  8
2
100
AcDbLine
 10
159.9096396083376
 20
-23.92803955078125
 30
0.0
 11
159.9096396083376
 21
-42.07196044921874
 31
0.0
  0
LINE
  5
2E2
330
1F
100
AcDbEntity
  8
2
100
AcDbLine
 10
150.6108114833376
 20
-23.92803955078125
 30
0.0
 11
150.6108114833376
 21
-42.07196044921874
 31
0.0
  0
LINE
  5
2E3
330
1F
100
AcDbEntity
  8
2
100
AcDbLine
 10
18.0000174159548
 20
19.99996948242187
 30
0.0
 11
27.50003267474387
 21
19.99996948242187
 31
0.0
  0
LINE
  5
2E4
330
1F
100
AcDbEntity
  8
2
100
AcDbLine
 10
-32.50001310162355
 20
3.0
 30
0.0
 11
32.50004793353293
 21
3.0
 31
0.0
  0
LINE
  5
2E5
330
1F
100
AcDbEntity
  8
2
100
AcDbLine
 10
-85.00001310162355
 20
0.0
 30
0.0
 11
85.00000215716573
 21
0.0
 31
0.0
  0
LINE
  5
2E6
330
1F
100
AcDbEntity
  8
2
100
AcDbLine
 10
-148.2499520664673
 20
-3.0
 30
0.0
 11
-88.00001310162356
 21
-3.0
 31
0.0
  0
ARC
  5
2E7
330
1F
100
AcDbEntity
  8
2
100
AcDbCircle
 10
-148.2499520664673
 20
-4.000030517578125
 30
0.0
 40
1.000000029802322
100
AcDbArc
 50
90.00000250446868
 51
180.0000050089504
  0
LINE
  5
2E8
330
1F
100
AcDbEntity
  8
2
100
AcDbLine
 10
18.0000174159548
 20
29.99999999999989
 30
0.0
 11
18.0000174159548
 21
19.99996948242187
 31
0.0
  0
LINE
  5
2E9
330
1F
100
AcDbEntity
  8
0
370
    -3
100
AcDbLine
 10
2.049974691345425
 20
29.99999999999989
 30
0.0
 11
2.049974691345425
 21
25.99996948242188
 31
0.0
  0
LINE
  5
2EA
330
1F
100
AcDbEntity
  8
0
370
    -3
100
AcDbLine
 10
-2.049939859435824
 20
29.99999999999989
 30
0.0
 11
-2.049939859435824
 21
25.99996948242188
 31
0.0
  0
LINE
  5
2EB
330
1F
100
AcDbEntity
  8
2
100
AcDbLine
 10
-17.9999825840452
 20
29.99999999999989
 30
0.0
 11
-17.9999825840452
 21
19.99996948242187
 31
0.0
  0
LINE
  5
2EC
330
1F
100
AcDbEntity
  8
2
100
AcDbLine
 10
-32.50001310162355
 20
3.0
 30
0.0
 11
-32.50001310162355
 21
0.0
 31
0.0
  0
LINE
  5
2ED
330
1F
100
AcDbEntity
  8
0
370
    -3
100
AcDbLine
 10
-2.049939859435824
 20
25.99996948242188
 30
0.0
 11
2.049974691345425
 21
25.99996948242188
 31
0.0
  0
LINE
  5
2EE
330
1F
100
AcDbEntity
  8
0
370
    -3
100
AcDbLine
 10
-17.9999825840452
 20
29.99999999999989
 30
0.0
 11
-1.999952066467074
 21
29.99999999999989
 31
0.0
  0
LINE
  5
2EF
330
1F
100
AcDbEntity
  8
0
370
    -3
100
AcDbLine
 10
18.0000174159548
 20
29.99999999999989
 30
0.0
 11
1.999986898376675
 21
29.99999999999989
 31
0.0
  0
LINE
  5
2F0
330
1F
100
AcDbEntity
  8
2
100
AcDbLine
 10
88.00000215716574
 20
-3.0
 30
0.0
 11
148.2500326747438
 21
-3.0
 31
0.0
  0
LINE
  5
2F1
330
1F
100
AcDbEntity
  8
2
100
AcDbLine
 10
32.50004793353293
 20
3.0
 30
0.0
 11
32.50004793353293
 21
0.0
 31
0.0
  0
LINE
  5
2F2
330
1F
100
AcDbEntity
  8
2
100
AcDbLine
 10
27.50003267474387
 20
19.99996948242187
 30
0.0
 11
27.50003267474387
 21
3.0
 31
0.0
  0
ARC
  5
2F3
330
1F
100
AcDbEntity
  8
2
100
AcDbCircle
 10
88.00000215716574
 20
0.0
 30
0.0
 40
3.0
100
AcDbArc
 50
179.999991348572
 51
270.000000683243
  0
ARC
  5
2F4
330
1F
100
AcDbEntity
  8
2
100
AcDbCircle
 10
148.2500326747438
 20
-4.000030517578125
 30
0.0
 40
1.000000029802322
100
AcDbArc
 50
0.0
 51
90.00000250446868
  0
LINE
  5
2F5
330
1F
100
AcDbEntity
  8
0
370
    -3
100
AcDbLine
 10
17.99999452777121
 20
54.5
 30
0.0
 11
17.99999452777121
 21
35.46231079101517
 31
0.0
  0
LINE
  5
2F6
330
1F
100
AcDbEntity
  8
0
370
    -3
100
AcDbLine
 10
9.949869405700894
 20
54.5
 30
0.0
 11
9.949869405700894
 21
34.5
 31
0.0
  0
LINE
  5
2F7
330
1F
100
AcDbEntity
  8
0
370
    -3
100
AcDbLine
 10
14.9999945277712
 20
64.5
 30
0.0
 11
14.9999945277712
 21
34.5
 31
0.0
  0
ARC
  5
2F8
330
1F
100
AcDbEntity
  8
0
370
    -3
100
AcDbCircle
 10
-30.05013822369364
 20
44.5
 30
0.0
 40
10.0
100
AcDbArc
 50
90.00000250446868
 51
270.0000006832169
  0
LINE
  5
2F9
330
1F
100
AcDbEntity
  8
2
100
AcDbLine
 10
-58.9999749546509
 20
-19.99996948242187
 30
0.0
 11
-58.9999749546509
 21
-22.99996948242188
 31
0.0
  0
LINE
  5
2FA
330
1F
100
AcDbEntity
  8
1
100
AcDbLine
 10
-65.0003411655884
 20
5.0
 30
0.0
 11
-65.0003411655884
 21
-5.0
 31
0.0
  0
ARC
  5
2FB
330
1F
100
AcDbEntity
  8
2
100
AcDbCircle
 10
-88.00003598980714
 20
0.0
 30
0.0
 40
3.0
100
AcDbArc
 50
269.9999974955313
 51
0.0
  0
LINE
  5
2FC
330
1F
100
AcDbEntity
  8
2
100
AcDbLine
 10
-32.50003598980715
 20
1.000030517578125
 30
0.0
 11
32.50002504534933
 21
1.000030517578125
 31
0.0
  0
LINE
  5
2FD
330
1F
100
AcDbEntity
  8
2
100
AcDbLine
 10
-33.76785825543215
 20
-6.0
 30
0.0
 11
33.76789308734152
 21
-6.0
 31
0.0
  0
LINE
  5
2FE
330
1F
100
AcDbEntity
  8
2
100
AcDbLine
 10
-2.049962747619417
 20
25.99996948242233
 30
0.0
 11
2.049951803161832
 21
25.99996948242233
 31
0.0
  0
LINE
  5
2FF
330
1F
100
AcDbEntity
  8
2
100
AcDbLine
 10
-27.50006650738504
 20
19.99996948242233
 30
0.0
 11
-27.50006650738504
 21
3.0
 31
0.0
  0
LINE
  5
300
330
1F
100
AcDbEntity
  8
2
100
AcDbLine
 10
-27.50006650738504
 20
19.99996948242233
 30
0.0
 11
-18.00000547222879
 21
19.99996948242233
 31
0.0
  0
LINE
  5
301
330
1F
100
AcDbEntity
  8
2
100
AcDbLine
 10
2.049951803161832
 20
30.0
 30
0.0
 11
2.049951803161832
 21
25.99996948242233
 31
0.0
  0
LINE
  5
302
330
1F
100
AcDbEntity
  8
2
100
AcDbLine
 10
-2.049962747619417
 20
30.0
 30
0.0
 11
-2.049962747619417
 21
25.99996948242233
 31
0.0
  0
LINE
  5
303
330
1F
100
AcDbEntity
  8
0
370
    -3
100
AcDbLine
 10
17.99999452777121
 20
34.5
 30
0.0
 11
17.99999452777121
 21
30.5
 31
0.0
  0
LINE
  5
304
330
1F
100
AcDbEntity
  8
0
370
    -3
100
AcDbLine
 10
14.9999945277712
 20
34.5
 30
0.0
 11
17.99999452777121
 21
34.5
 31
0.0
  0
ARC
  5
305
330
1F
100
AcDbEntity
  8
0
370
    -3
100
AcDbCircle
 10
17.4999945277712
 20
30.5
 30
0.0
 40
0.5
100
AcDbArc
 50
269.9999974955313
 51
0.0
  0
LINE
  5
306
330
1F
100
AcDbEntity
  8
0
370
    -3
100
AcDbLine
 10
1.999994527771207
 20
30.0
 30
0.0
 11
1.999994527771207
 21
26.5
 31
0.0
  0
LINE
  5
307
330
1F
100
AcDbEntity
  8
0
370
    -3
100
AcDbLine
 10
-2.000005472228792
 20
30.0
 30
0.0
 11
-2.000005472228792
 21
26.5
 31
0.0
  0
LINE
  5
308
330
1F
100
AcDbEntity
  8
0
370
    -3
100
AcDbLine
 10
-2.000005472228792
 20
26.5
 30
0.0
 11
1.999994527771207
 21
26.5
 31
0.0
  0
LINE
  5
309
330
1F
100
AcDbEntity
  8
2
100
AcDbLine
 10
2.049951803161832
 20
30.0
 30
0.0
 11
17.99999452777121
 21
30.0
 31
0.0
  0
LINE
  5
30A
330
1F
100
AcDbEntity
  8
0
370
    -3
100
AcDbLine
 10
-18.00001310162332
 20
34.5
 30
0.0
 11
-18.00001310162332
 21
30.5
 31
0.0
  0
ARC
  5
30B
330
1F
100
AcDbEntity
  8
0
370
    -3
100
AcDbCircle
 10
-17.50001310162332
 20
30.5
 30
0.0
 40
0.5
100
AcDbArc
 50
179.9999949910626
 51
269.9999974955313
  0
LINE
  5
30C
330
1F
100
AcDbEntity
  8
2
100
AcDbLine
 10
-18.00000547222879
 20
30.0
 30
0.0
 11
-2.049962747619417
 21
30.0
 31
0.0
  0
LINE
  5
30D
330
1F
100
AcDbEntity
  8
0
370
    -3
100
AcDbLine
 10
-30.05013822369364
 20
34.5
 30
0.0
 11
9.949869405700894
 21
34.5
 31
0.0
  0
LINE
  5
30E
330
1F
100
AcDbEntity
  8
0
370
    -3
100
AcDbLine
 10
68.73000551409933
 20
9.299835205078125
 30
0.0
 11
61.26937318988058
 21
9.299835205078125
 31
0.0
  0
LINE
  5
30F
330
1F
100
AcDbEntity
  8
0
370
    -3
100
AcDbLine
 10
60.74971986956808
 20
8.99981689453125
 30
0.0
 11
60.74971986956808
 21
4.29986572265625
 31
0.0
  0
LINE
  5
310
330
1F
100
AcDbEntity
  8
0
370
    -3
100
AcDbLine
 10
69.24965883441183
 20
8.99981689453125
 30
0.0
 11
69.24965883441183
 21
4.29986572265625
 31
0.0
  0
LINE
  5
311
330
1F
100
AcDbEntity
  8
0
370
    -3
100
AcDbLine
 10
69.24965883441183
 20
4.9998779296875
 30
0.0
 11
60.74971986956808
 21
4.9998779296875
 31
0.0
  0
LINE
  5
312
330
1F
100
AcDbEntity
  8
0
370
    -3
100
AcDbLine
 10
69.24965883441183
 20
8.99981689453125
 30
0.0
 11
60.74971986956808
 21
8.99981689453125
 31
0.0
  0
LINE
  5
313
330
1F
100
AcDbEntity
  8
0
370
    -3
100
AcDbLine
 10
60.74968771816549
 20
8.999910275370893
 30
0.0
 11
61.26925538590859
 21
9.299882813588283
 31
0.0
  0
LINE
  5
314
330
1F
100
AcDbEntity
  8
0
370
    -3
100
AcDbLine
 10
68.72993398219552
 20
9.299924074652153
 30
0.0
 11
69.24958093693186
 21
8.999905760066667
 31
0.0
  0
LINE
  5
315
330
1F
100
AcDbEntity
  8
0
370
    -3
100
AcDbLine
 10
64.99959779925558
 20
8.99981689453125
 30
0.0
 11
64.99959779925558
 21
4.9998779296875
 31
0.0
  0
LINE
  5
316
330
1F
100
AcDbEntity
  8
0
370
    -3
100
AcDbLine
 10
60.89455629534933
 20
8.99981689453125
 30
0.0
 11
60.89455629534933
 21
4.9998779296875
 31
0.0
  0
LINE
  5
317
330
1F
100
AcDbEntity
  8
0
370
    -3
100
AcDbLine
 10
61.31917787738058
 20
8.99981689453125
 30
0.0
 11
61.31917787738058
 21
4.9998779296875
 31
0.0
  0
LINE
  5
318
330
1F
100
AcDbEntity
  8
0
370
    -3
100
AcDbLine
 10
61.99447084613058
 20
8.99981689453125
 30
0.0
 11
61.99447084613058
 21
4.9998779296875
 31
0.0
  0
LINE
  5
319
330
1F
100
AcDbEntity
  8
0
370
    -3
100
AcDbLine
 10
62.87465883441183
 20
8.99981689453125
 30
0.0
 11
62.87465883441183
 21
4.9998779296875
 31
0.0
  0
LINE
  5
31A
330
1F
100
AcDbEntity
  8
0
370
    -3
100
AcDbLine
 10
63.89968324847433
 20
8.99981689453125
 30
0.0
 11
63.89968324847433
 21
4.9998779296875
 31
0.0
  0
LINE
  5
31B
330
1F
100
AcDbEntity
  8
0
370
    -3
100
AcDbLine
 10
66.09969545550558
 20
8.99981689453125
 30
0.0
 11
66.09969545550558
 21
4.9998779296875
 31
0.0
  0
LINE
  5
31C
330
1F
100
AcDbEntity
  8
0
370
    -3
100
AcDbLine
 10
67.12471986956808
 20
8.99981689453125
 30
0.0
 11
67.12471986956808
 21
4.9998779296875
 31
0.0
  0
LINE
  5
31D
330
1F
100
AcDbEntity
  8
0
370
    -3
100
AcDbLine
 10
68.00490785784933
 20
8.99981689453125
 30
0.0
 11
68.00490785784933
 21
4.9998779296875
 31
0.0
  0
LINE
  5
31E
330
1F
100
AcDbEntity
  8
0
370
    -3
100
AcDbLine
 10
69.10482240863058
 20
8.99981689453125
 30
0.0
 11
69.10482240863058
 21
4.9998779296875
 31
0.0
  0
LINE
  5
31F
330
1F
100
AcDbEntity
  8
0
370
    -3
100
AcDbLine
 10
68.68020082659933
 20
8.99981689453125
 30
0.0
 11
68.68020082659933
 21
4.9998779296875
 31
0.0
  0
LINE
  5
320
330
1F
100
AcDbEntity
  8
2
100
AcDbLine
 10
59.00000978656027
 20
-19.99996948242187
 30
0.0
 11
59.00000978656027
 21
-22.99996948242188
 31
0.0
  0
LINE
  5
321
330
1F
100
AcDbEntity
  8
1
100
AcDbLine
 10
64.99959779925558
 20
13.2746610620029
 30
0.0
 11
64.99959779925558
 21
-5.0
 31
0.0
  0
LINE
  5
322
330
1F
100
AcDbEntity
  8
2
100
AcDbLine
 10
26.00005556292746
 20
-19.99996948242187
 30
0.0
 11
26.00005556292746
 21
-22.99996948242188
 31
0.0
  0
LINE
  5
323
330
1F
100
AcDbEntity
  8
2
100
AcDbLine
 10
-149.250005472229
 20
333.7978666032736
 30
0.0
 11
149.249948751404
 21
333.7978666032736
 31
0.0
  0
LINE
  5
324
330
1F
100
AcDbEntity
  8
2
100
AcDbLine
 10
-81.56580137066653
 20
301.2978056873276
 30
0.0
 11
39.6832768109378
 21
301.2978056873276
 31
0.0
  0
LINE
  5
325
330
1F
100
AcDbEntity
  8
2
100
AcDbLine
 10
-149.250005472229
 20
178.7978055681183
 30
0.0
 11
149.249948751404
 21
178.7978055681183
 31
0.0
  0
LINE
  5
326
330
1F
100
AcDbEntity
  8
2
100
AcDbLine
 10
-148.2499749546509
 20
152.7978360856959
 30
0.0
 11
148.2500097865602
 21
152.7978360856959
 31
0.0
  0
LINE
  5
327
330
1F
100
AcDbEntity
  8
2
100
AcDbLine
 10
-81.56580137066653
 20
211.2978360856959
 30
0.0
 11
81.56574464984151
 21
211.2978360856959
 31
0.0
  0
LINE
  5
328
330
1F
100
AcDbEntity
  8
1
100
AcDbLine
 10
-198.5000369434814
 20
256.297836085696
 30
0.0
 11
198.4999802226564
 21
256.297836085696
 31
0.0
  0
LINE
  5
329
330
1F
100
AcDbEntity
  8
2
100
AcDbLine
 10
-148.2389238826731
 20
359.7978360856955
 30
0.0
 11
148.2500097865602
 21
359.7978360856955
 31
0.0
  0
LINE
  5
32A
330
1F
100
AcDbEntity
  8
2
100
AcDbLine
 10
-135.2500359898071
 20
359.797836085696
 30
0.0
 11
-135.2500359898071
 21
152.7978360856959
 31
0.0
  0
LINE
  5
32B
330
1F
100
AcDbEntity
  8
2
100
AcDbLine
 10
-149.250005472229
 20
358.7978971208522
 30
0.0
 11
-149.250005472229
 21
153.7977750505401
 31
0.0
  0
ARC
  5
32C
330
1F
100
AcDbEntity
  8
2
100
AcDbCircle
 10
-155.250005472229
 20
167.2978666032741
 30
0.0
 40
6.0
100
AcDbArc
 50
0.0
 51
90.00000250446868
  0
ARC
  5
32D
330
1F
100
AcDbEntity
  8
2
100
AcDbCircle
 10
-155.250005472229
 20
179.2978666032741
 30
0.0
 40
6.0
100
AcDbArc
 50
179.9999913485851
 51
270.0000006832169
  0
ARC
  5
32E
330
1F
100
AcDbEntity
  8
2
100
AcDbCircle
 10
-148.2499749546509
 20
153.7977750505401
 30
0.0
 40
1.000000029802322
100
AcDbArc
 50
179.9999913485851
 51
270.0000006832169
  0
LINE
  5
32F
330
1F
100
AcDbEntity
  8
2
100
AcDbLine
 10
-181.0000359898071
 20
267.5215604509304
 30
0.0
 11
-181.0000359898071
 21
245.0741117204611
 31
0.0
  0
LINE
  5
330
330
1F
100
AcDbEntity
  8
2
100
AcDbLine
 10
-167.250005472229
 20
271.2978360856959
 30
0.0
 11
-167.250005472229
 21
241.297836085696
 31
0.0
  0
LINE
  5
331
330
1F
100
AcDbEntity
  8
2
100
AcDbLine
 10
-166.2499749546509
 20
271.2978360856959
 30
0.0
 11
-166.2499749546509
 21
241.297836085696
 31
0.0
  0
ARC
  5
332
330
1F
100
AcDbEntity
  8
2
100
AcDbCircle
 10
-155.0799004917602
 20
256.297836085696
 30
0.0
 40
25.92012977600098
100
AcDbArc
 50
163.2213447845038
 51
196.7786515730402
  0
ARC
  5
333
330
1F
100
AcDbEntity
  8
2
100
AcDbCircle
 10
-181.0000359898071
 20
256.297836085696
 30
0.0
 40
12.50000095367432
100
AcDbArc
 50
90.00000250446868
 51
269.9777130656391
  0
LINE
  5
334
330
1F
100
AcDbEntity
  8
2
100
AcDbLine
 10
-161.250005472229
 20
333.2978055681183
 30
0.0
 11
-161.250005472229
 21
179.2978666032741
 31
0.0
  0
LINE
  5
335
330
1F
100
AcDbEntity
  8
2
100
AcDbLine
 10
-87.00003157926898
 20
256.2978405650702
 30
0.0
 11
-85.56340208679234
 21
297.4375285094711
 31
0.0
  0
LINE
  5
336
330
1F
100
AcDbEntity
  8
2
100
AcDbLine
 10
-149.250005472229
 20
241.297836085696
 30
0.0
 11
-86.47623227886965
 21
241.297836085696
 31
0.0
  0
LINE
  5
337
330
1F
100
AcDbEntity
  8
2
100
AcDbLine
 10
-179.8965508823853
 20
248.8153226579612
 30
0.0
 11
-167.250005472229
 21
248.8153226579612
 31
0.0
  0
LINE
  5
338
330
1F
100
AcDbEntity
  8
2
100
AcDbLine
 10
-179.8965508823853
 20
241.3328092302272
 30
0.0
 11
-167.250005472229
 21
241.3328092302272
 31
0.0
  0
LINE
  5
339
330
1F
100
AcDbEntity
  8
2
100
AcDbLine
 10
-166.2499749546509
 20
241.297836085696
 30
0.0
 11
-167.250005472229
 21
241.297836085696
 31
0.0
  0
ARC
  5
33A
330
1F
100
AcDbEntity
  8
2
100
AcDbCircle
 10
-174.106206644104
 20
245.0741117204611
 30
0.0
 40
6.893842935562133
100
AcDbArc
 50
147.132765892613
 51
212.8672304649272
  0
LINE
  5
33B
330
1F
100
AcDbEntity
  8
2
100
AcDbLine
 10
-159.9095818882446
 20
178.2265165056183
 30
0.0
 11
-149.250005472229
 21
178.2265165056183
 31
0.0
  0
LINE
  5
33C
330
1F
100
AcDbEntity
  8
2
100
AcDbLine
 10
-160.5900018101196
 20
179.4049833024933
 30
0.0
 11
-160.5900018101196
 21
195.1920621599152
 31
0.0
  0
LINE
  5
33D
330
1F
100
AcDbEntity
  8
2
100
AcDbLine
 10
-160.5900160446885
 20
195.1921010887186
 30
0.0
 11
-159.9096418900221
 21
196.3705436716059
 31
0.0
  0
LINE
  5
33E
330
1F
100
AcDbEntity
  8
2
100
AcDbLine
 10
-159.9095818882446
 20
178.2265165056183
 30
0.0
 11
-159.9095818882446
 21
196.3705289567901
 31
0.0
  0
LINE
  5
33F
330
1F
100
AcDbEntity
  8
2
100
AcDbLine
 10
-150.610845315979
 20
178.2265165056183
 30
0.0
 11
-150.610845315979
 21
196.3705289567901
 31
0.0
  0
LINE
  5
340
330
1F
100
AcDbEntity
  8
2
100
AcDbLine
 10
-159.9095818882446
 20
196.3705289567901
 30
0.0
 11
-149.250005472229
 21
196.3705289567901
 31
0.0
  0
LINE
  5
341
330
1F
100
AcDbEntity
  8
2
100
AcDbLine
 10
-160.590073209611
 20
179.4050185061355
 30
0.0
 11
-159.9096532785765
 21
178.2264966362531
 31
0.0
  0
LINE
  5
342
330
1F
100
AcDbEntity
  8
2
100
AcDbLine
 10
-161.2499377897351
 20
179.2978787278584
 30
0.0
 11
-166.2499383115532
 21
241.2978864960273
 31
0.0
  0
ARC
  5
343
330
1F
100
AcDbEntity
  8
2
100
AcDbCircle
 10
-81.56580137066653
 20
215.2978666032741
 30
0.0
 40
4.00000011920929
100
AcDbArc
 50
181.9999973234258
 51
269.9999974955313
  0
LINE
  5
344
330
1F
100
AcDbEntity
  8
2
100
AcDbLine
 10
-87.00002691898811
 20
256.2979533345601
 30
0.0
 11
-85.5634006216564
 21
215.1583568871224
 31
0.0
  0
CIRCLE
  5
345
330
1F
100
AcDbEntity
  8
2
100
AcDbCircle
 10
-64.99997495465089
 20
241.2979276384303
 30
0.0
 40
2.000000059604645
  0
CIRCLE
  5
346
330
1F
100
AcDbEntity
  8
2
100
AcDbCircle
 10
-64.99997495465089
 20
241.2979276384303
 30
0.0
 40
2.499999940395354
  0
LINE
  5
347
330
1F
100
AcDbEntity
  8
2
100
AcDbLine
 10
-149.250005472229
 20
271.2978360856959
 30
0.0
 11
-86.47623227886965
 21
271.2978360856959
 31
0.0
  0
LINE
  5
348
330
1F
100
AcDbEntity
  8
2
100
AcDbLine
 10
-160.590082056537
 20
333.190703156939
 30
0.0
 11
-159.909685013687
 21
334.3691853833243
 31
0.0
  0
LINE
  5
349
330
1F
100
AcDbEntity
  8
2
100
AcDbLine
 10
-159.9095818882446
 20
334.3691556657736
 30
0.0
 11
-149.250005472229
 21
334.3691556657736
 31
0.0
  0
ARC
  5
34A
330
1F
100
AcDbEntity
  8
2
100
AcDbCircle
 10
-155.250005472229
 20
333.2978055681174
 30
0.0
 40
6.0
100
AcDbArc
 50
90.00000250446868
 51
180.0000050089634
  0
LINE
  5
34B
330
1F
100
AcDbEntity
  8
2
100
AcDbLine
 10
-160.5899988201058
 20
317.4036518401958
 30
0.0
 11
-159.9096246654393
 21
316.2252092573085
 31
0.0
  0
LINE
  5
34C
330
1F
100
AcDbEntity
  8
2
100
AcDbLine
 10
-159.9095818882446
 20
316.2251432146009
 30
0.0
 11
-149.250005472229
 21
316.2251432146009
 31
0.0
  0
LINE
  5
34D
330
1F
100
AcDbEntity
  8
2
100
AcDbLine
 10
-150.610845315979
 20
334.3691556657741
 30
0.0
 11
-150.610845315979
 21
316.2251432146022
 31
0.0
  0
LINE
  5
34E
330
1F
100
AcDbEntity
  8
2
100
AcDbLine
 10
-159.9095818882446
 20
334.3691556657741
 30
0.0
 11
-159.9095818882446
 21
316.2251432146022
 31
0.0
  0
LINE
  5
34F
330
1F
100
AcDbEntity
  8
2
100
AcDbLine
 10
-160.5900018101196
 20
333.1906888688991
 30
0.0
 11
-160.5900018101196
 21
317.4036100114772
 31
0.0
  0
ARC
  5
350
330
1F
100
AcDbEntity
  8
2
100
AcDbCircle
 10
-155.250005472229
 20
345.2978055681174
 30
0.0
 40
6.0
100
AcDbArc
 50
269.9999974955313
 51
0.0
  0
LINE
  5
351
330
1F
100
AcDbEntity
  8
2
100
AcDbLine
 10
-179.8965508823853
 20
271.2628629411652
 30
0.0
 11
-167.250005472229
 21
271.2628629411652
 31
0.0
  0
LINE
  5
352
330
1F
100
AcDbEntity
  8
2
100
AcDbLine
 10
-179.8965508823853
 20
263.7803495134303
 30
0.0
 11
-167.250005472229
 21
263.7803495134303
 31
0.0
  0
LINE
  5
353
330
1F
100
AcDbEntity
  8
2
100
AcDbLine
 10
-166.2499749546509
 20
271.2978360856959
 30
0.0
 11
-167.250005472229
 21
271.2978360856959
 31
0.0
  0
ARC
  5
354
330
1F
100
AcDbEntity
  8
2
100
AcDbCircle
 10
-174.106206644104
 20
267.5215604509304
 30
0.0
 40
6.893842935562133
100
AcDbArc
 50
147.132765892613
 51
212.8672304649272
  0
LINE
  5
355
330
1F
100
AcDbEntity
  8
2
100
AcDbLine
 10
-161.24999410825
 20
333.2979536942917
 30
0.0
 11
-166.249994630069
 21
271.2979459261219
 31
0.0
  0
ARC
  5
356
330
1F
100
AcDbEntity
  8
2
100
AcDbCircle
 10
-81.56580137066653
 20
297.2978055681183
 30
0.0
 40
4.00000011920929
100
AcDbArc
 50
90.00000250446868
 51
178.0000026765741
  0
CIRCLE
  5
357
330
1F
100
AcDbEntity
  8
2
100
AcDbCircle
 10
-64.99997495465089
 20
271.2977445329611
 30
0.0
 40
2.000000059604645
  0
CIRCLE
  5
358
330
1F
100
AcDbEntity
  8
2
100
AcDbCircle
 10
-64.99997495465089
 20
271.2977445329611
 30
0.0
 40
2.499999940395354
  0
ARC
  5
359
330
1F
100
AcDbEntity
  8
2
100
AcDbCircle
 10
-148.2499749546509
 20
358.7978971208508
 30
0.0
 40
1.000000029802322
100
AcDbArc
 50
90.00000250446868
 51
180.0000050089634
  0
LINE
  5
35A
330
1F
100
AcDbEntity
  8
1
100
AcDbLine
 10
-0.0000054722287928
 20
390.2978551591823
 30
0.0
 11
-0.0000054722287928
 21
121.0148465837433
 31
0.0
  0
LINE
  5
35B
330
1F
100
AcDbEntity
  8
2
100
AcDbLine
 10
135.2499792689821
 20
359.797836085696
 30
0.0
 11
135.2499792689821
 21
152.7978360856959
 31
0.0
  0
LINE
  5
35C
330
1F
100
AcDbEntity
  8
2
100
AcDbLine
 10
149.249948751404
 20
358.8088834489772
 30
0.0
 11
149.249948751404
 21
153.7867887224152
 31
0.0
  0
ARC
  5
35D
330
1F
100
AcDbEntity
  8
2
100
AcDbCircle
 10
155.249948751404
 20
179.2978666032741
 30
0.0
 40
6.0
100
AcDbArc
 50
269.9999974955313
 51
0.0
  0
ARC
  5
35E
330
1F
100
AcDbEntity
  8
2
100
AcDbCircle
 10
155.249948751404
 20
167.2978666032741
 30
0.0
 40
6.0
100
AcDbArc
 50
90.00000250446868
 51
180.0000050089634
  0
LINE
  5
35F
330
1F
100
AcDbEntity
  8
0
370
    -3
100
AcDbLine
 10
-15.00001310162332
 20
64.5
 30
0.0
 11
14.9999945277712
 21
64.5
 31
0.0
  0
LINE
  5
360
330
1F
100
AcDbEntity
  8
0
370
    -3
100
AcDbLine
 10
9.949869405700894
 20
64.5
 30
0.0
 11
9.949869405700894
 21
55.15913391113326
 31
0.0
  0
LINE
  5
361
330
1F
100
AcDbEntity
  8
0
370
    -3
100
AcDbLine
 10
14.9999945277712
 20
54.5
 30
0.0
 11
17.99999452777121
 21
54.5
 31
0.0
  0
LINE
  5
362
330
1F
100
AcDbEntity
  8
0
370
    -3
100
AcDbLine
 10
-9.949887979553011
 20
64.5
 30
0.0
 11
-9.949887979553011
 21
55.35739135742232
 31
0.0
  0
LINE
  5
363
330
1F
100
AcDbEntity
  8
0
370
    -3
100
AcDbLine
 10
-15.00001310162332
 20
64.5
 30
0.0
 11
-15.00001310162332
 21
54.5
 31
0.0
  0
LINE
  5
364
330
1F
100
AcDbEntity
  8
0
370
    -3
100
AcDbLine
 10
-18.00001310162332
 20
61.5
 30
0.0
 11
-18.00001310162332
 21
54.5
 31
0.0
  0
ARC
  5
365
330
1F
100
AcDbEntity
  8
0
370
    -3
100
AcDbCircle
 10
-15.00001310162332
 20
61.5
 30
0.0
 40
3.0
100
AcDbArc
 50
90.00000250446868
 51
180.0000050089634
  0
LINE
  5
366
330
1F
100
AcDbEntity
  8
0
370
    -3
100
AcDbLine
 10
-30.05013822369364
 20
54.5
 30
0.0
 11
9.949869405700894
 21
54.5
 31
0.0
  0
ARC
  5
367
330
1F
100
AcDbEntity
  8
2
100
AcDbCircle
 10
148.2500097865602
 20
153.7977750505401
 30
0.0
 40
1.000000029802322
100
AcDbArc
 50
269.9999974955313
 51
0.0
  0
LINE
  5
368
330
1F
100
AcDbEntity
  8
2
100
AcDbLine
 10
86.47617555804464
 20
271.2978360856959
 30
0.0
 11
149.249948751404
 21
271.2978360856959
 31
0.0
  0
LINE
  5
369
330
1F
100
AcDbEntity
  8
2
100
AcDbLine
 10
86.47617555804464
 20
241.297836085696
 30
0.0
 11
149.249948751404
 21
241.297836085696
 31
0.0
  0
LINE
  5
36A
330
1F
100
AcDbEntity
  8
2
100
AcDbLine
 10
86.99999678229216
 20
256.2979565406154
 30
0.0
 11
85.56337048495953
 21
297.4375529880526
 31
0.0
  0
ARC
  5
36B
330
1F
100
AcDbEntity
  8
2
100
AcDbCircle
 10
-0.0000512485959803
 20
256.297836085696
 30
0.0
 40
27.49998378753662
100
AcDbArc
 50
56.94424686645645
 51
213.0557531335614
  0
ARC
  5
36C
330
1F
100
AcDbEntity
  8
2
100
AcDbCircle
 10
-0.0000512485959803
 20
256.297836085696
 30
0.0
 40
32.49998474121094
100
AcDbArc
 50
62.51355975422001
 51
207.4864402458084
  0
ARC
  5
36D
330
1F
100
AcDbEntity
  8
2
100
AcDbCircle
 10
-0.0000512485959803
 20
256.297836085696
 30
0.0
 40
27.49998378753662
100
AcDbArc
 50
220.8852221372096
 51
49.11477786282683
  0
ARC
  5
36E
330
1F
100
AcDbEntity
  8
2
100
AcDbCircle
 10
-0.0000512485959803
 20
256.297836085696
 30
0.0
 40
32.49998474121094
100
AcDbArc
 50
319.6318154242408
 51
40.36874949247271
  0
ARC
  5
36F
330
1F
100
AcDbEntity
  8
2
100
AcDbCircle
 10
-0.0000054722287928
 20
256.297836085696
 30
0.0
 40
55.00000190734863
100
AcDbArc
 50
234.9032002189801
 51
305.0968050173119
  0
LINE
  5
370
330
1F
100
AcDbEntity
  8
2
100
AcDbLine
 10
-1.999974954650667
 20
238.2978360856959
 30
0.0
 11
-1.999974954650667
 21
228.8706279141561
 31
0.0
  0
LINE
  5
371
330
1F
100
AcDbEntity
  8
2
100
AcDbLine
 10
1.999964010193082
 20
238.2978360856959
 30
0.0
 11
1.999964010193082
 21
228.8706510271022
 31
0.0
  0
ARC
  5
372
330
1F
100
AcDbEntity
  8
2
100
AcDbCircle
 10
-0.0000512485959803
 20
256.297836085696
 30
0.0
 40
32.49998474121094
100
AcDbArc
 50
213.6312953417167
 51
303.6310239529037
  0
ARC
  5
373
330
1F
100
AcDbEntity
  8
2
100
AcDbCircle
 10
81.56574464984151
 20
215.2978666032741
 30
0.0
 40
4.00000011920929
100
AcDbArc
 50
269.9999974955313
 51
358.0000000154825
  0
LINE
  5
374
330
1F
100
AcDbEntity
  8
2
100
AcDbLine
 10
86.9999921220122
 20
256.2978373590149
 30
0.0
 11
85.56336582467958
 21
215.1582409115772
 31
0.0
  0
ARC
  5
375
330
1F
100
AcDbEntity
  8
2
100
AcDbCircle
 10
-0.0000054722287928
 20
256.297836085696
 30
0.0
 40
55.00000190734863
100
AcDbArc
 50
54.90319498268815
 51
125.0967997810199
  0
LINE
  5
376
330
1F
100
AcDbEntity
  8
2
100
AcDbLine
 10
1.999964010193082
 20
283.7249950213095
 30
0.0
 11
1.999964010193082
 21
274.1863781997035
 31
0.0
  0
LINE
  5
377
330
1F
100
AcDbEntity
  8
2
100
AcDbLine
 10
-1.999974954650667
 20
283.7250016972712
 30
0.0
 11
-1.999974954650667
 21
274.1863884354525
 31
0.0
  0
ARC
  5
378
330
1F
100
AcDbEntity
  8
2
100
AcDbCircle
 10
81.56574464984151
 20
297.2978055681183
 30
0.0
 40
4.00000011920929
100
AcDbArc
 50
1.999999984517496
 51
90.00000250446868
  0
LINE
  5
379
330
1F
100
AcDbEntity
  8
2
100
AcDbLine
 10
40.07577012910661
 20
301.2978056873276
 30
0.0
 11
81.56574464984151
 21
301.2978056873276
 31
0.0
  0
LINE
  5
37A
330
1F
100
AcDbEntity
  8
2
100
AcDbLine
 10
166.2500097865603
 20
271.2978360856959
 30
0.0
 11
166.2500097865603
 21
241.297836085696
 31
0.0
  0
LINE
  5
37B
330
1F
100
AcDbEntity
  8
2
100
AcDbLine
 10
180.9999792689821
 20
267.5215604509304
 30
0.0
 11
180.9999792689821
 21
245.0741117204611
 31
0.0
  0
LINE
  5
37C
330
1F
100
AcDbEntity
  8
2
100
AcDbLine
 10
167.249948751404
 20
271.2978360856959
 30
0.0
 11
167.249948751404
 21
241.297836085696
 31
0.0
  0
ARC
  5
37D
330
1F
100
AcDbEntity
  8
2
100
AcDbCircle
 10
155.0798437709352
 20
256.297836085696
 30
0.0
 40
25.92012977600098
100
AcDbArc
 50
343.2213414830929
 51
16.77865510181183
  0
LINE
  5
37E
330
1F
100
AcDbEntity
  8
2
100
AcDbLine
 10
161.249948751404
 20
333.2978055681183
 30
0.0
 11
161.249948751404
 21
179.2978666032741
 31
0.0
  0
LINE
  5
37F
330
1F
100
AcDbEntity
  8
2
100
AcDbLine
 10
179.8964941615603
 20
241.3328092302272
 30
0.0
 11
167.249948751404
 21
241.3328092302272
 31
0.0
  0
LINE
  5
380
330
1F
100
AcDbEntity
  8
2
100
AcDbLine
 10
179.8964941615603
 20
248.8153226579612
 30
0.0
 11
167.249948751404
 21
248.8153226579612
 31
0.0
  0
LINE
  5
381
330
1F
100
AcDbEntity
  8
2
100
AcDbLine
 10
166.2500097865603
 20
241.297836085696
 30
0.0
 11
167.249948751404
 21
241.297836085696
 31
0.0
  0
LINE
  5
382
330
1F
100
AcDbEntity
  8
2
100
AcDbLine
 10
160.5900121720831
 20
179.4050068146539
 30
0.0
 11
159.9095922410486
 21
178.2264849447729
 31
0.0
  0
LINE
  5
383
330
1F
100
AcDbEntity
  8
2
100
AcDbLine
 10
159.9095251674196
 20
178.2265165056183
 30
0.0
 11
149.249948751404
 21
178.2265165056183
 31
0.0
  0
LINE
  5
384
330
1F
100
AcDbEntity
  8
2
100
AcDbLine
 10
150.610788595154
 20
178.2265165056183
 30
0.0
 11
150.610788595154
 21
196.3705289567901
 31
0.0
  0
LINE
  5
385
330
1F
100
AcDbEntity
  8
2
100
AcDbLine
 10
159.9095251674196
 20
178.2265165056183
 30
0.0
 11
159.9095251674196
 21
196.3705289567901
 31
0.0
  0
LINE
  5
386
330
1F
100
AcDbEntity
  8
2
100
AcDbLine
 10
160.5898989641362
 20
195.1921068527413
 30
0.0
 11
159.9095248094689
 21
196.3705494356295
 31
0.0
  0
LINE
  5
387
330
1F
100
AcDbEntity
  8
2
100
AcDbLine
 10
159.9095251674196
 20
196.3705289567901
 30
0.0
 11
149.249948751404
 21
196.3705289567901
 31
0.0
  0
LINE
  5
388
330
1F
100
AcDbEntity
  8
2
100
AcDbLine
 10
160.5899450892946
 20
179.4049833024933
 30
0.0
 11
160.5899450892946
 21
195.1920621599152
 31
0.0
  0
LINE
  5
389
330
1F
100
AcDbEntity
  8
2
100
AcDbLine
 10
161.2500229633368
 20
179.2979724937045
 30
0.0
 11
166.2500234851557
 21
241.2979802618734
 31
0.0
  0
ARC
  5
38A
330
1F
100
AcDbEntity
  8
2
100
AcDbCircle
 10
174.106149923279
 20
245.0741117204611
 30
0.0
 40
6.893842935562133
100
AcDbArc
 50
327.1327677138462
 51
32.86723570125908
  0
ARC
  5
38B
330
1F
100
AcDbEntity
  8
2
100
AcDbCircle
 10
180.9999792689821
 20
256.297836085696
 30
0.0
 40
12.50000095367432
100
AcDbArc
 50
269.9999974955313
 51
90.00105229574275
  0
LINE
  5
38C
330
1F
100
AcDbEntity
  8
2
100
AcDbLine
 10
179.8964941615603
 20
263.7803495134303
 30
0.0
 11
167.249948751404
 21
263.7803495134303
 31
0.0
  0
LINE
  5
38D
330
1F
100
AcDbEntity
  8
2
100
AcDbLine
 10
179.8964941615603
 20
271.2628629411652
 30
0.0
 11
167.249948751404
 21
271.2628629411652
 31
0.0
  0
LINE
  5
38E
330
1F
100
AcDbEntity
  8
2
100
AcDbLine
 10
159.9095251674196
 20
334.3691556657736
 30
0.0
 11
149.249948751404
 21
334.3691556657736
 31
0.0
  0
LINE
  5
38F
330
1F
100
AcDbEntity
  8
2
100
AcDbLine
 10
160.589979547937
 20
333.1907437630812
 30
0.0
 11
159.9095596169025
 21
334.3692656329622
 31
0.0
  0
ARC
  5
390
330
1F
100
AcDbEntity
  8
2
100
AcDbCircle
 10
155.249948751404
 20
345.2978055681174
 30
0.0
 40
6.0
100
AcDbArc
 50
179.9999913485851
 51
270.0000006832169
  0
ARC
  5
391
330
1F
100
AcDbEntity
  8
2
100
AcDbCircle
 10
155.249948751404
 20
333.2978055681174
 30
0.0
 40
6.0
100
AcDbArc
 50
0.0
 51
90.00000250446868
  0
LINE
  5
392
330
1F
100
AcDbEntity
  8
2
100
AcDbLine
 10
159.9095251674196
 20
316.2251432146009
 30
0.0
 11
149.249948751404
 21
316.2251432146009
 31
0.0
  0
LINE
  5
393
330
1F
100
AcDbEntity
  8
2
100
AcDbLine
 10
160.5898554291496
 20
317.4036348374939
 30
0.0
 11
159.9094583862996
 21
316.225152611109
 31
0.0
  0
LINE
  5
394
330
1F
100
AcDbEntity
  8
2
100
AcDbLine
 10
160.5899450892946
 20
333.1906888688991
 30
0.0
 11
160.5899450892946
 21
317.4036100114772
 31
0.0
  0
LINE
  5
395
330
1F
100
AcDbEntity
  8
2
100
AcDbLine
 10
159.9095251674196
 20
334.3691556657741
 30
0.0
 11
159.9095251674196
 21
316.2251432146022
 31
0.0
  0
LINE
  5
396
330
1F
100
AcDbEntity
  8
2
100
AcDbLine
 10
150.610788595154
 20
334.3691556657741
 30
0.0
 11
150.610788595154
 21
316.2251432146022
 31
0.0
  0
LINE
  5
397
330
1F
100
AcDbEntity
  8
2
100
AcDbLine
 10
166.2500097865603
 20
271.2978360856959
 30
0.0
 11
167.249948751404
 21
271.2978360856959
 31
0.0
  0
LINE
  5
398
330
1F
100
AcDbEntity
  8
2
100
AcDbLine
 10
161.249988025387
 20
333.2978525690523
 30
0.0
 11
166.249988547205
 21
271.2978448008835
 31
0.0
  0
ARC
  5
399
330
1F
100
AcDbEntity
  8
2
100
AcDbCircle
 10
174.106149923279
 20
267.5215604509304
 30
0.0
 40
6.893842935562133
100
AcDbArc
 50
327.1327677138462
 51
32.86723570125908
  0
ARC
  5
39A
330
1F
100
AcDbEntity
  8
2
100
AcDbCircle
 10
148.2500097865602
 20
358.7978971208508
 30
0.0
 40
1.000000029802322
100
AcDbArc
 50
0.0
 51
90.00000250446868
  0
LINE
  5
39B
330
1F
100
AcDbEntity
  8
0
370
    -3
100
AcDbLine
 10
-40.05017637066652
 20
241.297836085696
 30
0.0
 11
9.949823629333707
 21
241.297836085696
 31
0.0
  0
LINE
  5
39C
330
1F
100
AcDbEntity
  8
0
370
    -3
100
AcDbLine
 10
-40.05017637066652
 20
241.2978360856955
 30
0.0
 11
-40.05017637066652
 21
238.2978360856955
 31
0.0
  0
LINE
  5
39D
330
1F
100
AcDbEntity
  8
0
370
    -3
100
AcDbLine
 10
-40.05017637066652
 20
238.2978360856959
 30
0.0
 11
9.949823629333707
 21
238.2978360856959
 31
0.0
  0
LINE
  5
39E
330
1F
100
AcDbEntity
  8
0
370
    -3
100
AcDbLine
 10
9.949823629333707
 20
241.297836085696
 30
0.0
 11
9.949823629333707
 21
238.2978360856959
 31
0.0
  0
LINE
  5
39F
330
1F
100
AcDbEntity
  8
0
370
    -3
100
AcDbLine
 10
17.99994875140402
 20
296.3479612077663
 30
0.0
 11
14.99994875140402
 21
296.3479612077663
 31
0.0
  0
LINE
  5
3A0
330
1F
100
AcDbEntity
  8
0
370
    -3
100
AcDbLine
 10
17.99994875140402
 20
296.3479612077663
 30
0.0
 11
17.99994875140402
 21
246.3479612077663
 31
0.0
  0
LINE
  5
3A1
330
1F
100
AcDbEntity
  8
0
370
    -3
100
AcDbLine
 10
17.99994875140402
 20
246.3479612077663
 30
0.0
 11
14.99994875140402
 21
246.3479612077663
 31
0.0
  0
LINE
  5
3A2
330
1F
100
AcDbEntity
  8
0
370
    -3
100
AcDbLine
 10
14.99994875140402
 20
296.3479612077663
 30
0.0
 11
14.99994875140402
 21
246.3479612077663
 31
0.0
  0
LINE
  5
3A3
330
1F
100
AcDbEntity
  8
0
370
    -3
100
AcDbLine
 10
-15.00005124859598
 20
266.2477104567622
 30
0.0
 11
-15.00005124859598
 21
246.3479612077663
 31
0.0
  0
LINE
  5
3A4
330
1F
100
AcDbEntity
  8
0
370
    -3
100
AcDbLine
 10
9.949823629333707
 20
271.2978360856959
 30
0.0
 11
-9.949926126525667
 21
271.2978360856959
 31
0.0
  0
ARC
  5
3A5
330
1F
100
AcDbEntity
  8
0
370
    -3
100
AcDbCircle
 10
-0.0000512485959803
 20
256.297836085696
 30
0.0
 40
18.0
100
AcDbArc
 50
33.55730976192813
 51
235.8456217525121
  0
ARC
  5
3A6
330
1F
100
AcDbEntity
  8
0
370
    -3
100
AcDbCircle
 10
-0.0000512485959803
 20
256.297836085696
 30
0.0
 40
18.0
100
AcDbArc
 50
303.5573102036094
 51
326.4426888857342
  0
CIRCLE
  5
3A7
330
1F
100
AcDbEntity
  8
0
370
    -3
100
AcDbCircle
 10
-0.0000512485959803
 20
256.297836085696
 30
0.0
 40
3.5
  0
CIRCLE
  5
3A8
330
1F
100
AcDbEntity
  8
0
370
    -3
100
AcDbCircle
 10
-0.0000512485959803
 20
256.297836085696
 30
0.0
 40
7.5
  0
CIRCLE
  5
3A9
330
1F
100
AcDbEntity
  8
0
370
    -3
100
AcDbCircle
 10
-0.0000512485959803
 20
256.297836085696
 30
0.0
 40
12.0
  0
CIRCLE
  5
3AA
330
1F
100
AcDbEntity
  8
0
370
    -3
100
AcDbCircle
 10
-0.0000512485959803
 20
256.297836085696
 30
0.0
 40
9.5
  0
LINE
  5
3AB
330
1F
100
AcDbEntity
  8
0
370
    -3
100
AcDbLine
 10
66.49991823382589
 20
240.4319303239772
 30
0.0
 11
66.49991823382589
 21
242.1639249528835
 31
0.0
  0
LINE
  5
3AC
330
1F
100
AcDbEntity
  8
0
370
    -3
100
AcDbLine
 10
66.49993890509069
 20
240.4318794269873
 30
0.0
 11
64.99993800959948
 21
239.565853490647
 31
0.0
  0
LINE
  5
3AD
330
1F
100
AcDbEntity
  8
0
370
    -3
100
AcDbLine
 10
63.49991823382589
 20
240.4319303239772
 30
0.0
 11
63.49991823382589
 21
242.1639249528835
 31
0.0
  0
LINE
  5
3AE
330
1F
100
AcDbEntity
  8
0
370
    -3
100
AcDbLine
 10
63.49993798940869
 20
242.1639296903431
 30
0.0
 11
64.9999388848999
 21
243.0299556266835
 31
0.0
  0
LINE
  5
3AF
330
1F
100
AcDbEntity
  8
0
370
    -3
100
AcDbLine
 10
64.99989874184468
 20
239.5659174197292
 30
0.0
 11
63.49994740072435
 21
240.4319147458398
 31
0.0
  0
LINE
  5
3B0
330
1F
100
AcDbEntity
  8
0
370
    -3
100
AcDbLine
 10
66.49989876203637
 20
242.1639936194245
 30
0.0
 11
64.99994742091605
 21
243.029990945535
 31
0.0
  0
CIRCLE
  5
3B1
330
1F
100
AcDbEntity
  8
0
370
    -3
100
AcDbCircle
 10
64.9999182338259
 20
241.2979276384303
 30
0.0
 40
3.500000238418578
  0
CIRCLE
  5
3B2
330
1F
100
AcDbEntity
  8
0
370
    -3
100
AcDbCircle
 10
64.9999182338259
 20
241.2979276384303
 30
0.0
 40
2.980384826660156
  0
LINE
  5
3B3
330
1F
100
AcDbEntity
  8
0
370
    -3
100
AcDbLine
 10
66.49991823382589
 20
270.431747218508
 30
0.0
 11
66.49991823382589
 21
272.1637418474143
 31
0.0
  0
LINE
  5
3B4
330
1F
100
AcDbEntity
  8
0
370
    -3
100
AcDbLine
 10
66.49993890509069
 20
270.4316963215181
 30
0.0
 11
64.99993800959948
 21
269.5656703851778
 31
0.0
  0
LINE
  5
3B5
330
1F
100
AcDbEntity
  8
0
370
    -3
100
AcDbLine
 10
63.49991823382589
 20
270.431747218508
 30
0.0
 11
63.49991823382589
 21
272.1637418474143
 31
0.0
  0
LINE
  5
3B6
330
1F
100
AcDbEntity
  8
0
370
    -3
100
AcDbLine
 10
63.49993798940869
 20
272.1637465848739
 30
0.0
 11
64.9999388848999
 21
273.0297725212142
 31
0.0
  0
LINE
  5
3B7
330
1F
100
AcDbEntity
  8
0
370
    -3
100
AcDbLine
 10
64.99989874184468
 20
269.56573431426
 30
0.0
 11
63.49994740072435
 21
270.4317316403706
 31
0.0
  0
LINE
  5
3B8
330
1F
100
AcDbEntity
  8
0
370
    -3
100
AcDbLine
 10
66.49989876203637
 20
272.1638105139553
 30
0.0
 11
64.99994742091605
 21
273.0298078400658
 31
0.0
  0
CIRCLE
  5
3B9
330
1F
100
AcDbEntity
  8
0
370
    -3
100
AcDbCircle
 10
64.9999182338259
 20
271.2977445329611
 30
0.0
 40
3.500000238418578
  0
CIRCLE
  5
3BA
330
1F
100
AcDbEntity
  8
0
370
    -3
100
AcDbCircle
 10
64.9999182338259
 20
271.2977445329611
 30
0.0
 40
2.980384826660156
  0
LINE
  5
3BB
330
1F
100
AcDbEntity
  8
1
100
AcDbLine
 10
58.10682130999777
 20
241.2979276384303
 30
0.0
 11
71.89301515765402
 21
241.2979276384303
 31
0.0
  0
LINE
  5
3BC
330
1F
100
AcDbEntity
  8
1
100
AcDbLine
 10
64.9999182338259
 20
233.7979276384303
 30
0.0
 11
64.9999182338259
 21
248.7979276384304
 31
0.0
  0
LINE
  5
3BD
330
1F
100
AcDbEntity
  8
1
100
AcDbLine
 10
64.9999182338259
 20
278.5476529802272
 30
0.0
 11
64.9999182338259
 21
264.0478055681178
 31
0.0
  0
LINE
  5
3BE
330
1F
100
AcDbEntity
  8
0
370
    -3
100
AcDbLine
 10
33.9999182338259
 20
211.2978360856959
 30
0.0
 11
78.99991823382589
 21
211.2978360856959
 31
0.0
  0
LINE
  5
3BF
330
1F
100
AcDbEntity
  8
0
370
    -3
100
AcDbLine
 10
33.9999182338259
 20
301.2978208269069
 30
0.0
 11
78.99991823382589
 21
301.2978208269069
 31
0.0
  0
LINE
  5
3C0
330
1F
100
AcDbEntity
  8
0
370
    -3
100
AcDbLine
 10
33.9999182338259
 20
211.2978360856959
 30
0.0
 11
33.9999182338259
 21
301.2978208269069
 31
0.0
  0
LINE
  5
3C1
330
1F
100
AcDbEntity
  8
0
370
    -3
100
AcDbLine
 10
36.99991823382589
 20
211.2978360856959
 30
0.0
 11
36.99991823382589
 21
301.2978208269069
 31
0.0
  0
LINE
  5
3C2
330
1F
100
AcDbEntity
  8
0
370
    -3
100
AcDbLine
 10
83.9999182338259
 20
216.297836085696
 30
0.0
 11
83.9999182338259
 21
296.2978208269069
 31
0.0
  0
LINE
  5
3C3
330
1F
100
AcDbEntity
  8
1
100
AcDbLine
 10
58.43097902484152
 20
271.2977445329616
 30
0.0
 11
71.56885744281026
 21
271.2977445329616
 31
0.0
  0
ARC
  5
3C4
330
1F
100
AcDbEntity
  8
0
370
    -3
100
AcDbCircle
 10
78.99991823382589
 20
296.2978208269069
 30
0.0
 40
5.0
100
AcDbArc
 50
359.9999974955182
 51
90.0
  0
ARC
  5
3C5
330
1F
100
AcDbEntity
  8
0
370
    -3
100
AcDbCircle
 10
78.99991823382589
 20
216.297836085696
 30
0.0
 40
5.0
100
AcDbArc
 50
270.0000050089374
 51
0.0000006832429909
  0
LINE
  5
3C6
330
1F
100
AcDbEntity
  8
0
370
    -3
100
AcDbLine
 10
33.99959016986105
 20
60.0
 30
0.0
 11
36.99959016986105
 21
60.0
 31
0.0
  0
LINE
  5
3C7
330
1F
100
AcDbEntity
  8
0
370
    -3
100
AcDbLine
 10
83.99959779925557
 20
3.0
 30
0.0
 11
83.99959779925557
 21
0.0
 31
0.0
  0
LINE
  5
3C8
330
1F
100
AcDbEntity
  8
0
370
    -3
100
AcDbLine
 10
37.99959016986105
 20
3.0
 30
0.0
 11
83.99959779925557
 21
3.0
 31
0.0
  0
LINE
  5
3C9
330
1F
100
AcDbEntity
  8
0
370
    -3
100
AcDbLine
 10
36.99959016986105
 20
60.0
 30
0.0
 11
36.99959016986105
 21
4.0
 31
0.0
  0
LINE
  5
3CA
330
1F
100
AcDbEntity
  8
0
370
    -3
100
AcDbLine
 10
33.99959016986105
 20
60.0
 30
0.0
 11
33.99959016986105
 21
4.0
 31
0.0
  0
LINE
  5
3CB
330
1F
100
AcDbEntity
  8
0
370
    -3
100
AcDbLine
 10
37.99959034470595
 20
0.0
 30
0.0
 11
83.99959779925557
 21
0.0
 31
0.0
  0
ARC
  5
3CC
330
1F
100
AcDbEntity
  8
0
370
    -3
100
AcDbCircle
 10
37.99959016986105
 20
4.0
 30
0.0
 40
1.0
100
AcDbArc
 50
180.0
 51
270.0000025044687
  0
ARC
  5
3CD
330
1F
100
AcDbEntity
  8
0
370
    -3
100
AcDbCircle
 10
37.99959016986105
 20
4.0
 30
0.0
 40
4.0
100
AcDbArc
 50
180.0
 51
270.0000025044687
  0
LINE
  5
3CE
330
1F
100
AcDbEntity
  8
0
370
    -3
100
AcDbLine
 10
69.59913762756588
 20
4.299869930748855
 30
0.0
 11
69.59913762756588
 21
3.0
 31
0.0
  0
LINE
  5
3CF
330
1F
100
AcDbEntity
  8
0
370
    -3
100
AcDbLine
 10
60.40005797094619
 20
4.299869930748855
 30
0.0
 11
60.40005797094619
 21
3.0
 31
0.0
  0
LINE
  5
3D0
330
1F
100
AcDbEntity
  8
0
370
    -3
100
AcDbLine
 10
60.40005797094619
 20
4.299869930748855
 30
0.0
 11
69.59913762756588
 21
4.299869930748855
 31
0.0
  0
LINE
  5
3D1
330
1F
100
AcDbEntity
  8
1
100
AcDbLine
 10
17.64837023382716
 20
286.3479830702363
 30
0.0
 11
77.37267933013464
 21
286.3479830702363
 31
0.0
  0
LINE
  5
3D2
330
1F
100
AcDbEntity
  8
2
100
AcDbLine
 10
40.99991823382589
 20
295.3479505337091
 30
0.0
 11
62.9999182338259
 21
295.3479505337091
 31
0.0
  0
LINE
  5
3D3
330
1F
100
AcDbEntity
  8
2
100
AcDbLine
 10
40.99991823382589
 20
277.3479505337091
 30
0.0
 11
62.9999182338259
 21
277.3479505337091
 31
0.0
  0
LINE
  5
3D4
330
1F
100
AcDbEntity
  8
2
100
AcDbLine
 10
21.00000978656027
 20
277.3479505337091
 30
0.0
 11
21.00000978656027
 21
295.3479505337091
 31
0.0
  0
LINE
  5
3D5
330
1F
100
AcDbEntity
  8
2
100
AcDbLine
 10
21.00000978656027
 20
277.3479505337091
 30
0.0
 11
29.9999182338259
 21
277.3479505337091
 31
0.0
  0
LINE
  5
3D6
330
1F
100
AcDbEntity
  8
2
100
AcDbLine
 10
21.00000978656027
 20
295.3479505337091
 30
0.0
 11
29.9999182338259
 21
295.3479505337091
 31
0.0
  0
LINE
  5
3D7
330
1F
100
AcDbEntity
  8
2
100
AcDbLine
 10
62.9999182338259
 20
277.3479505337091
 30
0.0
 11
62.9999182338259
 21
295.3479505337091
 31
0.0
  0
LINE
  5
3D8
330
1F
100
AcDbEntity
  8
2
100
AcDbLine
 10
29.9999182338259
 20
274.8479764665553
 30
0.0
 11
29.9999182338259
 21
297.8479764665554
 31
0.0
  0
ARC
  5
3D9
330
1F
100
AcDbEntity
  8
2
100
AcDbCircle
 10
47.61887353778075
 20
280.3479764665553
 30
0.0
 40
17.33028030395508
100
AcDbArc
 50
159.7444458007545
 51
200.2555541992455
  0
ARC
  5
3DA
330
1F
100
AcDbEntity
  8
2
100
AcDbCircle
 10
47.61887353778075
 20
292.3479764665554
 30
0.0
 40
17.33028030395508
100
AcDbArc
 50
159.7444458007545
 51
200.2555541992455
  0
LINE
  5
3DB
330
1F
100
AcDbEntity
  8
2
100
AcDbLine
 10
33.9999182338259
 20
298.3479764665553
 30
0.0
 11
30.28859323382568
 21
298.3479764665553
 31
0.0
  0
LINE
  5
3DC
330
1F
100
AcDbEntity
  8
2
100
AcDbLine
 10
30.28859323382568
 20
298.3479764665553
 30
0.0
 11
29.9999182338259
 21
297.8479764665554
 31
0.0
  0
LINE
  5
3DD
330
1F
100
AcDbEntity
  8
2
100
AcDbLine
 10
33.9999182338259
 20
286.3479764665553
 30
0.0
 11
31.36038577382607
 21
286.3479764665553
 31
0.0
  0
LINE
  5
3DE
330
1F
100
AcDbEntity
  8
2
100
AcDbLine
 10
33.9999182338259
 20
274.3479764665553
 30
0.0
 11
30.28859323382568
 21
274.3479764665553
 31
0.0
  0
LINE
  5
3DF
330
1F
100
AcDbEntity
  8
2
100
AcDbLine
 10
30.28859323382568
 20
274.3479764665553
 30
0.0
 11
29.9999182338259
 21
274.8479764665553
 31
0.0
  0
LINE
  5
3E0
330
1F
100
AcDbEntity
  8
2
100
AcDbLine
 10
40.99991823382589
 20
274.8479830702363
 30
0.0
 11
40.99991823382589
 21
297.8479830702363
 31
0.0
  0
ARC
  5
3E1
330
1F
100
AcDbEntity
  8
2
100
AcDbCircle
 10
23.38096292987103
 20
280.3479830702363
 30
0.0
 40
17.33028030395508
100
AcDbArc
 50
339.7444458007545
 51
20.25597097880809
  0
ARC
  5
3E2
330
1F
100
AcDbEntity
  8
2
100
AcDbCircle
 10
23.38096292987103
 20
292.3479830702363
 30
0.0
 40
17.33028030395508
100
AcDbArc
 50
339.7440290211919
 51
20.25555419924547
  0
LINE
  5
3E3
330
1F
100
AcDbEntity
  8
2
100
AcDbLine
 10
40.71124323382611
 20
298.3479830702363
 30
0.0
 11
36.99991823382589
 21
298.3479830702363
 31
0.0
  0
LINE
  5
3E4
330
1F
100
AcDbEntity
  8
2
100
AcDbLine
 10
40.71124323382611
 20
298.3479830702363
 30
0.0
 11
40.99991823382589
 21
297.8479830702363
 31
0.0
  0
LINE
  5
3E5
330
1F
100
AcDbEntity
  8
2
100
AcDbLine
 10
39.63945656900142
 20
286.3479830702363
 30
0.0
 11
36.99991823382589
 21
286.3479830702363
 31
0.0
  0
LINE
  5
3E6
330
1F
100
AcDbEntity
  8
2
100
AcDbLine
 10
62.99988569729868
 20
283.347868469576
 30
0.0
 11
68.74734750034878
 21
283.347868469576
 31
0.0
  0
LINE
  5
3E7
330
1F
100
AcDbEntity
  8
2
100
AcDbLine
 10
40.71124323382611
 20
274.3479830702363
 30
0.0
 11
36.99991823382589
 21
274.3479830702363
 31
0.0
  0
LINE
  5
3E8
330
1F
100
AcDbEntity
  8
2
100
AcDbLine
 10
40.71124323382611
 20
274.3479830702363
 30
0.0
 11
40.99991823382589
 21
274.8479830702363
 31
0.0
  0
LINE
  5
3E9
330
1F
100
AcDbEntity
  8
2
100
AcDbLine
 10
62.99988569729868
 20
289.3478684695761
 30
0.0
 11
68.74734750034878
 21
289.3478684695761
 31
0.0
  0
LINE
  5
3EA
330
1F
100
AcDbEntity
  8
1
100
AcDbLine
 10
17.64837023382716
 20
226.2476891011556
 30
0.0
 11
77.37267933013464
 21
226.2476891011556
 31
0.0
  0
LINE
  5
3EB
330
1F
100
AcDbEntity
  8
2
100
AcDbLine
 10
40.99991823382589
 20
217.2477216376829
 30
0.0
 11
62.9999182338259
 21
217.2477216376829
 31
0.0
  0
LINE
  5
3EC
330
1F
100
AcDbEntity
  8
2
100
AcDbLine
 10
40.99991823382589
 20
235.2477216376828
 30
0.0
 11
62.9999182338259
 21
235.2477216376828
 31
0.0
  0
LINE
  5
3ED
330
1F
100
AcDbEntity
  8
2
100
AcDbLine
 10
21.00000978656027
 20
235.2477216376828
 30
0.0
 11
21.00000978656027
 21
217.2477216376829
 31
0.0
  0
LINE
  5
3EE
330
1F
100
AcDbEntity
  8
2
100
AcDbLine
 10
21.00000978656027
 20
235.2477216376828
 30
0.0
 11
29.9999182338259
 21
235.2477216376828
 31
0.0
  0
LINE
  5
3EF
330
1F
100
AcDbEntity
  8
2
100
AcDbLine
 10
21.00000978656027
 20
217.2477216376829
 30
0.0
 11
29.9999182338259
 21
217.2477216376829
 31
0.0
  0
LINE
  5
3F0
330
1F
100
AcDbEntity
  8
2
100
AcDbLine
 10
62.9999182338259
 20
235.2477216376828
 30
0.0
 11
62.9999182338259
 21
217.2477216376829
 31
0.0
  0
LINE
  5
3F1
330
1F
100
AcDbEntity
  8
2
100
AcDbLine
 10
29.9999182338259
 20
237.7476957048366
 30
0.0
 11
29.9999182338259
 21
214.7476957048366
 31
0.0
  0
ARC
  5
3F2
330
1F
100
AcDbEntity
  8
2
100
AcDbCircle
 10
47.61887353778075
 20
232.2476957048366
 30
0.0
 40
17.33028030395508
100
AcDbArc
 50
159.7444458007545
 51
200.2555541992455
  0
ARC
  5
3F3
330
1F
100
AcDbEntity
  8
2
100
AcDbCircle
 10
47.61887353778075
 20
220.2476957048366
 30
0.0
 40
17.33028030395508
100
AcDbArc
 50
159.7444458007545
 51
200.2555541992455
  0
LINE
  5
3F4
330
1F
100
AcDbEntity
  8
2
100
AcDbLine
 10
33.9999182338259
 20
214.2476957048366
 30
0.0
 11
30.28859323382568
 21
214.2476957048366
 31
0.0
  0
LINE
  5
3F5
330
1F
100
AcDbEntity
  8
2
100
AcDbLine
 10
30.28859323382568
 20
214.2476957048366
 30
0.0
 11
29.9999182338259
 21
214.7476957048366
 31
0.0
  0
LINE
  5
3F6
330
1F
100
AcDbEntity
  8
2
100
AcDbLine
 10
33.9999182338259
 20
226.2476957048366
 30
0.0
 11
31.36038577382607
 21
226.2476957048366
 31
0.0
  0
LINE
  5
3F7
330
1F
100
AcDbEntity
  8
2
100
AcDbLine
 10
33.9999182338259
 20
238.2476957048366
 30
0.0
 11
30.28859323382568
 21
238.2476957048366
 31
0.0
  0
LINE
  5
3F8
330
1F
100
AcDbEntity
  8
2
100
AcDbLine
 10
30.28859323382568
 20
238.2476957048366
 30
0.0
 11
29.9999182338259
 21
237.7476957048366
 31
0.0
  0
LINE
  5
3F9
330
1F
100
AcDbEntity
  8
2
100
AcDbLine
 10
40.99991823382589
 20
237.7476891011556
 30
0.0
 11
40.99991823382589
 21
214.7476891011556
 31
0.0
  0
ARC
  5
3FA
330
1F
100
AcDbEntity
  8
2
100
AcDbCircle
 10
23.38096292987103
 20
232.2476891011556
 30
0.0
 40
17.33028030395508
100
AcDbArc
 50
339.7440290211919
 51
20.25555419924547
  0
ARC
  5
3FB
330
1F
100
AcDbEntity
  8
2
100
AcDbCircle
 10
23.38096292987103
 20
220.2476891011556
 30
0.0
 40
17.33028030395508
100
AcDbArc
 50
339.7444458007545
 51
20.25597097880809
  0
LINE
  5
3FC
330
1F
100
AcDbEntity
  8
2
100
AcDbLine
 10
40.71124323382611
 20
214.2476891011556
 30
0.0
 11
36.99991823382589
 21
214.2476891011556
 31
0.0
  0
LINE
  5
3FD
330
1F
100
AcDbEntity
  8
2
100
AcDbLine
 10
40.71124323382611
 20
214.2476891011556
 30
0.0
 11
40.99991823382589
 21
214.7476891011556
 31
0.0
  0
LINE
  5
3FE
330
1F
100
AcDbEntity
  8
2
100
AcDbLine
 10
39.63945656900142
 20
226.2476891011556
 30
0.0
 11
36.99991823382589
 21
226.2476891011556
 31
0.0
  0
LINE
  5
3FF
330
1F
100
AcDbEntity
  8
2
100
AcDbLine
 10
62.99988569729868
 20
229.2478037018159
 30
0.0
 11
68.74734750034878
 21
229.2478037018159
 31
0.0
  0
LINE
  5
400
330
1F
100
AcDbEntity
  8
2
100
AcDbLine
 10
40.71124323382611
 20
238.2476891011556
 30
0.0
 11
36.99991823382589
 21
238.2476891011556
 31
0.0
  0
LINE
  5
401
330
1F
100
AcDbEntity
  8
2
100
AcDbLine
 10
40.71124323382611
 20
238.2476891011556
 30
0.0
 11
40.99991823382589
 21
237.7476891011556
 31
0.0
  0
LINE
  5
402
330
1F
100
AcDbEntity
  8
2
100
AcDbLine
 10
62.99988569729868
 20
223.2478037018159
 30
0.0
 11
68.74734750034878
 21
223.2478037018159
 31
0.0
  0
LINE
  5
403
330
1F
100
AcDbEntity
  8
2
100
AcDbLine
 10
62.9999182338259
 20
53.5003814697252
 30
0.0
 11
62.9999182338259
 21
35.5003814697252
 31
0.0
  0
ARC
  5
404
330
1F
100
AcDbEntity
  8
2
100
AcDbCircle
 10
34.80235464520666
 20
34.0003814697252
 30
0.0
 40
6.19754076004028
100
AcDbArc
 50
325.6157510527484
 51
34.38424712602151
  0
ARC
  5
405
330
1F
100
AcDbEntity
  8
2
100
AcDbCircle
 10
36.19725210614416
 20
34.0003814697252
 30
0.0
 40
6.19754076004028
100
AcDbArc
 50
145.6157665343672
 51
214.3842387019813
  0
LINE
  5
406
330
1F
100
AcDbEntity
  8
2
100
AcDbLine
 10
40.99974234051916
 20
56.62471008300645
 30
0.0
 11
40.99974234051916
 21
32.37605285644395
 31
0.0
  0
LINE
  5
407
330
1F
100
AcDbEntity
  8
2
100
AcDbLine
 10
29.99986441083166
 20
56.62471008300645
 30
0.0
 11
29.99986441083166
 21
32.37605285644395
 31
0.0
  0
LINE
  5
408
330
1F
100
AcDbEntity
  8
2
100
AcDbLine
 10
21.00000978656027
 20
53.5003814697252
 30
0.0
 11
21.00000978656027
 21
35.5003814697252
 31
0.0
  0
LINE
  5
409
330
1F
100
AcDbEntity
  8
2
100
AcDbLine
 10
40.99974234051916
 20
53.5003814697252
 30
0.0
 11
62.9999182338259
 21
53.5003814697252
 31
0.0
  0
LINE
  5
40A
330
1F
100
AcDbEntity
  8
1
100
AcDbLine
 10
14.29150396290407
 20
44.50038146972519
 30
0.0
 11
69.74708207325676
 21
44.50038146972519
 31
0.0
  0
LINE
  5
40B
330
1F
100
AcDbEntity
  8
2
100
AcDbLine
 10
33.99962027020666
 20
37.50044250488145
 30
0.0
 11
31.08275015301916
 21
37.50044250488145
 31
0.0
  0
LINE
  5
40C
330
1F
100
AcDbEntity
  8
2
100
AcDbLine
 10
33.99962027020666
 20
51.5005035400377
 30
0.0
 11
31.08275015301916
 21
51.5005035400377
 31
0.0
  0
LINE
  5
40D
330
1F
100
AcDbEntity
  8
2
100
AcDbLine
 10
31.08275015301916
 20
58.50044250488145
 30
0.0
 11
33.99962027020666
 21
58.50044250488145
 31
0.0
  0
ARC
  5
40E
330
1F
100
AcDbEntity
  8
2
100
AcDbCircle
 10
53.16563589520666
 20
44.50038146972519
 30
0.0
 40
23.16580867767334
100
AcDbArc
 50
162.4120418166839
 51
197.5879531743625
  0
LINE
  5
40F
330
1F
100
AcDbEntity
  8
2
100
AcDbLine
 10
29.99978227170215
 20
56.62466975165671
 30
0.0
 11
31.08266802846703
 21
58.50028286750148
 31
0.0
  0
LINE
  5
410
330
1F
100
AcDbEntity
  8
2
100
AcDbLine
 10
21.00000978656027
 20
53.5003814697252
 30
0.0
 11
29.99986441083166
 21
53.5003814697252
 31
0.0
  0
ARC
  5
411
330
1F
100
AcDbEntity
  8
2
100
AcDbCircle
 10
36.19725210614416
 20
55.0003814697252
 30
0.0
 40
6.19754076004028
100
AcDbArc
 50
145.6157665343672
 51
214.3842387019813
  0
ARC
  5
412
330
1F
100
AcDbEntity
  8
2
100
AcDbCircle
 10
17.83387930340978
 20
44.50038146972519
 30
0.0
 40
23.16580867767334
100
AcDbArc
 50
342.4120468256374
 51
17.58795135312671
  0
LINE
  5
413
330
1F
100
AcDbEntity
  8
2
100
AcDbLine
 10
36.99962027020666
 20
51.5005035400377
 30
0.0
 11
39.91685659833166
 21
51.5005035400377
 31
0.0
  0
LINE
  5
414
330
1F
100
AcDbEntity
  8
2
100
AcDbLine
 10
39.91685659833166
 20
58.50044250488145
 30
0.0
 11
36.99962027020666
 21
58.50044250488145
 31
0.0
  0
LINE
  5
415
330
1F
100
AcDbEntity
  8
2
100
AcDbLine
 10
40.99968147939927
 20
56.62471691353175
 30
0.0
 11
39.9167957226353
 21
58.50033002937653
 31
0.0
  0
ARC
  5
416
330
1F
100
AcDbEntity
  8
2
100
AcDbCircle
 10
34.80235464520666
 20
55.0003814697252
 30
0.0
 40
6.19754076004028
100
AcDbArc
 50
325.6157510527484
 51
34.38424712602151
  0
LINE
  5
417
330
1F
100
AcDbEntity
  8
2
100
AcDbLine
 10
36.99962027020666
 20
37.50044250488145
 30
0.0
 11
39.91685659833166
 21
37.50044250488145
 31
0.0
  0
LINE
  5
418
330
1F
100
AcDbEntity
  8
2
100
AcDbLine
 10
62.9999182338259
 20
47.50047302245957
 30
0.0
 11
68.747380036876
 21
47.50047302245957
 31
0.0
  0
LINE
  5
419
330
1F
100
AcDbEntity
  8
2
100
AcDbLine
 10
62.9999182338259
 20
41.50047302245957
 30
0.0
 11
68.747380036876
 21
41.50047302245957
 31
0.0
  0
LINE
  5
41A
330
1F
100
AcDbEntity
  8
2
100
AcDbLine
 10
40.99974234051916
 20
35.5003814697252
 30
0.0
 11
62.9999182338259
 21
35.5003814697252
 31
0.0
  0
LINE
  5
41B
330
1F
100
AcDbEntity
  8
2
100
AcDbLine
 10
31.08275015301916
 20
30.5005035400377
 30
0.0
 11
33.99962027020666
 21
30.5005035400377
 31
0.0
  0
LINE
  5
41C
330
1F
100
AcDbEntity
  8
2
100
AcDbLine
 10
21.00000978656027
 20
35.5003814697252
 30
0.0
 11
29.99986441083166
 21
35.5003814697252
 31
0.0
  0
LINE
  5
41D
330
1F
100
AcDbEntity
  8
2
100
AcDbLine
 10
29.99971955197435
 20
32.3760626331482
 30
0.0
 11
31.08265108510642
 21
30.50037023031018
 31
0.0
  0
LINE
  5
41E
330
1F
100
AcDbEntity
  8
2
100
AcDbLine
 10
39.91685659833166
 20
30.5005035400377
 30
0.0
 11
36.99962027020666
 21
30.5005035400377
 31
0.0
  0
LINE
  5
41F
330
1F
100
AcDbEntity
  8
2
100
AcDbLine
 10
40.99973806625786
 20
32.3759132960945
 30
0.0
 11
39.91685230949298
 21
30.50030018025018
 31
0.0
  0
VIEWPORT
  5
71
330
55
100
AcDbEntity
 67
     1
  8
0
100
AcDbViewport
 10
133.3499908447266
 20
101.5999970436096
 30
0.0
 40
381.3957395593835
 41
218.2856291881582
 68
     1
 69
     1
 12
133.3499908447266
 22
101.5999970436096
 13
0.0
 23
0.0
 14
10.0
 24
10.0
 15
10.0
 25
10.0
 16
0.0
 26
0.0
 36
1.0
 17
0.0
 27
0.0
 37
0.0
 42
50.0
 43
0.0
 44
0.0
 45
218.2856291881582
 50
0.0
 51
0.0
 72
   100
 90
    32800
  1

281
     0
 71
     1
 74
     0
110
0.0
120
0.0
130
0.0
111
1.0
121
0.0
131
0.0
112
0.0
122
1.0
132
0.0
 79
     0
146
0.0
170
     0
 61
     5
348
44C
292
     1
282
     1
141
0.0
142
0.0
 63
   250
421
  3355443
  0
VIEWPORT
  5
73
330
55
100
AcDbEntity
 67
     1
  8
0
100
AcDbViewport
 10
133.3499939441681
 20
101.5999939441681
 30
0.0
 40
213.3599903106689
 41
162.5599903106689
 68
     2
 69
     2
 12
210.0
 22
148.5
 13
0.0
 23
0.0
 14
10.0
 24
10.0
 15
10.0
 25
10.0
 16
0.0
 26
0.0
 36
1.0
 17
0.0
 27
0.0
 37
0.0
 42
50.0
 43
0.0
 44
0.0
 45
324.0677920111345
 50
0.0
 51
0.0
 72
   100
 90
    32864
  1

281
     0
 71
     1
 74
     0
110
0.0
120
0.0
130
0.0
111
1.0
121
0.0
131
0.0
112
0.0
122
1.0
132
0.0
 79
     0
146
0.0
170
     0
 61
     5
348
44C
292
     1
282
     1
141
0.0
142
0.0
 63
   250
421
  3355443
  0
ENDSEC
  0
SECTION
  2
OBJECTS
  0
DICTIONARY
  5
C
330
0
100
AcDbDictionary
281
     1
  3
ACAD_COLOR
350
45A
  3
ACAD_GROUP
350
D
  3
ACAD_LAYOUT
350
1A
  3
ACAD_MATERIAL
350
42D
  3
ACAD_MLEADERSTYLE
350
46F
  3
ACAD_MLINESTYLE
350
17
  3
ACAD_PLOTSETTINGS
350
19
  3
ACAD_PLOTSTYLENAME
350
E
  3
ACAD_SCALELIST
350
45D
  3
ACAD_TABLESTYLE
350
45B
  3
ACAD_VISUALSTYLE
350
446
  3
ACDB_RECOMPOSE_DATA
350
47E
  3
AcDbVariableDictionary
350
5E
  0
DICTIONARY
  5
97
330
2
100
AcDbDictionary
280
     1
281
     1
  3
ACAD_LAYERSTATES
360
98
  0
DICTIONARY
  5
473
330
10
100
AcDbDictionary
280
     1
281
     1
  3
ADSK_XREC_LAYER_RECONCILED
360
474
  0
DICTIONARY
  5
90
330
8F
100
AcDbDictionary
280
     1
281
     1
  3
ADSK_XREC_LAYER_RECONCILED
360
91
  0
DICTIONARY
  5
93
330
92
100
AcDbDictionary
280
     1
281
     1
  3
ADSK_XREC_LAYER_RECONCILED
360
94
  0
DICTIONARY
  5
45A
102
{ACAD_REACTORS
330
C
102
}
330
C
100
AcDbDictionary
281
     1
  0
DICTIONARY
  5
D
102
{ACAD_REACTORS
330
C
102
}
330
C
100
AcDbDictionary
281
     1
  0
DICTIONARY
  5
1A
102
{ACAD_REACTORS
330
C
102
}
330
C
100
AcDbDictionary
281
     1
  3
Model
350
22
  3
ﾚｲｱｳﾄ1
350
51
  3
ﾚｲｱｳﾄ2
350
56
  0
DICTIONARY
  5
42D
102
{ACAD_REACTORS
330
C
102
}
330
C
100
AcDbDictionary
281
     1
  3
ByBlock
350
436
  3
ByLayer
350
42E
  3
Global
350
43E
  0
DICTIONARY
  5
46F
102
{ACAD_REACTORS
330
C
102
}
330
C
100
AcDbDictionary
281
     1
  3
Standard
350
470
  0
DICTIONARY
  5
17
102
{ACAD_REACTORS
330
C
102
}
330
C
100
AcDbDictionary
281
     1
  3
Standard
350
18
  0
DICTIONARY
  5
19
102
{ACAD_REACTORS
330
C
102
}
330
C
100
AcDbDictionary
281
     1
  0
ACDBDICTIONARYWDFLT
  5
E
102
{ACAD_REACTORS
330
C
102
}
330
C
100
AcDbDictionary
281
     1
  3
Normal
350
F
100
AcDbDictionaryWithDefault
340
F
  0
DICTIONARY
  5
45D
102
{ACAD_REACTORS
330
C
102
}
330
C
100
AcDbDictionary
281
     1
  3
A0
350
45E
  3
A1
350
45F
  3
A2
350
460
  3
A3
350
461
  3
A4
350
462
  3
A5
350
463
  3
A6
350
464
  3
A7
350
465
  3
A8
350
466
  3
A9
350
467
  3
B0
350
468
  3
B1
350
469
  3
B2
350
46A
  3
B3
350
46B
  3
B4
350
46C
  3
B5
350
46D
  3
B6
350
46E
  0
DICTIONARY
  5
45B
102
{ACAD_REACTORS
330
C
102
}
330
C
100
AcDbDictionary
281
     1
  3
Standard
350
45C
  0
DICTIONARY
  5
446
102
{ACAD_REACTORS
330
C
102
}
330
C
100
AcDbDictionary
281
     1
  3
2dWireframe
350
44C
  3
3D Hidden
350
44E
  3
3dWireframe
350
44D
  3
Basic
350
44B
  3
Brighten
350
452
  3
ColorChange
350
456
  3
Conceptual
350
44F
  3
Dim
350
451
  3
EdgeColorOff
350
459
  3
Facepattern
350
455
  3
Flat
350
447
  3
FlatWithEdges
350
448
  3
Gouraud
350
449
  3
GouraudWithEdges
350
44A
  3
JitterOff
350
457
  3
Linepattern
350
454
  3
OverhangOff
350
458
  3
Realistic
350
450
  3
Thicken
350
453
  0
XRECORD
  5
47E
102
{ACAD_REACTORS
330
C
102
}
330
C
100
AcDbXrecord
280
     1
 90
        1
330
45C
  0
DICTIONARY
  5
5E
102
{ACAD_REACTORS
330
C
102
}
330
C
100
AcDbDictionary
281
     1
  3
CANNOSCALE
350
478
  3
CMLEADERSTYLE
350
476
  3
CTABLESTYLE
350
475
  3
DIMASSOC
350
5F
  3
HIDETEXT
350
63
  3
LAYEREVAL
350
47A
  3
LAYERNOTIFY
350
47B
  3
LIGHTINGUNITS
350
479
  3
MSLTSCALE
350
477
  0
DICTIONARY
  5
98
102
{ACAD_REACTORS
330
97
102
}
330
97
100
AcDbDictionary
281
     1
  0
XRECORD
  5
474
102
{ACAD_REACTORS
330
473
102
}
330
473
100
AcDbXrecord
280
     1
290
     1
  0
XRECORD
  5
91
102
{ACAD_REACTORS
330
90
102
}
330
90
100
AcDbXrecord
280
     1
290
     1
  0
XRECORD
  5
94
102
{ACAD_REACTORS
330
93
102
}
330
93
100
AcDbXrecord
280
     1
290
     1
  0
LAYOUT
  5
22
102
{ACAD_REACTORS
330
1A
102
}
330
1A
100
AcDbPlotSettings
  1

  2
none_device
  4
ANSI_A_(8.50_x_11.00_Inches)
  6

 40
6.349999904632568
 41
19.04999923706055
 42
6.350006103515625
 43
19.04998779296875
 44
215.8999938964844
 45
279.3999938964844
 46
0.0
 47
0.0
 48
0.0
 49
0.0
140
0.0
141
0.0
142
1.0
143
78.436453180766
 70
 11952
 72
     0
 73
     1
 74
     0
  7

 75
     0
147
0.0127491741332998
 76
     0
 77
     2
 78
   300
148
0.0
149
0.0
100
AcDbLayout
  1
Model
 70
     1
 71
     0
 10
0.0
 20
0.0
 11
12.0
 21
9.0
 12
0.0
 22
0.0
 32
0.0
 14
0.0
 24
0.0
 34
0.0
 15
0.0
 25
0.0
 35
0.0
146
0.0
 13
0.0
 23
0.0
 33
0.0
 16
1.0
 26
0.0
 36
0.0
 17
0.0
 27
1.0
 37
0.0
 76
     0
330
1F
331
42B
  0
LAYOUT
  5
51
102
{ACAD_REACTORS
330
1A
102
}
330
1A
100
AcDbPlotSettings
  1

  2
none_device
  4
Letter_(8.50_x_11.00_Inches)
  6

 40
6.349999904632568
 41
6.349999904632568
 42
6.350006103515625
 43
6.350006103515625
 44
215.8999938964844
 45
279.3999938964844
 46
0.0
 47
0.0
 48
0.0
 49
0.0
140
0.0
141
0.0
142
1.0
143
1.0
 70
   688
 72
     1
 73
     1
 74
     5
  7

 75
    16
147
1.0
 76
     0
 77
     2
 78
   300
148
0.0
149
0.0
100
AcDbLayout
  1
ﾚｲｱｳﾄ1
 70
     1
 71
     1
 10
-6.350006103515625
 20
-6.349999904632568
 11
273.0499877929688
 21
209.5499939918518
 12
0.0
 22
0.0
 32
0.0
 14
26.66076962115563
 24
20.31135699206658
 34
-0.0015258207003583
 15
240.039213369355
 25
182.8886381005154
 35
0.0000000349246037
146
0.0
 13
0.0
 23
0.0
 33
0.0
 16
1.0
 26
0.0
 36
0.0
 17
0.0
 27
1.0
 37
0.0
 76
     0
330
50
331
6B
  0
LAYOUT
  5
56
102
{ACAD_REACTORS
330
1A
102
}
330
1A
100
AcDbPlotSettings
  1

  2
none_device
  4
Letter_(8.50_x_11.00_Inches)
  6

 40
6.349999904632568
 41
6.349999904632568
 42
6.350006103515625
 43
6.350006103515625
 44
215.8999938964844
 45
279.3999938964844
 46
0.0
 47
0.0
 48
0.0
 49
0.0
140
0.0
141
0.0
142
1.0
143
1.0
 70
   688
 72
     1
 73
     1
 74
     5
  7

 75
    16
147
1.0
 76
     0
 77
     2
 78
   300
148
0.0
149
0.0
100
AcDbLayout
  1
ﾚｲｱｳﾄ2
 70
     1
 71
     2
 10
-6.350006103515625
 20
-6.349999904632568
 11
273.0499877929688
 21
209.5499939918518
 12
0.0
 22
0.0
 32
0.0
 14
26.66076962115563
 24
20.31135699206658
 34
-0.0015258207003583
 15
240.039213369355
 25
182.8886381005154
 35
0.0000000349246037
146
0.0
 13
0.0
 23
0.0
 33
0.0
 16
1.0
 26
0.0
 36
0.0
 17
0.0
 27
1.0
 37
0.0
 76
     0
330
55
331
71
  0
MATERIAL
  5
436
102
{ACAD_XDICTIONARY
360
437
102
}
102
{ACAD_REACTORS
330
42D
102
}
330
42D
100
AcDbMaterial
  1
ByBlock
 72
     0
 43
0.0008202099737533
 43
0.0
 43
0.0
 43
0.0
 43
0.0
 43
0.0008202099737533
 43
0.0
 43
0.0
 43
0.0
 43
0.0
 43
1.0
 43
0.0
 43
0.0
 43
0.0
 43
0.0
 43
1.0
 77
     0
 47
0.0008202099737533
 47
0.0
 47
0.0
 47
0.0
 47
0.0
 47
0.0008202099737533
 47
0.0
 47
0.0
 47
0.0
 47
0.0
 47
1.0
 47
0.0
 47
0.0
 47
0.0
 47
0.0
 47
1.0
171
     0
 49
0.0008202099737533
 49
0.0
 49
0.0
 49
0.0
 49
0.0
 49
0.0008202099737533
 49
0.0
 49
0.0
 49
0.0
 49
0.0
 49
1.0
 49
0.0
 49
0.0
 49
0.0
 49
0.0
 49
1.0
175
     0
142
0.0008202099737533
142
0.0
142
0.0
142
0.0
142
0.0
142
0.0008202099737533
142
0.0
142
0.0
142
0.0
142
0.0
142
1.0
142
0.0
142
0.0
142
0.0
142
0.0
142
1.0
179
     0
144
0.0008202099737533
144
0.0
144
0.0
144
0.0
144
0.0
144
0.0008202099737533
144
0.0
144
0.0
144
0.0
144
0.0
144
1.0
144
0.0
144
0.0
144
0.0
144
0.0
144
1.0
147
0.0008202099737533
147
0.0
147
0.0
147
0.0
147
0.0
147
0.0008202099737533
147
0.0
147
0.0
147
0.0
147
0.0
147
1.0
147
0.0
147
0.0
147
0.0
147
0.0
147
1.0
  0
MATERIAL
  5
42E
102
{ACAD_XDICTIONARY
360
42F
102
}
102
{ACAD_REACTORS
330
42D
102
}
330
42D
100
AcDbMaterial
  1
ByLayer
 72
     0
 43
0.0008202099737533
 43
0.0
 43
0.0
 43
0.0
 43
0.0
 43
0.0008202099737533
 43
0.0
 43
0.0
 43
0.0
 43
0.0
 43
1.0
 43
0.0
 43
0.0
 43
0.0
 43
0.0
 43
1.0
 77
     0
 47
0.0008202099737533
 47
0.0
 47
0.0
 47
0.0
 47
0.0
 47
0.0008202099737533
 47
0.0
 47
0.0
 47
0.0
 47
0.0
 47
1.0
 47
0.0
 47
0.0
 47
0.0
 47
0.0
 47
1.0
171
     0
 49
0.0008202099737533
 49
0.0
 49
0.0
 49
0.0
 49
0.0
 49
0.0008202099737533
 49
0.0
 49
0.0
 49
0.0
 49
0.0
 49
1.0
 49
0.0
 49
0.0
 49
0.0
 49
0.0
 49
1.0
175
     0
142
0.0008202099737533
142
0.0
142
0.0
142
0.0
142
0.0
142
0.0008202099737533
142
0.0
142
0.0
142
0.0
142
0.0
142
1.0
142
0.0
142
0.0
142
0.0
142
0.0
142
1.0
179
     0
144
0.0008202099737533
144
0.0
144
0.0
144
0.0
144
0.0
144
0.0008202099737533
144
0.0
144
0.0
144
0.0
144
0.0
144
1.0
144
0.0
144
0.0
144
0.0
144
0.0
144
1.0
147
0.0008202099737533
147
0.0
147
0.0
147
0.0
147
0.0
147
0.0008202099737533
147
0.0
147
0.0
147
0.0
147
0.0
147
1.0
147
0.0
147
0.0
147
0.0
147
0.0
147
1.0
  0
MATERIAL
  5
43E
102
{ACAD_XDICTIONARY
360
43F
102
}
102
{ACAD_REACTORS
330
42D
102
}
330
42D
100
AcDbMaterial
  1
Global
 72
     0
 43
0.0008202099737533
 43
0.0
 43
0.0
 43
0.0
 43
0.0
 43
0.0008202099737533
 43
0.0
 43
0.0
 43
0.0
 43
0.0
 43
1.0
 43
0.0
 43
0.0
 43
0.0
 43
0.0
 43
1.0
 77
     0
 47
0.0008202099737533
 47
0.0
 47
0.0
 47
0.0
 47
0.0
 47
0.0008202099737533
 47
0.0
 47
0.0
 47
0.0
 47
0.0
 47
1.0
 47
0.0
 47
0.0
 47
0.0
 47
0.0
 47
1.0
171
     0
 49
0.0008202099737533
 49
0.0
 49
0.0
 49
0.0
 49
0.0
 49
0.0008202099737533
 49
0.0
 49
0.0
 49
0.0
 49
0.0
 49
1.0
 49
0.0
 49
0.0
 49
0.0
 49
0.0
 49
1.0
175
     0
142
0.0008202099737533
142
0.0
142
0.0
142
0.0
142
0.0
142
0.0008202099737533
142
0.0
142
0.0
142
0.0
142
0.0
142
1.0
142
0.0
142
0.0
142
0.0
142
0.0
142
1.0
179
     0
144
0.0008202099737533
144
0.0
144
0.0
144
0.0
144
0.0
144
0.0008202099737533
144
0.0
144
0.0
144
0.0
144
0.0
144
1.0
144
0.0
144
0.0
144
0.0
144
0.0
144
1.0
147
0.0008202099737533
147
0.0
147
0.0
147
0.0
147
0.0
147
0.0008202099737533
147
0.0
147
0.0
147
0.0
147
0.0
147
1.0
147
0.0
147
0.0
147
0.0
147
0.0
147
1.0
  0
MLEADERSTYLE
  5
470
102
{ACAD_REACTORS
330
46F
102
}
330
46F
100
AcDbMLeaderStyle
179
     2
170
     2
171
     1
172
     0
 90
        2
 40
0.0
 41
0.0
173
     1
 91
-1056964608
340
14
 92
       -2
290
     1
 42
2.0
291
     1
 43
0.36
  3
Standard
 44
4.0
300

342
11
174
     1
178
     6
175
     1
176
     0
 93
-1056964608
 45
4.0
292
     0
297
     0
 46
4.0
 94
-1056964608
 47
1.0
 49
1.0
140
1.0
293
     1
141
0.0
294
     1
177
     0
142
1.0
295
     1
296
     0
143
0.125
271
     0
272
     9
273
     9
  0
MLINESTYLE
  5
18
102
{ACAD_REACTORS
330
17
102
}
330
17
100
AcDbMlineStyle
  2
STANDARD
 70
     0
  3

 62
   256
 51
90.0
 52
90.0
 71
     2
 49
0.5
 62
   256
  6
BYLAYER
 49
-0.5
 62
   256
  6
BYLAYER
  0
ACDBPLACEHOLDER
  5
F
102
{ACAD_REACTORS
330
E
102
}
330
E
  0
SCALE
  5
45E
102
{ACAD_REACTORS
330
45D
102
}
330
45D
100
AcDbScale
 70
     0
300
1:1
140
1.0
141
1.0
290
     1
  0
SCALE
  5
45F
102
{ACAD_REACTORS
330
45D
102
}
330
45D
100
AcDbScale
 70
     0
300
1:2
140
1.0
141
2.0
290
     0
  0
SCALE
  5
460
102
{ACAD_REACTORS
330
45D
102
}
330
45D
100
AcDbScale
 70
     0
300
1:4
140
1.0
141
4.0
290
     0
  0
SCALE
  5
461
102
{ACAD_REACTORS
330
45D
102
}
330
45D
100
AcDbScale
 70
     0
300
1:5
140
1.0
141
5.0
290
     0
  0
SCALE
  5
462
102
{ACAD_REACTORS
330
45D
102
}
330
45D
100
AcDbScale
 70
     0
300
1:8
140
1.0
141
8.0
290
     0
  0
SCALE
  5
463
102
{ACAD_REACTORS
330
45D
102
}
330
45D
100
AcDbScale
 70
     0
300
1:10
140
1.0
141
10.0
290
     0
  0
SCALE
  5
464
102
{ACAD_REACTORS
330
45D
102
}
330
45D
100
AcDbScale
 70
     0
300
1:16
140
1.0
141
16.0
290
     0
  0
SCALE
  5
465
102
{ACAD_REACTORS
330
45D
102
}
330
45D
100
AcDbScale
 70
     0
300
1:20
140
1.0
141
20.0
290
     0
  0
SCALE
  5
466
102
{ACAD_REACTORS
330
45D
102
}
330
45D
100
AcDbScale
 70
     0
300
1:30
140
1.0
141
30.0
290
     0
  0
SCALE
  5
467
102
{ACAD_REACTORS
330
45D
102
}
330
45D
100
AcDbScale
 70
     0
300
1:40
140
1.0
141
40.0
290
     0
  0
SCALE
  5
468
102
{ACAD_REACTORS
330
45D
102
}
330
45D
100
AcDbScale
 70
     0
300
1:50
140
1.0
141
50.0
290
     0
  0
SCALE
  5
469
102
{ACAD_REACTORS
330
45D
102
}
330
45D
100
AcDbScale
 70
     0
300
1:100
140
1.0
141
100.0
290
     0
  0
SCALE
  5
46A
102
{ACAD_REACTORS
330
45D
102
}
330
45D
100
AcDbScale
 70
     0
300
2:1
140
2.0
141
1.0
290
     0
  0
SCALE
  5
46B
102
{ACAD_REACTORS
330
45D
102
}
330
45D
100
AcDbScale
 70
     0
300
4:1
140
4.0
141
1.0
290
     0
  0
SCALE
  5
46C
102
{ACAD_REACTORS
330
45D
102
}
330
45D
100
AcDbScale
 70
     0
300
8:1
140
8.0
141
1.0
290
     0
  0
SCALE
  5
46D
102
{ACAD_REACTORS
330
45D
102
}
330
45D
100
AcDbScale
 70
     0
300
10:1
140
10.0
141
1.0
290
     0
  0
SCALE
  5
46E
102
{ACAD_REACTORS
330
45D
102
}
330
45D
100
AcDbScale
 70
     0
300
100:1
140
100.0
141
1.0
290
     0
  0
TABLESTYLE
  5
45C
102
{ACAD_XDICTIONARY
360
47C
102
}
102
{ACAD_REACTORS
330
45B
102
}
330
45B
100
AcDbTableStyle
280
     0
  3
Standard
 70
     0
 71
     0
 40
1.5
 41
1.5
280
     0
281
     0
  7
Standard
140
4.5
170
     2
 62
     0
 63
     7
283
     0
 90
      512
 91
        0
  1

274
    -2
284
     1
 64
     0
275
    -2
285
     1
 65
     0
276
    -2
286
     1
 66
     0
277
    -2
287
     1
 67
     0
278
    -2
288
     1
 68
     0
279
    -2
289
     1
 69
     0
  7
Standard
140
6.0
170
     5
 62
     0
 63
     7
283
     0
 90
      512
 91
        0
  1

274
    -2
284
     1
 64
     0
275
    -2
285
     1
 65
     0
276
    -2
286
     1
 66
     0
277
    -2
287
     1
 67
     0
278
    -2
288
     1
 68
     0
279
    -2
289
     1
 69
     0
  7
Standard
140
4.5
170
     5
 62
     0
 63
     7
283
     0
 90
      512
 91
        0
  1

274
    -2
284
     1
 64
     0
275
    -2
285
     1
 65
     0
276
    -2
286
     1
 66
     0
277
    -2
287
     1
 67
     0
278
    -2
288
     1
 68
     0
279
    -2
289
     1
 69
     0
  0
VISUALSTYLE
  5
44C
102
{ACAD_REACTORS
330
446
102
}
330
446
100
AcDbVisualStyle
  2
2dWireframe
 70
     4
177
     2
291
     0
 71
     0
176
     1
 72
     2
176
     1
 73
     0
176
     1
 90
        0
176
     1
 40
0.6
176
     1
 41
30.0
176
     1
 63
     7
421
 16777215
176
     1
 74
     1
176
     1
 91
        4
176
     1
 64
     7
176
     1
 65
   257
176
     1
 75
     1
176
     1
175
     1
176
     1
 42
1.0
176
     1
 92
        0
176
     1
 66
   257
176
     1
 43
1.0
176
     1
 76
     1
176
     1
 77
     6
176
     1
 78
     2
176
     1
 67
     7
176
     1
 79
     5
176
     1
170
     0
176
     1
171
     0
176
     1
290
     0
176
     1
 93
        1
176
     1
 44
0.0
176
     1
173
     0
176
     1
  0
VISUALSTYLE
  5
44E
102
{ACAD_REACTORS
330
446
102
}
330
446
100
AcDbVisualStyle
  2
3D Hidden
 70
     6
177
     2
291
     0
 71
     1
176
     1
 72
     2
176
     1
 73
     2
176
     1
 90
        0
176
     1
 40
0.6
176
     1
 41
30.0
176
     1
 63
     7
421
 16777215
176
     1
 74
     2
176
     1
 91
        2
176
     1
 64
     7
176
     1
 65
   257
176
     1
 75
     2
176
     1
175
     1
176
     1
 42
179.0
176
     1
 92
        0
176
     1
 66
   257
176
     1
 43
1.0
176
     1
 76
     1
176
     1
 77
     6
176
     1
 78
     2
176
     1
 67
     7
176
     1
 79
     3
176
     1
170
     0
176
     1
171
     0
176
     1
290
     0
176
     1
 93
        1
176
     1
 44
0.0
176
     1
173
     0
176
     1
  0
VISUALSTYLE
  5
44D
102
{ACAD_REACTORS
330
446
102
}
330
446
100
AcDbVisualStyle
  2
3dWireframe
 70
     5
177
     2
291
     0
 71
     0
176
     1
 72
     2
176
     1
 73
     0
176
     1
 90
        0
176
     1
 40
0.6
176
     1
 41
30.0
176
     1
 63
     7
421
 16777215
176
     1
 74
     1
176
     1
 91
        4
176
     1
 64
     7
176
     1
 65
   257
176
     1
 75
     1
176
     1
175
     1
176
     1
 42
1.0
176
     1
 92
        0
176
     1
 66
   257
176
     1
 43
1.0
176
     1
 76
     1
176
     1
 77
     6
176
     1
 78
     2
176
     1
 67
     7
176
     1
 79
     5
176
     1
170
     0
176
     1
171
     0
176
     1
290
     0
176
     1
 93
        1
176
     1
 44
0.0
176
     1
173
     0
176
     1
  0
VISUALSTYLE
  5
44B
102
{ACAD_REACTORS
330
446
102
}
330
446
100
AcDbVisualStyle
  2
Basic
 70
     7
177
     2
291
     1
 71
     1
176
     1
 72
     0
176
     1
 73
     1
176
     1
 90
        0
176
     1
 40
0.6
176
     1
 41
30.0
176
     1
 63
     7
421
 16777215
176
     1
 74
     0
176
     1
 91
        4
176
     1
 64
     7
176
     1
 65
   257
176
     1
 75
     1
176
     1
175
     1
176
     1
 42
1.0
176
     1
 92
        8
176
     1
 66
     7
176
     1
 43
1.0
176
     1
 76
     1
176
     1
 77
     6
176
     1
 78
     2
176
     1
 67
     7
176
     1
 79
     5
176
     1
170
     0
176
     1
171
     0
176
     1
290
     0
176
     1
 93
        1
176
     1
 44
0.0
176
     1
173
     0
176
     1
  0
VISUALSTYLE
  5
452
102
{ACAD_REACTORS
330
446
102
}
330
446
100
AcDbVisualStyle
  2
Brighten
 70
    12
177
     2
291
     1
 71
     2
176
     1
 72
     2
176
     1
 73
     0
176
     1
 90
        0
176
     1
 40
0.6
176
     1
 41
30.0
176
     1
 63
     7
421
 16777215
176
     1
 74
     1
176
     1
 91
        4
176
     1
 64
     7
176
     1
 65
   257
176
     1
 75
     1
176
     1
175
     1
176
     1
 42
1.0
176
     1
 92
        8
176
     1
 66
     7
176
     1
 43
1.0
176
     1
 76
     1
176
     1
 77
     6
176
     1
 78
     2
176
     1
 67
     7
176
     1
 79
     5
176
     1
170
     0
176
     1
171
     0
176
     1
290
     0
176
     1
 93
        1
176
     1
 44
50.0
176
     1
173
     0
176
     1
  0
VISUALSTYLE
  5
456
102
{ACAD_REACTORS
330
446
102
}
330
446
100
AcDbVisualStyle
  2
ColorChange
 70
    16
177
     2
291
     1
 71
     2
176
     1
 72
     2
176
     1
 73
     3
176
     1
 90
        0
176
     1
 40
0.6
176
     1
 41
30.0
176
     1
 63
     8
421
  8421504
176
     1
 74
     1
176
     1
 91
        4
176
     1
 64
     7
176
     1
 65
   257
176
     1
 75
     1
176
     1
175
     1
176
     1
 42
1.0
176
     1
 92
        8
176
     1
 66
     8
424
  8421504
176
     1
 43
1.0
176
     1
 76
     1
176
     1
 77
     6
176
     1
 78
     2
176
     1
 67
     7
176
     1
 79
     5
176
     1
170
     0
176
     1
171
     0
176
     1
290
     0
176
     1
 93
        1
176
     1
 44
0.0
176
     1
173
     0
176
     1
  0
VISUALSTYLE
  5
44F
102
{ACAD_REACTORS
330
446
102
}
330
446
100
AcDbVisualStyle
  2
Conceptual
 70
     9
177
     2
291
     0
 71
     3
176
     1
 72
     2
176
     1
 73
     0
176
     1
 90
        0
176
     1
 40
0.6
176
     1
 41
30.0
176
     1
 63
     7
421
 16777215
176
     1
 74
     2
176
     1
 91
        2
176
     1
 64
     7
176
     1
 65
   257
176
     1
 75
     1
176
     1
175
     1
176
     1
 42
179.0
176
     1
 92
        8
176
     1
 66
     7
176
     1
 43
1.0
176
     1
 76
     1
176
     1
 77
     6
176
     1
 78
     2
176
     1
 67
     7
176
     1
 79
     3
176
     1
170
     0
176
     1
171
     0
176
     1
290
     0
176
     1
 93
        1
176
     1
 44
0.0
176
     1
173
     0
176
     1
  0
VISUALSTYLE
  5
451
102
{ACAD_REACTORS
330
446
102
}
330
446
100
AcDbVisualStyle
  2
Dim
 70
    11
177
     2
291
     1
 71
     2
176
     1
 72
     2
176
     1
 73
     0
176
     1
 90
        0
176
     1
 40
0.6
176
     1
 41
30.0
176
     1
 63
     7
421
 16777215
176
     1
 74
     1
176
     1
 91
        4
176
     1
 64
     7
176
     1
 65
   257
176
     1
 75
     1
176
     1
175
     1
176
     1
 42
1.0
176
     1
 92
        8
176
     1
 66
     7
176
     1
 43
1.0
176
     1
 76
     1
176
     1
 77
     6
176
     1
 78
     2
176
     1
 67
     7
176
     1
 79
     5
176
     1
170
     0
176
     1
171
     0
176
     1
290
     0
176
     1
 93
        1
176
     1
 44
-50.0
176
     1
173
     0
176
     1
  0
VISUALSTYLE
  5
459
102
{ACAD_REACTORS
330
446
102
}
330
446
100
AcDbVisualStyle
  2
EdgeColorOff
 70
    22
177
     2
291
     1
 71
     2
176
     0
 72
     2
176
     0
 73
     0
176
     0
 90
        0
176
     0
 40
0.6
176
     0
 41
30.0
176
     0
 63
     7
421
 16777215
176
     0
 74
     1
176
     0
 91
        4
176
     0
 64
     7
176
     0
 65
   257
176
     0
 75
     1
176
     0
175
     1
176
     0
 42
1.0
176
     0
 92
        8
176
     2
 66
     7
176
     0
 43
1.0
176
     0
 76
     1
176
     0
 77
     6
176
     0
 78
     2
176
     0
 67
     7
176
     0
 79
     5
176
     0
170
     0
176
     0
171
     0
176
     0
290
     0
176
     0
 93
        1
176
     0
 44
0.0
176
     0
173
     0
176
     0
  0
VISUALSTYLE
  5
455
102
{ACAD_REACTORS
330
446
102
}
330
446
100
AcDbVisualStyle
  2
Facepattern
 70
    15
177
     2
291
     1
 71
     2
176
     1
 72
     2
176
     1
 73
     0
176
     1
 90
        0
176
     1
 40
0.6
176
     1
 41
30.0
176
     1
 63
     7
421
 16777215
176
     1
 74
     1
176
     1
 91
        4
176
     1
 64
     7
176
     1
 65
   257
176
     1
 75
     1
176
     1
175
     1
176
     1
 42
1.0
176
     1
 92
        8
176
     1
 66
     7
176
     1
 43
1.0
176
     1
 76
     1
176
     1
 77
     6
176
     1
 78
     2
176
     1
 67
     7
176
     1
 79
     5
176
     1
170
     0
176
     1
171
     0
176
     1
290
     0
176
     1
 93
        1
176
     1
 44
0.0
176
     1
173
     0
176
     1
  0
VISUALSTYLE
  5
447
102
{ACAD_REACTORS
330
446
102
}
330
446
100
AcDbVisualStyle
  2
Flat
 70
     0
177
     2
291
     1
 71
     2
176
     1
 72
     1
176
     1
 73
     1
176
     1
 90
        2
176
     1
 40
0.6
176
     1
 41
30.0
176
     1
 63
     7
421
 16777215
176
     1
 74
     0
176
     1
 91
        4
176
     1
 64
     7
176
     1
 65
   257
176
     1
 75
     1
176
     1
175
     1
176
     1
 42
1.0
176
     1
 92
        8
176
     1
 66
     7
176
     1
 43
1.0
176
     1
 76
     1
176
     1
 77
     6
176
     1
 78
     2
176
     1
 67
     7
176
     1
 79
     5
176
     1
170
     0
176
     1
171
     0
176
     1
290
     0
176
     1
 93
       13
176
     1
 44
0.0
176
     1
173
     0
176
     1
  0
VISUALSTYLE
  5
448
102
{ACAD_REACTORS
330
446
102
}
330
446
100
AcDbVisualStyle
  2
FlatWithEdges
 70
     1
177
     2
291
     1
 71
     2
176
     1
 72
     1
176
     1
 73
     1
176
     1
 90
        2
176
     1
 40
0.6
176
     1
 41
30.0
176
     1
 63
     7
421
 16777215
176
     1
 74
     1
176
     1
 91
        4
176
     1
 64
     7
176
     1
 65
   257
176
     1
 75
     1
176
     1
175
     1
176
     1
 42
1.0
176
     1
 92
        0
176
     1
 66
   257
176
     1
 43
1.0
176
     1
 76
     1
176
     1
 77
     6
176
     1
 78
     2
176
     1
 67
     7
176
     1
 79
     5
176
     1
170
     0
176
     1
171
     0
176
     1
290
     0
176
     1
 93
       13
176
     1
 44
0.0
176
     1
173
     0
176
     1
  0
VISUALSTYLE
  5
449
102
{ACAD_REACTORS
330
446
102
}
330
446
100
AcDbVisualStyle
  2
Gouraud
 70
     2
177
     2
291
     1
 71
     2
176
     1
 72
     2
176
     1
 73
     1
176
     1
 90
        2
176
     1
 40
0.6
176
     1
 41
30.0
176
     1
 63
     7
421
 16777215
176
     1
 74
     0
176
     1
 91
        4
176
     1
 64
     7
176
     1
 65
   257
176
     1
 75
     1
176
     1
175
     1
176
     1
 42
1.0
176
     1
 92
        0
176
     1
 66
     7
176
     1
 43
1.0
176
     1
 76
     1
176
     1
 77
     6
176
     1
 78
     2
176
     1
 67
     7
176
     1
 79
     5
176
     1
170
     0
176
     1
171
     0
176
     1
290
     0
176
     1
 93
       13
176
     1
 44
0.0
176
     1
173
     0
176
     1
  0
VISUALSTYLE
  5
44A
102
{ACAD_REACTORS
330
446
102
}
330
446
100
AcDbVisualStyle
  2
GouraudWithEdges
 70
     3
177
     2
291
     1
 71
     2
176
     1
 72
     2
176
     1
 73
     1
176
     1
 90
        2
176
     1
 40
0.6
176
     1
 41
30.0
176
     1
 63
     7
421
 16777215
176
     1
 74
     1
176
     1
 91
        4
176
     1
 64
     7
176
     1
 65
   257
176
     1
 75
     1
176
     1
175
     1
176
     1
 42
1.0
176
     1
 92
        0
176
     1
 66
   257
176
     1
 43
1.0
176
     1
 76
     1
176
     1
 77
     6
176
     1
 78
     2
176
     1
 67
     7
176
     1
 79
     5
176
     1
170
     0
176
     1
171
     0
176
     1
290
     0
176
     1
 93
       13
176
     1
 44
0.0
176
     1
173
     0
176
     1
  0
VISUALSTYLE
  5
457
102
{ACAD_REACTORS
330
446
102
}
330
446
100
AcDbVisualStyle
  2
JitterOff
 70
    20
177
     2
291
     1
 71
     2
176
     0
 72
     2
176
     0
 73
     0
176
     0
 90
        0
176
     0
 40
0.6
176
     0
 41
30.0
176
     0
 63
     7
421
 16777215
176
     0
 74
     1
176
     0
 91
        4
176
     0
 64
     7
176
     0
 65
   257
176
     0
 75
     1
176
     0
175
     1
176
     0
 42
1.0
176
     0
 92
       10
176
     2
 66
     7
176
     0
 43
1.0
176
     0
 76
     1
176
     0
 77
     6
176
     0
 78
     2
176
     0
 67
     7
176
     0
 79
     5
176
     0
170
     0
176
     0
171
     0
176
     0
290
     0
176
     0
 93
        1
176
     0
 44
0.0
176
     0
173
     0
176
     0
  0
VISUALSTYLE
  5
454
102
{ACAD_REACTORS
330
446
102
}
330
446
100
AcDbVisualStyle
  2
Linepattern
 70
    14
177
     2
291
     1
 71
     2
176
     1
 72
     2
176
     1
 73
     0
176
     1
 90
        0
176
     1
 40
0.6
176
     1
 41
30.0
176
     1
 63
     7
421
 16777215
176
     1
 74
     1
176
     1
 91
        4
176
     1
 64
     7
176
     1
 65
   257
176
     1
 75
     7
176
     1
175
     7
176
     1
 42
1.0
176
     1
 92
        8
176
     1
 66
     7
176
     1
 43
1.0
176
     1
 76
     1
176
     1
 77
     6
176
     1
 78
     2
176
     1
 67
     7
176
     1
 79
     5
176
     1
170
     0
176
     1
171
     0
176
     1
290
     0
176
     1
 93
        1
176
     1
 44
0.0
176
     1
173
     0
176
     1
  0
VISUALSTYLE
  5
458
102
{ACAD_REACTORS
330
446
102
}
330
446
100
AcDbVisualStyle
  2
OverhangOff
 70
    21
177
     2
291
     1
 71
     2
176
     0
 72
     2
176
     0
 73
     0
176
     0
 90
        0
176
     0
 40
0.6
176
     0
 41
30.0
176
     0
 63
     7
421
 16777215
176
     0
 74
     1
176
     0
 91
        4
176
     0
 64
     7
176
     0
 65
   257
176
     0
 75
     1
176
     0
175
     1
176
     0
 42
1.0
176
     0
 92
        9
176
     2
 66
     7
176
     0
 43
1.0
176
     0
 76
     1
176
     0
 77
     6
176
     0
 78
     2
176
     0
 67
     7
176
     0
 79
     5
176
     0
170
     0
176
     0
171
     0
176
     0
290
     0
176
     0
 93
        1
176
     0
 44
0.0
176
     0
173
     0
176
     0
  0
VISUALSTYLE
  5
450
102
{ACAD_REACTORS
330
446
102
}
330
446
100
AcDbVisualStyle
  2
Realistic
 70
     8
177
     2
291
     0
 71
     2
176
     1
 72
     2
176
     1
 73
     0
176
     1
 90
        0
176
     1
 40
0.6
176
     1
 41
30.0
176
     1
 63
     7
421
 16777215
176
     1
 74
     1
176
     1
 91
        0
176
     1
 64
     7
176
     1
 65
   257
176
     1
 75
     1
176
     1
175
     1
176
     1
 42
1.0
176
     1
 92
        8
176
     1
 66
     8
424
  7895160
176
     1
 43
1.0
176
     1
 76
     1
176
     1
 77
     6
176
     1
 78
     2
176
     1
 67
     7
176
     1
 79
     5
176
     1
170
     0
176
     1
171
     0
176
     1
290
     0
176
     1
 93
       13
176
     1
 44
0.0
176
     1
173
     0
176
     1
  0
VISUALSTYLE
  5
453
102
{ACAD_REACTORS
330
446
102
}
330
446
100
AcDbVisualStyle
  2
Thicken
 70
    13
177
     2
291
     1
 71
     2
176
     1
 72
     2
176
     1
 73
     0
176
     1
 90
        0
176
     1
 40
0.6
176
     1
 41
30.0
176
     1
 63
     7
421
 16777215
176
     1
 74
     1
176
     1
 91
        4
176
     1
 64
     7
176
     1
 65
   257
176
     1
 75
     1
176
     1
175
     1
176
     1
 42
1.0
176
     1
 92
       12
176
     1
 66
     7
176
     1
 43
1.0
176
     1
 76
     1
176
     1
 77
     6
176
     1
 78
     2
176
     1
 67
     7
176
     1
 79
     5
176
     1
170
     0
176
     1
171
     0
176
     1
290
     0
176
     1
 93
        1
176
     1
 44
0.0
176
     1
173
     0
176
     1
  0
DICTIONARYVAR
  5
478
102
{ACAD_REACTORS
330
5E
102
}
330
5E
100
DictionaryVariables
280
     0
  1
1:1
  0
DICTIONARYVAR
  5
476
102
{ACAD_REACTORS
330
5E
102
}
330
5E
100
DictionaryVariables
280
     0
  1
STANDARD
  0
DICTIONARYVAR
  5
475
102
{ACAD_REACTORS
330
5E
102
}
330
5E
100
DictionaryVariables
280
     0
  1
STANDARD
  0
DICTIONARYVAR
  5
5F
102
{ACAD_REACTORS
330
5E
102
}
330
5E
100
DictionaryVariables
280
     0
  1
2
  0
DICTIONARYVAR
  5
63
102
{ACAD_REACTORS
330
5E
102
}
330
5E
100
DictionaryVariables
280
     0
  1
1
  0
DICTIONARYVAR
  5
47A
102
{ACAD_REACTORS
330
5E
102
}
330
5E
100
DictionaryVariables
280
     0
  1
1
  0
DICTIONARYVAR
  5
47B
102
{ACAD_REACTORS
330
5E
102
}
330
5E
100
DictionaryVariables
280
     0
  1
15
  0
DICTIONARYVAR
  5
479
102
{ACAD_REACTORS
330
5E
102
}
330
5E
100
DictionaryVariables
280
     0
  1
0
  0
DICTIONARYVAR
  5
477
102
{ACAD_REACTORS
330
5E
102
}
330
5E
100
DictionaryVariables
280
     0
  1
0
  0
DICTIONARY
  5
437
330
436
100
AcDbDictionary
280
     1
281
     1
  3
BUMPTILE
360
439
  3
DIFFUSETILE
360
438
  3
OPACITYTILE
360
43C
  3
REFLECTIONTILE
360
43B
  3
REFRACTIONTILE
360
43D
  3
SPECULARTILE
360
43A
  0
DICTIONARY
  5
42F
330
42E
100
AcDbDictionary
280
     1
281
     1
  3
BUMPTILE
360
431
  3
DIFFUSETILE
360
430
  3
OPACITYTILE
360
434
  3
REFLECTIONTILE
360
433
  3
REFRACTIONTILE
360
435
  3
SPECULARTILE
360
432
  0
DICTIONARY
  5
43F
330
43E
100
AcDbDictionary
280
     1
281
     1
  3
BUMPTILE
360
441
  3
DIFFUSETILE
360
440
  3
OPACITYTILE
360
444
  3
REFLECTIONTILE
360
443
  3
REFRACTIONTILE
360
445
  3
SPECULARTILE
360
442
  0
DICTIONARY
  5
47C
330
45C
100
AcDbDictionary
280
     1
281
     1
  3
ACAD_ROUNDTRIP_2008_TABLESTYLE_CELLSTYLEMAP
360
47D
  0
XRECORD
  5
439
102
{ACAD_REACTORS
330
437
102
}
330
437
100
AcDbXrecord
280
     1
270
     1
271
     1
  0
XRECORD
  5
438
102
{ACAD_REACTORS
330
437
102
}
330
437
100
AcDbXrecord
280
     1
270
     1
271
     1
  0
XRECORD
  5
43C
102
{ACAD_REACTORS
330
437
102
}
330
437
100
AcDbXrecord
280
     1
270
     1
271
     1
  0
XRECORD
  5
43B
102
{ACAD_REACTORS
330
437
102
}
330
437
100
AcDbXrecord
280
     1
270
     1
271
     1
  0
XRECORD
  5
43D
102
{ACAD_REACTORS
330
437
102
}
330
437
100
AcDbXrecord
280
     1
270
     1
271
     1
  0
XRECORD
  5
43A
102
{ACAD_REACTORS
330
437
102
}
330
437
100
AcDbXrecord
280
     1
270
     1
271
     1
  0
XRECORD
  5
431
102
{ACAD_REACTORS
330
42F
102
}
330
42F
100
AcDbXrecord
280
     1
270
     1
271
     1
  0
XRECORD
  5
430
102
{ACAD_REACTORS
330
42F
102
}
330
42F
100
AcDbXrecord
280
     1
270
     1
271
     1
  0
XRECORD
  5
434
102
{ACAD_REACTORS
330
42F
102
}
330
42F
100
AcDbXrecord
280
     1
270
     1
271
     1
  0
XRECORD
  5
433
102
{ACAD_REACTORS
330
42F
102
}
330
42F
100
AcDbXrecord
280
     1
270
     1
271
     1
  0
XRECORD
  5
435
102
{ACAD_REACTORS
330
42F
102
}
330
42F
100
AcDbXrecord
280
     1
270
     1
271
     1
  0
XRECORD
  5
432
102
{ACAD_REACTORS
330
42F
102
}
330
42F
100
AcDbXrecord
280
     1
270
     1
271
     1
  0
XRECORD
  5
441
102
{ACAD_REACTORS
330
43F
102
}
330
43F
100
AcDbXrecord
280
     1
270
     1
271
     1
  0
XRECORD
  5
440
102
{ACAD_REACTORS
330
43F
102
}
330
43F
100
AcDbXrecord
280
     1
270
     1
271
     1
  0
XRECORD
  5
444
102
{ACAD_REACTORS
330
43F
102
}
330
43F
100
AcDbXrecord
280
     1
270
     1
271
     1
  0
XRECORD
  5
443
102
{ACAD_REACTORS
330
43F
102
}
330
43F
100
AcDbXrecord
280
     1
270
     1
271
     1
  0
XRECORD
  5
445
102
{ACAD_REACTORS
330
43F
102
}
330
43F
100
AcDbXrecord
280
     1
270
     1
271
     1
  0
XRECORD
  5
442
102
{ACAD_REACTORS
330
43F
102
}
330
43F
100
AcDbXrecord
280
     1
270
     1
271
     1
  0
CELLSTYLEMAP
  5
47D
102
{ACAD_REACTORS
330
47C
102
}
330
47C
100
AcDbCellStyleMap
 90
        3
300
CELLSTYLE
  1
TABLEFORMAT_BEGIN
 90
        5
170
     1
 91
        0
 92
    32768
 62
   257
 93
        1
300
CONTENTFORMAT
  1
CONTENTFORMAT_BEGIN
 90
        0
 91
        0
 92
      512
 93
        0
300

 40
0.0
140
1.0
 94
        5
 62
     0
340
11
144
6.0
309
CONTENTFORMAT_END
171
     1
301
MARGIN
  1
CELLMARGIN_BEGIN
 40
1.5
 40
1.5
 40
1.5
 40
1.5
 40
4.5
 40
4.5
309
CELLMARGIN_END
 94
        6
 95
        1
302
GRIDFORMAT
  1
GRIDFORMAT_BEGIN
 90
        0
 91
        1
 62
     0
 92
       -2
340
0
 93
        0
 40
1.125
309
GRIDFORMAT_END
 95
        2
302
GRIDFORMAT
  1
GRIDFORMAT_BEGIN
 90
        0
 91
        1
 62
     0
 92
       -2
340
0
 93
        0
 40
1.125
309
GRIDFORMAT_END
 95
        4
302
GRIDFORMAT
  1
GRIDFORMAT_BEGIN
 90
        0
 91
        1
 62
     0
 92
       -2
340
0
 93
        0
 40
1.125
309
GRIDFORMAT_END
 95
        8
302
GRIDFORMAT
  1
GRIDFORMAT_BEGIN
 90
        0
 91
        1
 62
     0
 92
       -2
340
0
 93
        0
 40
1.125
309
GRIDFORMAT_END
 95
       16
302
GRIDFORMAT
  1
GRIDFORMAT_BEGIN
 90
        0
 91
        1
 62
     0
 92
       -2
340
0
 93
        0
 40
1.125
309
GRIDFORMAT_END
 95
       32
302
GRIDFORMAT
  1
GRIDFORMAT_BEGIN
 90
        0
 91
        1
 62
     0
 92
       -2
340
0
 93
        0
 40
1.125
309
GRIDFORMAT_END
309
TABLEFORMAT_END
  1
CELLSTYLE_BEGIN
 90
        1
 91
        1
300
_TITLE
309
CELLSTYLE_END
300
CELLSTYLE
  1
TABLEFORMAT_BEGIN
 90
        5
170
     1
 91
        0
 92
        0
 62
   257
 93
        1
300
CONTENTFORMAT
  1
CONTENTFORMAT_BEGIN
 90
        0
 91
        0
 92
      512
 93
        0
300

 40
0.0
140
1.0
 94
        5
 62
     0
340
11
144
4.5
309
CONTENTFORMAT_END
171
     1
301
MARGIN
  1
CELLMARGIN_BEGIN
 40
1.5
 40
1.5
 40
1.5
 40
1.5
 40
4.5
 40
4.5
309
CELLMARGIN_END
 94
        6
 95
        1
302
GRIDFORMAT
  1
GRIDFORMAT_BEGIN
 90
        0
 91
        1
 62
     0
 92
       -2
340
0
 93
        0
 40
1.125
309
GRIDFORMAT_END
 95
        2
302
GRIDFORMAT
  1
GRIDFORMAT_BEGIN
 90
        0
 91
        1
 62
     0
 92
       -2
340
0
 93
        0
 40
1.125
309
GRIDFORMAT_END
 95
        4
302
GRIDFORMAT
  1
GRIDFORMAT_BEGIN
 90
        0
 91
        1
 62
     0
 92
       -2
340
0
 93
        0
 40
1.125
309
GRIDFORMAT_END
 95
        8
302
GRIDFORMAT
  1
GRIDFORMAT_BEGIN
 90
        0
 91
        1
 62
     0
 92
       -2
340
0
 93
        0
 40
1.125
309
GRIDFORMAT_END
 95
       16
302
GRIDFORMAT
  1
GRIDFORMAT_BEGIN
 90
        0
 91
        1
 62
     0
 92
       -2
340
0
 93
        0
 40
1.125
309
GRIDFORMAT_END
 95
       32
302
GRIDFORMAT
  1
GRIDFORMAT_BEGIN
 90
        0
 91
        1
 62
     0
 92
       -2
340
0
 93
        0
 40
1.125
309
GRIDFORMAT_END
309
TABLEFORMAT_END
  1
CELLSTYLE_BEGIN
 90
        2
 91
        1
300
_HEADER
309
CELLSTYLE_END
300
CELLSTYLE
  1
TABLEFORMAT_BEGIN
 90
        5
170
     1
 91
        0
 92
        0
 62
   257
 93
        1
300
CONTENTFORMAT
  1
CONTENTFORMAT_BEGIN
 90
        0
 91
        0
 92
      512
 93
        0
300

 40
0.0
140
1.0
 94
        2
 62
     0
340
11
144
4.5
309
CONTENTFORMAT_END
171
     1
301
MARGIN
  1
CELLMARGIN_BEGIN
 40
1.5
 40
1.5
 40
1.5
 40
1.5
 40
4.5
 40
4.5
309
CELLMARGIN_END
 94
        6
 95
        1
302
GRIDFORMAT
  1
GRIDFORMAT_BEGIN
 90
        0
 91
        1
 62
     0
 92
       -2
340
0
 93
        0
 40
1.125
309
GRIDFORMAT_END
 95
        2
302
GRIDFORMAT
  1
GRIDFORMAT_BEGIN
 90
        0
 91
        1
 62
     0
 92
       -2
340
0
 93
        0
 40
1.125
309
GRIDFORMAT_END
 95
        4
302
GRIDFORMAT
  1
GRIDFORMAT_BEGIN
 90
        0
 91
        1
 62
     0
 92
       -2
340
0
 93
        0
 40
1.125
309
GRIDFORMAT_END
 95
        8
302
GRIDFORMAT
  1
GRIDFORMAT_BEGIN
 90
        0
 91
        1
 62
     0
 92
       -2
340
0
 93
        0
 40
1.125
309
GRIDFORMAT_END
 95
       16
302
GRIDFORMAT
  1
GRIDFORMAT_BEGIN
 90
        0
 91
        1
 62
     0
 92
       -2
340
0
 93
        0
 40
1.125
309
GRIDFORMAT_END
 95
       32
302
GRIDFORMAT
  1
GRIDFORMAT_BEGIN
 90
        0
 91
        1
 62
     0
 92
       -2
340
0
 93
        0
 40
1.125
309
GRIDFORMAT_END
309
TABLEFORMAT_END
  1
CELLSTYLE_BEGIN
 90
        3
 91
        2
300
_DATA
309
CELLSTYLE_END
  0
ENDSEC
  0
EOF
