  0
SECTION
  2
HEADER
  9
$ACADVER
  1
AC1024
  9
$ACADMAINTVER
 70
     6
  9
$DWGCODEPAGE
  3
ANSI_932
  9
$LASTSAVEDBY
  1
kanatani
  9
$INSBASE
 10
0.0
 20
0.0
 30
0.0
  9
$EXTMIN
 10
-86.24999999999998
 20
-48.0031353218207
 30
0.0
  9
$EXTMAX
 10
253.0000259570758
 20
273.1860870879501
 30
0.0
  9
$LIMMIN
 10
0.0
 20
0.0
  9
$LIMMAX
 10
420.0
 20
297.0
  9
$ORTHOMODE
 70
     0
  9
$REGENMODE
 70
     1
  9
$FILLMODE
 70
     1
  9
$QTEXTMODE
 70
     0
  9
$MIRRTEXT
 70
     1
  9
$LTSCALE
 40
0.2
  9
$ATTMODE
 70
     1
  9
$TEXTSIZE
 40
2.5
  9
$TRACEWID
 40
1.0
  9
$TEXTSTYLE
  7
Standard
  9
$CLAYER
  8
0
  9
$CELTYPE
  6
ByLayer
  9
$CECOLOR
 62
   256
  9
$CELTSCALE
 40
1.0
  9
$DISPSILH
 70
     0
  9
$DIMSCALE
 40
1.0
  9
$DIMASZ
 40
2.5
  9
$DIMEXO
 40
0.625
  9
$DIMDLI
 40
3.75
  9
$DIMRND
 40
0.0
  9
$DIMDLE
 40
0.0
  9
$DIMEXE
 40
1.25
  9
$DIMTP
 40
0.0
  9
$DIMTM
 40
0.0
  9
$DIMTXT
 40
2.5
  9
$DIMCEN
 40
2.5
  9
$DIMTSZ
 40
0.0
  9
$DIMTOL
 70
     0
  9
$DIMLIM
 70
     0
  9
$DIMTIH
 70
     0
  9
$DIMTOH
 70
     0
  9
$DIMSE1
 70
     0
  9
$DIMSE2
 70
     0
  9
$DIMTAD
 70
     1
  9
$DIMZIN
 70
     8
  9
$DIMBLK
  1

  9
$DIMASO
 70
     1
  9
$DIMSHO
 70
     1
  9
$DIMPOST
  1

  9
$DIMAPOST
  1

  9
$DIMALT
 70
     0
  9
$DIMALTD
 70
     3
  9
$DIMALTF
 40
0.03937007874016
  9
$DIMLFAC
 40
1.0
  9
$DIMTOFL
 70
     1
  9
$DIMTVP
 40
0.0
  9
$DIMTIX
 70
     0
  9
$DIMSOXD
 70
     0
  9
$DIMSAH
 70
     0
  9
$DIMBLK1
  1

  9
$DIMBLK2
  1

  9
$DIMSTYLE
  2
ISO-25
  9
$DIMCLRD
 70
     0
  9
$DIMCLRE
 70
     0
  9
$DIMCLRT
 70
     0
  9
$DIMTFAC
 40
1.0
  9
$DIMGAP
 40
0.625
  9
$DIMJUST
 70
     0
  9
$DIMSD1
 70
     0
  9
$DIMSD2
 70
     0
  9
$DIMTOLJ
 70
     0
  9
$DIMTZIN
 70
     8
  9
$DIMALTZ
 70
     0
  9
$DIMALTTZ
 70
     0
  9
$DIMUPT
 70
     0
  9
$DIMDEC
 70
     2
  9
$DIMTDEC
 70
     2
  9
$DIMALTU
 70
     2
  9
$DIMALTTD
 70
     3
  9
$DIMTXSTY
  7
Standard
  9
$DIMAUNIT
 70
     0
  9
$DIMADEC
 70
     0
  9
$DIMALTRND
 40
0.0
  9
$DIMAZIN
 70
     0
  9
$DIMDSEP
 70
    44
  9
$DIMATFIT
 70
     3
  9
$DIMFRAC
 70
     0
  9
$DIMLDRBLK
  1

  9
$DIMLUNIT
 70
     2
  9
$DIMLWD
 70
    -2
  9
$DIMLWE
 70
    -2
  9
$DIMTMOVE
 70
     0
  9
$DIMFXL
 40
1.0
  9
$DIMFXLON
 70
     0
  9
$DIMJOGANG
 40
0.7853981633974483
  9
$DIMTFILL
 70
     0
  9
$DIMTFILLCLR
 70
     0
  9
$DIMARCSYM
 70
     0
  9
$DIMLTYPE
  6

  9
$DIMLTEX1
  6

  9
$DIMLTEX2
  6

  9
$DIMTXTDIRECTION
 70
     0
  9
$LUNITS
 70
     2
  9
$LUPREC
 70
     4
  9
$SKETCHINC
 40
1.0
  9
$FILLETRAD
 40
10.0
  9
$AUNITS
 70
     0
  9
$AUPREC
 70
     0
  9
$MENU
  1
.
  9
$ELEVATION
 40
0.0
  9
$PELEVATION
 40
0.0
  9
$THICKNESS
 40
0.0
  9
$LIMCHECK
 70
     0
  9
$CHAMFERA
 40
10.0
  9
$CHAMFERB
 40
10.0
  9
$CHAMFERC
 40
20.0
  9
$CHAMFERD
 40
0.0
  9
$SKPOLY
 70
     0
  9
$TDCREATE
 40
2456874.593217083
  9
$TDUCREATE
 40
2456874.218217083
  9
$TDUPDATE
 40
2456910.411404873
  9
$TDUUPDATE
 40
2456910.036404873
  9
$TDINDWG
 40
0.0142171065
  9
$TDUSRTIMER
 40
0.0142170949
  9
$USRTIMER
 70
     1
  9
$ANGBASE
 50
0.0
  9
$ANGDIR
 70
     0
  9
$PDMODE
 70
     0
  9
$PDSIZE
 40
0.0
  9
$PLINEWID
 40
0.0
  9
$SPLFRAME
 70
     0
  9
$SPLINETYPE
 70
     6
  9
$SPLINESEGS
 70
     8
  9
$HANDSEED
  5
379
  9
$SURFTAB1
 70
     6
  9
$SURFTAB2
 70
     6
  9
$SURFTYPE
 70
     6
  9
$SURFU
 70
     6
  9
$SURFV
 70
     6
  9
$UCSBASE
  2

  9
$UCSNAME
  2

  9
$UCSORG
 10
0.0
 20
0.0
 30
0.0
  9
$UCSXDIR
 10
1.0
 20
0.0
 30
0.0
  9
$UCSYDIR
 10
0.0
 20
1.0
 30
0.0
  9
$UCSORTHOREF
  2

  9
$UCSORTHOVIEW
 70
     0
  9
$UCSORGTOP
 10
0.0
 20
0.0
 30
0.0
  9
$UCSORGBOTTOM
 10
0.0
 20
0.0
 30
0.0
  9
$UCSORGLEFT
 10
0.0
 20
0.0
 30
0.0
  9
$UCSORGRIGHT
 10
0.0
 20
0.0
 30
0.0
  9
$UCSORGFRONT
 10
0.0
 20
0.0
 30
0.0
  9
$UCSORGBACK
 10
0.0
 20
0.0
 30
0.0
  9
$PUCSBASE
  2

  9
$PUCSNAME
  2

  9
$PUCSORG
 10
0.0
 20
0.0
 30
0.0
  9
$PUCSXDIR
 10
1.0
 20
0.0
 30
0.0
  9
$PUCSYDIR
 10
0.0
 20
1.0
 30
0.0
  9
$PUCSORTHOREF
  2

  9
$PUCSORTHOVIEW
 70
     0
  9
$PUCSORGTOP
 10
0.0
 20
0.0
 30
0.0
  9
$PUCSORGBOTTOM
 10
0.0
 20
0.0
 30
0.0
  9
$PUCSORGLEFT
 10
0.0
 20
0.0
 30
0.0
  9
$PUCSORGRIGHT
 10
0.0
 20
0.0
 30
0.0
  9
$PUCSORGFRONT
 10
0.0
 20
0.0
 30
0.0
  9
$PUCSORGBACK
 10
0.0
 20
0.0
 30
0.0
  9
$USERI1
 70
     0
  9
$USERI2
 70
     0
  9
$USERI3
 70
     0
  9
$USERI4
 70
     0
  9
$USERI5
 70
     0
  9
$USERR1
 40
0.0
  9
$USERR2
 40
0.0
  9
$USERR3
 40
0.0
  9
$USERR4
 40
0.0
  9
$USERR5
 40
0.0
  9
$WORLDVIEW
 70
     1
  9
$SHADEDGE
 70
     3
  9
$SHADEDIF
 70
    70
  9
$TILEMODE
 70
     1
  9
$MAXACTVP
 70
    64
  9
$PINSBASE
 10
0.0
 20
0.0
 30
0.0
  9
$PLIMCHECK
 70
     0
  9
$PEXTMIN
 10
26.66076962115563
 20
20.31135699206658
 30
-0.0015258207003583
  9
$PEXTMAX
 10
240.039213369355
 20
182.8886381005154
 30
0.0000000349246037
  9
$PLIMMIN
 10
-6.350006103515625
 20
-6.349999904632568
  9
$PLIMMAX
 10
273.0499877929688
 20
209.5499939918518
  9
$UNITMODE
 70
     0
  9
$VISRETAIN
 70
     1
  9
$PLINEGEN
 70
     0
  9
$PSLTSCALE
 70
     1
  9
$TREEDEPTH
 70
  3020
  9
$CMLSTYLE
  2
Standard
  9
$CMLJUST
 70
     0
  9
$CMLSCALE
 40
20.0
  9
$PROXYGRAPHICS
 70
     1
  9
$MEASUREMENT
 70
     1
  9
$CELWEIGHT
370
    -1
  9
$ENDCAPS
280
     0
  9
$JOINSTYLE
280
     0
  9
$LWDISPLAY
290
     0
  9
$INSUNITS
 70
     4
  9
$HYPERLINKBASE
  1

  9
$STYLESHEET
  1

  9
$XEDIT
290
     1
  9
$CEPSNTYPE
380
     0
  9
$PSTYLEMODE
290
     1
  9
$FINGERPRINTGUID
  2
{FDEAD578-A652-11D2-9A35-0060089B3A3F}
  9
$VERSIONGUID
  2
{1FD7FBC4-F7B9-4F1D-A25E-D8D326E17572}
  9
$EXTNAMES
290
     1
  9
$PSVPSCALE
 40
0.0
  9
$OLESTARTUP
290
     0
  9
$SORTENTS
280
   127
  9
$INDEXCTL
280
     0
  9
$HIDETEXT
280
     1
  9
$XCLIPFRAME
280
     2
  9
$HALOGAP
280
     0
  9
$OBSCOLOR
 70
   257
  9
$OBSLTYPE
280
     0
  9
$INTERSECTIONDISPLAY
280
     0
  9
$INTERSECTIONCOLOR
 70
   257
  9
$DIMASSOC
280
     2
  9
$PROJECTNAME
  1

  9
$CAMERADISPLAY
290
     0
  9
$LENSLENGTH
 40
50.0
  9
$CAMERAHEIGHT
 40
0.0
  9
$STEPSPERSEC
 40
2.0
  9
$STEPSIZE
 40
6.0
  9
$3DDWFPREC
 40
2.0
  9
$PSOLWIDTH
 40
0.25
  9
$PSOLHEIGHT
 40
4.0
  9
$LOFTANG1
 40
1.570796326794896
  9
$LOFTANG2
 40
1.570796326794896
  9
$LOFTMAG1
 40
0.0
  9
$LOFTMAG2
 40
0.0
  9
$LOFTPARAM
 70
     7
  9
$LOFTNORMALS
280
     1
  9
$LATITUDE
 40
37.795
  9
$LONGITUDE
 40
-122.394
  9
$NORTHDIRECTION
 40
0.0
  9
$TIMEZONE
 70
 -8000
  9
$LIGHTGLYPHDISPLAY
280
     1
  9
$TILEMODELIGHTSYNCH
280
     1
  9
$CMATERIAL
347
326
  9
$SOLIDHIST
280
     1
  9
$SHOWHIST
280
     1
  9
$DWFFRAME
280
     2
  9
$DGNFRAME
280
     0
  9
$REALWORLDSCALE
290
     1
  9
$INTERFERECOLOR
 62
     1
  9
$INTERFEREOBJVS
345
348
  9
$INTERFEREVPVS
346
345
  9
$CSHADOW
280
     0
  9
$SHADOWPLANELOCATION
 40
0.0
  0
ENDSEC
  0
SECTION
  2
CLASSES
  0
CLASS
  1
ACDBDICTIONARYWDFLT
  2
AcDbDictionaryWithDefault
  3
ObjectDBX Classes
 90
        0
 91
        1
280
     0
281
     0
  0
CLASS
  1
DICTIONARYVAR
  2
AcDbDictionaryVar
  3
ObjectDBX Classes
 90
        0
 91
        9
280
     0
281
     0
  0
CLASS
  1
MATERIAL
  2
AcDbMaterial
  3
ObjectDBX Classes
 90
     1153
 91
        3
280
     0
281
     0
  0
CLASS
  1
VISUALSTYLE
  2
AcDbVisualStyle
  3
ObjectDBX Classes
 90
     4095
 91
       19
280
     0
281
     0
  0
CLASS
  1
TABLESTYLE
  2
AcDbTableStyle
  3
ObjectDBX Classes
 90
     4095
 91
        1
280
     0
281
     0
  0
CLASS
  1
SCALE
  2
AcDbScale
  3
ObjectDBX Classes
 90
     1153
 91
       17
280
     0
281
     0
  0
CLASS
  1
MLEADERSTYLE
  2
AcDbMLeaderStyle
  3
ACDB_MLEADERSTYLE_CLASS
 90
     4095
 91
        1
280
     0
281
     0
  0
CLASS
  1
CELLSTYLEMAP
  2
AcDbCellStyleMap
  3
ObjectDBX Classes
 90
     1152
 91
        1
280
     0
281
     0
  0
ENDSEC
  0
SECTION
  2
TABLES
  0
TABLE
  2
VPORT
  5
8
330
0
100
AcDbSymbolTable
 70
     1
  0
VPORT
  5
323
330
8
100
AcDbSymbolTableRecord
100
AcDbViewportTableRecord
  2
*Active
 70
     0
 10
0.0
 20
0.0
 11
1.0
 21
1.0
 12
83.44715553513296
 22
120.9613047012553
 13
0.0
 23
0.0
 14
10.0
 24
10.0
 15
10.0
 25
10.0
 16
0.0
 26
0.0
 36
1.0
 17
0.0
 27
0.0
 37
0.0
 40
339.9997383998022
 41
1.857142857142857
 42
50.0
 43
0.0
 44
0.0
 50
0.0
 51
0.0
 71
     0
 72
   100
 73
     1
 74
     3
 75
     0
 76
     0
 77
     0
 78
     0
281
     0
 65
     1
110
0.0
120
0.0
130
0.0
111
1.0
121
0.0
131
0.0
112
0.0
122
1.0
132
0.0
 79
     0
146
0.0
348
344
 60
     3
 61
     5
292
     1
282
     1
141
0.0
142
0.0
 63
   250
421
  3355443
  0
ENDTAB
  0
TABLE
  2
LTYPE
  5
5
330
0
100
AcDbSymbolTable
 70
     4
  0
LTYPE
  5
14
330
5
100
AcDbSymbolTableRecord
100
AcDbLinetypeTableRecord
  2
ByBlock
 70
     0
  3

 72
    65
 73
     0
 40
0.0
  0
LTYPE
  5
15
330
5
100
AcDbSymbolTableRecord
100
AcDbLinetypeTableRecord
  2
ByLayer
 70
     0
  3

 72
    65
 73
     0
 40
0.0
  0
LTYPE
  5
16
330
5
100
AcDbSymbolTableRecord
100
AcDbLinetypeTableRecord
  2
Continuous
 70
     0
  3
Solid line
 72
    65
 73
     0
 40
0.0
  0
LTYPE
  5
8D
330
5
100
AcDbSymbolTableRecord
100
AcDbLinetypeTableRecord
  2
CENTER
 70
     0
  3
Center ____ _ ____ _ ____ _ ____ _ ____ _ ____
 72
    65
 73
     4
 40
50.8
 49
31.75
 74
     0
 49
-6.349999999999999
 74
     0
 49
6.349999999999999
 74
     0
 49
-6.349999999999999
 74
     0
  0
LTYPE
  5
8E
330
5
100
AcDbSymbolTableRecord
100
AcDbLinetypeTableRecord
  2
PHANTOM
 70
     0
  3
Phantom ______  __  __  ______  __  __  ______
 72
    65
 73
     6
 40
63.5
 49
31.75
 74
     0
 49
-6.349999999999999
 74
     0
 49
6.349999999999999
 74
     0
 49
-6.349999999999999
 74
     0
 49
6.349999999999999
 74
     0
 49
-6.349999999999999
 74
     0
  0
LTYPE
  5
8F
330
5
100
AcDbSymbolTableRecord
100
AcDbLinetypeTableRecord
  2
DASHED
 70
     0
  3
Dashed __ __ __ __ __ __ __ __ __ __ __ __ __ _
 72
    65
 73
     2
 40
19.05
 49
12.7
 74
     0
 49
-6.349999999999999
 74
     0
  0
ENDTAB
  0
TABLE
  2
LAYER
  5
2
102
{ACAD_XDICTIONARY
360
99
102
}
330
0
100
AcDbSymbolTable
 70
     4
  0
LAYER
  5
10
102
{ACAD_XDICTIONARY
360
36B
102
}
330
2
100
AcDbSymbolTableRecord
100
AcDbLayerTableRecord
  2
0
 70
     0
 62
     7
  6
Continuous
370
    -3
390
F
347
336
  0
LAYER
  5
90
102
{ACAD_XDICTIONARY
360
91
102
}
330
2
100
AcDbSymbolTableRecord
100
AcDbLayerTableRecord
  2
2
 70
     0
 62
     2
  6
PHANTOM
370
    -3
390
F
347
336
1001
AcAecLayerStandard
1000

1000

1001
ACCMTRANSPARENCY
1071
        0
  0
LAYER
  5
93
102
{ACAD_XDICTIONARY
360
94
102
}
330
2
100
AcDbSymbolTableRecord
100
AcDbLayerTableRecord
  2
1
 70
     0
 62
     5
  6
CENTER
370
    -3
390
F
347
336
1001
AcAecLayerStandard
1000

1000

1001
ACCMTRANSPARENCY
1071
        0
  0
LAYER
  5
96
102
{ACAD_XDICTIONARY
360
36D
102
}
330
2
100
AcDbSymbolTableRecord
100
AcDbLayerTableRecord
  2
3
 70
     0
 62
     3
  6
DASHED
370
    -3
390
F
347
336
1001
AcAecLayerStandard
1000

1000

1001
ACCMTRANSPARENCY
1071
        0
  0
ENDTAB
  0
TABLE
  2
STYLE
  5
3
330
0
100
AcDbSymbolTable
 70
     1
  0
STYLE
  5
11
330
3
100
AcDbSymbolTableRecord
100
AcDbTextStyleTableRecord
  2
Standard
 70
     0
 40
0.0
 41
1.0
 50
0.0
 71
     0
 42
2.5
  3
txt
  4

  0
ENDTAB
  0
TABLE
  2
VIEW
  5
6
330
0
100
AcDbSymbolTable
 70
     0
  0
ENDTAB
  0
TABLE
  2
UCS
  5
7
330
0
100
AcDbSymbolTable
 70
     0
  0
ENDTAB
  0
TABLE
  2
APPID
  5
9
330
0
100
AcDbSymbolTable
 70
     3
  0
APPID
  5
12
330
9
100
AcDbSymbolTableRecord
100
AcDbRegAppTableRecord
  2
ACAD
 70
     0
  0
APPID
  5
97
330
9
100
AcDbSymbolTableRecord
100
AcDbRegAppTableRecord
  2
AcAecLayerStandard
 70
     0
  0
APPID
  5
98
330
9
100
AcDbSymbolTableRecord
100
AcDbRegAppTableRecord
  2
ACCMTRANSPARENCY
 70
     0
  0
ENDTAB
  0
TABLE
  2
DIMSTYLE
  5
A
330
0
100
AcDbSymbolTable
 70
     1
100
AcDbDimStyleTable
 71
     0
  0
DIMSTYLE
105
27
330
A
100
AcDbSymbolTableRecord
100
AcDbDimStyleTableRecord
  2
ISO-25
 70
     0
 41
2.5
 42
0.625
 43
3.75
 44
1.25
 73
     0
 74
     0
 77
     1
 78
     8
140
2.5
141
2.5
143
0.03937007874016
147
0.625
171
     3
172
     1
271
     2
272
     2
274
     3
278
    44
283
     0
284
     8
340
11
  0
ENDTAB
  0
TABLE
  2
BLOCK_RECORD
  5
1
330
0
100
AcDbSymbolTable
 70
     1
  0
BLOCK_RECORD
  5
1F
330
1
100
AcDbSymbolTableRecord
100
AcDbBlockTableRecord
  2
*Model_Space
340
22
 70
     0
280
     1
281
     0
  0
BLOCK_RECORD
  5
55
330
1
100
AcDbSymbolTableRecord
100
AcDbBlockTableRecord
  2
*Paper_Space
340
56
 70
     0
280
     1
281
     0
  0
BLOCK_RECORD
  5
50
330
1
100
AcDbSymbolTableRecord
100
AcDbBlockTableRecord
  2
*Paper_Space0
340
51
 70
     0
280
     1
281
     0
  0
ENDTAB
  0
ENDSEC
  0
SECTION
  2
BLOCKS
  0
BLOCK
  5
20
330
1F
100
AcDbEntity
  8
0
100
AcDbBlockBegin
  2
*Model_Space
 70
     0
 10
0.0
 20
0.0
 30
0.0
  3
*Model_Space
  1

  0
ENDBLK
  5
21
330
1F
100
AcDbEntity
  8
0
100
AcDbBlockEnd
  0
BLOCK
  5
57
330
55
100
AcDbEntity
 67
     1
  8
0
100
AcDbBlockBegin
  2
*Paper_Space
 70
     0
 10
0.0
 20
0.0
 30
0.0
  3
*Paper_Space
  1

  0
ENDBLK
  5
58
330
55
100
AcDbEntity
 67
     1
  8
0
100
AcDbBlockEnd
  0
BLOCK
  5
52
330
50
100
AcDbEntity
 67
     1
  8
0
100
AcDbBlockBegin
  2
*Paper_Space0
 70
     0
 10
0.0
 20
0.0
 30
0.0
  3
*Paper_Space0
  1

  0
VIEWPORT
  5
6B
330
50
100
AcDbEntity
 67
     1
  8
0
100
AcDbViewport
 10
133.3499908447266
 20
101.5999970436096
 30
0.0
 40
381.3957395593835
 41
218.2856291881582
 68
     0
 69
     0
 12
133.3499908447266
 22
101.5999970436096
 13
0.0
 23
0.0
 14
10.0
 24
10.0
 15
10.0
 25
10.0
 16
0.0
 26
0.0
 36
1.0
 17
0.0
 27
0.0
 37
0.0
 42
50.0
 43
0.0
 44
0.0
 45
218.2856291881582
 50
0.0
 51
0.0
 72
   100
 90
    32800
  1

281
     0
 71
     1
 74
     0
110
0.0
120
0.0
130
0.0
111
1.0
121
0.0
131
0.0
112
0.0
122
1.0
132
0.0
 79
     0
146
0.0
170
     0
 61
     5
348
344
292
     1
282
     1
141
0.0
142
0.0
 63
   250
421
  3355443
  0
VIEWPORT
  5
6D
330
50
100
AcDbEntity
 67
     1
  8
0
100
AcDbViewport
 10
133.3499939441681
 20
101.5999939441681
 30
0.0
 40
213.3599903106689
 41
162.5599903106689
 68
     0
 69
     0
 12
210.0
 22
148.5
 13
0.0
 23
0.0
 14
10.0
 24
10.0
 15
10.0
 25
10.0
 16
0.0
 26
0.0
 36
1.0
 17
0.0
 27
0.0
 37
0.0
 42
50.0
 43
0.0
 44
0.0
 45
324.0677920111345
 50
0.0
 51
0.0
 72
   100
 90
    32864
  1

281
     0
 71
     1
 74
     0
110
0.0
120
0.0
130
0.0
111
1.0
121
0.0
131
0.0
112
0.0
122
1.0
132
0.0
 79
     0
146
0.0
170
     0
 61
     5
348
344
292
     1
282
     1
141
0.0
142
0.0
 63
   250
421
  3355443
  0
ENDBLK
  5
53
330
50
100
AcDbEntity
 67
     1
  8
0
100
AcDbBlockEnd
  0
ENDSEC
  0
SECTION
  2
ENTITIES
  0
LINE
  5
1DB
330
1F
100
AcDbEntity
  8
0
100
AcDbLine
 10
29.99999999999997
 20
76.0
 30
0.0
 11
29.99999999999997
 21
4.0
 31
0.0
  0
LINE
  5
1DC
330
1F
100
AcDbEntity
  8
0
100
AcDbLine
 10
31.99999999999997
 20
76.0
 30
0.0
 11
31.99999999999997
 21
4.0
 31
0.0
  0
LINE
  5
1DD
330
1F
100
AcDbEntity
  8
0
100
AcDbLine
 10
27.99999999999997
 20
0.0
 30
0.0
 11
-25.00000000000003
 21
0.0
 31
0.0
  0
LINE
  5
1DE
330
1F
100
AcDbEntity
  8
0
100
AcDbLine
 10
31.99999999999997
 20
76.0
 30
0.0
 11
29.99999999999997
 21
76.0
 31
0.0
  0
LINE
  5
1DF
330
1F
100
AcDbEntity
  8
0
100
AcDbLine
 10
27.99999999999997
 20
2.0
 30
0.0
 11
-25.00000000000003
 21
2.0
 31
0.0
  0
ARC
  5
1E0
330
1F
100
AcDbEntity
  8
0
100
AcDbCircle
 10
27.99999999999997
 20
4.0
 30
0.0
 40
2.0
100
AcDbArc
 50
269.9999993167538
 51
0.0000086514213948
  0
ARC
  5
1E1
330
1F
100
AcDbEntity
  8
0
100
AcDbCircle
 10
27.99999999999997
 20
4.0
 30
0.0
 40
4.0
100
AcDbArc
 50
270.0000025044785
 51
0.0000050089569452
  0
LINE
  5
1E2
330
1F
100
AcDbEntity
  8
1
100
AcDbLine
 10
0.0000000000000284
 20
48.49997997999913
 30
0.0
 11
-0.0000000000000284
 21
-48.00313532182066
 31
0.0
  0
LINE
  5
1E3
330
1F
100
AcDbEntity
  8
1
100
AcDbLine
 10
8.750000000000312
 20
8.636737818575284
 30
0.0
 11
8.750000000000142
 21
-8.000020019999624
 31
0.0
  0
LINE
  5
1E4
330
1F
100
AcDbEntity
  8
1
100
AcDbLine
 10
-17.50002000000003
 20
9.484999980000111
 30
0.0
 11
-17.49999999999985
 21
-8.000020019999624
 31
0.0
  0
LINE
  5
1E5
330
1F
100
AcDbEntity
  8
2
100
AcDbLine
 10
-25.00002000000004
 20
-5.000020019999851
 30
0.0
 11
-25.00002000000004
 21
-1.000000020000015
 31
0.0
  0
LINE
  5
1E6
330
1F
100
AcDbEntity
  8
2
100
AcDbLine
 10
24.99999
 20
-5.000020019999851
 30
0.0
 11
24.99999
 21
-1.000000020000015
 31
0.0
  0
ARC
  5
1E7
330
1F
100
AcDbEntity
  8
2
100
AcDbCircle
 10
-24.00000000000003
 20
-1.000000020000015
 30
0.0
 40
1.000000019999999
100
AcDbArc
 50
90.0
 51
180.0
  0
ARC
  5
1E8
330
1F
100
AcDbEntity
  8
2
100
AcDbCircle
 10
23.99999999999997
 20
-1.000000020000015
 30
0.0
 40
1.000000019999999
100
AcDbArc
 50
0.0
 51
90.0
  0
LINE
  5
1E9
330
1F
100
AcDbEntity
  8
1
100
AcDbLine
 10
86.24999999999998
 20
30.24992616530222
 30
0.0
 11
14.74999999999991
 21
30.24992616530222
 31
0.0
  0
LINE
  5
1EA
330
1F
100
AcDbEntity
  8
2
100
AcDbLine
 10
-22.00002000000004
 20
3.0
 30
0.0
 11
-13.00002000000003
 21
3.0
 31
0.0
  0
LINE
  5
1EB
330
1F
100
AcDbEntity
  8
2
100
AcDbLine
 10
-22.00002000000004
 20
4.341064453125
 30
0.0
 11
-22.00002000000004
 21
2.0
 31
0.0
  0
LINE
  5
1EC
330
1F
100
AcDbEntity
  8
2
100
AcDbLine
 10
-13.00002000000003
 20
4.341064453125
 30
0.0
 11
-13.00002000000003
 21
2.0
 31
0.0
  0
ARC
  5
1ED
330
1F
100
AcDbEntity
  8
2
100
AcDbCircle
 10
-17.50002000000003
 20
-4.625
 30
0.0
 40
10.625
100
AcDbArc
 50
68.67631834471637
 51
111.3236916731982
  0
ARC
  5
1EE
330
1F
100
AcDbEntity
  8
2
100
AcDbCircle
 10
-14.00002000000003
 20
4.341064453125
 30
0.0
 40
1.0
100
AcDbArc
 50
0.0000025044752157
 51
68.67631834471637
  0
ARC
  5
1EF
330
1F
100
AcDbEntity
  8
2
100
AcDbCircle
 10
-21.00002000000003
 20
4.341064453125
 30
0.0
 40
1.0
100
AcDbArc
 50
111.3236953156618
 51
180.0000043257139
  0
LINE
  5
1F0
330
1F
100
AcDbEntity
  8
2
100
AcDbLine
 10
4.999969482421846
 20
5.316229607953573
 30
0.0
 11
4.999969482421846
 21
18.13389111281253
 31
0.0
  0
LINE
  5
1F1
330
1F
100
AcDbEntity
  8
2
100
AcDbLine
 10
4.999908184151962
 20
18.13391425091572
 30
0.0
 11
4.499915353299542
 21
19.99991266857273
 31
0.0
  0
LINE
  5
1F2
330
1F
100
AcDbEntity
  8
2
100
AcDbLine
 10
4.999969482421846
 20
18.13389111281253
 30
0.0
 11
-5.000000000000028
 21
18.13389111281253
 31
0.0
  0
LINE
  5
1F3
330
1F
100
AcDbEntity
  8
2
100
AcDbLine
 10
4.499999999999971
 20
19.99991894484378
 30
0.0
 11
-4.499877929687528
 21
19.99991894484378
 31
0.0
  0
LINE
  5
1F4
330
1F
100
AcDbEntity
  8
2
100
AcDbLine
 10
-5.000009264155579
 20
18.13346983194856
 30
0.0
 11
-4.499890110531424
 21
19.99993990746839
 31
0.0
  0
LINE
  5
1F5
330
1F
100
AcDbEntity
  8
2
100
AcDbLine
 10
-5.000000000000028
 20
1.999979980000148
 30
0.0
 11
-5.000000000000028
 21
18.13389111281253
 31
0.0
  0
LINE
  5
1F6
330
1F
100
AcDbEntity
  8
2
100
AcDbLine
 10
-11.50000000000003
 20
38.99991894484401
 30
0.0
 11
11.49999999999997
 21
38.99991894484378
 31
0.0
  0
LINE
  5
1F7
330
1F
100
AcDbEntity
  8
2
100
AcDbLine
 10
4.499980810802838
 20
19.99988467739717
 30
0.0
 11
4.999989385000134
 21
21.86594206488075
 31
0.0
  0
LINE
  5
1F8
330
1F
100
AcDbEntity
  8
2
100
AcDbLine
 10
2.999999999999971
 20
26.99991894484379
 30
0.0
 11
2.999999999999971
 21
19.99991894484378
 31
0.0
  0
LINE
  5
1F9
330
1F
100
AcDbEntity
  8
2
100
AcDbLine
 10
-12.50000000000003
 20
37.99991894484401
 30
0.0
 11
-12.50000000000003
 21
33.99991894484401
 31
0.0
  0
LINE
  5
1FA
330
1F
100
AcDbEntity
  8
2
100
AcDbLine
 10
-2.999995514897165
 20
26.99994054652075
 30
0.0
 11
3.000003698375479
 21
19.99994118960535
 31
0.0
  0
LINE
  5
1FB
330
1F
100
AcDbEntity
  8
2
100
AcDbLine
 10
-5.000000000000028
 20
32.99991894484378
 30
0.0
 11
-5.000000000000028
 21
21.86594677687503
 31
0.0
  0
LINE
  5
1FC
330
1F
100
AcDbEntity
  8
2
100
AcDbLine
 10
2.999999999999971
 20
21.86594677687503
 30
0.0
 11
4.999999999999971
 21
21.86594677687503
 31
0.0
  0
LINE
  5
1FD
330
1F
100
AcDbEntity
  8
2
100
AcDbLine
 10
-3.000000000000028
 20
26.99991894484379
 30
0.0
 11
2.999999999999971
 21
26.99991894484379
 31
0.0
  0
LINE
  5
1FE
330
1F
100
AcDbEntity
  8
2
100
AcDbLine
 10
4.999999999999971
 20
32.99991894484378
 30
0.0
 11
4.999999999999971
 21
21.86594677687503
 31
0.0
  0
LINE
  5
1FF
330
1F
100
AcDbEntity
  8
2
100
AcDbLine
 10
12.49999999999997
 20
37.99991894484378
 30
0.0
 11
12.49999999999997
 21
33.99991894484378
 31
0.0
  0
LINE
  5
200
330
1F
100
AcDbEntity
  8
2
100
AcDbLine
 10
-5.000000000000028
 20
21.86594677687503
 30
0.0
 11
-3.000000000000028
 21
21.86594677687503
 31
0.0
  0
LINE
  5
201
330
1F
100
AcDbEntity
  8
2
100
AcDbLine
 10
-11.50000000000003
 20
32.99991894484401
 30
0.0
 11
11.49999999999997
 21
32.99991894484378
 31
0.0
  0
LINE
  5
202
330
1F
100
AcDbEntity
  8
2
100
AcDbLine
 10
-3.000000000000028
 20
26.99991894484379
 30
0.0
 11
-3.000000000000028
 21
19.99991894484378
 31
0.0
  0
LINE
  5
203
330
1F
100
AcDbEntity
  8
2
100
AcDbLine
 10
-4.499986103954171
 20
19.99991218559103
 30
0.0
 11
-4.999994731869293
 21
21.86596955868095
 31
0.0
  0
LINE
  5
204
330
1F
100
AcDbEntity
  8
2
100
AcDbLine
 10
2.999999386201096
 20
26.99992130658734
 30
0.0
 11
-2.999999827071661
 21
19.99992194967194
 31
0.0
  0
ARC
  5
205
330
1F
100
AcDbEntity
  8
2
100
AcDbCircle
 10
11.49999999999997
 20
33.99991894484378
 30
0.0
 40
1.0
100
AcDbArc
 50
270.0000009237186
 51
0.0000025044752157
  0
ARC
  5
206
330
1F
100
AcDbEntity
  8
2
100
AcDbCircle
 10
11.49999999999997
 20
37.99991894484378
 30
0.0
 40
1.0
100
AcDbArc
 50
0.0000025044752157
 51
90.00000500895694
  0
ARC
  5
207
330
1F
100
AcDbEntity
  8
2
100
AcDbCircle
 10
-11.50000000000003
 20
33.99991894484401
 30
0.0
 40
1.0
100
AcDbArc
 50
179.9999906653356
 51
269.9999972812541
  0
ARC
  5
208
330
1F
100
AcDbEntity
  8
2
100
AcDbCircle
 10
-11.50000000000003
 20
37.99991894484401
 30
0.0
 40
1.0
100
AcDbArc
 50
90.00000865142139
 51
180.0000043257139
  0
LINE
  5
209
330
1F
100
AcDbEntity
  8
2
100
AcDbLine
 10
4.249979999999965
 20
3.0
 30
0.0
 11
13.24997999999996
 21
3.0
 31
0.0
  0
LINE
  5
20A
330
1F
100
AcDbEntity
  8
2
100
AcDbLine
 10
4.249979999999965
 20
4.341064453125
 30
0.0
 11
4.249979999999965
 21
2.0
 31
0.0
  0
LINE
  5
20B
330
1F
100
AcDbEntity
  8
2
100
AcDbLine
 10
13.24997999999996
 20
4.341064453125
 30
0.0
 11
13.24997999999996
 21
2.0
 31
0.0
  0
ARC
  5
20C
330
1F
100
AcDbEntity
  8
2
100
AcDbCircle
 10
8.749979999999965
 20
-4.625
 30
0.0
 40
10.625
100
AcDbArc
 50
68.67631834471637
 51
111.3236916731982
  0
ARC
  5
20D
330
1F
100
AcDbEntity
  8
2
100
AcDbCircle
 10
12.24997999999996
 20
4.341064453125
 30
0.0
 40
1.0
100
AcDbArc
 50
0.0000025044752157
 51
68.67631834471637
  0
ARC
  5
20E
330
1F
100
AcDbEntity
  8
2
100
AcDbCircle
 10
5.249979999999965
 20
4.341064453125
 30
0.0
 40
1.0
100
AcDbArc
 50
111.3236953156618
 51
180.0000043257139
  0
LINE
  5
20F
330
1F
100
AcDbEntity
  8
2
100
AcDbLine
 10
-49.41588033946803
 20
-10.26385068343756
 30
0.0
 11
-52.39692917196819
 21
-18.45421474373984
 31
0.0
  0
LINE
  5
210
330
1F
100
AcDbEntity
  8
2
100
AcDbLine
 10
41.89834594726559
 20
-5.000020019999851
 30
0.0
 11
-41.89834594726565
 21
-5.000020019999737
 31
0.0
  0
LINE
  5
211
330
1F
100
AcDbEntity
  8
2
100
AcDbLine
 10
49.41586267981276
 20
-10.26385296995965
 30
0.0
 11
52.39691151231292
 21
-18.45421703026216
 31
0.0
  0
ARC
  5
212
330
1F
100
AcDbEntity
  8
2
100
AcDbCircle
 10
-41.89834594726565
 20
-13.00002001999974
 30
0.0
 40
8.0
100
AcDbArc
 50
89.9999913485786
 51
160.0000046801563
  0
ARC
  5
213
330
1F
100
AcDbEntity
  8
2
100
AcDbCircle
 10
41.89834594726559
 20
-13.00002001999985
 30
0.0
 40
8.0
100
AcDbArc
 50
19.99999850757047
 51
90.00000500895694
  0
LINE
  5
214
330
1F
100
AcDbEntity
  8
0
100
AcDbLine
 10
-29.99999999999992
 20
76.0
 30
0.0
 11
-30.00000000000003
 21
4.0
 31
0.0
  0
LINE
  5
215
330
1F
100
AcDbEntity
  8
0
100
AcDbLine
 10
-31.99999999999992
 20
76.0
 30
0.0
 11
-32.00000000000003
 21
4.0
 31
0.0
  0
LINE
  5
216
330
1F
100
AcDbEntity
  8
0
100
AcDbLine
 10
-31.99999999999992
 20
76.0
 30
0.0
 11
-29.99999999999992
 21
76.0
 31
0.0
  0
ARC
  5
217
330
1F
100
AcDbEntity
  8
0
100
AcDbCircle
 10
-28.00000000000003
 20
4.0
 30
0.0
 40
2.0
100
AcDbArc
 50
179.9999913485786
 51
270.000000683243
  0
ARC
  5
218
330
1F
100
AcDbEntity
  8
0
100
AcDbCircle
 10
-28.00000000000003
 20
4.0
 30
0.0
 40
4.0
100
AcDbArc
 50
179.999994991043
 51
269.9999974955182
  0
LINE
  5
219
330
1F
100
AcDbEntity
  8
1
100
AcDbLine
 10
-86.24999999999998
 20
45.24992616530221
 30
0.0
 11
-14.74999999999991
 21
45.24992616530221
 31
0.0
  0
LINE
  5
21A
330
1F
100
AcDbEntity
  8
0
100
AcDbLine
 10
-27.99999997615035
 20
2.0
 30
0.0
 11
-25.00000000000003
 21
2.0
 31
0.0
  0
LINE
  5
21B
330
1F
100
AcDbEntity
  8
0
100
AcDbLine
 10
-28.00000017484584
 20
0.0
 30
0.0
 11
-25.00000000000003
 21
0.0
 31
0.0
  0
LINE
  5
21C
330
1F
100
AcDbEntity
  8
1
100
AcDbLine
 10
-72.15075174660282
 20
205.0779734090158
 30
0.0
 11
87.03890622861681
 21
205.0779734090158
 31
0.0
  0
LINE
  5
21D
330
1F
100
AcDbEntity
  8
0
100
AcDbLine
 10
-29.99999999999997
 20
220.0779734090158
 30
0.0
 11
-29.99999999999997
 21
190.0779734090158
 31
0.0
  0
LINE
  5
21E
330
1F
100
AcDbEntity
  8
1
100
AcDbLine
 10
0.0000000000000284
 20
273.1860870879501
 30
0.0
 11
0.0000000000000284
 21
136.9698597300816
 31
0.0
  0
LINE
  5
21F
330
1F
100
AcDbEntity
  8
1
100
AcDbLine
 10
10.91876000000005
 20
223.9898334090159
 30
0.0
 11
6.06236000000004
 21
215.5783034090158
 31
0.0
  0
LINE
  5
220
330
1F
100
AcDbEntity
  8
1
100
AcDbLine
 10
11.38398000000009
 20
185.3603534090158
 30
0.0
 11
5.722400000000021
 21
195.1664834090158
 31
0.0
  0
LINE
  5
221
330
1F
100
AcDbEntity
  8
0
100
AcDbLine
 10
-31.99999999999997
 20
190.0779734090158
 30
0.0
 11
-19.99999999999997
 21
190.0779734090158
 31
0.0
  0
LINE
  5
222
330
1F
100
AcDbEntity
  8
0
100
AcDbLine
 10
-31.99999999999997
 20
220.0779734090158
 30
0.0
 11
-19.99999999999997
 21
220.0779734090158
 31
0.0
  0
LINE
  5
223
330
1F
100
AcDbEntity
  8
0
100
AcDbLine
 10
-31.99999999999997
 20
220.0779734090158
 30
0.0
 11
-31.99999999999997
 21
190.0779734090158
 31
0.0
  0
LINE
  5
224
330
1F
100
AcDbEntity
  8
0
100
AcDbLine
 10
188.0
 20
76.000002
 30
0.0
 11
212.0000000000001
 21
76.000002
 31
0.0
  0
LINE
  5
225
330
1F
100
AcDbEntity
  8
0
100
AcDbLine
 10
175.0000000000001
 20
0.0
 30
0.0
 11
225.0000000000001
 21
0.0
 31
0.0
  0
LINE
  5
226
330
1F
100
AcDbEntity
  8
0
100
AcDbLine
 10
175.0000000000001
 20
2.0
 30
0.0
 11
185.0000000000001
 21
2.0
 31
0.0
  0
LINE
  5
227
330
1F
100
AcDbEntity
  8
0
100
AcDbLine
 10
215.0000000000001
 20
2.0
 30
0.0
 11
225.0000000000001
 21
2.0
 31
0.0
  0
LINE
  5
228
330
1F
100
AcDbEntity
  8
0
100
AcDbLine
 10
185.0000000000001
 20
73.00000199999999
 30
0.0
 11
185.0000000000001
 21
2.0
 31
0.0
  0
LINE
  5
229
330
1F
100
AcDbEntity
  8
0
100
AcDbLine
 10
215.0000000000001
 20
73.00000199999999
 30
0.0
 11
215.0000000000001
 21
2.0
 31
0.0
  0
LINE
  5
22A
330
1F
100
AcDbEntity
  8
1
100
AcDbLine
 10
200.0000000000001
 20
82.15886199999999
 30
0.0
 11
200.0000000000001
 21
-48.0031353218207
 31
0.0
  0
LINE
  5
22B
330
1F
100
AcDbEntity
  8
0
100
AcDbLine
 10
175.0000000000001
 20
2.0
 30
0.0
 11
175.0000000000001
 21
0.0
 31
0.0
  0
LINE
  5
22C
330
1F
100
AcDbEntity
  8
0
100
AcDbLine
 10
225.0000000000001
 20
2.0
 30
0.0
 11
225.0000000000001
 21
0.0
 31
0.0
  0
LINE
  5
22D
330
1F
100
AcDbEntity
  8
1
100
AcDbLine
 10
190.8419800000002
 20
58.00000199999999
 30
0.0
 11
208.9752900000002
 21
58.00000199999999
 31
0.0
  0
LINE
  5
22E
330
1F
100
AcDbEntity
  8
1
100
AcDbLine
 10
190.4047400000002
 20
16.0
 30
0.0
 11
209.5143900000001
 21
16.0
 31
0.0
  0
LINE
  5
22F
330
1F
100
AcDbEntity
  8
0
100
AcDbLine
 10
206.2500000000001
 20
58.00000199999999
 30
0.0
 11
206.2500000000001
 21
16.0
 31
0.0
  0
LINE
  5
230
330
1F
100
AcDbEntity
  8
0
100
AcDbLine
 10
193.7500000000001
 20
58.00000199999999
 30
0.0
 11
193.7500000000001
 21
16.0
 31
0.0
  0
LINE
  5
231
330
1F
100
AcDbEntity
  8
0
100
AcDbLine
 10
32.00000000000003
 20
220.0779734090158
 30
0.0
 11
32.00000000000003
 21
190.0779734090158
 31
0.0
  0
LINE
  5
232
330
1F
100
AcDbEntity
  8
0
100
AcDbLine
 10
32.00000000000003
 20
220.0779734090158
 30
0.0
 11
20.00000000000003
 21
220.0779734090158
 31
0.0
  0
LINE
  5
233
330
1F
100
AcDbEntity
  8
0
100
AcDbLine
 10
32.00000000000003
 20
190.0779734090158
 30
0.0
 11
20.00000000000003
 21
190.0779734090158
 31
0.0
  0
LINE
  5
234
330
1F
100
AcDbEntity
  8
0
100
AcDbLine
 10
30.00000000000003
 20
220.0779734090158
 30
0.0
 11
30.00000000000003
 21
190.0779734090158
 31
0.0
  0
CIRCLE
  5
235
330
1F
100
AcDbEntity
  8
0
100
AcDbCircle
 10
0.0000000000000284
 20
205.0779734090158
 30
0.0
 40
9.0
  0
ARC
  5
236
330
1F
100
AcDbEntity
  8
0
100
AcDbCircle
 10
0.0000000000000284
 20
205.0779734090158
 30
0.0
 40
25.0
100
AcDbArc
 50
216.8699000000028
 51
323.1300999999973
  0
CIRCLE
  5
237
330
1F
100
AcDbEntity
  8
0
100
AcDbCircle
 10
8.514310000000051
 20
190.1171834090158
 30
0.0
 40
2.75
  0
CIRCLE
  5
238
330
1F
100
AcDbEntity
  8
0
100
AcDbCircle
 10
-17.21359000000004
 20
205.1847534090158
 30
0.0
 40
2.75
  0
CIRCLE
  5
239
330
1F
100
AcDbEntity
  8
0
100
AcDbCircle
 10
8.699250000000034
 20
219.9319734090159
 30
0.0
 40
2.75
  0
ARC
  5
23A
330
1F
100
AcDbEntity
  8
0
100
AcDbCircle
 10
212.0000000000001
 20
73.00000199999999
 30
0.0
 40
3.0
100
AcDbArc
 50
0.0
 51
90.00000299999769
  0
ARC
  5
23B
330
1F
100
AcDbEntity
  8
0
100
AcDbCircle
 10
188.0
 20
73.00000199999999
 30
0.0
 40
3.0
100
AcDbArc
 50
90.00000299999769
 51
180.0000100000009
  0
ARC
  5
23C
330
1F
100
AcDbEntity
  8
0
100
AcDbCircle
 10
200.0000000000001
 20
58.00000199999999
 30
0.0
 40
6.25
100
AcDbArc
 50
0.0
 51
180.0000100000009
  0
ARC
  5
23D
330
1F
100
AcDbEntity
  8
0
100
AcDbCircle
 10
200.0000000000001
 20
16.0
 30
0.0
 40
6.25
100
AcDbArc
 50
179.999989999999
 51
0.0
  0
CIRCLE
  5
23E
330
1F
100
AcDbEntity
  8
1
100
AcDbCircle
 10
0.0000000000000284
 20
205.0779734090158
 30
0.0
 40
17.5
  0
ARC
  5
23F
330
1F
100
AcDbEntity
  8
0
100
AcDbCircle
 10
0.0000000000000284
 20
205.0779734090158
 30
0.0
 40
25.0
100
AcDbArc
 50
36.86989699999662
 51
143.1300999999972
  0
LINE
  5
240
330
1F
100
AcDbEntity
  8
2
100
AcDbLine
 10
26.75977966173238
 20
40.19672099722686
 30
0.0
 11
26.00059028317762
 21
38.88176642100319
 31
0.0
  0
LINE
  5
241
330
1F
100
AcDbEntity
  8
2
100
AcDbLine
 10
26.00059028317762
 20
21.88176642100319
 30
0.0
 11
26.75977966173238
 21
20.56681184477958
 31
0.0
  0
LINE
  5
242
330
1F
100
AcDbEntity
  8
2
100
AcDbLine
 10
30.00059028317762
 20
38.88176642100319
 30
0.0
 11
29.24140090462285
 21
40.19672099722683
 31
0.0
  0
LINE
  5
243
330
1F
100
AcDbEntity
  8
2
100
AcDbLine
 10
29.24140090462285
 20
20.56681184477958
 30
0.0
 11
30.00059028317762
 21
21.88176642100319
 31
0.0
  0
LINE
  5
244
330
1F
100
AcDbEntity
  8
2
100
AcDbLine
 10
26.00059028317762
 20
21.88176642100319
 30
0.0
 11
26.00059028317762
 21
38.88176642100319
 31
0.0
  0
LINE
  5
245
330
1F
100
AcDbEntity
  8
2
100
AcDbLine
 10
31.99940971682278
 20
21.88176642100322
 30
0.0
 11
31.99940971682278
 21
38.88176642100319
 31
0.0
  0
LINE
  5
246
330
1F
100
AcDbEntity
  8
2
100
AcDbLine
 10
26.75977966173238
 20
20.56681184477958
 30
0.0
 11
29.24140090462285
 21
20.56681184477958
 31
0.0
  0
LWPOLYLINE
  5
247
330
1F
100
AcDbEntity
  8
2
100
AcDbPolyline
 90
       23
 70
     0
 43
0.0
 10
26.75977966173238
 20
20.56681184477958
 10
26.71692491767905
 20
20.64190688255553
 10
26.63538352814792
 20
20.79006354729012
 10
26.55926310190077
 20
20.93570091564379
 10
26.52318853222729
 20
21.00764456593223
 10
26.48841457774504
 20
21.07904092768317
 10
26.42270492834538
 20
21.22029699794666
 10
26.36201637042538
 20
21.35967509189715
 10
26.30624568950449
 20
21.49737473818536
 10
26.25530367123835
 20
21.63358998728122
 10
26.20911463291074
 20
21.76851032621192
 10
26.18778243663835
 20
21.8355430883654
 10
26.16761604996643
 20
21.90232155849665
 10
26.13075827372629
 20
22.03520665787639
 10
26.09850433760172
 20
22.16734660408696
 10
26.07082985026861
 20
22.2989212087142
 10
26.04772297538145
 20
22.43010993909007
 10
26.0291844985172
 20
22.56109274824311
 10
26.02163214266827
 20
22.62656350781572
 10
26.01522798319999
 20
22.6920509191055
 10
26.00588001904677
 20
22.82316793150915
 10
26.0011805663548
 20
22.95463036098499
 10
26.00059028317762
 20
23.02055048883548
  0
LWPOLYLINE
  5
248
330
1F
100
AcDbEntity
  8
2
100
AcDbPolyline
 90
       23
 70
     0
 43
0.0
 10
26.00059028317762
 20
23.02055048883548
 10
26.00118056635526
 20
23.08647061668597
 10
26.00588001904677
 20
23.21793304616182
 10
26.01522798319999
 20
23.34905005856544
 10
26.02163214266827
 20
23.41453746985525
 10
26.0291844985172
 20
23.48000822942783
 10
26.04772297538145
 20
23.61099103858089
 10
26.07082985026861
 20
23.74217976895673
 10
26.09850433760172
 20
23.87375437358398
 10
26.13075827372629
 20
24.00589431979455
 10
26.16761604996643
 20
24.13877941917429
 10
26.18778243663835
 20
24.20555788930557
 10
26.20911463291074
 20
24.27259065145904
 10
26.25530367123835
 20
24.40751099038971
 10
26.30624568950449
 20
24.54372623948558
 10
26.36201637042538
 20
24.68142588577382
 10
26.42270492834538
 20
24.8208039797243
 10
26.48841457774504
 20
24.96206004998777
 10
26.52318853222729
 20
25.03345641173871
 10
26.55926310190077
 20
25.10540006202715
 10
26.63538352814792
 20
25.25103743038085
 10
26.71692491767905
 20
25.39919409511544
 10
26.75977966173238
 20
25.47428913289139
  0
LWPOLYLINE
  5
249
330
1F
100
AcDbEntity
  8
2
100
AcDbPolyline
 90
       23
 70
     0
 43
0.0
 10
29.24140090462285
 20
25.47428913289139
 10
29.28425564867618
 20
25.39919409511544
 10
29.36579703820732
 20
25.25103743038085
 10
29.44191746445446
 20
25.10540006202715
 10
29.47799203412794
 20
25.03345641173871
 10
29.5127659886102
 20
24.96206004998777
 10
29.57847563800985
 20
24.8208039797243
 10
29.63916419592985
 20
24.68142588577382
 10
29.69493487685074
 20
24.54372623948558
 10
29.74587689511688
 20
24.40751099038971
 10
29.79206593344449
 20
24.27259065145904
 10
29.81339812971689
 20
24.20555788930557
 10
29.83356451638881
 20
24.13877941917429
 10
29.87042229262895
 20
24.00589431979455
 10
29.9026762287535
 20
23.87375437358398
 10
29.93035071608662
 20
23.74217976895676
 10
29.95345759097379
 20
23.61099103858089
 10
29.97199606783804
 20
23.48000822942783
 10
29.97954842368697
 20
23.41453746985525
 10
29.98595258315524
 20
23.34905005856544
 10
29.99530054730846
 20
23.21793304616182
 10
29.99999999999997
 20
23.08647061668597
 10
30.00059028317762
 20
23.02055048883545
  0
LWPOLYLINE
  5
24A
330
1F
100
AcDbEntity
  8
2
100
AcDbPolyline
 90
       23
 70
     0
 43
0.0
 10
30.00059028317762
 20
23.02055048883545
 10
29.99999999999997
 20
22.95463036098499
 10
29.99530054730846
 20
22.82316793150915
 10
29.98595258315524
 20
22.6920509191055
 10
29.97954842368697
 20
22.62656350781572
 10
29.97199606783804
 20
22.56109274824311
 10
29.95345759097379
 20
22.43010993909007
 10
29.93035071608662
 20
22.2989212087142
 10
29.9026762287535
 20
22.16734660408696
 10
29.87042229262895
 20
22.03520665787639
 10
29.83356451638881
 20
21.90232155849665
 10
29.81339812971689
 20
21.8355430883654
 10
29.79206593344449
 20
21.76851032621192
 10
29.74587689511688
 20
21.63358998728122
 10
29.69493487685074
 20
21.49737473818536
 10
29.63916419592985
 20
21.35967509189712
 10
29.57847563800985
 20
21.22029699794663
 10
29.5127659886102
 20
21.07904092768317
 10
29.47799203412794
 20
21.00764456593223
 10
29.44191746445446
 20
20.93570091564379
 10
29.36579703820732
 20
20.79006354729012
 10
29.28425564867618
 20
20.64190688255553
 10
29.24140090462285
 20
20.56681184477958
  0
LINE
  5
24B
330
1F
100
AcDbEntity
  8
2
100
AcDbLine
 10
26.75977966173238
 20
25.47428913289139
 30
0.0
 11
29.24140090462285
 21
25.47428913289139
 31
0.0
  0
LWPOLYLINE
  5
24C
330
1F
100
AcDbEntity
  8
2
100
AcDbPolyline
 90
       23
 70
     0
 43
0.0
 10
26.75977966173238
 20
25.47428913289139
 10
26.71692491767905
 20
25.62447920844329
 10
26.63538352814792
 20
25.92079253791246
 10
26.55926310190077
 20
26.21206727461987
 10
26.52318853222729
 20
26.3559545751967
 10
26.48841457774504
 20
26.49874729869862
 10
26.42270492834538
 20
26.78125943922555
 10
26.36201637042538
 20
27.06001562712652
 10
26.30624568950449
 20
27.33541491970294
 10
26.25530367123835
 20
27.60784541789474
 10
26.20911463291074
 20
27.87768609575608
 10
26.18778243663835
 20
28.01175162006305
 10
26.16761604996643
 20
28.14530856032556
 10
26.13075827372629
 20
28.41107875908506
 10
26.09850433760172
 20
28.6753586515062
 10
26.07082985026861
 20
28.9385078607607
 10
26.04772297538145
 20
29.20088532151238
 10
26.0291844985172
 20
29.46285093981845
 10
26.02163214266827
 20
29.59379245896366
 10
26.01522798319999
 20
29.72476728154328
 10
26.00588001904677
 20
29.98700130635052
 10
26.0011805663548
 20
30.24992616530222
 10
26.00059028317762
 20
30.3817664210032
  0
LWPOLYLINE
  5
24D
330
1F
100
AcDbEntity
  8
2
100
AcDbPolyline
 90
       23
 70
     0
 43
0.0
 10
26.00059028317762
 20
30.3817664210032
 10
26.00118056635526
 20
30.5136066767042
 10
26.00588001904677
 20
30.77653153565587
 10
26.01522798319999
 20
31.03876556046311
 10
26.02163214266827
 20
31.16974038304275
 10
26.0291844985172
 20
31.30068190218793
 10
26.04772297538145
 20
31.56264752049401
 10
26.07082985026861
 20
31.82502498124575
 10
26.09850433760172
 20
32.08817419050021
 10
26.13075827372629
 20
32.35245408292136
 10
26.16761604996643
 20
32.61822428168085
 10
26.18778243663835
 20
32.75178122194336
 10
26.20911463291074
 20
32.88584674625034
 10
26.25530367123835
 20
33.15568742411171
 10
26.30624568950449
 20
33.42811792230345
 10
26.36201637042538
 20
33.7035172148799
 10
26.42270492834538
 20
33.98227340278089
 10
26.48841457774504
 20
34.2647855433078
 10
26.52318853222729
 20
34.40757826680971
 10
26.55926310190077
 20
34.55146556738654
 10
26.63538352814792
 20
34.84274030409392
 10
26.71692491767905
 20
35.1390536335631
 10
26.75977966173238
 20
35.28924370911503
  0
LWPOLYLINE
  5
24E
330
1F
100
AcDbEntity
  8
2
100
AcDbPolyline
 90
       23
 70
     0
 43
0.0
 10
29.24140090462285
 20
35.28924370911503
 10
29.28425564867618
 20
35.1390536335631
 10
29.36579703820732
 20
34.84274030409392
 10
29.44191746445446
 20
34.55146556738654
 10
29.47799203412794
 20
34.40757826680971
 10
29.5127659886102
 20
34.2647855433078
 10
29.57847563800985
 20
33.98227340278089
 10
29.63916419592985
 20
33.7035172148799
 10
29.69493487685074
 20
33.42811792230345
 10
29.74587689511688
 20
33.15568742411171
 10
29.79206593344449
 20
32.88584674625034
 10
29.81339812971689
 20
32.75178122194336
 10
29.83356451638881
 20
32.61822428168085
 10
29.87042229262895
 20
32.35245408292136
 10
29.9026762287535
 20
32.08817419050021
 10
29.93035071608662
 20
31.82502498124575
 10
29.95345759097379
 20
31.56264752049401
 10
29.97199606783804
 20
31.30068190218793
 10
29.97954842368697
 20
31.16974038304275
 10
29.98595258315524
 20
31.03876556046311
 10
29.99530054730846
 20
30.77653153565587
 10
29.99999999999997
 20
30.5136066767042
 10
30.00059028317762
 20
30.3817664210032
  0
LWPOLYLINE
  5
24F
330
1F
100
AcDbEntity
  8
2
100
AcDbPolyline
 90
       23
 70
     0
 43
0.0
 10
30.00059028317762
 20
30.3817664210032
 10
29.99999999999997
 20
30.24992616530222
 10
29.99530054730846
 20
29.98700130635052
 10
29.98595258315524
 20
29.72476728154328
 10
29.97954842368697
 20
29.59379245896366
 10
29.97199606783804
 20
29.46285093981845
 10
29.95345759097379
 20
29.20088532151238
 10
29.93035071608662
 20
28.9385078607607
 10
29.9026762287535
 20
28.6753586515062
 10
29.87042229262895
 20
28.41107875908506
 10
29.83356451638881
 20
28.14530856032556
 10
29.81339812971689
 20
28.01175162006305
 10
29.79206593344449
 20
27.87768609575608
 10
29.74587689511688
 20
27.60784541789474
 10
29.69493487685074
 20
27.33541491970294
 10
29.63916419592985
 20
27.06001562712652
 10
29.57847563800985
 20
26.78125943922555
 10
29.5127659886102
 20
26.49874729869862
 10
29.47799203412794
 20
26.3559545751967
 10
29.44191746445446
 20
26.21206727461987
 10
29.36579703820732
 20
25.92079253791249
 10
29.28425564867618
 20
25.62447920844329
 10
29.24140090462285
 20
25.47428913289139
  0
LWPOLYLINE
  5
250
330
1F
100
AcDbEntity
  8
2
100
AcDbPolyline
 90
       23
 70
     0
 43
0.0
 10
30.00059028317762
 20
37.74298235317093
 10
29.99999999999997
 20
37.67706222532044
 10
29.99530054730846
 20
37.5455997958446
 10
29.98595258315524
 20
37.41448278344098
 10
29.97954842368697
 20
37.34899537215114
 10
29.97199606783804
 20
37.28352461257856
 10
29.95345759097379
 20
37.15254180342552
 10
29.93035071608662
 20
37.02135307304968
 10
29.9026762287535
 20
36.88977846842244
 10
29.87042229262895
 20
36.75763852221184
 10
29.83356451638881
 20
36.6247534228321
 10
29.81339812971689
 20
36.55797495270088
 10
29.79206593344449
 20
36.49094219054735
 10
29.74587689511688
 20
36.35602185161668
 10
29.69493487685074
 20
36.21980660252081
 10
29.63916419592985
 20
36.08210695623256
 10
29.57847563800985
 20
35.94272886228208
 10
29.5127659886102
 20
35.80147279201864
 10
29.47799203412794
 20
35.73007643026767
 10
29.44191746445446
 20
35.65813277997927
 10
29.36579703820732
 20
35.51249541162557
 10
29.28425564867618
 20
35.36433874689098
 10
29.24140090462285
 20
35.28924370911503
  0
LINE
  5
251
330
1F
100
AcDbEntity
  8
2
100
AcDbLine
 10
26.75977966173238
 20
35.28924370911503
 30
0.0
 11
29.24140090462285
 21
35.28924370911503
 31
0.0
  0
LWPOLYLINE
  5
252
330
1F
100
AcDbEntity
  8
2
100
AcDbPolyline
 90
       23
 70
     0
 43
0.0
 10
26.75977966173238
 20
35.28924370911503
 10
26.71692491767905
 20
35.36433874689098
 10
26.63538352814792
 20
35.51249541162557
 10
26.55926310190077
 20
35.65813277997927
 10
26.52318853222729
 20
35.73007643026767
 10
26.48841457774504
 20
35.80147279201862
 10
26.42270492834538
 20
35.94272886228208
 10
26.36201637042538
 20
36.08210695623256
 10
26.30624568950449
 20
36.21980660252081
 10
26.25530367123835
 20
36.35602185161668
 10
26.20911463291074
 20
36.49094219054735
 10
26.18778243663835
 20
36.55797495270088
 10
26.16761604996643
 20
36.6247534228321
 10
26.13075827372629
 20
36.75763852221184
 10
26.09850433760172
 20
36.88977846842244
 10
26.07082985026861
 20
37.02135307304968
 10
26.04772297538145
 20
37.15254180342552
 10
26.0291844985172
 20
37.28352461257856
 10
26.02163214266827
 20
37.34899537215114
 10
26.01522798319999
 20
37.41448278344098
 10
26.00588001904677
 20
37.5455997958446
 10
26.00118056635526
 20
37.67706222532044
 10
26.00059028317762
 20
37.74298235317093
  0
LWPOLYLINE
  5
253
330
1F
100
AcDbEntity
  8
2
100
AcDbPolyline
 90
       23
 70
     0
 43
0.0
 10
26.00059028317762
 20
37.74298235317093
 10
26.00118056635526
 20
37.80890248102145
 10
26.00588001904677
 20
37.94036491049727
 10
26.01522798319999
 20
38.07148192290089
 10
26.02163214266827
 20
38.13696933419072
 10
26.0291844985172
 20
38.2024400937633
 10
26.04772297538145
 20
38.33342290291634
 10
26.07082985026861
 20
38.46461163329218
 10
26.09850433760172
 20
38.59618623791943
 10
26.13075827372629
 20
38.72832618413003
 10
26.16761604996643
 20
38.86121128350976
 10
26.18778243663835
 20
38.92798975364101
 10
26.20911463291074
 20
38.99502251579452
 10
26.25530367123835
 20
39.12994285472519
 10
26.30624568950449
 20
39.26615810382106
 10
26.36201637042538
 20
39.4038577501093
 10
26.42270492834538
 20
39.54323584405978
 10
26.48841457774504
 20
39.68449191432325
 10
26.52318853222729
 20
39.75588827607419
 10
26.55926310190077
 20
39.82783192636259
 10
26.63538352814792
 20
39.9734692947163
 10
26.71692491767905
 20
40.12162595945087
 10
26.75977966173238
 20
40.19672099722683
  0
LINE
  5
254
330
1F
100
AcDbEntity
  8
2
100
AcDbLine
 10
26.75977966173238
 20
40.19672099722683
 30
0.0
 11
29.24140090462285
 21
40.19672099722683
 31
0.0
  0
LWPOLYLINE
  5
255
330
1F
100
AcDbEntity
  8
2
100
AcDbPolyline
 90
       23
 70
     0
 43
0.0
 10
29.24140090462285
 20
40.19672099722683
 10
29.28425564867618
 20
40.12162595945087
 10
29.36579703820732
 20
39.9734692947163
 10
29.44191746445446
 20
39.82783192636259
 10
29.47799203412794
 20
39.75588827607419
 10
29.5127659886102
 20
39.68449191432325
 10
29.57847563800985
 20
39.54323584405978
 10
29.63916419592985
 20
39.4038577501093
 10
29.69493487685074
 20
39.26615810382106
 10
29.74587689511688
 20
39.12994285472519
 10
29.79206593344449
 20
38.99502251579452
 10
29.81339812971689
 20
38.92798975364099
 10
29.83356451638881
 20
38.86121128350976
 10
29.87042229262895
 20
38.72832618413003
 10
29.9026762287535
 20
38.59618623791943
 10
29.93035071608662
 20
38.46461163329218
 10
29.95345759097379
 20
38.33342290291634
 10
29.97199606783804
 20
38.2024400937633
 10
29.97954842368697
 20
38.13696933419072
 10
29.98595258315524
 20
38.07148192290089
 10
29.99530054730846
 20
37.94036491049727
 10
29.99999999999997
 20
37.80890248102145
 10
30.00059028317762
 20
37.74298235317093
  0
LWPOLYLINE
  5
256
330
1F
100
AcDbEntity
  8
2
100
AcDbPolyline
 90
       23
 70
     0
 43
0.0
 10
35.24022033826802
 20
25.47428913289139
 10
35.28307508232135
 20
25.62447920844335
 10
35.36461647185249
 20
25.92079253791252
 10
35.44073689809963
 20
26.21206727461987
 10
35.47681146777311
 20
26.35595457519674
 10
35.51158542225536
 20
26.49874729869862
 10
35.57729507165502
 20
26.78125943922555
 10
35.63798362957502
 20
27.06001562712652
 10
35.69375431049591
 20
27.33541491970297
 10
35.74469632876205
 20
27.60784541789474
 10
35.79088536708966
 20
27.87768609575608
 10
35.81221756336205
 20
28.01175162006308
 10
35.83238395003397
 20
28.14530856032559
 10
35.86924172627411
 20
28.41107875908506
 10
35.90149566239868
 20
28.6753586515062
 10
35.92917014973179
 20
28.9385078607607
 10
35.95227702461895
 20
29.2008853215124
 10
35.9708155014832
 20
29.46285093981848
 10
35.97836785733213
 20
29.59379245896366
 10
35.98477201680041
 20
29.72476728154328
 10
35.99411998095363
 20
29.98700130635055
 10
35.99881943364514
 20
30.24992616530222
 10
35.99940971682278
 20
30.38176642100322
  0
LINE
  5
257
330
1F
100
AcDbEntity
  8
2
100
AcDbLine
 10
32.75859909537755
 20
40.19672099722686
 30
0.0
 11
31.99940971682278
 21
38.88176642100319
 31
0.0
  0
LINE
  5
258
330
1F
100
AcDbEntity
  8
2
100
AcDbLine
 10
31.99940971682278
 20
21.88176642100322
 30
0.0
 11
32.75859909537755
 21
20.56681184477958
 31
0.0
  0
LINE
  5
259
330
1F
100
AcDbEntity
  8
2
100
AcDbLine
 10
35.99940971682278
 20
38.88176642100319
 30
0.0
 11
35.24022033826802
 21
40.19672099722686
 31
0.0
  0
LINE
  5
25A
330
1F
100
AcDbEntity
  8
2
100
AcDbLine
 10
35.24022033826802
 20
20.56681184477958
 30
0.0
 11
35.99940971682278
 21
21.88176642100322
 31
0.0
  0
LINE
  5
25B
330
1F
100
AcDbEntity
  8
2
100
AcDbLine
 10
30.00059028317762
 20
21.88176642100319
 30
0.0
 11
30.00059028317762
 21
38.88176642100319
 31
0.0
  0
LINE
  5
25C
330
1F
100
AcDbEntity
  8
2
100
AcDbLine
 10
35.99940971682278
 20
21.88176642100322
 30
0.0
 11
35.99940971682278
 21
38.88176642100319
 31
0.0
  0
LINE
  5
25D
330
1F
100
AcDbEntity
  8
2
100
AcDbLine
 10
32.75859909537755
 20
20.56681184477958
 30
0.0
 11
35.24022033826802
 21
20.56681184477958
 31
0.0
  0
LWPOLYLINE
  5
25E
330
1F
100
AcDbEntity
  8
2
100
AcDbPolyline
 90
       23
 70
     0
 43
0.0
 10
32.75859909537755
 20
20.56681184477958
 10
32.71574435132422
 20
20.64190688255553
 10
32.63420296179308
 20
20.79006354729012
 10
32.55808253554594
 20
20.93570091564382
 10
32.52200796587246
 20
21.00764456593225
 10
32.4872340113902
 20
21.0790409276832
 10
32.42152436199055
 20
21.22029699794666
 10
32.36083580407055
 20
21.35967509189715
 10
32.30506512314966
 20
21.49737473818539
 10
32.25412310488352
 20
21.63358998728126
 10
32.20793406655591
 20
21.76851032621192
 10
32.18660187028351
 20
21.8355430883654
 10
32.16643548361159
 20
21.90232155849668
 10
32.12957770737145
 20
22.03520665787642
 10
32.09732377124689
 20
22.16734660408699
 10
32.06964928391378
 20
22.2989212087142
 10
32.04654240902661
 20
22.43010993909007
 10
32.02800393216236
 20
22.56109274824314
 10
32.02045157631344
 20
22.62656350781572
 10
32.01404741684516
 20
22.69205091910553
 10
32.00469945269194
 20
22.82316793150915
 10
31.99999999999997
 20
22.95463036098499
 10
31.99940971682278
 20
23.02055048883551
  0
LWPOLYLINE
  5
25F
330
1F
100
AcDbEntity
  8
2
100
AcDbPolyline
 90
       23
 70
     0
 43
0.0
 10
31.99940971682278
 20
23.02055048883551
 10
31.99999999999997
 20
23.08647061668597
 10
32.00469945269194
 20
23.21793304616182
 10
32.01404741684516
 20
23.34905005856547
 10
32.02045157631344
 20
23.41453746985525
 10
32.02800393216236
 20
23.48000822942785
 10
32.04654240902661
 20
23.61099103858089
 10
32.06964928391378
 20
23.74217976895676
 10
32.09732377124689
 20
23.87375437358401
 10
32.12957770737145
 20
24.00589431979455
 10
32.16643548361159
 20
24.13877941917429
 10
32.18660187028351
 20
24.20555788930557
 10
32.20793406655591
 20
24.27259065145904
 10
32.25412310488352
 20
24.40751099038971
 10
32.30506512314966
 20
24.54372623948561
 10
32.36083580407055
 20
24.68142588577382
 10
32.42152436199055
 20
24.8208039797243
 10
32.4872340113902
 20
24.96206004998777
 10
32.52200796587246
 20
25.03345641173874
 10
32.55808253554594
 20
25.10540006202717
 10
32.63420296179308
 20
25.25103743038085
 10
32.71574435132422
 20
25.39919409511544
 10
32.75859909537755
 20
25.47428913289139
  0
LWPOLYLINE
  5
260
330
1F
100
AcDbEntity
  8
2
100
AcDbPolyline
 90
       23
 70
     0
 43
0.0
 10
35.24022033826802
 20
25.47428913289139
 10
35.28307508232135
 20
25.39919409511544
 10
35.36461647185249
 20
25.25103743038085
 10
35.44073689809963
 20
25.10540006202717
 10
35.47681146777311
 20
25.03345641173874
 10
35.51158542225536
 20
24.96206004998777
 10
35.57729507165502
 20
24.8208039797243
 10
35.63798362957502
 20
24.68142588577382
 10
35.69375431049591
 20
24.54372623948561
 10
35.74469632876205
 20
24.40751099038971
 10
35.79088536708966
 20
24.27259065145904
 10
35.81221756336205
 20
24.20555788930557
 10
35.83238395003397
 20
24.13877941917431
 10
35.86924172627411
 20
24.00589431979455
 10
35.90149566239868
 20
23.87375437358401
 10
35.92917014973179
 20
23.74217976895676
 10
35.95227702461895
 20
23.61099103858089
 10
35.9708155014832
 20
23.48000822942785
 10
35.97836785733213
 20
23.41453746985525
 10
35.98477201680041
 20
23.34905005856547
 10
35.99411998095363
 20
23.21793304616182
 10
35.99881943364514
 20
23.08647061668597
 10
35.99940971682278
 20
23.02055048883548
  0
LWPOLYLINE
  5
261
330
1F
100
AcDbEntity
  8
2
100
AcDbPolyline
 90
       23
 70
     0
 43
0.0
 10
35.99940971682278
 20
23.02055048883548
 10
35.9988194336456
 20
22.95463036098499
 10
35.99411998095363
 20
22.82316793150915
 10
35.98477201680041
 20
22.69205091910553
 10
35.97836785733213
 20
22.62656350781572
 10
35.9708155014832
 20
22.56109274824314
 10
35.95227702461895
 20
22.43010993909007
 10
35.92917014973179
 20
22.2989212087142
 10
35.90149566239868
 20
22.16734660408699
 10
35.86924172627411
 20
22.03520665787642
 10
35.83238395003397
 20
21.90232155849668
 10
35.81221756336205
 20
21.8355430883654
 10
35.79088536708966
 20
21.76851032621192
 10
35.74469632876205
 20
21.63358998728126
 10
35.69375431049591
 20
21.49737473818539
 10
35.63798362957502
 20
21.35967509189715
 10
35.57729507165502
 20
21.22029699794666
 10
35.51158542225536
 20
21.0790409276832
 10
35.47681146777311
 20
21.00764456593225
 10
35.44073689809963
 20
20.93570091564382
 10
35.36461647185249
 20
20.79006354729012
 10
35.28307508232135
 20
20.64190688255553
 10
35.24022033826802
 20
20.56681184477958
  0
LINE
  5
262
330
1F
100
AcDbEntity
  8
2
100
AcDbLine
 10
32.75859909537755
 20
25.47428913289139
 30
0.0
 11
35.24022033826802
 21
25.47428913289139
 31
0.0
  0
LWPOLYLINE
  5
263
330
1F
100
AcDbEntity
  8
2
100
AcDbPolyline
 90
       23
 70
     0
 43
0.0
 10
32.75859909537755
 20
25.47428913289139
 10
32.71574435132422
 20
25.62447920844332
 10
32.63420296179308
 20
25.92079253791249
 10
32.55808253554594
 20
26.21206727461987
 10
32.52200796587246
 20
26.35595457519674
 10
32.4872340113902
 20
26.49874729869862
 10
32.42152436199055
 20
26.78125943922555
 10
32.36083580407055
 20
27.06001562712652
 10
32.30506512314966
 20
27.33541491970297
 10
32.25412310488352
 20
27.60784541789474
 10
32.20793406655591
 20
27.87768609575608
 10
32.18660187028351
 20
28.01175162006308
 10
32.16643548361159
 20
28.14530856032559
 10
32.12957770737145
 20
28.41107875908506
 10
32.09732377124689
 20
28.6753586515062
 10
32.06964928391378
 20
28.9385078607607
 10
32.04654240902661
 20
29.2008853215124
 10
32.02800393216236
 20
29.46285093981848
 10
32.02045157631344
 20
29.59379245896366
 10
32.01404741684516
 20
29.72476728154328
 10
32.00469945269194
 20
29.98700130635055
 10
31.99999999999997
 20
30.24992616530222
 10
31.99940971682278
 20
30.38176642100322
  0
LWPOLYLINE
  5
264
330
1F
100
AcDbEntity
  8
2
100
AcDbPolyline
 90
       23
 70
     0
 43
0.0
 10
31.99940971682278
 20
30.38176642100322
 10
31.99999999999997
 20
30.51360667670423
 10
32.00469945269194
 20
30.77653153565589
 10
32.01404741684516
 20
31.03876556046313
 10
32.02045157631344
 20
31.16974038304278
 10
32.02800393216236
 20
31.30068190218793
 10
32.04654240902661
 20
31.56264752049401
 10
32.06964928391378
 20
31.82502498124575
 10
32.09732377124689
 20
32.08817419050024
 10
32.12957770737145
 20
32.35245408292139
 10
32.16643548361159
 20
32.61822428168085
 10
32.18660187028351
 20
32.75178122194336
 10
32.20793406655591
 20
32.88584674625037
 10
32.25412310488352
 20
33.15568742411171
 10
32.30506512314966
 20
33.42811792230345
 10
32.36083580407055
 20
33.70351721487992
 10
32.42152436199055
 20
33.98227340278089
 10
32.4872340113902
 20
34.26478554330782
 10
32.52200796587246
 20
34.40757826680971
 10
32.55808253554594
 20
34.55146556738657
 10
32.63420296179308
 20
34.84274030409392
 10
32.71574435132422
 20
35.1390536335631
 10
32.75859909537755
 20
35.28924370911506
  0
LWPOLYLINE
  5
265
330
1F
100
AcDbEntity
  8
2
100
AcDbPolyline
 90
       23
 70
     0
 43
0.0
 10
35.24022033826802
 20
35.28924370911506
 10
35.28307508232135
 20
35.1390536335631
 10
35.36461647185249
 20
34.84274030409392
 10
35.44073689809963
 20
34.55146556738654
 10
35.47681146777311
 20
34.40757826680971
 10
35.51158542225536
 20
34.26478554330782
 10
35.57729507165502
 20
33.98227340278089
 10
35.63798362957502
 20
33.70351721487992
 10
35.69375431049591
 20
33.42811792230345
 10
35.74469632876205
 20
33.15568742411171
 10
35.79088536708966
 20
32.88584674625037
 10
35.81221756336205
 20
32.75178122194336
 10
35.83238395003397
 20
32.61822428168085
 10
35.86924172627411
 20
32.35245408292139
 10
35.90149566239868
 20
32.08817419050024
 10
35.92917014973179
 20
31.82502498124575
 10
35.95227702461895
 20
31.56264752049401
 10
35.9708155014832
 20
31.30068190218793
 10
35.97836785733213
 20
31.16974038304278
 10
35.98477201680041
 20
31.03876556046313
 10
35.99411998095363
 20
30.77653153565589
 10
35.99881943364514
 20
30.51360667670423
 10
35.99940971682278
 20
30.38176642100322
  0
LWPOLYLINE
  5
266
330
1F
100
AcDbEntity
  8
2
100
AcDbPolyline
 90
       23
 70
     0
 43
0.0
 10
35.99940971682278
 20
37.74298235317093
 10
35.99881943364514
 20
37.67706222532047
 10
35.99411998095363
 20
37.54559979584462
 10
35.98477201680041
 20
37.41448278344098
 10
35.97836785733213
 20
37.34899537215117
 10
35.9708155014832
 20
37.28352461257856
 10
35.95227702461895
 20
37.15254180342555
 10
35.92917014973179
 20
37.02135307304968
 10
35.90149566239868
 20
36.88977846842244
 10
35.86924172627411
 20
36.75763852221186
 10
35.83238395003397
 20
36.62475342283213
 10
35.81221756336205
 20
36.55797495270088
 10
35.79088536708966
 20
36.49094219054737
 10
35.74469632876205
 20
36.3560218516167
 10
35.69375431049591
 20
36.21980660252081
 10
35.63798362957502
 20
36.0821069562326
 10
35.57729507165502
 20
35.94272886228211
 10
35.51158542225536
 20
35.80147279201864
 10
35.47681146777311
 20
35.73007643026767
 10
35.44073689809963
 20
35.65813277997927
 10
35.36461647185249
 20
35.51249541162559
 10
35.28307508232135
 20
35.36433874689101
 10
35.24022033826802
 20
35.28924370911506
  0
LINE
  5
267
330
1F
100
AcDbEntity
  8
2
100
AcDbLine
 10
32.75859909537755
 20
35.28924370911506
 30
0.0
 11
35.24022033826802
 21
35.28924370911506
 31
0.0
  0
LWPOLYLINE
  5
268
330
1F
100
AcDbEntity
  8
2
100
AcDbPolyline
 90
       23
 70
     0
 43
0.0
 10
32.75859909537755
 20
35.28924370911506
 10
32.71574435132422
 20
35.36433874689101
 10
32.63420296179308
 20
35.51249541162559
 10
32.55808253554594
 20
35.65813277997927
 10
32.52200796587246
 20
35.73007643026767
 10
32.4872340113902
 20
35.80147279201864
 10
32.42152436199055
 20
35.94272886228211
 10
32.36083580407055
 20
36.0821069562326
 10
32.30506512314966
 20
36.21980660252081
 10
32.25412310488352
 20
36.3560218516167
 10
32.20793406655591
 20
36.49094219054737
 10
32.18660187028351
 20
36.55797495270088
 10
32.16643548361159
 20
36.6247534228321
 10
32.12957770737145
 20
36.75763852221186
 10
32.09732377124689
 20
36.88977846842244
 10
32.06964928391378
 20
37.02135307304968
 10
32.04654240902661
 20
37.15254180342555
 10
32.02800393216236
 20
37.28352461257856
 10
32.02045157631344
 20
37.34899537215117
 10
32.01404741684516
 20
37.41448278344098
 10
32.00469945269194
 20
37.54559979584462
 10
31.99999999999997
 20
37.67706222532047
 10
31.99940971682278
 20
37.74298235317093
  0
LWPOLYLINE
  5
269
330
1F
100
AcDbEntity
  8
2
100
AcDbPolyline
 90
       23
 70
     0
 43
0.0
 10
31.99940971682278
 20
37.74298235317093
 10
31.99999999999997
 20
37.80890248102145
 10
32.00469945269194
 20
37.94036491049729
 10
32.01404741684516
 20
38.07148192290089
 10
32.02045157631344
 20
38.13696933419072
 10
32.02800393216236
 20
38.2024400937633
 10
32.04654240902661
 20
38.33342290291637
 10
32.06964928391378
 20
38.46461163329221
 10
32.09732377124689
 20
38.59618623791945
 10
32.12957770737145
 20
38.72832618413003
 10
32.16643548361159
 20
38.86121128350976
 10
32.18660187028351
 20
38.92798975364101
 10
32.20793406655591
 20
38.99502251579452
 10
32.25412310488352
 20
39.12994285472519
 10
32.30506512314966
 20
39.26615810382106
 10
32.36083580407055
 20
39.4038577501093
 10
32.42152436199055
 20
39.54323584405978
 10
32.4872340113902
 20
39.68449191432325
 10
32.52200796587246
 20
39.75588827607419
 10
32.55808253554594
 20
39.82783192636259
 10
32.63420296179308
 20
39.97346929471632
 10
32.71574435132422
 20
40.12162595945091
 10
32.75859909537755
 20
40.19672099722686
  0
LINE
  5
26A
330
1F
100
AcDbEntity
  8
2
100
AcDbLine
 10
32.75859909537755
 20
40.19672099722686
 30
0.0
 11
35.24022033826802
 21
40.19672099722686
 31
0.0
  0
LWPOLYLINE
  5
26B
330
1F
100
AcDbEntity
  8
2
100
AcDbPolyline
 90
       23
 70
     0
 43
0.0
 10
35.24022033826802
 20
40.19672099722686
 10
35.28307508232135
 20
40.12162595945091
 10
35.36461647185249
 20
39.97346929471632
 10
35.44073689809963
 20
39.82783192636259
 10
35.47681146777311
 20
39.75588827607419
 10
35.51158542225536
 20
39.68449191432325
 10
35.57729507165502
 20
39.54323584405978
 10
35.63798362957502
 20
39.4038577501093
 10
35.69375431049591
 20
39.26615810382106
 10
35.74469632876205
 20
39.12994285472519
 10
35.79088536708966
 20
38.99502251579452
 10
35.81221756336205
 20
38.92798975364101
 10
35.83238395003397
 20
38.86121128350976
 10
35.86924172627411
 20
38.72832618413003
 10
35.90149566239868
 20
38.59618623791943
 10
35.92917014973179
 20
38.46461163329221
 10
35.95227702461895
 20
38.33342290291637
 10
35.9708155014832
 20
38.2024400937633
 10
35.97836785733213
 20
38.13696933419072
 10
35.98477201680041
 20
38.07148192290089
 10
35.99411998095363
 20
37.94036491049729
 10
35.99881943364514
 20
37.80890248102145
 10
35.99940971682278
 20
37.74298235317093
  0
LINE
  5
26C
330
1F
100
AcDbEntity
  8
2
100
AcDbLine
 10
55.29676796415239
 20
36.38176642100319
 30
0.0
 11
35.99940971682278
 21
36.38176642100319
 31
0.0
  0
LINE
  5
26D
330
1F
100
AcDbEntity
  8
2
100
AcDbLine
 10
58.79676796415239
 20
27.9317664210032
 30
0.0
 11
81.7967679641524
 21
27.9317664210032
 31
0.0
  0
LINE
  5
26E
330
1F
100
AcDbEntity
  8
2
100
AcDbLine
 10
81.7967679641524
 20
32.83176642100321
 30
0.0
 11
58.79676796415239
 21
32.83176642100321
 31
0.0
  0
ARC
  5
26F
330
1F
100
AcDbEntity
  8
2
100
AcDbCircle
 10
58.3967679641523
 20
33.97564937209688
 30
0.0
 40
0.4000000000000004
100
AcDbArc
 50
0.0
 51
87.99999999999636
  0
ARC
  5
270
330
1F
100
AcDbEntity
  8
2
100
AcDbCircle
 10
58.3967679641523
 20
26.78788346990956
 30
0.0
 40
0.3999999999999999
100
AcDbArc
 50
272.0000000000037
 51
359.9999991462263
  0
LINE
  5
271
330
1F
100
AcDbEntity
  8
2
100
AcDbLine
 10
56.7967679641524
 20
26.33176642100324
 30
0.0
 11
58.4107277628336
 21
26.3881271391019
 31
0.0
  0
LINE
  5
272
330
1F
100
AcDbEntity
  8
2
100
AcDbLine
 10
58.4107277628336
 20
34.37540570290452
 30
0.0
 11
56.7967679641524
 21
34.43176642100321
 31
0.0
  0
LINE
  5
273
330
1F
100
AcDbEntity
  8
2
100
AcDbLine
 10
16.79676796415239
 20
24.38176642100322
 30
0.0
 11
26.00059028317762
 21
24.38176642100322
 31
0.0
  0
LINE
  5
274
330
1F
100
AcDbEntity
  8
2
100
AcDbLine
 10
35.99940971682278
 20
24.38176642100322
 30
0.0
 11
55.29676796415239
 21
24.38176642100319
 31
0.0
  0
LINE
  5
275
330
1F
100
AcDbEntity
  8
2
100
AcDbLine
 10
26.00059028317762
 20
36.38176642100322
 30
0.0
 11
16.79676796415239
 21
36.38176642100322
 31
0.0
  0
LINE
  5
276
330
1F
100
AcDbEntity
  8
2
100
AcDbLine
 10
55.29676796415239
 20
25.08176642100321
 30
0.0
 11
56.7967679641524
 21
25.08176642100321
 31
0.0
  0
LINE
  5
277
330
1F
100
AcDbEntity
  8
2
100
AcDbLine
 10
56.7967679641524
 20
35.68176642100321
 30
0.0
 11
55.29676796415239
 21
35.68176642100321
 31
0.0
  0
LINE
  5
278
330
1F
100
AcDbEntity
  8
2
100
AcDbLine
 10
81.7967679641524
 20
32.83176642100321
 30
0.0
 11
81.7967679641524
 21
27.9317664210032
 31
0.0
  0
LINE
  5
279
330
1F
100
AcDbEntity
  8
2
100
AcDbLine
 10
58.79676796415239
 20
33.97564937209688
 30
0.0
 11
58.79676796415239
 21
26.78788346990956
 31
0.0
  0
LINE
  5
27A
330
1F
100
AcDbEntity
  8
2
100
AcDbLine
 10
55.29676796415239
 20
36.38176642100319
 30
0.0
 11
55.29676796415239
 21
24.38176642100319
 31
0.0
  0
LINE
  5
27B
330
1F
100
AcDbEntity
  8
2
100
AcDbLine
 10
16.79676796415239
 20
36.38176642100322
 30
0.0
 11
16.79676796415239
 21
24.38176642100322
 31
0.0
  0
LINE
  5
27C
330
1F
100
AcDbEntity
  8
2
100
AcDbLine
 10
56.7967679641524
 20
35.68176642100321
 30
0.0
 11
56.7967679641524
 21
25.08176642100321
 31
0.0
  0
LINE
  5
27D
330
1F
100
AcDbEntity
  8
3
  6
DASHED
100
AcDbLine
 10
-26.75977966173238
 20
35.56681184477958
 30
0.0
 11
-26.00059028317762
 21
36.88176642100319
 31
0.0
  0
LINE
  5
27E
330
1F
100
AcDbEntity
  8
3
  6
DASHED
100
AcDbLine
 10
-26.00059028317762
 20
53.88176642100319
 30
0.0
 11
-26.75977966173238
 21
55.19672099722686
 31
0.0
  0
LINE
  5
27F
330
1F
100
AcDbEntity
  8
3
  6
DASHED
100
AcDbLine
 10
-30.00059028317762
 20
36.88176642100322
 30
0.0
 11
-29.24140090462285
 21
35.56681184477958
 31
0.0
  0
LINE
  5
280
330
1F
100
AcDbEntity
  8
3
  6
DASHED
100
AcDbLine
 10
-29.24140090462285
 20
55.19672099722686
 30
0.0
 11
-30.00059028317762
 21
53.88176642100319
 31
0.0
  0
LINE
  5
281
330
1F
100
AcDbEntity
  8
3
  6
DASHED
100
AcDbLine
 10
-26.00059028317762
 20
53.88176642100319
 30
0.0
 11
-26.00059028317762
 21
36.88176642100322
 31
0.0
  0
LINE
  5
282
330
1F
100
AcDbEntity
  8
3
  6
DASHED
100
AcDbLine
 10
-31.99940971682278
 20
53.88176642100319
 30
0.0
 11
-31.99940971682278
 21
36.88176642100319
 31
0.0
  0
LINE
  5
283
330
1F
100
AcDbEntity
  8
3
  6
DASHED
100
AcDbLine
 10
-26.75977966173238
 20
55.19672099722686
 30
0.0
 11
-29.24140090462285
 21
55.19672099722686
 31
0.0
  0
LWPOLYLINE
  5
284
330
1F
100
AcDbEntity
  8
3
  6
DASHED
100
AcDbPolyline
 90
       23
 70
     0
 43
0.0
 10
-26.75977966173238
 20
55.19672099722686
 10
-26.71692491767905
 20
55.12162595945088
 10
-26.63538352814792
 20
54.97346929471629
 10
-26.55926310190077
 20
54.82783192636259
 10
-26.52318853222729
 20
54.75588827607419
 10
-26.48841457774504
 20
54.68449191432324
 10
-26.42270492834538
 20
54.54323584405978
 10
-26.36201637042538
 20
54.4038577501093
 10
-26.30624568950449
 20
54.26615810382106
 10
-26.25530367123835
 20
54.12994285472518
 10
-26.20911463291074
 20
53.99502251579452
 10
-26.18778243663835
 20
53.92798975364101
 10
-26.16761604996643
 20
53.86121128350976
 10
-26.13075827372629
 20
53.72832618413003
 10
-26.09850433760172
 20
53.59618623791942
 10
-26.07082985026861
 20
53.4646116332922
 10
-26.04772297538145
 20
53.33342290291634
 10
-26.0291844985172
 20
53.2024400937633
 10
-26.02163214266827
 20
53.13696933419072
 10
-26.01522798319999
 20
53.07148192290089
 10
-26.00588001904677
 20
52.94036491049727
 10
-26.0011805663548
 20
52.80890248102145
 10
-26.00059028317762
 20
52.74298235317093
  0
LWPOLYLINE
  5
285
330
1F
100
AcDbEntity
  8
3
  6
DASHED
100
AcDbPolyline
 90
       23
 70
     0
 43
0.0
 10
-26.00059028317762
 20
52.74298235317093
 10
-26.00118056635526
 20
52.67706222532044
 10
-26.00588001904677
 20
52.5455997958446
 10
-26.01522798319999
 20
52.41448278344098
 10
-26.02163214266827
 20
52.34899537215117
 10
-26.0291844985172
 20
52.28352461257856
 10
-26.04772297538145
 20
52.15254180342554
 10
-26.07082985026861
 20
52.02135307304968
 10
-26.09850433760172
 20
51.88977846842243
 10
-26.13075827372629
 20
51.75763852221186
 10
-26.16761604996643
 20
51.62475342283213
 10
-26.18778243663835
 20
51.55797495270087
 10
-26.20911463291074
 20
51.49094219054737
 10
-26.25530367123835
 20
51.3560218516167
 10
-26.30624568950449
 20
51.21980660252081
 10
-26.36201637042538
 20
51.0821069562326
 10
-26.42270492834538
 20
50.9427288622821
 10
-26.48841457774504
 20
50.80147279201864
 10
-26.52318853222729
 20
50.73007643026767
 10
-26.55926310190077
 20
50.65813277997927
 10
-26.63538352814792
 20
50.51249541162559
 10
-26.71692491767905
 20
50.36433874689101
 10
-26.75977966173238
 20
50.28924370911503
  0
LWPOLYLINE
  5
286
330
1F
100
AcDbEntity
  8
3
  6
DASHED
100
AcDbPolyline
 90
       23
 70
     0
 43
0.0
 10
-29.24140090462285
 20
50.28924370911503
 10
-29.28425564867618
 20
50.36433874689101
 10
-29.36579703820732
 20
50.51249541162559
 10
-29.44191746445446
 20
50.65813277997927
 10
-29.47799203412794
 20
50.73007643026767
 10
-29.5127659886102
 20
50.80147279201864
 10
-29.57847563800985
 20
50.9427288622821
 10
-29.63916419592985
 20
51.0821069562326
 10
-29.69493487685074
 20
51.21980660252081
 10
-29.74587689511688
 20
51.3560218516167
 10
-29.79206593344449
 20
51.49094219054737
 10
-29.81339812971689
 20
51.55797495270087
 10
-29.83356451638881
 20
51.6247534228321
 10
-29.87042229262895
 20
51.75763852221186
 10
-29.9026762287535
 20
51.88977846842243
 10
-29.93035071608662
 20
52.02135307304968
 10
-29.95345759097379
 20
52.15254180342552
 10
-29.97199606783804
 20
52.28352461257856
 10
-29.97954842368697
 20
52.34899537215117
 10
-29.98595258315524
 20
52.41448278344098
 10
-29.99530054730846
 20
52.5455997958446
 10
-29.99999999999997
 20
52.67706222532044
 10
-30.00059028317762
 20
52.74298235317093
  0
LWPOLYLINE
  5
287
330
1F
100
AcDbEntity
  8
3
  6
DASHED
100
AcDbPolyline
 90
       23
 70
     0
 43
0.0
 10
-30.00059028317762
 20
52.74298235317093
 10
-29.99999999999997
 20
52.80890248102145
 10
-29.99530054730846
 20
52.94036491049729
 10
-29.98595258315524
 20
53.07148192290089
 10
-29.97954842368697
 20
53.13696933419072
 10
-29.97199606783804
 20
53.2024400937633
 10
-29.95345759097379
 20
53.33342290291634
 10
-29.93035071608662
 20
53.4646116332922
 10
-29.9026762287535
 20
53.59618623791942
 10
-29.87042229262895
 20
53.72832618413003
 10
-29.83356451638881
 20
53.86121128350976
 10
-29.81339812971689
 20
53.92798975364101
 10
-29.79206593344449
 20
53.99502251579452
 10
-29.74587689511688
 20
54.12994285472518
 10
-29.69493487685074
 20
54.26615810382106
 10
-29.63916419592985
 20
54.4038577501093
 10
-29.57847563800985
 20
54.54323584405978
 10
-29.5127659886102
 20
54.68449191432324
 10
-29.47799203412794
 20
54.75588827607419
 10
-29.44191746445446
 20
54.82783192636259
 10
-29.36579703820732
 20
54.97346929471629
 10
-29.28425564867618
 20
55.12162595945088
 10
-29.24140090462285
 20
55.19672099722686
  0
LINE
  5
288
330
1F
100
AcDbEntity
  8
3
  6
DASHED
100
AcDbLine
 10
-26.75977966173238
 20
50.28924370911503
 30
0.0
 11
-29.24140090462285
 21
50.28924370911503
 31
0.0
  0
LWPOLYLINE
  5
289
330
1F
100
AcDbEntity
  8
3
  6
DASHED
100
AcDbPolyline
 90
       23
 70
     0
 43
0.0
 10
-26.75977966173238
 20
50.28924370911503
 10
-26.71692491767905
 20
50.13905363356309
 10
-26.63538352814792
 20
49.84274030409392
 10
-26.55926310190077
 20
49.55146556738654
 10
-26.52318853222729
 20
49.40757826680971
 10
-26.48841457774504
 20
49.26478554330782
 10
-26.42270492834538
 20
48.98227340278089
 10
-26.36201637042538
 20
48.70351721487992
 10
-26.30624568950449
 20
48.42811792230344
 10
-26.25530367123835
 20
48.1556874241117
 10
-26.20911463291074
 20
47.88584674625036
 10
-26.18778243663835
 20
47.75178122194335
 10
-26.16761604996643
 20
47.61822428168085
 10
-26.13075827372629
 20
47.35245408292138
 10
-26.09850433760172
 20
47.08817419050021
 10
-26.07082985026861
 20
46.82502498124574
 10
-26.04772297538145
 20
46.56264752049401
 10
-26.0291844985172
 20
46.30068190218793
 10
-26.02163214266827
 20
46.16974038304277
 10
-26.01522798319999
 20
46.03876556046313
 10
-26.00588001904677
 20
45.77653153565586
 10
-26.0011805663548
 20
45.51360667670422
 10
-26.00059028317762
 20
45.38176642100319
  0
LWPOLYLINE
  5
28A
330
1F
100
AcDbEntity
  8
3
  6
DASHED
100
AcDbPolyline
 90
       23
 70
     0
 43
0.0
 10
-26.00059028317762
 20
45.38176642100319
 10
-26.00118056635526
 20
45.24992616530221
 10
-26.00588001904677
 20
44.98700130635052
 10
-26.01522798319999
 20
44.72476728154328
 10
-26.02163214266827
 20
44.59379245896366
 10
-26.0291844985172
 20
44.46285093981848
 10
-26.04772297538145
 20
44.2008853215124
 10
-26.07082985026861
 20
43.93850786076069
 10
-26.09850433760172
 20
43.6753586515062
 10
-26.13075827372629
 20
43.41107875908505
 10
-26.16761604996643
 20
43.14530856032559
 10
-26.18778243663835
 20
43.01175162006308
 10
-26.20911463291074
 20
42.87768609575607
 10
-26.25530367123835
 20
42.60784541789473
 10
-26.30624568950449
 20
42.33541491970297
 10
-26.36201637042538
 20
42.06001562712652
 10
-26.42270492834538
 20
41.78125943922554
 10
-26.48841457774504
 20
41.49874729869861
 10
-26.52318853222729
 20
41.3559545751967
 10
-26.55926310190077
 20
41.21206727461987
 10
-26.63538352814792
 20
40.92079253791249
 10
-26.71692491767905
 20
40.62447920844332
 10
-26.75977966173238
 20
40.47428913289138
  0
LWPOLYLINE
  5
28B
330
1F
100
AcDbEntity
  8
3
  6
DASHED
100
AcDbPolyline
 90
       23
 70
     0
 43
0.0
 10
-29.24140090462285
 20
40.47428913289138
 10
-29.28425564867618
 20
40.62447920844332
 10
-29.36579703820732
 20
40.92079253791249
 10
-29.44191746445446
 20
41.21206727461987
 10
-29.47799203412794
 20
41.3559545751967
 10
-29.5127659886102
 20
41.49874729869861
 10
-29.57847563800985
 20
41.78125943922554
 10
-29.63916419592985
 20
42.06001562712652
 10
-29.69493487685074
 20
42.33541491970297
 10
-29.74587689511688
 20
42.60784541789473
 10
-29.79206593344449
 20
42.87768609575607
 10
-29.81339812971689
 20
43.01175162006305
 10
-29.83356451638881
 20
43.14530856032559
 10
-29.87042229262895
 20
43.41107875908505
 10
-29.9026762287535
 20
43.6753586515062
 10
-29.93035071608662
 20
43.93850786076069
 10
-29.95345759097379
 20
44.2008853215124
 10
-29.97199606783804
 20
44.46285093981848
 10
-29.97954842368697
 20
44.59379245896366
 10
-29.98595258315524
 20
44.72476728154328
 10
-29.99530054730846
 20
44.98700130635052
 10
-29.99999999999997
 20
45.24992616530221
 10
-30.00059028317762
 20
45.38176642100319
  0
LWPOLYLINE
  5
28C
330
1F
100
AcDbEntity
  8
3
  6
DASHED
100
AcDbPolyline
 90
       23
 70
     0
 43
0.0
 10
-30.00059028317762
 20
45.38176642100319
 10
-29.99999999999997
 20
45.5136066767042
 10
-29.99530054730846
 20
45.77653153565586
 10
-29.98595258315524
 20
46.03876556046313
 10
-29.97954842368697
 20
46.16974038304277
 10
-29.97199606783804
 20
46.30068190218793
 10
-29.95345759097379
 20
46.56264752049401
 10
-29.93035071608662
 20
46.82502498124574
 10
-29.9026762287535
 20
47.08817419050021
 10
-29.87042229262895
 20
47.35245408292138
 10
-29.83356451638881
 20
47.61822428168085
 10
-29.81339812971689
 20
47.75178122194335
 10
-29.79206593344449
 20
47.88584674625036
 10
-29.74587689511688
 20
48.1556874241117
 10
-29.69493487685074
 20
48.42811792230344
 10
-29.63916419592985
 20
48.70351721487992
 10
-29.57847563800985
 20
48.98227340278089
 10
-29.5127659886102
 20
49.26478554330782
 10
-29.47799203412794
 20
49.40757826680971
 10
-29.44191746445446
 20
49.55146556738654
 10
-29.36579703820732
 20
49.84274030409392
 10
-29.28425564867618
 20
50.13905363356309
 10
-29.24140090462285
 20
50.28924370911503
  0
LWPOLYLINE
  5
28D
330
1F
100
AcDbEntity
  8
3
  6
DASHED
100
AcDbPolyline
 90
       23
 70
     0
 43
0.0
 10
-30.00059028317762
 20
38.02055048883548
 10
-29.99999999999997
 20
38.08647061668597
 10
-29.99530054730846
 20
38.21793304616182
 10
-29.98595258315524
 20
38.34905005856544
 10
-29.97954842368697
 20
38.41453746985525
 10
-29.97199606783804
 20
38.48000822942785
 10
-29.95345759097379
 20
38.61099103858089
 10
-29.93035071608662
 20
38.74217976895676
 10
-29.9026762287535
 20
38.87375437358398
 10
-29.87042229262895
 20
39.00589431979455
 10
-29.83356451638881
 20
39.13877941917429
 10
-29.81339812971689
 20
39.20555788930557
 10
-29.79206593344449
 20
39.27259065145904
 10
-29.74587689511688
 20
39.40751099038971
 10
-29.69493487685074
 20
39.54372623948561
 10
-29.63916419592985
 20
39.68142588577382
 10
-29.57847563800985
 20
39.8208039797243
 10
-29.5127659886102
 20
39.96206004998777
 10
-29.47799203412794
 20
40.03345641173874
 10
-29.44191746445446
 20
40.10540006202714
 10
-29.36579703820732
 20
40.25103743038084
 10
-29.28425564867618
 20
40.39919409511543
 10
-29.24140090462285
 20
40.47428913289138
  0
LINE
  5
28E
330
1F
100
AcDbEntity
  8
3
  6
DASHED
100
AcDbLine
 10
-26.75977966173238
 20
40.47428913289138
 30
0.0
 11
-29.24140090462285
 21
40.47428913289138
 31
0.0
  0
LWPOLYLINE
  5
28F
330
1F
100
AcDbEntity
  8
3
  6
DASHED
100
AcDbPolyline
 90
       23
 70
     0
 43
0.0
 10
-26.75977966173238
 20
40.47428913289138
 10
-26.71692491767905
 20
40.39919409511543
 10
-26.63538352814792
 20
40.25103743038084
 10
-26.55926310190077
 20
40.10540006202714
 10
-26.52318853222729
 20
40.03345641173874
 10
-26.48841457774504
 20
39.96206004998777
 10
-26.42270492834538
 20
39.8208039797243
 10
-26.36201637042538
 20
39.68142588577382
 10
-26.30624568950449
 20
39.54372623948561
 10
-26.25530367123835
 20
39.40751099038971
 10
-26.20911463291074
 20
39.27259065145904
 10
-26.18778243663835
 20
39.20555788930557
 10
-26.16761604996643
 20
39.13877941917429
 10
-26.13075827372629
 20
39.00589431979455
 10
-26.09850433760172
 20
38.87375437358398
 10
-26.07082985026861
 20
38.74217976895676
 10
-26.04772297538145
 20
38.61099103858089
 10
-26.0291844985172
 20
38.48000822942785
 10
-26.02163214266827
 20
38.41453746985525
 10
-26.01522798319999
 20
38.34905005856544
 10
-26.00588001904677
 20
38.21793304616182
 10
-26.00118056635526
 20
38.08647061668597
 10
-26.00059028317762
 20
38.02055048883548
  0
LWPOLYLINE
  5
290
330
1F
100
AcDbEntity
  8
3
  6
DASHED
100
AcDbPolyline
 90
       23
 70
     0
 43
0.0
 10
-26.00059028317762
 20
38.02055048883548
 10
-26.00118056635526
 20
37.95463036098499
 10
-26.00588001904677
 20
37.82316793150915
 10
-26.01522798319999
 20
37.69205091910553
 10
-26.02163214266827
 20
37.62656350781572
 10
-26.0291844985172
 20
37.56109274824311
 10
-26.04772297538145
 20
37.43010993909007
 10
-26.07082985026861
 20
37.29892120871421
 10
-26.09850433760172
 20
37.16734660408696
 10
-26.13075827372629
 20
37.03520665787642
 10
-26.16761604996643
 20
36.90232155849668
 10
-26.18778243663835
 20
36.8355430883654
 10
-26.20911463291074
 20
36.76851032621192
 10
-26.25530367123835
 20
36.63358998728126
 10
-26.30624568950449
 20
36.49737473818536
 10
-26.36201637042538
 20
36.35967509189715
 10
-26.42270492834538
 20
36.22029699794666
 10
-26.48841457774504
 20
36.0790409276832
 10
-26.52318853222729
 20
36.00764456593223
 10
-26.55926310190077
 20
35.93570091564382
 10
-26.63538352814792
 20
35.79006354729012
 10
-26.71692491767905
 20
35.64190688255553
 10
-26.75977966173238
 20
35.56681184477958
  0
LINE
  5
291
330
1F
100
AcDbEntity
  8
3
  6
DASHED
100
AcDbLine
 10
-26.75977966173238
 20
35.56681184477958
 30
0.0
 11
-29.24140090462285
 21
35.56681184477958
 31
0.0
  0
LWPOLYLINE
  5
292
330
1F
100
AcDbEntity
  8
3
  6
DASHED
100
AcDbPolyline
 90
       23
 70
     0
 43
0.0
 10
-29.24140090462285
 20
35.56681184477958
 10
-29.28425564867618
 20
35.64190688255553
 10
-29.36579703820732
 20
35.79006354729012
 10
-29.44191746445446
 20
35.93570091564382
 10
-29.47799203412794
 20
36.00764456593223
 10
-29.5127659886102
 20
36.0790409276832
 10
-29.57847563800985
 20
36.22029699794666
 10
-29.63916419592985
 20
36.35967509189715
 10
-29.69493487685074
 20
36.49737473818536
 10
-29.74587689511688
 20
36.63358998728126
 10
-29.79206593344449
 20
36.76851032621192
 10
-29.81339812971689
 20
36.8355430883654
 10
-29.83356451638881
 20
36.90232155849668
 10
-29.87042229262895
 20
37.03520665787642
 10
-29.9026762287535
 20
37.16734660408699
 10
-29.93035071608662
 20
37.29892120871421
 10
-29.95345759097379
 20
37.43010993909007
 10
-29.97199606783804
 20
37.56109274824311
 10
-29.97954842368697
 20
37.62656350781572
 10
-29.98595258315524
 20
37.69205091910553
 10
-29.99530054730846
 20
37.82316793150915
 10
-29.99999999999997
 20
37.95463036098499
 10
-30.00059028317762
 20
38.02055048883548
  0
LWPOLYLINE
  5
293
330
1F
100
AcDbEntity
  8
3
  6
DASHED
100
AcDbPolyline
 90
       23
 70
     0
 43
0.0
 10
-35.24022033826802
 20
50.289243709115
 10
-35.28307508232135
 20
50.13905363356309
 10
-35.36461647185249
 20
49.84274030409392
 10
-35.44073689809963
 20
49.55146556738651
 10
-35.47681146777311
 20
49.40757826680971
 10
-35.51158542225536
 20
49.26478554330779
 10
-35.57729507165502
 20
48.98227340278086
 10
-35.63798362957502
 20
48.70351721487989
 10
-35.69375431049591
 20
48.42811792230344
 10
-35.74469632876205
 20
48.15568742411167
 10
-35.79088536708966
 20
47.88584674625034
 10
-35.81221756336205
 20
47.75178122194335
 10
-35.83238395003397
 20
47.61822428168085
 10
-35.86924172627411
 20
47.35245408292136
 10
-35.90149566239868
 20
47.08817419050018
 10
-35.92917014973179
 20
46.82502498124572
 10
-35.95227702461895
 20
46.56264752049401
 10
-35.9708155014832
 20
46.30068190218793
 10
-35.97836785733213
 20
46.16974038304275
 10
-35.98477201680041
 20
46.0387655604631
 10
-35.99411998095363
 20
45.77653153565586
 10
-35.99881943364514
 20
45.51360667670417
 10
-35.99940971682278
 20
45.38176642100319
  0
LINE
  5
294
330
1F
100
AcDbEntity
  8
3
  6
DASHED
100
AcDbLine
 10
-32.75859909537755
 20
35.56681184477958
 30
0.0
 11
-31.99940971682278
 21
36.88176642100319
 31
0.0
  0
LINE
  5
295
330
1F
100
AcDbEntity
  8
3
  6
DASHED
100
AcDbLine
 10
-31.99940971682278
 20
53.88176642100319
 30
0.0
 11
-32.75859909537755
 21
55.19672099722683
 31
0.0
  0
LINE
  5
296
330
1F
100
AcDbEntity
  8
3
  6
DASHED
100
AcDbLine
 10
-35.99940971682278
 20
36.88176642100319
 30
0.0
 11
-35.24022033826802
 21
35.56681184477958
 31
0.0
  0
LINE
  5
297
330
1F
100
AcDbEntity
  8
3
  6
DASHED
100
AcDbLine
 10
-35.24022033826802
 20
55.19672099722683
 30
0.0
 11
-35.99940971682278
 21
53.88176642100319
 31
0.0
  0
LINE
  5
298
330
1F
100
AcDbEntity
  8
3
  6
DASHED
100
AcDbLine
 10
-30.00059028317762
 20
53.88176642100319
 30
0.0
 11
-30.00059028317762
 21
36.88176642100322
 31
0.0
  0
LINE
  5
299
330
1F
100
AcDbEntity
  8
3
  6
DASHED
100
AcDbLine
 10
-35.99940971682278
 20
53.88176642100319
 30
0.0
 11
-35.99940971682278
 21
36.88176642100319
 31
0.0
  0
LINE
  5
29A
330
1F
100
AcDbEntity
  8
3
  6
DASHED
100
AcDbLine
 10
-32.75859909537755
 20
55.19672099722683
 30
0.0
 11
-35.24022033826802
 21
55.19672099722683
 31
0.0
  0
LWPOLYLINE
  5
29B
330
1F
100
AcDbEntity
  8
3
  6
DASHED
100
AcDbPolyline
 90
       23
 70
     0
 43
0.0
 10
-32.75859909537755
 20
55.19672099722683
 10
-32.71574435132422
 20
55.12162595945085
 10
-32.63420296179308
 20
54.97346929471627
 10
-32.55808253554594
 20
54.82783192636259
 10
-32.52200796587246
 20
54.75588827607419
 10
-32.4872340113902
 20
54.68449191432324
 10
-32.42152436199055
 20
54.54323584405975
 10
-32.36083580407055
 20
54.40385775010927
 10
-32.30506512314966
 20
54.26615810382106
 10
-32.25412310488352
 20
54.12994285472518
 10
-32.20793406655591
 20
53.99502251579448
 10
-32.18660187028351
 20
53.92798975364098
 10
-32.16643548361159
 20
53.86121128350976
 10
-32.12957770737145
 20
53.72832618413003
 10
-32.09732377124689
 20
53.59618623791942
 10
-32.06964928391378
 20
53.46461163329218
 10
-32.04654240902661
 20
53.33342290291631
 10
-32.02800393216236
 20
53.2024400937633
 10
-32.02045157631344
 20
53.1369693341907
 10
-32.01404741684516
 20
53.07148192290089
 10
-32.00469945269194
 20
52.94036491049723
 10
-31.99999999999997
 20
52.80890248102142
 10
-31.99940971682278
 20
52.74298235317093
  0
LWPOLYLINE
  5
29C
330
1F
100
AcDbEntity
  8
3
  6
DASHED
100
AcDbPolyline
 90
       23
 70
     0
 43
0.0
 10
-31.99940971682278
 20
52.74298235317093
 10
-31.99999999999997
 20
52.67706222532041
 10
-32.00469945269194
 20
52.54559979584456
 10
-32.01404741684516
 20
52.41448278344098
 10
-32.02045157631344
 20
52.34899537215113
 10
-32.02800393216236
 20
52.28352461257856
 10
-32.04654240902661
 20
52.15254180342552
 10
-32.06964928391378
 20
52.02135307304968
 10
-32.09732377124689
 20
51.88977846842243
 10
-32.12957770737145
 20
51.75763852221184
 10
-32.16643548361159
 20
51.6247534228321
 10
-32.18660187028351
 20
51.55797495270085
 10
-32.20793406655591
 20
51.49094219054735
 10
-32.25412310488352
 20
51.35602185161667
 10
-32.30506512314966
 20
51.21980660252081
 10
-32.36083580407055
 20
51.08210695623256
 10
-32.42152436199055
 20
50.94272886228208
 10
-32.4872340113902
 20
50.80147279201861
 10
-32.52200796587246
 20
50.73007643026767
 10
-32.55808253554594
 20
50.65813277997927
 10
-32.63420296179308
 20
50.51249541162556
 10
-32.71574435132422
 20
50.36433874689098
 10
-32.75859909537755
 20
50.289243709115
  0
LWPOLYLINE
  5
29D
330
1F
100
AcDbEntity
  8
3
  6
DASHED
100
AcDbPolyline
 90
       23
 70
     0
 43
0.0
 10
-35.24022033826802
 20
50.289243709115
 10
-35.28307508232135
 20
50.36433874689098
 10
-35.36461647185249
 20
50.51249541162556
 10
-35.44073689809963
 20
50.65813277997927
 10
-35.47681146777311
 20
50.73007643026767
 10
-35.51158542225536
 20
50.80147279201861
 10
-35.57729507165502
 20
50.94272886228208
 10
-35.63798362957502
 20
51.08210695623256
 10
-35.69375431049591
 20
51.21980660252081
 10
-35.74469632876205
 20
51.35602185161667
 10
-35.79088536708966
 20
51.49094219054735
 10
-35.81221756336205
 20
51.55797495270085
 10
-35.83238395003397
 20
51.6247534228321
 10
-35.86924172627411
 20
51.75763852221184
 10
-35.90149566239868
 20
51.88977846842243
 10
-35.92917014973179
 20
52.02135307304965
 10
-35.95227702461895
 20
52.15254180342549
 10
-35.9708155014832
 20
52.28352461257856
 10
-35.97836785733213
 20
52.34899537215113
 10
-35.98477201680041
 20
52.41448278344098
 10
-35.99411998095363
 20
52.54559979584456
 10
-35.99881943364514
 20
52.67706222532041
 10
-35.99940971682278
 20
52.74298235317093
  0
LWPOLYLINE
  5
29E
330
1F
100
AcDbEntity
  8
3
  6
DASHED
100
AcDbPolyline
 90
       23
 70
     0
 43
0.0
 10
-35.99940971682278
 20
52.74298235317093
 10
-35.9988194336456
 20
52.80890248102142
 10
-35.99411998095363
 20
52.94036491049727
 10
-35.98477201680041
 20
53.07148192290089
 10
-35.97836785733213
 20
53.1369693341907
 10
-35.9708155014832
 20
53.2024400937633
 10
-35.95227702461895
 20
53.33342290291631
 10
-35.92917014973179
 20
53.46461163329218
 10
-35.90149566239868
 20
53.59618623791942
 10
-35.86924172627411
 20
53.72832618413003
 10
-35.83238395003397
 20
53.86121128350976
 10
-35.81221756336205
 20
53.92798975364098
 10
-35.79088536708966
 20
53.99502251579448
 10
-35.74469632876205
 20
54.12994285472518
 10
-35.69375431049591
 20
54.26615810382106
 10
-35.63798362957502
 20
54.4038577501093
 10
-35.57729507165502
 20
54.54323584405978
 10
-35.51158542225536
 20
54.68449191432324
 10
-35.47681146777311
 20
54.75588827607419
 10
-35.44073689809963
 20
54.82783192636259
 10
-35.36461647185249
 20
54.97346929471627
 10
-35.28307508232135
 20
55.12162595945085
 10
-35.24022033826802
 20
55.19672099722683
  0
LINE
  5
29F
330
1F
100
AcDbEntity
  8
3
  6
DASHED
100
AcDbLine
 10
-32.75859909537755
 20
50.289243709115
 30
0.0
 11
-35.24022033826802
 21
50.289243709115
 31
0.0
  0
LWPOLYLINE
  5
2A0
330
1F
100
AcDbEntity
  8
3
  6
DASHED
100
AcDbPolyline
 90
       23
 70
     0
 43
0.0
 10
-32.75859909537755
 20
50.289243709115
 10
-32.71574435132422
 20
50.13905363356309
 10
-32.63420296179308
 20
49.84274030409392
 10
-32.55808253554594
 20
49.55146556738651
 10
-32.52200796587246
 20
49.40757826680971
 10
-32.4872340113902
 20
49.26478554330779
 10
-32.42152436199055
 20
48.98227340278086
 10
-32.36083580407055
 20
48.70351721487989
 10
-32.30506512314966
 20
48.42811792230344
 10
-32.25412310488352
 20
48.15568742411167
 10
-32.20793406655591
 20
47.88584674625034
 10
-32.18660187028351
 20
47.75178122194335
 10
-32.16643548361159
 20
47.61822428168085
 10
-32.12957770737145
 20
47.35245408292136
 10
-32.09732377124689
 20
47.08817419050018
 10
-32.06964928391378
 20
46.82502498124572
 10
-32.04654240902661
 20
46.56264752049401
 10
-32.02800393216236
 20
46.30068190218793
 10
-32.02045157631344
 20
46.16974038304275
 10
-32.01404741684516
 20
46.0387655604631
 10
-32.00469945269194
 20
45.77653153565586
 10
-31.99999999999997
 20
45.5136066767042
 10
-31.99940971682278
 20
45.38176642100319
  0
LWPOLYLINE
  5
2A1
330
1F
100
AcDbEntity
  8
3
  6
DASHED
100
AcDbPolyline
 90
       23
 70
     0
 43
0.0
 10
-31.99940971682278
 20
45.38176642100319
 10
-31.99999999999997
 20
45.24992616530221
 10
-32.00469945269194
 20
44.98700130635052
 10
-32.01404741684516
 20
44.72476728154328
 10
-32.02045157631344
 20
44.59379245896366
 10
-32.02800393216236
 20
44.46285093981845
 10
-32.04654240902661
 20
44.20088532151237
 10
-32.06964928391378
 20
43.93850786076066
 10
-32.09732377124689
 20
43.6753586515062
 10
-32.12957770737145
 20
43.41107875908505
 10
-32.16643548361159
 20
43.14530856032556
 10
-32.18660187028351
 20
43.01175162006305
 10
-32.20793406655591
 20
42.87768609575607
 10
-32.25412310488352
 20
42.60784541789471
 10
-32.30506512314966
 20
42.33541491970294
 10
-32.36083580407055
 20
42.06001562712652
 10
-32.42152436199055
 20
41.78125943922552
 10
-32.4872340113902
 20
41.49874729869861
 10
-32.52200796587246
 20
41.35595457519667
 10
-32.55808253554594
 20
41.21206727461987
 10
-32.63420296179308
 20
40.92079253791246
 10
-32.71574435132422
 20
40.62447920844329
 10
-32.75859909537755
 20
40.47428913289138
  0
LWPOLYLINE
  5
2A2
330
1F
100
AcDbEntity
  8
3
  6
DASHED
100
AcDbPolyline
 90
       23
 70
     0
 43
0.0
 10
-35.24022033826802
 20
40.47428913289138
 10
-35.28307508232135
 20
40.62447920844329
 10
-35.36461647185249
 20
40.92079253791246
 10
-35.44073689809963
 20
41.21206727461987
 10
-35.47681146777311
 20
41.35595457519667
 10
-35.51158542225536
 20
41.49874729869861
 10
-35.57729507165502
 20
41.78125943922552
 10
-35.63798362957502
 20
42.06001562712652
 10
-35.69375431049591
 20
42.33541491970294
 10
-35.74469632876205
 20
42.60784541789473
 10
-35.79088536708966
 20
42.87768609575607
 10
-35.81221756336205
 20
43.01175162006305
 10
-35.83238395003397
 20
43.14530856032556
 10
-35.86924172627411
 20
43.41107875908505
 10
-35.90149566239868
 20
43.6753586515062
 10
-35.92917014973179
 20
43.93850786076066
 10
-35.95227702461895
 20
44.20088532151237
 10
-35.9708155014832
 20
44.46285093981845
 10
-35.97836785733213
 20
44.59379245896366
 10
-35.98477201680041
 20
44.72476728154328
 10
-35.99411998095363
 20
44.98700130635052
 10
-35.99881943364514
 20
45.24992616530221
 10
-35.99940971682278
 20
45.38176642100319
  0
LWPOLYLINE
  5
2A3
330
1F
100
AcDbEntity
  8
3
  6
DASHED
100
AcDbPolyline
 90
       23
 70
     0
 43
0.0
 10
-35.99940971682278
 20
38.02055048883545
 10
-35.99881943364514
 20
38.08647061668597
 10
-35.99411998095363
 20
38.21793304616182
 10
-35.98477201680041
 20
38.34905005856541
 10
-35.97836785733213
 20
38.41453746985525
 10
-35.9708155014832
 20
38.48000822942783
 10
-35.95227702461895
 20
38.61099103858089
 10
-35.92917014973179
 20
38.74217976895673
 10
-35.90149566239868
 20
38.87375437358395
 10
-35.86924172627411
 20
39.00589431979455
 10
-35.83238395003397
 20
39.13877941917429
 10
-35.81221756336205
 20
39.20555788930557
 10
-35.79088536708966
 20
39.27259065145904
 10
-35.74469632876205
 20
39.40751099038971
 10
-35.69375431049591
 20
39.54372623948558
 10
-35.63798362957502
 20
39.68142588577382
 10
-35.57729507165502
 20
39.8208039797243
 10
-35.51158542225536
 20
39.96206004998777
 10
-35.47681146777311
 20
40.03345641173871
 10
-35.44073689809963
 20
40.10540006202711
 10
-35.36461647185249
 20
40.25103743038084
 10
-35.28307508232135
 20
40.39919409511543
 10
-35.24022033826802
 20
40.47428913289138
  0
LINE
  5
2A4
330
1F
100
AcDbEntity
  8
3
  6
DASHED
100
AcDbLine
 10
-32.75859909537755
 20
40.47428913289138
 30
0.0
 11
-35.24022033826802
 21
40.47428913289138
 31
0.0
  0
LWPOLYLINE
  5
2A5
330
1F
100
AcDbEntity
  8
3
  6
DASHED
100
AcDbPolyline
 90
       23
 70
     0
 43
0.0
 10
-32.75859909537755
 20
40.47428913289138
 10
-32.71574435132422
 20
40.39919409511543
 10
-32.63420296179308
 20
40.25103743038084
 10
-32.55808253554594
 20
40.10540006202711
 10
-32.52200796587246
 20
40.03345641173871
 10
-32.4872340113902
 20
39.96206004998777
 10
-32.42152436199055
 20
39.8208039797243
 10
-32.36083580407055
 20
39.68142588577382
 10
-32.30506512314966
 20
39.54372623948558
 10
-32.25412310488352
 20
39.40751099038971
 10
-32.20793406655591
 20
39.27259065145904
 10
-32.18660187028351
 20
39.20555788930557
 10
-32.16643548361159
 20
39.13877941917429
 10
-32.12957770737145
 20
39.00589431979455
 10
-32.09732377124689
 20
38.87375437358395
 10
-32.06964928391378
 20
38.74217976895673
 10
-32.04654240902661
 20
38.61099103858089
 10
-32.02800393216236
 20
38.48000822942783
 10
-32.02045157631344
 20
38.41453746985525
 10
-32.01404741684516
 20
38.34905005856541
 10
-32.00469945269194
 20
38.21793304616182
 10
-31.99999999999997
 20
38.08647061668597
 10
-31.99940971682278
 20
38.02055048883545
  0
LWPOLYLINE
  5
2A6
330
1F
100
AcDbEntity
  8
3
  6
DASHED
100
AcDbPolyline
 90
       23
 70
     0
 43
0.0
 10
-31.99940971682278
 20
38.02055048883545
 10
-31.99999999999997
 20
37.95463036098496
 10
-32.00469945269194
 20
37.82316793150915
 10
-32.01404741684516
 20
37.6920509191055
 10
-32.02045157631344
 20
37.62656350781569
 10
-32.02800393216236
 20
37.56109274824309
 10
-32.04654240902661
 20
37.43010993909007
 10
-32.06964928391378
 20
37.29892120871421
 10
-32.09732377124689
 20
37.16734660408696
 10
-32.12957770737145
 20
37.03520665787639
 10
-32.16643548361159
 20
36.90232155849666
 10
-32.18660187028351
 20
36.8355430883654
 10
-32.20793406655591
 20
36.76851032621192
 10
-32.25412310488352
 20
36.63358998728123
 10
-32.30506512314966
 20
36.49737473818533
 10
-32.36083580407055
 20
36.35967509189712
 10
-32.42152436199055
 20
36.22029699794663
 10
-32.4872340113902
 20
36.07904092768317
 10
-32.52200796587246
 20
36.0076445659322
 10
-32.55808253554594
 20
35.93570091564379
 10
-32.63420296179308
 20
35.79006354729012
 10
-32.71574435132422
 20
35.64190688255553
 10
-32.75859909537755
 20
35.56681184477958
  0
LINE
  5
2A7
330
1F
100
AcDbEntity
  8
3
  6
DASHED
100
AcDbLine
 10
-32.75859909537755
 20
35.56681184477958
 30
0.0
 11
-35.24022033826802
 21
35.56681184477958
 31
0.0
  0
LWPOLYLINE
  5
2A8
330
1F
100
AcDbEntity
  8
3
  6
DASHED
100
AcDbPolyline
 90
       23
 70
     0
 43
0.0
 10
-35.24022033826802
 20
35.56681184477958
 10
-35.28307508232135
 20
35.64190688255553
 10
-35.36461647185249
 20
35.79006354729012
 10
-35.44073689809963
 20
35.93570091564379
 10
-35.47681146777311
 20
36.0076445659322
 10
-35.51158542225536
 20
36.07904092768317
 10
-35.57729507165502
 20
36.22029699794663
 10
-35.63798362957502
 20
36.35967509189712
 10
-35.69375431049591
 20
36.49737473818533
 10
-35.74469632876205
 20
36.63358998728123
 10
-35.79088536708966
 20
36.7685103262119
 10
-35.81221756336205
 20
36.8355430883654
 10
-35.83238395003397
 20
36.90232155849666
 10
-35.86924172627411
 20
37.03520665787639
 10
-35.90149566239868
 20
37.16734660408696
 10
-35.92917014973179
 20
37.29892120871421
 10
-35.95227702461895
 20
37.43010993909007
 10
-35.9708155014832
 20
37.56109274824309
 10
-35.97836785733213
 20
37.62656350781569
 10
-35.98477201680041
 20
37.6920509191055
 10
-35.99411998095363
 20
37.82316793150915
 10
-35.99881943364514
 20
37.95463036098499
 10
-35.99940971682278
 20
38.02055048883545
  0
LINE
  5
2A9
330
1F
100
AcDbEntity
  8
3
  6
DASHED
100
AcDbLine
 10
-55.29676796415239
 20
39.38176642100319
 30
0.0
 11
-35.99940971682278
 21
39.38176642100319
 31
0.0
  0
LINE
  5
2AA
330
1F
100
AcDbEntity
  8
3
  6
DASHED
100
AcDbLine
 10
-58.79676796415239
 20
47.83176642100317
 30
0.0
 11
-81.7967679641524
 21
47.83176642100317
 31
0.0
  0
LINE
  5
2AB
330
1F
100
AcDbEntity
  8
3
  6
DASHED
100
AcDbLine
 10
-81.7967679641524
 20
42.9317664210032
 30
0.0
 11
-58.79676796415239
 21
42.9317664210032
 31
0.0
  0
ARC
  5
2AC
330
1F
100
AcDbEntity
  8
3
  6
DASHED
100
AcDbCircle
 10
-58.3967679641523
 20
41.78788346990953
 30
0.0
 40
0.4000000000000004
100
AcDbArc
 50
180.0
 51
267.9999999999964
  0
ARC
  5
2AD
330
1F
100
AcDbEntity
  8
3
  6
DASHED
100
AcDbCircle
 10
-58.3967679641523
 20
48.97564937209688
 30
0.0
 40
0.3999999999999999
100
AcDbArc
 50
92.00000000000365
 51
179.9999991462263
  0
LINE
  5
2AE
330
1F
100
AcDbEntity
  8
3
  6
DASHED
100
AcDbLine
 10
-56.7967679641524
 20
49.4317664210032
 30
0.0
 11
-58.4107277628336
 21
49.37540570290451
 31
0.0
  0
LINE
  5
2AF
330
1F
100
AcDbEntity
  8
3
  6
DASHED
100
AcDbLine
 10
-58.4107277628336
 20
41.38812713910186
 30
0.0
 11
-56.7967679641524
 21
41.33176642100318
 31
0.0
  0
LINE
  5
2B0
330
1F
100
AcDbEntity
  8
3
  6
DASHED
100
AcDbLine
 10
-16.79676796415239
 20
51.38176642100319
 30
0.0
 11
-26.00059028317762
 21
51.38176642100319
 31
0.0
  0
LINE
  5
2B1
330
1F
100
AcDbEntity
  8
3
  6
DASHED
100
AcDbLine
 10
-35.99940971682278
 20
51.38176642100319
 30
0.0
 11
-55.29676796415239
 21
51.38176642100319
 31
0.0
  0
LINE
  5
2B2
330
1F
100
AcDbEntity
  8
3
  6
DASHED
100
AcDbLine
 10
-26.00059028317762
 20
39.38176642100319
 30
0.0
 11
-16.79676796415239
 21
39.38176642100319
 31
0.0
  0
LINE
  5
2B3
330
1F
100
AcDbEntity
  8
3
  6
DASHED
100
AcDbLine
 10
-55.29676796415239
 20
50.6817664210032
 30
0.0
 11
-56.7967679641524
 21
50.6817664210032
 31
0.0
  0
LINE
  5
2B4
330
1F
100
AcDbEntity
  8
3
  6
DASHED
100
AcDbLine
 10
-56.7967679641524
 20
40.08176642100318
 30
0.0
 11
-55.29676796415239
 21
40.08176642100318
 31
0.0
  0
LINE
  5
2B5
330
1F
100
AcDbEntity
  8
3
  6
DASHED
100
AcDbLine
 10
-81.7967679641524
 20
42.9317664210032
 30
0.0
 11
-81.7967679641524
 21
47.83176642100317
 31
0.0
  0
LINE
  5
2B6
330
1F
100
AcDbEntity
  8
3
  6
DASHED
100
AcDbLine
 10
-58.79676796415239
 20
41.78788346990953
 30
0.0
 11
-58.79676796415239
 21
48.97564937209688
 31
0.0
  0
LINE
  5
2B7
330
1F
100
AcDbEntity
  8
3
  6
DASHED
100
AcDbLine
 10
-55.29676796415239
 20
39.38176642100319
 30
0.0
 11
-55.29676796415239
 21
51.38176642100319
 31
0.0
  0
LINE
  5
2B8
330
1F
100
AcDbEntity
  8
3
  6
DASHED
100
AcDbLine
 10
-16.79676796415239
 20
39.38176642100319
 30
0.0
 11
-16.79676796415239
 21
51.38176642100319
 31
0.0
  0
LINE
  5
2B9
330
1F
100
AcDbEntity
  8
3
  6
DASHED
100
AcDbLine
 10
-56.7967679641524
 20
40.08176642100318
 30
0.0
 11
-56.7967679641524
 21
50.6817664210032
 31
0.0
  0
LINE
  5
2BA
330
1F
100
AcDbEntity
  8
0
100
AcDbLine
 10
-19.99999999999997
 20
0.0
 30
0.0
 11
-19.99999999999997
 21
2.0
 31
0.0
  0
LINE
  5
2BB
330
1F
100
AcDbEntity
  8
0
100
AcDbLine
 10
20.00000000000003
 20
2.0
 30
0.0
 11
20.00000000000003
 21
0.0
 31
0.0
  0
CIRCLE
  5
2BC
330
1F
100
AcDbEntity
  8
2
100
AcDbCircle
 10
0.0000000000000284
 20
205.0779734090158
 30
0.0
 40
47.50000849363362
  0
LINE
  5
2BD
330
1F
100
AcDbEntity
  8
2
100
AcDbLine
 10
36.00000000000003
 20
213.5779734090158
 30
0.0
 11
36.00000000000003
 21
196.5779734090158
 31
0.0
  0
LINE
  5
2BE
330
1F
100
AcDbEntity
  8
2
100
AcDbLine
 10
32.00000000000003
 20
213.5779734090158
 30
0.0
 11
32.00000000000003
 21
196.5779734090158
 31
0.0
  0
LWPOLYLINE
  5
2BF
330
1F
100
AcDbEntity
  8
2
100
AcDbPolyline
 90
       23
 70
     0
 43
0.0
 10
35.24081062144527
 20
213.5779734090158
 10
35.28366536549859
 20
213.4479049881916
 10
35.36520675502973
 20
213.1912901173913
 10
35.44132718127733
 20
212.9390387959221
 10
35.47740175095081
 20
212.8144287383406
 10
35.51217570543261
 20
212.6907666123123
 10
35.57788535483272
 20
212.4461039217385
 10
35.63857391275272
 20
212.2046939815542
 10
35.69434459367315
 20
211.9661911979987
 10
35.74528661193929
 20
211.730259465799
 10
35.79147565026736
 20
211.4965705837966
 10
35.81280784653976
 20
211.3804664339751
 10
35.83297423321122
 20
211.2648027308561
 10
35.86983200945136
 20
211.0346389871615
 10
35.90208594557592
 20
210.8057658866154
 10
35.92976043290903
 20
210.5778719864152
 10
35.9528673077962
 20
210.3506464400238
 10
35.97140578466045
 20
210.1237775596526
 10
35.97895814050938
 20
210.0103788776628
 10
35.98536229997765
 20
209.8969513540526
 10
35.99471026413088
 20
209.6698500268329
 10
35.99940971682284
 20
209.4421504196944
 10
36.00000000000003
 20
209.3279734090158
  0
LWPOLYLINE
  5
2C0
330
1F
100
AcDbEntity
  8
2
100
AcDbPolyline
 90
       23
 70
     0
 43
0.0
 10
36.00000000000003
 20
209.3279734090158
 10
35.99940971682284
 20
209.2137963983373
 10
35.99471026413088
 20
208.9860967911988
 10
35.98536229997765
 20
208.758995463979
 10
35.97895814050938
 20
208.6455679403689
 10
35.97140578466045
 20
208.5321692583791
 10
35.9528673077962
 20
208.3053003780079
 10
35.92976043290903
 20
208.0780748316164
 10
35.90208594557592
 20
207.8501809314163
 10
35.86983200945136
 20
207.6213078308701
 10
35.83297423321122
 20
207.3911440871756
 10
35.81280784653976
 20
207.2754803840565
 10
35.79147565026736
 20
207.159376234235
 10
35.74528661193929
 20
206.9256873522327
 10
35.69434459367315
 20
206.689755620033
 10
35.63857391275272
 20
206.4512528364775
 10
35.57788535483272
 20
206.2098428962932
 10
35.51217570543261
 20
205.9651802057193
 10
35.47740175095081
 20
205.8415180796911
 10
35.44132718127733
 20
205.7169080221096
 10
35.36520675502973
 20
205.4646567006404
 10
35.28366536549859
 20
205.2080418298401
 10
35.24081062144527
 20
205.0779734090158
  0
LWPOLYLINE
  5
2C1
330
1F
100
AcDbEntity
  8
2
100
AcDbPolyline
 90
       23
 70
     0
 43
0.0
 10
32.75918937855479
 20
205.0779734090158
 10
32.71633463450192
 20
205.2080418298401
 10
32.63479324497078
 20
205.4646567006404
 10
32.55867281872318
 20
205.7169080221096
 10
32.52259824904971
 20
205.8415180796911
 10
32.48782429456745
 20
205.9651802057193
 10
32.4221146451678
 20
206.2098428962932
 10
32.36142608724779
 20
206.4512528364775
 10
32.30565540632691
 20
206.689755620033
 10
32.25471338806077
 20
206.9256873522327
 10
32.20852434973315
 20
207.159376234235
 10
32.18719215346076
 20
207.2754803840565
 10
32.16702576678884
 20
207.3911440871756
 10
32.13016799054916
 20
207.6213078308701
 10
32.09791405442414
 20
207.8501809314163
 10
32.07023956709148
 20
208.0780748316165
 10
32.04713269220432
 20
208.3053003780079
 10
32.02859421534006
 20
208.5321692583791
 10
32.02104185949068
 20
208.6455679403689
 10
32.01463770002286
 20
208.758995463979
 10
32.00528973586918
 20
208.9860967911988
 10
32.00059028317767
 20
209.2137963983373
 10
32.00000000000003
 20
209.3279734090158
  0
LWPOLYLINE
  5
2C2
330
1F
100
AcDbEntity
  8
2
100
AcDbPolyline
 90
       23
 70
     0
 43
0.0
 10
32.00000000000003
 20
209.3279734090158
 10
32.00059028317767
 20
209.4421504196944
 10
32.00528973586918
 20
209.6698500268329
 10
32.01463770002286
 20
209.8969513540526
 10
32.02104185949068
 20
210.0103788776628
 10
32.02859421534006
 20
210.1237775596526
 10
32.04713269220432
 20
210.3506464400238
 10
32.07023956709148
 20
210.5778719864152
 10
32.09791405442414
 20
210.8057658866154
 10
32.13016799054916
 20
211.0346389871615
 10
32.16702576678884
 20
211.2648027308561
 10
32.18719215346076
 20
211.3804664339751
 10
32.20852434973315
 20
211.4965705837966
 10
32.25471338806077
 20
211.730259465799
 10
32.30565540632691
 20
211.9661911979987
 10
32.36142608724779
 20
212.2046939815542
 10
32.4221146451678
 20
212.4461039217385
 10
32.48782429456745
 20
212.6907666123123
 10
32.52259824904971
 20
212.8144287383406
 10
32.55867281872318
 20
212.9390387959221
 10
32.63479324497078
 20
213.1912901173913
 10
32.71633463450192
 20
213.4479049881916
 10
32.75918937855479
 20
213.5779734090158
  0
LINE
  5
2C3
330
1F
100
AcDbEntity
  8
2
100
AcDbLine
 10
35.24081062144527
 20
205.0779734090158
 30
0.0
 11
32.75918937855479
 21
205.0779734090158
 31
0.0
  0
LWPOLYLINE
  5
2C4
330
1F
100
AcDbEntity
  8
2
100
AcDbPolyline
 90
       23
 70
     0
 43
0.0
 10
35.24081062144527
 20
205.0779734090158
 10
35.28366536549859
 20
204.9479049881916
 10
35.36520675502973
 20
204.6912901173913
 10
35.44132718127733
 20
204.4390387959221
 10
35.47740175095081
 20
204.3144287383405
 10
35.51217570543261
 20
204.1907666123123
 10
35.57788535483272
 20
203.9461039217385
 10
35.63857391275272
 20
203.7046939815542
 10
35.69434459367315
 20
203.4661911979987
 10
35.74528661193929
 20
203.230259465799
 10
35.79147565026736
 20
202.9965705837966
 10
35.81280784653976
 20
202.8804664339751
 10
35.83297423321122
 20
202.7648027308561
 10
35.86983200945136
 20
202.5346389871615
 10
35.90208594557592
 20
202.3057658866154
 10
35.92976043290903
 20
202.0778719864152
 10
35.9528673077962
 20
201.8506464400238
 10
35.97140578466045
 20
201.6237775596526
 10
35.97895814050938
 20
201.5103788776628
 10
35.98536229997765
 20
201.3969513540526
 10
35.99471026413088
 20
201.1698500268329
 10
35.99940971682284
 20
200.9421504196944
 10
36.00000000000003
 20
200.8279734090158
  0
LWPOLYLINE
  5
2C5
330
1F
100
AcDbEntity
  8
2
100
AcDbPolyline
 90
       23
 70
     0
 43
0.0
 10
36.00000000000003
 20
200.8279734090158
 10
35.99940971682284
 20
200.7137963983373
 10
35.99471026413088
 20
200.4860967911987
 10
35.98536229997765
 20
200.258995463979
 10
35.97895814050938
 20
200.1455679403689
 10
35.97140578466045
 20
200.0321692583791
 10
35.9528673077962
 20
199.8053003780079
 10
35.92976043290903
 20
199.5780748316164
 10
35.90208594557592
 20
199.3501809314162
 10
35.86983200945136
 20
199.1213078308701
 10
35.83297423321122
 20
198.8911440871756
 10
35.81280784653976
 20
198.7754803840565
 10
35.79147565026736
 20
198.659376234235
 10
35.74528661193929
 20
198.4256873522326
 10
35.69434459367315
 20
198.189755620033
 10
35.63857391275272
 20
197.9512528364774
 10
35.57788535483272
 20
197.7098428962931
 10
35.51217570543261
 20
197.4651802057193
 10
35.47740175095081
 20
197.3415180796911
 10
35.44132718127733
 20
197.2169080221096
 10
35.36520675502973
 20
196.9646567006403
 10
35.28366536549859
 20
196.7080418298401
 10
35.24081062144527
 20
196.5779734090158
  0
LWPOLYLINE
  5
2C6
330
1F
100
AcDbEntity
  8
2
100
AcDbPolyline
 90
       23
 70
     0
 43
0.0
 10
32.75918937855479
 20
196.5779734090158
 10
32.71633463450192
 20
196.7080418298401
 10
32.63479324497078
 20
196.9646567006403
 10
32.55867281872318
 20
197.2169080221096
 10
32.52259824904971
 20
197.3415180796911
 10
32.48782429456745
 20
197.4651802057193
 10
32.4221146451678
 20
197.7098428962931
 10
32.36142608724779
 20
197.9512528364774
 10
32.30565540632691
 20
198.189755620033
 10
32.25471338806077
 20
198.4256873522326
 10
32.20852434973315
 20
198.659376234235
 10
32.18719215346076
 20
198.7754803840565
 10
32.16702576678884
 20
198.8911440871756
 10
32.13016799054916
 20
199.1213078308701
 10
32.09791405442414
 20
199.3501809314162
 10
32.07023956709148
 20
199.5780748316164
 10
32.04713269220432
 20
199.8053003780079
 10
32.02859421534006
 20
200.032169258379
 10
32.02104185949068
 20
200.1455679403689
 10
32.01463770002286
 20
200.258995463979
 10
32.00528973586918
 20
200.4860967911987
 10
32.00059028317767
 20
200.7137963983373
 10
32.00000000000003
 20
200.8279734090158
  0
LWPOLYLINE
  5
2C7
330
1F
100
AcDbEntity
  8
2
100
AcDbPolyline
 90
       23
 70
     0
 43
0.0
 10
32.00000000000003
 20
200.8279734090158
 10
32.00059028317767
 20
200.9421504196944
 10
32.00528973586918
 20
201.1698500268329
 10
32.01463770002286
 20
201.3969513540526
 10
32.02104185949068
 20
201.5103788776628
 10
32.02859421534006
 20
201.6237775596526
 10
32.04713269220432
 20
201.8506464400238
 10
32.07023956709148
 20
202.0778719864152
 10
32.09791405442414
 20
202.3057658866154
 10
32.13016799054916
 20
202.5346389871615
 10
32.16702576678884
 20
202.7648027308561
 10
32.18719215346076
 20
202.8804664339751
 10
32.20852434973315
 20
202.9965705837966
 10
32.25471338806077
 20
203.230259465799
 10
32.30565540632691
 20
203.4661911979987
 10
32.36142608724779
 20
203.7046939815542
 10
32.4221146451678
 20
203.9461039217385
 10
32.48782429456745
 20
204.1907666123123
 10
32.52259824904971
 20
204.3144287383405
 10
32.55867281872318
 20
204.4390387959221
 10
32.63479324497078
 20
204.6912901173913
 10
32.71633463450192
 20
204.9479049881916
 10
32.75918937855479
 20
205.0779734090158
  0
LINE
  5
2C8
330
1F
100
AcDbEntity
  8
2
100
AcDbLine
 10
32.00000000000003
 20
196.5779734090158
 30
0.0
 11
36.00000000000003
 21
196.5779734090158
 31
0.0
  0
LINE
  5
2C9
330
1F
100
AcDbEntity
  8
2
100
AcDbLine
 10
36.00000000000003
 20
213.5779734090158
 30
0.0
 11
32.00000000000003
 21
213.5779734090158
 31
0.0
  0
LINE
  5
2CA
330
1F
100
AcDbEntity
  8
2
100
AcDbLine
 10
30.00000000000003
 20
213.5779734090158
 30
0.0
 11
30.00000000000003
 21
196.5779734090158
 31
0.0
  0
LINE
  5
2CB
330
1F
100
AcDbEntity
  8
2
100
AcDbLine
 10
26.00000000000003
 20
213.5779734090158
 30
0.0
 11
26.00000000000003
 21
196.5779734090158
 31
0.0
  0
LWPOLYLINE
  5
2CC
330
1F
100
AcDbEntity
  8
2
100
AcDbPolyline
 90
       23
 70
     0
 43
0.0
 10
29.24081062144527
 20
213.5779734090158
 10
29.28366536549859
 20
213.4479049881916
 10
29.36520675502973
 20
213.1912901173913
 10
29.44132718127733
 20
212.9390387959221
 10
29.47740175095081
 20
212.8144287383406
 10
29.51217570543261
 20
212.6907666123123
 10
29.57788535483272
 20
212.4461039217385
 10
29.63857391275272
 20
212.2046939815542
 10
29.69434459367315
 20
211.9661911979987
 10
29.74528661193929
 20
211.730259465799
 10
29.79147565026736
 20
211.4965705837966
 10
29.81280784653975
 20
211.3804664339751
 10
29.83297423321122
 20
211.2648027308561
 10
29.86983200945136
 20
211.0346389871615
 10
29.90208594557592
 20
210.8057658866154
 10
29.92976043290904
 20
210.5778719864152
 10
29.9528673077962
 20
210.3506464400238
 10
29.97140578466045
 20
210.1237775596526
 10
29.97895814050938
 20
210.0103788776628
 10
29.98536229997765
 20
209.8969513540526
 10
29.99471026413088
 20
209.6698500268329
 10
29.99940971682284
 20
209.4421504196944
 10
30.00000000000003
 20
209.3279734090158
  0
LWPOLYLINE
  5
2CD
330
1F
100
AcDbEntity
  8
2
100
AcDbPolyline
 90
       23
 70
     0
 43
0.0
 10
30.00000000000003
 20
209.3279734090158
 10
29.99940971682284
 20
209.2137963983373
 10
29.99471026413088
 20
208.9860967911988
 10
29.98536229997765
 20
208.758995463979
 10
29.97895814050938
 20
208.6455679403689
 10
29.97140578466045
 20
208.5321692583791
 10
29.9528673077962
 20
208.3053003780079
 10
29.92976043290904
 20
208.0780748316164
 10
29.90208594557592
 20
207.8501809314163
 10
29.86983200945136
 20
207.6213078308701
 10
29.83297423321122
 20
207.3911440871756
 10
29.81280784653975
 20
207.2754803840565
 10
29.79147565026736
 20
207.159376234235
 10
29.74528661193929
 20
206.9256873522327
 10
29.69434459367315
 20
206.689755620033
 10
29.63857391275272
 20
206.4512528364775
 10
29.57788535483272
 20
206.2098428962932
 10
29.51217570543261
 20
205.9651802057193
 10
29.47740175095081
 20
205.8415180796911
 10
29.44132718127733
 20
205.7169080221096
 10
29.36520675502973
 20
205.4646567006404
 10
29.28366536549859
 20
205.2080418298401
 10
29.24081062144527
 20
205.0779734090158
  0
LWPOLYLINE
  5
2CE
330
1F
100
AcDbEntity
  8
2
100
AcDbPolyline
 90
       23
 70
     0
 43
0.0
 10
26.7591893785548
 20
205.0779734090158
 10
26.71633463450192
 20
205.2080418298401
 10
26.63479324497078
 20
205.4646567006404
 10
26.55867281872318
 20
205.7169080221096
 10
26.52259824904971
 20
205.8415180796911
 10
26.48782429456745
 20
205.9651802057193
 10
26.4221146451678
 20
206.2098428962932
 10
26.36142608724779
 20
206.4512528364775
 10
26.30565540632691
 20
206.689755620033
 10
26.25471338806077
 20
206.9256873522327
 10
26.20852434973315
 20
207.159376234235
 10
26.18719215346076
 20
207.2754803840565
 10
26.16702576678884
 20
207.3911440871756
 10
26.13016799054916
 20
207.6213078308701
 10
26.09791405442414
 20
207.8501809314163
 10
26.07023956709148
 20
208.0780748316165
 10
26.04713269220432
 20
208.3053003780079
 10
26.02859421534006
 20
208.5321692583791
 10
26.02104185949068
 20
208.6455679403689
 10
26.01463770002286
 20
208.758995463979
 10
26.00528973586918
 20
208.9860967911988
 10
26.00059028317768
 20
209.2137963983373
 10
26.00000000000003
 20
209.3279734090158
  0
LWPOLYLINE
  5
2CF
330
1F
100
AcDbEntity
  8
2
100
AcDbPolyline
 90
       23
 70
     0
 43
0.0
 10
26.00000000000003
 20
209.3279734090158
 10
26.00059028317768
 20
209.4421504196944
 10
26.00528973586918
 20
209.6698500268329
 10
26.01463770002286
 20
209.8969513540526
 10
26.02104185949068
 20
210.0103788776628
 10
26.02859421534006
 20
210.1237775596526
 10
26.04713269220432
 20
210.3506464400238
 10
26.07023956709148
 20
210.5778719864152
 10
26.09791405442414
 20
210.8057658866154
 10
26.13016799054916
 20
211.0346389871615
 10
26.16702576678884
 20
211.2648027308561
 10
26.18719215346076
 20
211.3804664339751
 10
26.20852434973315
 20
211.4965705837966
 10
26.25471338806077
 20
211.730259465799
 10
26.30565540632691
 20
211.9661911979987
 10
26.36142608724779
 20
212.2046939815542
 10
26.4221146451678
 20
212.4461039217385
 10
26.48782429456745
 20
212.6907666123123
 10
26.52259824904971
 20
212.8144287383406
 10
26.55867281872318
 20
212.9390387959221
 10
26.63479324497078
 20
213.1912901173913
 10
26.71633463450192
 20
213.4479049881916
 10
26.7591893785548
 20
213.5779734090158
  0
LINE
  5
2D0
330
1F
100
AcDbEntity
  8
2
100
AcDbLine
 10
29.24081062144527
 20
205.0779734090158
 30
0.0
 11
26.7591893785548
 21
205.0779734090158
 31
0.0
  0
LWPOLYLINE
  5
2D1
330
1F
100
AcDbEntity
  8
2
100
AcDbPolyline
 90
       23
 70
     0
 43
0.0
 10
29.24081062144527
 20
205.0779734090158
 10
29.28366536549859
 20
204.9479049881916
 10
29.36520675502973
 20
204.6912901173913
 10
29.44132718127733
 20
204.4390387959221
 10
29.47740175095081
 20
204.3144287383405
 10
29.51217570543261
 20
204.1907666123123
 10
29.57788535483272
 20
203.9461039217385
 10
29.63857391275272
 20
203.7046939815542
 10
29.69434459367315
 20
203.4661911979987
 10
29.74528661193929
 20
203.230259465799
 10
29.79147565026736
 20
202.9965705837966
 10
29.81280784653975
 20
202.8804664339751
 10
29.83297423321122
 20
202.7648027308561
 10
29.86983200945136
 20
202.5346389871615
 10
29.90208594557592
 20
202.3057658866154
 10
29.92976043290904
 20
202.0778719864152
 10
29.9528673077962
 20
201.8506464400238
 10
29.97140578466045
 20
201.6237775596526
 10
29.97895814050938
 20
201.5103788776628
 10
29.98536229997765
 20
201.3969513540526
 10
29.99471026413088
 20
201.1698500268329
 10
29.99940971682284
 20
200.9421504196944
 10
30.00000000000003
 20
200.8279734090158
  0
LWPOLYLINE
  5
2D2
330
1F
100
AcDbEntity
  8
2
100
AcDbPolyline
 90
       23
 70
     0
 43
0.0
 10
30.00000000000003
 20
200.8279734090158
 10
29.99940971682284
 20
200.7137963983373
 10
29.99471026413088
 20
200.4860967911987
 10
29.98536229997765
 20
200.258995463979
 10
29.97895814050938
 20
200.1455679403689
 10
29.97140578466045
 20
200.0321692583791
 10
29.9528673077962
 20
199.8053003780079
 10
29.92976043290904
 20
199.5780748316164
 10
29.90208594557592
 20
199.3501809314162
 10
29.86983200945136
 20
199.1213078308701
 10
29.83297423321122
 20
198.8911440871756
 10
29.81280784653975
 20
198.7754803840565
 10
29.79147565026736
 20
198.659376234235
 10
29.74528661193929
 20
198.4256873522326
 10
29.69434459367315
 20
198.189755620033
 10
29.63857391275272
 20
197.9512528364774
 10
29.57788535483272
 20
197.7098428962931
 10
29.51217570543261
 20
197.4651802057193
 10
29.47740175095081
 20
197.3415180796911
 10
29.44132718127733
 20
197.2169080221096
 10
29.36520675502973
 20
196.9646567006403
 10
29.28366536549859
 20
196.7080418298401
 10
29.24081062144527
 20
196.5779734090158
  0
LWPOLYLINE
  5
2D3
330
1F
100
AcDbEntity
  8
2
100
AcDbPolyline
 90
       23
 70
     0
 43
0.0
 10
26.7591893785548
 20
196.5779734090158
 10
26.71633463450192
 20
196.7080418298401
 10
26.63479324497078
 20
196.9646567006403
 10
26.55867281872318
 20
197.2169080221096
 10
26.52259824904971
 20
197.3415180796911
 10
26.48782429456745
 20
197.4651802057193
 10
26.4221146451678
 20
197.7098428962931
 10
26.36142608724779
 20
197.9512528364774
 10
26.30565540632691
 20
198.189755620033
 10
26.25471338806077
 20
198.4256873522326
 10
26.20852434973315
 20
198.659376234235
 10
26.18719215346076
 20
198.7754803840565
 10
26.16702576678884
 20
198.8911440871756
 10
26.13016799054916
 20
199.1213078308701
 10
26.09791405442414
 20
199.3501809314162
 10
26.07023956709148
 20
199.5780748316164
 10
26.04713269220432
 20
199.8053003780079
 10
26.02859421534006
 20
200.032169258379
 10
26.02104185949068
 20
200.1455679403689
 10
26.01463770002286
 20
200.258995463979
 10
26.00528973586918
 20
200.4860967911987
 10
26.00059028317768
 20
200.7137963983373
 10
26.00000000000003
 20
200.8279734090158
  0
LWPOLYLINE
  5
2D4
330
1F
100
AcDbEntity
  8
2
100
AcDbPolyline
 90
       23
 70
     0
 43
0.0
 10
26.00000000000003
 20
200.8279734090158
 10
26.00059028317768
 20
200.9421504196944
 10
26.00528973586918
 20
201.1698500268329
 10
26.01463770002286
 20
201.3969513540526
 10
26.02104185949068
 20
201.5103788776628
 10
26.02859421534006
 20
201.6237775596526
 10
26.04713269220432
 20
201.8506464400238
 10
26.07023956709148
 20
202.0778719864152
 10
26.09791405442414
 20
202.3057658866154
 10
26.13016799054916
 20
202.5346389871615
 10
26.16702576678884
 20
202.7648027308561
 10
26.18719215346076
 20
202.8804664339751
 10
26.20852434973315
 20
202.9965705837966
 10
26.25471338806077
 20
203.230259465799
 10
26.30565540632691
 20
203.4661911979987
 10
26.36142608724779
 20
203.7046939815542
 10
26.4221146451678
 20
203.9461039217385
 10
26.48782429456745
 20
204.1907666123123
 10
26.52259824904971
 20
204.3144287383405
 10
26.55867281872318
 20
204.4390387959221
 10
26.63479324497078
 20
204.6912901173913
 10
26.71633463450192
 20
204.9479049881916
 10
26.7591893785548
 20
205.0779734090158
  0
LINE
  5
2D5
330
1F
100
AcDbEntity
  8
2
100
AcDbLine
 10
26.00000000000003
 20
196.5779734090158
 30
0.0
 11
30.00000000000003
 21
196.5779734090158
 31
0.0
  0
LINE
  5
2D6
330
1F
100
AcDbEntity
  8
2
100
AcDbLine
 10
30.00000000000003
 20
213.5779734090158
 30
0.0
 11
26.00000000000003
 21
213.5779734090158
 31
0.0
  0
LINE
  5
2D7
330
1F
100
AcDbEntity
  8
2
100
AcDbLine
 10
55.29735824732964
 20
211.0779734090158
 30
0.0
 11
36.00000000000003
 21
211.0779734090158
 31
0.0
  0
LINE
  5
2D8
330
1F
100
AcDbEntity
  8
2
100
AcDbLine
 10
58.79735824732964
 20
202.6279734090159
 30
0.0
 11
81.79735824732963
 21
202.6279734090158
 31
0.0
  0
LINE
  5
2D9
330
1F
100
AcDbEntity
  8
2
100
AcDbLine
 10
81.79735824732963
 20
207.5279734090158
 30
0.0
 11
58.79735824732964
 21
207.5279734090158
 31
0.0
  0
ARC
  5
2DA
330
1F
100
AcDbEntity
  8
2
100
AcDbCircle
 10
58.39735824732954
 20
208.6718563601095
 30
0.0
 40
0.4000000000000004
100
AcDbArc
 50
0.0
 51
87.99999999999636
  0
ARC
  5
2DB
330
1F
100
AcDbEntity
  8
2
100
AcDbCircle
 10
58.39735824732954
 20
201.4840904579222
 30
0.0
 40
0.3999999999999999
100
AcDbArc
 50
272.0000000000037
 51
359.9999991462263
  0
LINE
  5
2DC
330
1F
100
AcDbEntity
  8
2
100
AcDbLine
 10
56.79735824732964
 20
201.0279734090159
 30
0.0
 11
58.41131804601085
 21
201.0843341271145
 31
0.0
  0
LINE
  5
2DD
330
1F
100
AcDbEntity
  8
2
100
AcDbLine
 10
58.41131804601085
 20
209.0716126909172
 30
0.0
 11
56.79735824732964
 21
209.1279734090158
 31
0.0
  0
LINE
  5
2DE
330
1F
100
AcDbEntity
  8
2
100
AcDbLine
 10
16.79735824732964
 20
199.0779734090158
 30
0.0
 11
26.00000000000003
 21
199.0779734090158
 31
0.0
  0
LINE
  5
2DF
330
1F
100
AcDbEntity
  8
2
100
AcDbLine
 10
36.00000000000003
 20
199.0779734090158
 30
0.0
 11
55.29735824732964
 21
199.0779734090158
 31
0.0
  0
LINE
  5
2E0
330
1F
100
AcDbEntity
  8
2
100
AcDbLine
 10
26.00000000000003
 20
211.0779734090158
 30
0.0
 11
16.79735824732964
 21
211.0779734090158
 31
0.0
  0
LINE
  5
2E1
330
1F
100
AcDbEntity
  8
2
100
AcDbLine
 10
55.29735824732964
 20
199.7779734090158
 30
0.0
 11
56.79735824732964
 21
199.7779734090158
 31
0.0
  0
LINE
  5
2E2
330
1F
100
AcDbEntity
  8
2
100
AcDbLine
 10
56.79735824732964
 20
210.3779734090159
 30
0.0
 11
55.29735824732964
 21
210.3779734090159
 31
0.0
  0
LINE
  5
2E3
330
1F
100
AcDbEntity
  8
2
100
AcDbLine
 10
81.79735824732963
 20
207.5279734090158
 30
0.0
 11
81.79735824732963
 21
202.6279734090158
 31
0.0
  0
LINE
  5
2E4
330
1F
100
AcDbEntity
  8
2
100
AcDbLine
 10
58.79735824732964
 20
208.6718563601095
 30
0.0
 11
58.79735824732964
 21
201.4840904579222
 31
0.0
  0
LINE
  5
2E5
330
1F
100
AcDbEntity
  8
2
100
AcDbLine
 10
55.29735824732964
 20
211.0779734090158
 30
0.0
 11
55.29735824732964
 21
199.0779734090158
 31
0.0
  0
LINE
  5
2E6
330
1F
100
AcDbEntity
  8
2
100
AcDbLine
 10
16.79735824732964
 20
211.0779734090158
 30
0.0
 11
16.79735824732964
 21
199.0779734090158
 31
0.0
  0
LINE
  5
2E7
330
1F
100
AcDbEntity
  8
2
100
AcDbLine
 10
56.79735824732964
 20
210.3779734090159
 30
0.0
 11
56.79735824732964
 21
199.7779734090158
 31
0.0
  0
LINE
  5
2E8
330
1F
100
AcDbEntity
  8
2
100
AcDbLine
 10
53.00001942486196
 20
-21.87440347520129
 30
0.0
 11
53.00002595707562
 21
-48.0031353218207
 31
0.0
  0
LINE
  5
2E9
330
1F
100
AcDbEntity
  8
1
100
AcDbLine
 10
75.56397556032422
 20
-24.49994695099014
 30
0.0
 11
45.90041091548923
 21
-24.4999410985792
 31
0.0
  0
ARC
  5
2EA
330
1F
100
AcDbEntity
  8
2
100
AcDbCircle
 10
43.00000697882839
 20
-21.87440106359071
 30
0.0
 40
9.999999749999998
100
AcDbArc
 50
359.9999507255254
 51
19.99999072551965
  0
LINE
  5
2EB
330
1F
100
AcDbEntity
  8
2
100
AcDbLine
 10
53.43611608125016
 20
-19.74994249928174
 30
0.0
 11
53.43611608125016
 21
-29.24994249928174
 31
0.0
  0
LINE
  5
2EC
330
1F
100
AcDbEntity
  8
2
100
AcDbLine
 10
56.5000200812498
 20
-19.49994249928174
 30
0.0
 11
56.5000200812498
 21
-29.49994249928174
 31
0.0
  0
LINE
  5
2ED
330
1F
100
AcDbEntity
  8
2
100
AcDbLine
 10
69.00002008124957
 20
-19.49994249928174
 30
0.0
 11
69.00002008124957
 21
-29.49994249928174
 31
0.0
  0
LINE
  5
2EE
330
1F
100
AcDbEntity
  8
2
100
AcDbLine
 10
69.00002008124957
 20
-19.49994249928174
 30
0.0
 11
56.5000200812498
 21
-19.49994249928174
 31
0.0
  0
LINE
  5
2EF
330
1F
100
AcDbEntity
  8
2
100
AcDbLine
 10
56.5000200812498
 20
-19.74994249928174
 30
0.0
 11
52.86374753313314
 21
-19.74994249928174
 31
0.0
  0
LINE
  5
2F0
330
1F
100
AcDbEntity
  8
2
100
AcDbLine
 10
69.00002008124957
 20
-29.49994249928174
 30
0.0
 11
56.5000200812498
 21
-29.49994249928174
 31
0.0
  0
LINE
  5
2F1
330
1F
100
AcDbEntity
  8
2
100
AcDbLine
 10
56.5000200812498
 20
-29.24994249928174
 30
0.0
 11
53.00002008124957
 21
-29.24994249928174
 31
0.0
  0
LINE
  5
2F2
330
1F
100
AcDbEntity
  8
2
100
AcDbLine
 10
-49.41586267981282
 20
-10.26385296995965
 30
0.0
 11
-52.39691151231298
 21
-18.45421703026216
 31
0.0
  0
LINE
  5
2F3
330
1F
100
AcDbEntity
  8
2
100
AcDbLine
 10
-53.00001942486201
 20
-21.87440347520129
 30
0.0
 11
-53.00002595707567
 21
-48.0031353218207
 31
0.0
  0
ARC
  5
2F4
330
1F
100
AcDbEntity
  8
2
100
AcDbCircle
 10
-43.00000697882845
 20
-21.87440106359071
 30
0.0
 40
9.999999749999998
100
AcDbArc
 50
160.0000092744796
 51
180.0000492744746
  0
LINE
  5
2F5
330
1F
100
AcDbEntity
  8
2
100
AcDbLine
 10
174.9999800000001
 20
-5.000020019999851
 30
0.0
 11
174.9999800000001
 21
-1.000000020000015
 31
0.0
  0
LINE
  5
2F6
330
1F
100
AcDbEntity
  8
2
100
AcDbLine
 10
224.9999900000001
 20
-5.000020019999851
 30
0.0
 11
224.9999900000001
 21
-1.000000020000015
 31
0.0
  0
ARC
  5
2F7
330
1F
100
AcDbEntity
  8
2
100
AcDbCircle
 10
176.0000000000001
 20
-1.000000020000015
 30
0.0
 40
1.000000019999999
100
AcDbArc
 50
90.0
 51
180.0
  0
ARC
  5
2F8
330
1F
100
AcDbEntity
  8
2
100
AcDbCircle
 10
224.0000000000001
 20
-1.000000020000015
 30
0.0
 40
1.000000019999999
100
AcDbArc
 50
0.0
 51
90.0
  0
LINE
  5
2F9
330
1F
100
AcDbEntity
  8
2
100
AcDbLine
 10
150.5841196605321
 20
-10.26385068343756
 30
0.0
 11
147.6030708280319
 21
-18.45421474373984
 31
0.0
  0
LINE
  5
2FA
330
1F
100
AcDbEntity
  8
2
100
AcDbLine
 10
241.8983459472657
 20
-5.000020019999851
 30
0.0
 11
158.1016540527344
 21
-5.000020019999737
 31
0.0
  0
LINE
  5
2FB
330
1F
100
AcDbEntity
  8
2
100
AcDbLine
 10
249.4158626798129
 20
-10.26385296995965
 30
0.0
 11
252.396911512313
 21
-18.45421703026216
 31
0.0
  0
ARC
  5
2FC
330
1F
100
AcDbEntity
  8
2
100
AcDbCircle
 10
158.1016540527344
 20
-13.00002001999974
 30
0.0
 40
8.0
100
AcDbArc
 50
89.9999913485786
 51
160.0000046801563
  0
ARC
  5
2FD
330
1F
100
AcDbEntity
  8
2
100
AcDbCircle
 10
241.8983459472657
 20
-13.00002001999985
 30
0.0
 40
8.0
100
AcDbArc
 50
19.99999850757047
 51
90.00000500895694
  0
LINE
  5
2FE
330
1F
100
AcDbEntity
  8
2
100
AcDbLine
 10
253.0000194248621
 20
-21.87440347520129
 30
0.0
 11
253.0000259570758
 21
-48.0031353218207
 31
0.0
  0
ARC
  5
2FF
330
1F
100
AcDbEntity
  8
2
100
AcDbCircle
 10
243.0000069788285
 20
-21.87440106359071
 30
0.0
 40
9.999999749999998
100
AcDbArc
 50
359.9999507255254
 51
19.99999072551965
  0
LINE
  5
300
330
1F
100
AcDbEntity
  8
2
100
AcDbLine
 10
150.5841373201873
 20
-10.26385296995965
 30
0.0
 11
147.6030884876871
 21
-18.45421703026216
 31
0.0
  0
LINE
  5
301
330
1F
100
AcDbEntity
  8
2
100
AcDbLine
 10
146.9999805751381
 20
-21.87440347520129
 30
0.0
 11
146.9999740429244
 21
-48.0031353218207
 31
0.0
  0
ARC
  5
302
330
1F
100
AcDbEntity
  8
2
100
AcDbCircle
 10
156.9999930211716
 20
-21.87440106359071
 30
0.0
 40
9.999999749999998
100
AcDbArc
 50
160.0000092744796
 51
180.0000492744746
  0
CIRCLE
  5
303
330
1F
100
AcDbEntity
  8
2
100
AcDbCircle
 10
200.0000000000001
 20
-24.49994695099014
 30
0.0
 40
5.0
  0
LINE
  5
304
330
1F
100
AcDbEntity
  8
1
100
AcDbLine
 10
207.2390142450309
 20
-24.49994695099014
 30
0.0
 11
192.7609857549692
 21
-24.49994695099014
 31
0.0
  0
LINE
  5
305
330
1F
100
AcDbEntity
  8
0
100
AcDbLine
 10
208.5000000000001
 20
35.15740345341405
 30
0.0
 11
200.0000000000001
 21
40.06488074152585
 31
0.0
  0
LINE
  5
306
330
1F
100
AcDbEntity
  8
2
100
AcDbLine
 10
200.0000000000001
 20
40.06488074152585
 30
0.0
 11
191.5000000000001
 21
35.15740345341405
 31
0.0
  0
LINE
  5
307
330
1F
100
AcDbEntity
  8
0
100
AcDbLine
 10
191.5000000000001
 20
35.15740345341405
 30
0.0
 11
191.5000000000001
 21
25.34244887719041
 31
0.0
  0
LINE
  5
308
330
1F
100
AcDbEntity
  8
0
100
AcDbLine
 10
200.0000000000001
 20
20.43497158907857
 30
0.0
 11
208.5000000000001
 21
25.34244887719041
 31
0.0
  0
LINE
  5
309
330
1F
100
AcDbEntity
  8
0
100
AcDbLine
 10
191.5000000000001
 20
25.34244887719041
 30
0.0
 11
200.0000000000001
 21
20.43497158907857
 31
0.0
  0
LINE
  5
30A
330
1F
100
AcDbEntity
  8
0
100
AcDbLine
 10
208.5000000000001
 20
25.34244887719041
 30
0.0
 11
208.5000000000001
 21
35.15740345341405
 31
0.0
  0
CIRCLE
  5
30B
330
1F
100
AcDbEntity
  8
2
100
AcDbCircle
 10
200.0000000000001
 20
30.24992616530222
 30
0.0
 40
8.500000000000005
  0
LINE
  5
30C
330
1F
100
AcDbEntity
  8
2
100
AcDbLine
 10
208.5000000000001
 20
35.15740345341405
 30
0.0
 11
200.0000000000001
 21
40.06488074152585
 31
0.0
  0
LINE
  5
30D
330
1F
100
AcDbEntity
  8
2
100
AcDbLine
 10
191.5000000000001
 20
35.15740345341405
 30
0.0
 11
191.5000000000001
 21
25.34244887719041
 31
0.0
  0
LINE
  5
30E
330
1F
100
AcDbEntity
  8
2
100
AcDbLine
 10
200.0000000000001
 20
20.43497158907857
 30
0.0
 11
208.5000000000001
 21
25.34244887719041
 31
0.0
  0
LINE
  5
30F
330
1F
100
AcDbEntity
  8
2
100
AcDbLine
 10
191.5000000000001
 20
25.34244887719041
 30
0.0
 11
200.0000000000001
 21
20.43497158907857
 31
0.0
  0
LINE
  5
310
330
1F
100
AcDbEntity
  8
2
100
AcDbLine
 10
208.5000000000001
 20
25.34244887719041
 30
0.0
 11
208.5000000000001
 21
35.15740345341405
 31
0.0
  0
CIRCLE
  5
311
330
1F
100
AcDbEntity
  8
2
100
AcDbCircle
 10
200.0000000000001
 20
30.24992616530224
 30
0.0
 40
5.999999999999996
  0
CIRCLE
  5
312
330
1F
100
AcDbEntity
  8
2
100
AcDbCircle
 10
200.0000000000001
 20
30.24992616530222
 30
0.0
 40
5.3
  0
CIRCLE
  5
313
330
1F
100
AcDbEntity
  8
2
100
AcDbCircle
 10
200.0000000000001
 20
30.24992616530224
 30
0.0
 40
2.449999999999995
  0
LINE
  5
314
330
1F
100
AcDbEntity
  8
1
100
AcDbLine
 10
190.74084687908
 20
30.24992616530222
 30
0.0
 11
209.2591531209201
 21
30.24992616530222
 31
0.0
  0
CIRCLE
  5
315
330
1F
100
AcDbEntity
  8
2
100
AcDbCircle
 10
0.0000000000000284
 20
205.0779734090158
 30
0.0
 40
53.00002595707565
  0
CIRCLE
  5
316
330
1F
100
AcDbEntity
  8
2
100
AcDbCircle
 10
0.0000000000000284
 20
205.0779734090158
 30
0.0
 40
12.50000000000005
  0
LINE
  5
31D
330
1F
100
AcDbEntity
  8
0
  6
DASHED
100
AcDbLine
 10
185.0000000000001
 20
2.0
 30
0.0
 11
215.0000000000001
 21
2.0
 31
0.0
  0
VIEWPORT
  5
71
330
55
100
AcDbEntity
 67
     1
  8
0
100
AcDbViewport
 10
133.3499908447266
 20
101.5999970436096
 30
0.0
 40
381.3957395593835
 41
218.2856291881582
 68
     1
 69
     1
 12
133.3499908447266
 22
101.5999970436096
 13
0.0
 23
0.0
 14
10.0
 24
10.0
 15
10.0
 25
10.0
 16
0.0
 26
0.0
 36
1.0
 17
0.0
 27
0.0
 37
0.0
 42
50.0
 43
0.0
 44
0.0
 45
218.2856291881582
 50
0.0
 51
0.0
 72
   100
 90
    32800
  1

281
     0
 71
     1
 74
     0
110
0.0
120
0.0
130
0.0
111
1.0
121
0.0
131
0.0
112
0.0
122
1.0
132
0.0
 79
     0
146
0.0
170
     0
 61
     5
348
344
292
     1
282
     1
141
0.0
142
0.0
 63
   250
421
  3355443
  0
VIEWPORT
  5
73
330
55
100
AcDbEntity
 67
     1
  8
0
100
AcDbViewport
 10
133.3499939441681
 20
101.5999939441681
 30
0.0
 40
213.3599903106689
 41
162.5599903106689
 68
     2
 69
     2
 12
210.0
 22
148.5
 13
0.0
 23
0.0
 14
10.0
 24
10.0
 15
10.0
 25
10.0
 16
0.0
 26
0.0
 36
1.0
 17
0.0
 27
0.0
 37
0.0
 42
50.0
 43
0.0
 44
0.0
 45
324.0677920111345
 50
0.0
 51
0.0
 72
   100
 90
    32864
  1

281
     0
 71
     1
 74
     0
110
0.0
120
0.0
130
0.0
111
1.0
121
0.0
131
0.0
112
0.0
122
1.0
132
0.0
 79
     0
146
0.0
170
     0
 61
     5
348
344
292
     1
282
     1
141
0.0
142
0.0
 63
   250
421
  3355443
  0
ENDSEC
  0
SECTION
  2
OBJECTS
  0
DICTIONARY
  5
C
330
0
100
AcDbDictionary
281
     1
  3
ACAD_COLOR
350
352
  3
ACAD_GROUP
350
D
  3
ACAD_LAYOUT
350
1A
  3
ACAD_MATERIAL
350
325
  3
ACAD_MLEADERSTYLE
350
367
  3
ACAD_MLINESTYLE
350
17
  3
ACAD_PLOTSETTINGS
350
19
  3
ACAD_PLOTSTYLENAME
350
E
  3
ACAD_SCALELIST
350
355
  3
ACAD_TABLESTYLE
350
353
  3
ACAD_VISUALSTYLE
350
33E
  3
ACDB_RECOMPOSE_DATA
350
378
  3
AcDbVariableDictionary
350
5E
  0
DICTIONARY
  5
99
330
2
100
AcDbDictionary
280
     1
281
     1
  3
ACAD_LAYERSTATES
360
9A
  0
DICTIONARY
  5
36B
330
10
100
AcDbDictionary
280
     1
281
     1
  3
ADSK_XREC_LAYER_RECONCILED
360
36C
  0
DICTIONARY
  5
91
330
90
100
AcDbDictionary
280
     1
281
     1
  3
ADSK_XREC_LAYER_RECONCILED
360
92
  0
DICTIONARY
  5
94
330
93
100
AcDbDictionary
280
     1
281
     1
  3
ADSK_XREC_LAYER_RECONCILED
360
95
  0
DICTIONARY
  5
36D
330
96
100
AcDbDictionary
280
     1
281
     1
  3
ADSK_XREC_LAYER_RECONCILED
360
36E
  0
DICTIONARY
  5
352
102
{ACAD_REACTORS
330
C
102
}
330
C
100
AcDbDictionary
281
     1
  0
DICTIONARY
  5
D
102
{ACAD_REACTORS
330
C
102
}
330
C
100
AcDbDictionary
281
     1
  0
DICTIONARY
  5
1A
102
{ACAD_REACTORS
330
C
102
}
330
C
100
AcDbDictionary
281
     1
  3
Model
350
22
  3
ﾚｲｱｳﾄ1
350
51
  3
ﾚｲｱｳﾄ2
350
56
  0
DICTIONARY
  5
325
102
{ACAD_REACTORS
330
C
102
}
330
C
100
AcDbDictionary
281
     1
  3
ByBlock
350
32E
  3
ByLayer
350
326
  3
Global
350
336
  0
DICTIONARY
  5
367
102
{ACAD_REACTORS
330
C
102
}
330
C
100
AcDbDictionary
281
     1
  3
Standard
350
368
  0
DICTIONARY
  5
17
102
{ACAD_REACTORS
330
C
102
}
330
C
100
AcDbDictionary
281
     1
  3
Standard
350
18
  0
DICTIONARY
  5
19
102
{ACAD_REACTORS
330
C
102
}
330
C
100
AcDbDictionary
281
     1
  0
ACDBDICTIONARYWDFLT
  5
E
102
{ACAD_REACTORS
330
C
102
}
330
C
100
AcDbDictionary
281
     1
  3
Normal
350
F
100
AcDbDictionaryWithDefault
340
F
  0
DICTIONARY
  5
355
102
{ACAD_REACTORS
330
C
102
}
330
C
100
AcDbDictionary
281
     1
  3
A0
350
356
  3
A1
350
357
  3
A2
350
358
  3
A3
350
359
  3
A4
350
35A
  3
A5
350
35B
  3
A6
350
35C
  3
A7
350
35D
  3
A8
350
35E
  3
A9
350
35F
  3
B0
350
360
  3
B1
350
361
  3
B2
350
362
  3
B3
350
363
  3
B4
350
364
  3
B5
350
365
  3
B6
350
366
  0
DICTIONARY
  5
353
102
{ACAD_REACTORS
330
C
102
}
330
C
100
AcDbDictionary
281
     1
  3
Standard
350
354
  0
DICTIONARY
  5
33E
102
{ACAD_REACTORS
330
C
102
}
330
C
100
AcDbDictionary
281
     1
  3
2dWireframe
350
344
  3
3D Hidden
350
346
  3
3dWireframe
350
345
  3
Basic
350
343
  3
Brighten
350
34A
  3
ColorChange
350
34E
  3
Conceptual
350
347
  3
Dim
350
349
  3
EdgeColorOff
350
351
  3
Facepattern
350
34D
  3
Flat
350
33F
  3
FlatWithEdges
350
340
  3
Gouraud
350
341
  3
GouraudWithEdges
350
342
  3
JitterOff
350
34F
  3
Linepattern
350
34C
  3
OverhangOff
350
350
  3
Realistic
350
348
  3
Thicken
350
34B
  0
XRECORD
  5
378
102
{ACAD_REACTORS
330
C
102
}
330
C
100
AcDbXrecord
280
     1
 90
        1
330
354
  0
DICTIONARY
  5
5E
102
{ACAD_REACTORS
330
C
102
}
330
C
100
AcDbDictionary
281
     1
  3
CANNOSCALE
350
372
  3
CMLEADERSTYLE
350
370
  3
CTABLESTYLE
350
36F
  3
DIMASSOC
350
5F
  3
HIDETEXT
350
63
  3
LAYEREVAL
350
374
  3
LAYERNOTIFY
350
375
  3
LIGHTINGUNITS
350
373
  3
MSLTSCALE
350
371
  0
DICTIONARY
  5
9A
102
{ACAD_REACTORS
330
99
102
}
330
99
100
AcDbDictionary
281
     1
  0
XRECORD
  5
36C
102
{ACAD_REACTORS
330
36B
102
}
330
36B
100
AcDbXrecord
280
     1
290
     1
  0
XRECORD
  5
92
102
{ACAD_REACTORS
330
91
102
}
330
91
100
AcDbXrecord
280
     1
290
     1
  0
XRECORD
  5
95
102
{ACAD_REACTORS
330
94
102
}
330
94
100
AcDbXrecord
280
     1
290
     1
  0
XRECORD
  5
36E
102
{ACAD_REACTORS
330
36D
102
}
330
36D
100
AcDbXrecord
280
     1
290
     1
  0
LAYOUT
  5
22
102
{ACAD_REACTORS
330
1A
102
}
330
1A
100
AcDbPlotSettings
  1

  2
none_device
  4
ANSI_A_(8.50_x_11.00_Inches)
  6

 40
6.349999904632568
 41
19.04999923706055
 42
6.350006103515625
 43
19.04998779296875
 44
215.8999938964844
 45
279.3999938964844
 46
0.0
 47
0.0
 48
0.0
 49
0.0
140
0.0
141
0.0
142
1.0
143
78.436453180766
 70
 11952
 72
     0
 73
     1
 74
     0
  7

 75
     0
147
0.0127491741332998
 76
     0
 77
     2
 78
   300
148
0.0
149
0.0
100
AcDbLayout
  1
Model
 70
     1
 71
     0
 10
0.0
 20
0.0
 11
12.0
 21
9.0
 12
0.0
 22
0.0
 32
0.0
 14
0.0
 24
0.0
 34
0.0
 15
0.0
 25
0.0
 35
0.0
146
0.0
 13
0.0
 23
0.0
 33
0.0
 16
1.0
 26
0.0
 36
0.0
 17
0.0
 27
1.0
 37
0.0
 76
     0
330
1F
331
323
  0
LAYOUT
  5
51
102
{ACAD_REACTORS
330
1A
102
}
330
1A
100
AcDbPlotSettings
  1

  2
none_device
  4
Letter_(8.50_x_11.00_Inches)
  6

 40
6.349999904632568
 41
6.349999904632568
 42
6.350006103515625
 43
6.350006103515625
 44
215.8999938964844
 45
279.3999938964844
 46
0.0
 47
0.0
 48
0.0
 49
0.0
140
0.0
141
0.0
142
1.0
143
1.0
 70
   688
 72
     1
 73
     1
 74
     5
  7

 75
    16
147
1.0
 76
     0
 77
     2
 78
   300
148
0.0
149
0.0
100
AcDbLayout
  1
ﾚｲｱｳﾄ1
 70
     1
 71
     1
 10
-6.350006103515625
 20
-6.349999904632568
 11
273.0499877929688
 21
209.5499939918518
 12
0.0
 22
0.0
 32
0.0
 14
26.66076962115563
 24
20.31135699206658
 34
-0.0015258207003583
 15
240.039213369355
 25
182.8886381005154
 35
0.0000000349246037
146
0.0
 13
0.0
 23
0.0
 33
0.0
 16
1.0
 26
0.0
 36
0.0
 17
0.0
 27
1.0
 37
0.0
 76
     0
330
50
331
6B
  0
LAYOUT
  5
56
102
{ACAD_REACTORS
330
1A
102
}
330
1A
100
AcDbPlotSettings
  1

  2
none_device
  4
Letter_(8.50_x_11.00_Inches)
  6

 40
6.349999904632568
 41
6.349999904632568
 42
6.350006103515625
 43
6.350006103515625
 44
215.8999938964844
 45
279.3999938964844
 46
0.0
 47
0.0
 48
0.0
 49
0.0
140
0.0
141
0.0
142
1.0
143
1.0
 70
   688
 72
     1
 73
     1
 74
     5
  7

 75
    16
147
1.0
 76
     0
 77
     2
 78
   300
148
0.0
149
0.0
100
AcDbLayout
  1
ﾚｲｱｳﾄ2
 70
     1
 71
     2
 10
-6.350006103515625
 20
-6.349999904632568
 11
273.0499877929688
 21
209.5499939918518
 12
0.0
 22
0.0
 32
0.0
 14
26.66076962115563
 24
20.31135699206658
 34
-0.0015258207003583
 15
240.039213369355
 25
182.8886381005154
 35
0.0000000349246037
146
0.0
 13
0.0
 23
0.0
 33
0.0
 16
1.0
 26
0.0
 36
0.0
 17
0.0
 27
1.0
 37
0.0
 76
     0
330
55
331
71
  0
MATERIAL
  5
32E
102
{ACAD_XDICTIONARY
360
32F
102
}
102
{ACAD_REACTORS
330
325
102
}
330
325
100
AcDbMaterial
  1
ByBlock
 72
     0
 43
0.0008202099737533
 43
0.0
 43
0.0
 43
0.0
 43
0.0
 43
0.0008202099737533
 43
0.0
 43
0.0
 43
0.0
 43
0.0
 43
1.0
 43
0.0
 43
0.0
 43
0.0
 43
0.0
 43
1.0
 77
     0
 47
0.0008202099737533
 47
0.0
 47
0.0
 47
0.0
 47
0.0
 47
0.0008202099737533
 47
0.0
 47
0.0
 47
0.0
 47
0.0
 47
1.0
 47
0.0
 47
0.0
 47
0.0
 47
0.0
 47
1.0
171
     0
 49
0.0008202099737533
 49
0.0
 49
0.0
 49
0.0
 49
0.0
 49
0.0008202099737533
 49
0.0
 49
0.0
 49
0.0
 49
0.0
 49
1.0
 49
0.0
 49
0.0
 49
0.0
 49
0.0
 49
1.0
175
     0
142
0.0008202099737533
142
0.0
142
0.0
142
0.0
142
0.0
142
0.0008202099737533
142
0.0
142
0.0
142
0.0
142
0.0
142
1.0
142
0.0
142
0.0
142
0.0
142
0.0
142
1.0
179
     0
144
0.0008202099737533
144
0.0
144
0.0
144
0.0
144
0.0
144
0.0008202099737533
144
0.0
144
0.0
144
0.0
144
0.0
144
1.0
144
0.0
144
0.0
144
0.0
144
0.0
144
1.0
147
0.0008202099737533
147
0.0
147
0.0
147
0.0
147
0.0
147
0.0008202099737533
147
0.0
147
0.0
147
0.0
147
0.0
147
1.0
147
0.0
147
0.0
147
0.0
147
0.0
147
1.0
  0
MATERIAL
  5
326
102
{ACAD_XDICTIONARY
360
327
102
}
102
{ACAD_REACTORS
330
325
102
}
330
325
100
AcDbMaterial
  1
ByLayer
 72
     0
 43
0.0008202099737533
 43
0.0
 43
0.0
 43
0.0
 43
0.0
 43
0.0008202099737533
 43
0.0
 43
0.0
 43
0.0
 43
0.0
 43
1.0
 43
0.0
 43
0.0
 43
0.0
 43
0.0
 43
1.0
 77
     0
 47
0.0008202099737533
 47
0.0
 47
0.0
 47
0.0
 47
0.0
 47
0.0008202099737533
 47
0.0
 47
0.0
 47
0.0
 47
0.0
 47
1.0
 47
0.0
 47
0.0
 47
0.0
 47
0.0
 47
1.0
171
     0
 49
0.0008202099737533
 49
0.0
 49
0.0
 49
0.0
 49
0.0
 49
0.0008202099737533
 49
0.0
 49
0.0
 49
0.0
 49
0.0
 49
1.0
 49
0.0
 49
0.0
 49
0.0
 49
0.0
 49
1.0
175
     0
142
0.0008202099737533
142
0.0
142
0.0
142
0.0
142
0.0
142
0.0008202099737533
142
0.0
142
0.0
142
0.0
142
0.0
142
1.0
142
0.0
142
0.0
142
0.0
142
0.0
142
1.0
179
     0
144
0.0008202099737533
144
0.0
144
0.0
144
0.0
144
0.0
144
0.0008202099737533
144
0.0
144
0.0
144
0.0
144
0.0
144
1.0
144
0.0
144
0.0
144
0.0
144
0.0
144
1.0
147
0.0008202099737533
147
0.0
147
0.0
147
0.0
147
0.0
147
0.0008202099737533
147
0.0
147
0.0
147
0.0
147
0.0
147
1.0
147
0.0
147
0.0
147
0.0
147
0.0
147
1.0
  0
MATERIAL
  5
336
102
{ACAD_XDICTIONARY
360
337
102
}
102
{ACAD_REACTORS
330
325
102
}
330
325
100
AcDbMaterial
  1
Global
 72
     0
 43
0.0008202099737533
 43
0.0
 43
0.0
 43
0.0
 43
0.0
 43
0.0008202099737533
 43
0.0
 43
0.0
 43
0.0
 43
0.0
 43
1.0
 43
0.0
 43
0.0
 43
0.0
 43
0.0
 43
1.0
 77
     0
 47
0.0008202099737533
 47
0.0
 47
0.0
 47
0.0
 47
0.0
 47
0.0008202099737533
 47
0.0
 47
0.0
 47
0.0
 47
0.0
 47
1.0
 47
0.0
 47
0.0
 47
0.0
 47
0.0
 47
1.0
171
     0
 49
0.0008202099737533
 49
0.0
 49
0.0
 49
0.0
 49
0.0
 49
0.0008202099737533
 49
0.0
 49
0.0
 49
0.0
 49
0.0
 49
1.0
 49
0.0
 49
0.0
 49
0.0
 49
0.0
 49
1.0
175
     0
142
0.0008202099737533
142
0.0
142
0.0
142
0.0
142
0.0
142
0.0008202099737533
142
0.0
142
0.0
142
0.0
142
0.0
142
1.0
142
0.0
142
0.0
142
0.0
142
0.0
142
1.0
179
     0
144
0.0008202099737533
144
0.0
144
0.0
144
0.0
144
0.0
144
0.0008202099737533
144
0.0
144
0.0
144
0.0
144
0.0
144
1.0
144
0.0
144
0.0
144
0.0
144
0.0
144
1.0
147
0.0008202099737533
147
0.0
147
0.0
147
0.0
147
0.0
147
0.0008202099737533
147
0.0
147
0.0
147
0.0
147
0.0
147
1.0
147
0.0
147
0.0
147
0.0
147
0.0
147
1.0
  0
MLEADERSTYLE
  5
368
102
{ACAD_REACTORS
330
367
102
}
330
367
100
AcDbMLeaderStyle
179
     2
170
     2
171
     1
172
     0
 90
        2
 40
0.0
 41
0.0
173
     1
 91
-1056964608
340
14
 92
       -2
290
     1
 42
2.0
291
     1
 43
0.36
  3
Standard
 44
4.0
300

342
11
174
     1
178
     6
175
     1
176
     0
 93
-1056964608
 45
4.0
292
     0
297
     0
 46
4.0
 94
-1056964608
 47
1.0
 49
1.0
140
1.0
293
     1
141
0.0
294
     1
177
     0
142
1.0
295
     1
296
     0
143
0.125
271
     0
272
     9
273
     9
  0
MLINESTYLE
  5
18
102
{ACAD_REACTORS
330
17
102
}
330
17
100
AcDbMlineStyle
  2
STANDARD
 70
     0
  3

 62
   256
 51
90.0
 52
90.0
 71
     2
 49
0.5
 62
   256
  6
BYLAYER
 49
-0.5
 62
   256
  6
BYLAYER
  0
ACDBPLACEHOLDER
  5
F
102
{ACAD_REACTORS
330
E
102
}
330
E
  0
SCALE
  5
356
102
{ACAD_REACTORS
330
355
102
}
330
355
100
AcDbScale
 70
     0
300
1:1
140
1.0
141
1.0
290
     1
  0
SCALE
  5
357
102
{ACAD_REACTORS
330
355
102
}
330
355
100
AcDbScale
 70
     0
300
1:2
140
1.0
141
2.0
290
     0
  0
SCALE
  5
358
102
{ACAD_REACTORS
330
355
102
}
330
355
100
AcDbScale
 70
     0
300
1:4
140
1.0
141
4.0
290
     0
  0
SCALE
  5
359
102
{ACAD_REACTORS
330
355
102
}
330
355
100
AcDbScale
 70
     0
300
1:5
140
1.0
141
5.0
290
     0
  0
SCALE
  5
35A
102
{ACAD_REACTORS
330
355
102
}
330
355
100
AcDbScale
 70
     0
300
1:8
140
1.0
141
8.0
290
     0
  0
SCALE
  5
35B
102
{ACAD_REACTORS
330
355
102
}
330
355
100
AcDbScale
 70
     0
300
1:10
140
1.0
141
10.0
290
     0
  0
SCALE
  5
35C
102
{ACAD_REACTORS
330
355
102
}
330
355
100
AcDbScale
 70
     0
300
1:16
140
1.0
141
16.0
290
     0
  0
SCALE
  5
35D
102
{ACAD_REACTORS
330
355
102
}
330
355
100
AcDbScale
 70
     0
300
1:20
140
1.0
141
20.0
290
     0
  0
SCALE
  5
35E
102
{ACAD_REACTORS
330
355
102
}
330
355
100
AcDbScale
 70
     0
300
1:30
140
1.0
141
30.0
290
     0
  0
SCALE
  5
35F
102
{ACAD_REACTORS
330
355
102
}
330
355
100
AcDbScale
 70
     0
300
1:40
140
1.0
141
40.0
290
     0
  0
SCALE
  5
360
102
{ACAD_REACTORS
330
355
102
}
330
355
100
AcDbScale
 70
     0
300
1:50
140
1.0
141
50.0
290
     0
  0
SCALE
  5
361
102
{ACAD_REACTORS
330
355
102
}
330
355
100
AcDbScale
 70
     0
300
1:100
140
1.0
141
100.0
290
     0
  0
SCALE
  5
362
102
{ACAD_REACTORS
330
355
102
}
330
355
100
AcDbScale
 70
     0
300
2:1
140
2.0
141
1.0
290
     0
  0
SCALE
  5
363
102
{ACAD_REACTORS
330
355
102
}
330
355
100
AcDbScale
 70
     0
300
4:1
140
4.0
141
1.0
290
     0
  0
SCALE
  5
364
102
{ACAD_REACTORS
330
355
102
}
330
355
100
AcDbScale
 70
     0
300
8:1
140
8.0
141
1.0
290
     0
  0
SCALE
  5
365
102
{ACAD_REACTORS
330
355
102
}
330
355
100
AcDbScale
 70
     0
300
10:1
140
10.0
141
1.0
290
     0
  0
SCALE
  5
366
102
{ACAD_REACTORS
330
355
102
}
330
355
100
AcDbScale
 70
     0
300
100:1
140
100.0
141
1.0
290
     0
  0
TABLESTYLE
  5
354
102
{ACAD_XDICTIONARY
360
376
102
}
102
{ACAD_REACTORS
330
353
102
}
330
353
100
AcDbTableStyle
280
     0
  3
Standard
 70
     0
 71
     0
 40
1.5
 41
1.5
280
     0
281
     0
  7
Standard
140
4.5
170
     2
 62
     0
 63
     7
283
     0
 90
      512
 91
        0
  1

274
    -2
284
     1
 64
     0
275
    -2
285
     1
 65
     0
276
    -2
286
     1
 66
     0
277
    -2
287
     1
 67
     0
278
    -2
288
     1
 68
     0
279
    -2
289
     1
 69
     0
  7
Standard
140
6.0
170
     5
 62
     0
 63
     7
283
     0
 90
      512
 91
        0
  1

274
    -2
284
     1
 64
     0
275
    -2
285
     1
 65
     0
276
    -2
286
     1
 66
     0
277
    -2
287
     1
 67
     0
278
    -2
288
     1
 68
     0
279
    -2
289
     1
 69
     0
  7
Standard
140
4.5
170
     5
 62
     0
 63
     7
283
     0
 90
      512
 91
        0
  1

274
    -2
284
     1
 64
     0
275
    -2
285
     1
 65
     0
276
    -2
286
     1
 66
     0
277
    -2
287
     1
 67
     0
278
    -2
288
     1
 68
     0
279
    -2
289
     1
 69
     0
  0
VISUALSTYLE
  5
344
102
{ACAD_REACTORS
330
33E
102
}
330
33E
100
AcDbVisualStyle
  2
2dWireframe
 70
     4
177
     2
291
     0
 71
     0
176
     1
 72
     2
176
     1
 73
     0
176
     1
 90
        0
176
     1
 40
0.6
176
     1
 41
30.0
176
     1
 63
     7
421
 16777215
176
     1
 74
     1
176
     1
 91
        4
176
     1
 64
     7
176
     1
 65
   257
176
     1
 75
     1
176
     1
175
     1
176
     1
 42
1.0
176
     1
 92
        0
176
     1
 66
   257
176
     1
 43
1.0
176
     1
 76
     1
176
     1
 77
     6
176
     1
 78
     2
176
     1
 67
     7
176
     1
 79
     5
176
     1
170
     0
176
     1
171
     0
176
     1
290
     0
176
     1
 93
        1
176
     1
 44
0.0
176
     1
173
     0
176
     1
  0
VISUALSTYLE
  5
346
102
{ACAD_REACTORS
330
33E
102
}
330
33E
100
AcDbVisualStyle
  2
3D Hidden
 70
     6
177
     2
291
     0
 71
     1
176
     1
 72
     2
176
     1
 73
     2
176
     1
 90
        0
176
     1
 40
0.6
176
     1
 41
30.0
176
     1
 63
     7
421
 16777215
176
     1
 74
     2
176
     1
 91
        2
176
     1
 64
     7
176
     1
 65
   257
176
     1
 75
     2
176
     1
175
     1
176
     1
 42
179.0
176
     1
 92
        0
176
     1
 66
   257
176
     1
 43
1.0
176
     1
 76
     1
176
     1
 77
     6
176
     1
 78
     2
176
     1
 67
     7
176
     1
 79
     3
176
     1
170
     0
176
     1
171
     0
176
     1
290
     0
176
     1
 93
        1
176
     1
 44
0.0
176
     1
173
     0
176
     1
  0
VISUALSTYLE
  5
345
102
{ACAD_REACTORS
330
33E
102
}
330
33E
100
AcDbVisualStyle
  2
3dWireframe
 70
     5
177
     2
291
     0
 71
     0
176
     1
 72
     2
176
     1
 73
     0
176
     1
 90
        0
176
     1
 40
0.6
176
     1
 41
30.0
176
     1
 63
     7
421
 16777215
176
     1
 74
     1
176
     1
 91
        4
176
     1
 64
     7
176
     1
 65
   257
176
     1
 75
     1
176
     1
175
     1
176
     1
 42
1.0
176
     1
 92
        0
176
     1
 66
   257
176
     1
 43
1.0
176
     1
 76
     1
176
     1
 77
     6
176
     1
 78
     2
176
     1
 67
     7
176
     1
 79
     5
176
     1
170
     0
176
     1
171
     0
176
     1
290
     0
176
     1
 93
        1
176
     1
 44
0.0
176
     1
173
     0
176
     1
  0
VISUALSTYLE
  5
343
102
{ACAD_REACTORS
330
33E
102
}
330
33E
100
AcDbVisualStyle
  2
Basic
 70
     7
177
     2
291
     1
 71
     1
176
     1
 72
     0
176
     1
 73
     1
176
     1
 90
        0
176
     1
 40
0.6
176
     1
 41
30.0
176
     1
 63
     7
421
 16777215
176
     1
 74
     0
176
     1
 91
        4
176
     1
 64
     7
176
     1
 65
   257
176
     1
 75
     1
176
     1
175
     1
176
     1
 42
1.0
176
     1
 92
        8
176
     1
 66
     7
176
     1
 43
1.0
176
     1
 76
     1
176
     1
 77
     6
176
     1
 78
     2
176
     1
 67
     7
176
     1
 79
     5
176
     1
170
     0
176
     1
171
     0
176
     1
290
     0
176
     1
 93
        1
176
     1
 44
0.0
176
     1
173
     0
176
     1
  0
VISUALSTYLE
  5
34A
102
{ACAD_REACTORS
330
33E
102
}
330
33E
100
AcDbVisualStyle
  2
Brighten
 70
    12
177
     2
291
     1
 71
     2
176
     1
 72
     2
176
     1
 73
     0
176
     1
 90
        0
176
     1
 40
0.6
176
     1
 41
30.0
176
     1
 63
     7
421
 16777215
176
     1
 74
     1
176
     1
 91
        4
176
     1
 64
     7
176
     1
 65
   257
176
     1
 75
     1
176
     1
175
     1
176
     1
 42
1.0
176
     1
 92
        8
176
     1
 66
     7
176
     1
 43
1.0
176
     1
 76
     1
176
     1
 77
     6
176
     1
 78
     2
176
     1
 67
     7
176
     1
 79
     5
176
     1
170
     0
176
     1
171
     0
176
     1
290
     0
176
     1
 93
        1
176
     1
 44
50.0
176
     1
173
     0
176
     1
  0
VISUALSTYLE
  5
34E
102
{ACAD_REACTORS
330
33E
102
}
330
33E
100
AcDbVisualStyle
  2
ColorChange
 70
    16
177
     2
291
     1
 71
     2
176
     1
 72
     2
176
     1
 73
     3
176
     1
 90
        0
176
     1
 40
0.6
176
     1
 41
30.0
176
     1
 63
     8
421
  8421504
176
     1
 74
     1
176
     1
 91
        4
176
     1
 64
     7
176
     1
 65
   257
176
     1
 75
     1
176
     1
175
     1
176
     1
 42
1.0
176
     1
 92
        8
176
     1
 66
     8
424
  8421504
176
     1
 43
1.0
176
     1
 76
     1
176
     1
 77
     6
176
     1
 78
     2
176
     1
 67
     7
176
     1
 79
     5
176
     1
170
     0
176
     1
171
     0
176
     1
290
     0
176
     1
 93
        1
176
     1
 44
0.0
176
     1
173
     0
176
     1
  0
VISUALSTYLE
  5
347
102
{ACAD_REACTORS
330
33E
102
}
330
33E
100
AcDbVisualStyle
  2
Conceptual
 70
     9
177
     2
291
     0
 71
     3
176
     1
 72
     2
176
     1
 73
     0
176
     1
 90
        0
176
     1
 40
0.6
176
     1
 41
30.0
176
     1
 63
     7
421
 16777215
176
     1
 74
     2
176
     1
 91
        2
176
     1
 64
     7
176
     1
 65
   257
176
     1
 75
     1
176
     1
175
     1
176
     1
 42
179.0
176
     1
 92
        8
176
     1
 66
     7
176
     1
 43
1.0
176
     1
 76
     1
176
     1
 77
     6
176
     1
 78
     2
176
     1
 67
     7
176
     1
 79
     3
176
     1
170
     0
176
     1
171
     0
176
     1
290
     0
176
     1
 93
        1
176
     1
 44
0.0
176
     1
173
     0
176
     1
  0
VISUALSTYLE
  5
349
102
{ACAD_REACTORS
330
33E
102
}
330
33E
100
AcDbVisualStyle
  2
Dim
 70
    11
177
     2
291
     1
 71
     2
176
     1
 72
     2
176
     1
 73
     0
176
     1
 90
        0
176
     1
 40
0.6
176
     1
 41
30.0
176
     1
 63
     7
421
 16777215
176
     1
 74
     1
176
     1
 91
        4
176
     1
 64
     7
176
     1
 65
   257
176
     1
 75
     1
176
     1
175
     1
176
     1
 42
1.0
176
     1
 92
        8
176
     1
 66
     7
176
     1
 43
1.0
176
     1
 76
     1
176
     1
 77
     6
176
     1
 78
     2
176
     1
 67
     7
176
     1
 79
     5
176
     1
170
     0
176
     1
171
     0
176
     1
290
     0
176
     1
 93
        1
176
     1
 44
-50.0
176
     1
173
     0
176
     1
  0
VISUALSTYLE
  5
351
102
{ACAD_REACTORS
330
33E
102
}
330
33E
100
AcDbVisualStyle
  2
EdgeColorOff
 70
    22
177
     2
291
     1
 71
     2
176
     0
 72
     2
176
     0
 73
     0
176
     0
 90
        0
176
     0
 40
0.6
176
     0
 41
30.0
176
     0
 63
     7
421
 16777215
176
     0
 74
     1
176
     0
 91
        4
176
     0
 64
     7
176
     0
 65
   257
176
     0
 75
     1
176
     0
175
     1
176
     0
 42
1.0
176
     0
 92
        8
176
     2
 66
     7
176
     0
 43
1.0
176
     0
 76
     1
176
     0
 77
     6
176
     0
 78
     2
176
     0
 67
     7
176
     0
 79
     5
176
     0
170
     0
176
     0
171
     0
176
     0
290
     0
176
     0
 93
        1
176
     0
 44
0.0
176
     0
173
     0
176
     0
  0
VISUALSTYLE
  5
34D
102
{ACAD_REACTORS
330
33E
102
}
330
33E
100
AcDbVisualStyle
  2
Facepattern
 70
    15
177
     2
291
     1
 71
     2
176
     1
 72
     2
176
     1
 73
     0
176
     1
 90
        0
176
     1
 40
0.6
176
     1
 41
30.0
176
     1
 63
     7
421
 16777215
176
     1
 74
     1
176
     1
 91
        4
176
     1
 64
     7
176
     1
 65
   257
176
     1
 75
     1
176
     1
175
     1
176
     1
 42
1.0
176
     1
 92
        8
176
     1
 66
     7
176
     1
 43
1.0
176
     1
 76
     1
176
     1
 77
     6
176
     1
 78
     2
176
     1
 67
     7
176
     1
 79
     5
176
     1
170
     0
176
     1
171
     0
176
     1
290
     0
176
     1
 93
        1
176
     1
 44
0.0
176
     1
173
     0
176
     1
  0
VISUALSTYLE
  5
33F
102
{ACAD_REACTORS
330
33E
102
}
330
33E
100
AcDbVisualStyle
  2
Flat
 70
     0
177
     2
291
     1
 71
     2
176
     1
 72
     1
176
     1
 73
     1
176
     1
 90
        2
176
     1
 40
0.6
176
     1
 41
30.0
176
     1
 63
     7
421
 16777215
176
     1
 74
     0
176
     1
 91
        4
176
     1
 64
     7
176
     1
 65
   257
176
     1
 75
     1
176
     1
175
     1
176
     1
 42
1.0
176
     1
 92
        8
176
     1
 66
     7
176
     1
 43
1.0
176
     1
 76
     1
176
     1
 77
     6
176
     1
 78
     2
176
     1
 67
     7
176
     1
 79
     5
176
     1
170
     0
176
     1
171
     0
176
     1
290
     0
176
     1
 93
       13
176
     1
 44
0.0
176
     1
173
     0
176
     1
  0
VISUALSTYLE
  5
340
102
{ACAD_REACTORS
330
33E
102
}
330
33E
100
AcDbVisualStyle
  2
FlatWithEdges
 70
     1
177
     2
291
     1
 71
     2
176
     1
 72
     1
176
     1
 73
     1
176
     1
 90
        2
176
     1
 40
0.6
176
     1
 41
30.0
176
     1
 63
     7
421
 16777215
176
     1
 74
     1
176
     1
 91
        4
176
     1
 64
     7
176
     1
 65
   257
176
     1
 75
     1
176
     1
175
     1
176
     1
 42
1.0
176
     1
 92
        0
176
     1
 66
   257
176
     1
 43
1.0
176
     1
 76
     1
176
     1
 77
     6
176
     1
 78
     2
176
     1
 67
     7
176
     1
 79
     5
176
     1
170
     0
176
     1
171
     0
176
     1
290
     0
176
     1
 93
       13
176
     1
 44
0.0
176
     1
173
     0
176
     1
  0
VISUALSTYLE
  5
341
102
{ACAD_REACTORS
330
33E
102
}
330
33E
100
AcDbVisualStyle
  2
Gouraud
 70
     2
177
     2
291
     1
 71
     2
176
     1
 72
     2
176
     1
 73
     1
176
     1
 90
        2
176
     1
 40
0.6
176
     1
 41
30.0
176
     1
 63
     7
421
 16777215
176
     1
 74
     0
176
     1
 91
        4
176
     1
 64
     7
176
     1
 65
   257
176
     1
 75
     1
176
     1
175
     1
176
     1
 42
1.0
176
     1
 92
        0
176
     1
 66
     7
176
     1
 43
1.0
176
     1
 76
     1
176
     1
 77
     6
176
     1
 78
     2
176
     1
 67
     7
176
     1
 79
     5
176
     1
170
     0
176
     1
171
     0
176
     1
290
     0
176
     1
 93
       13
176
     1
 44
0.0
176
     1
173
     0
176
     1
  0
VISUALSTYLE
  5
342
102
{ACAD_REACTORS
330
33E
102
}
330
33E
100
AcDbVisualStyle
  2
GouraudWithEdges
 70
     3
177
     2
291
     1
 71
     2
176
     1
 72
     2
176
     1
 73
     1
176
     1
 90
        2
176
     1
 40
0.6
176
     1
 41
30.0
176
     1
 63
     7
421
 16777215
176
     1
 74
     1
176
     1
 91
        4
176
     1
 64
     7
176
     1
 65
   257
176
     1
 75
     1
176
     1
175
     1
176
     1
 42
1.0
176
     1
 92
        0
176
     1
 66
   257
176
     1
 43
1.0
176
     1
 76
     1
176
     1
 77
     6
176
     1
 78
     2
176
     1
 67
     7
176
     1
 79
     5
176
     1
170
     0
176
     1
171
     0
176
     1
290
     0
176
     1
 93
       13
176
     1
 44
0.0
176
     1
173
     0
176
     1
  0
VISUALSTYLE
  5
34F
102
{ACAD_REACTORS
330
33E
102
}
330
33E
100
AcDbVisualStyle
  2
JitterOff
 70
    20
177
     2
291
     1
 71
     2
176
     0
 72
     2
176
     0
 73
     0
176
     0
 90
        0
176
     0
 40
0.6
176
     0
 41
30.0
176
     0
 63
     7
421
 16777215
176
     0
 74
     1
176
     0
 91
        4
176
     0
 64
     7
176
     0
 65
   257
176
     0
 75
     1
176
     0
175
     1
176
     0
 42
1.0
176
     0
 92
       10
176
     2
 66
     7
176
     0
 43
1.0
176
     0
 76
     1
176
     0
 77
     6
176
     0
 78
     2
176
     0
 67
     7
176
     0
 79
     5
176
     0
170
     0
176
     0
171
     0
176
     0
290
     0
176
     0
 93
        1
176
     0
 44
0.0
176
     0
173
     0
176
     0
  0
VISUALSTYLE
  5
34C
102
{ACAD_REACTORS
330
33E
102
}
330
33E
100
AcDbVisualStyle
  2
Linepattern
 70
    14
177
     2
291
     1
 71
     2
176
     1
 72
     2
176
     1
 73
     0
176
     1
 90
        0
176
     1
 40
0.6
176
     1
 41
30.0
176
     1
 63
     7
421
 16777215
176
     1
 74
     1
176
     1
 91
        4
176
     1
 64
     7
176
     1
 65
   257
176
     1
 75
     7
176
     1
175
     7
176
     1
 42
1.0
176
     1
 92
        8
176
     1
 66
     7
176
     1
 43
1.0
176
     1
 76
     1
176
     1
 77
     6
176
     1
 78
     2
176
     1
 67
     7
176
     1
 79
     5
176
     1
170
     0
176
     1
171
     0
176
     1
290
     0
176
     1
 93
        1
176
     1
 44
0.0
176
     1
173
     0
176
     1
  0
VISUALSTYLE
  5
350
102
{ACAD_REACTORS
330
33E
102
}
330
33E
100
AcDbVisualStyle
  2
OverhangOff
 70
    21
177
     2
291
     1
 71
     2
176
     0
 72
     2
176
     0
 73
     0
176
     0
 90
        0
176
     0
 40
0.6
176
     0
 41
30.0
176
     0
 63
     7
421
 16777215
176
     0
 74
     1
176
     0
 91
        4
176
     0
 64
     7
176
     0
 65
   257
176
     0
 75
     1
176
     0
175
     1
176
     0
 42
1.0
176
     0
 92
        9
176
     2
 66
     7
176
     0
 43
1.0
176
     0
 76
     1
176
     0
 77
     6
176
     0
 78
     2
176
     0
 67
     7
176
     0
 79
     5
176
     0
170
     0
176
     0
171
     0
176
     0
290
     0
176
     0
 93
        1
176
     0
 44
0.0
176
     0
173
     0
176
     0
  0
VISUALSTYLE
  5
348
102
{ACAD_REACTORS
330
33E
102
}
330
33E
100
AcDbVisualStyle
  2
Realistic
 70
     8
177
     2
291
     0
 71
     2
176
     1
 72
     2
176
     1
 73
     0
176
     1
 90
        0
176
     1
 40
0.6
176
     1
 41
30.0
176
     1
 63
     7
421
 16777215
176
     1
 74
     1
176
     1
 91
        0
176
     1
 64
     7
176
     1
 65
   257
176
     1
 75
     1
176
     1
175
     1
176
     1
 42
1.0
176
     1
 92
        8
176
     1
 66
     8
424
  7895160
176
     1
 43
1.0
176
     1
 76
     1
176
     1
 77
     6
176
     1
 78
     2
176
     1
 67
     7
176
     1
 79
     5
176
     1
170
     0
176
     1
171
     0
176
     1
290
     0
176
     1
 93
       13
176
     1
 44
0.0
176
     1
173
     0
176
     1
  0
VISUALSTYLE
  5
34B
102
{ACAD_REACTORS
330
33E
102
}
330
33E
100
AcDbVisualStyle
  2
Thicken
 70
    13
177
     2
291
     1
 71
     2
176
     1
 72
     2
176
     1
 73
     0
176
     1
 90
        0
176
     1
 40
0.6
176
     1
 41
30.0
176
     1
 63
     7
421
 16777215
176
     1
 74
     1
176
     1
 91
        4
176
     1
 64
     7
176
     1
 65
   257
176
     1
 75
     1
176
     1
175
     1
176
     1
 42
1.0
176
     1
 92
       12
176
     1
 66
     7
176
     1
 43
1.0
176
     1
 76
     1
176
     1
 77
     6
176
     1
 78
     2
176
     1
 67
     7
176
     1
 79
     5
176
     1
170
     0
176
     1
171
     0
176
     1
290
     0
176
     1
 93
        1
176
     1
 44
0.0
176
     1
173
     0
176
     1
  0
DICTIONARYVAR
  5
372
102
{ACAD_REACTORS
330
5E
102
}
330
5E
100
DictionaryVariables
280
     0
  1
1:1
  0
DICTIONARYVAR
  5
370
102
{ACAD_REACTORS
330
5E
102
}
330
5E
100
DictionaryVariables
280
     0
  1
STANDARD
  0
DICTIONARYVAR
  5
36F
102
{ACAD_REACTORS
330
5E
102
}
330
5E
100
DictionaryVariables
280
     0
  1
STANDARD
  0
DICTIONARYVAR
  5
5F
102
{ACAD_REACTORS
330
5E
102
}
330
5E
100
DictionaryVariables
280
     0
  1
2
  0
DICTIONARYVAR
  5
63
102
{ACAD_REACTORS
330
5E
102
}
330
5E
100
DictionaryVariables
280
     0
  1
1
  0
DICTIONARYVAR
  5
374
102
{ACAD_REACTORS
330
5E
102
}
330
5E
100
DictionaryVariables
280
     0
  1
1
  0
DICTIONARYVAR
  5
375
102
{ACAD_REACTORS
330
5E
102
}
330
5E
100
DictionaryVariables
280
     0
  1
15
  0
DICTIONARYVAR
  5
373
102
{ACAD_REACTORS
330
5E
102
}
330
5E
100
DictionaryVariables
280
     0
  1
0
  0
DICTIONARYVAR
  5
371
102
{ACAD_REACTORS
330
5E
102
}
330
5E
100
DictionaryVariables
280
     0
  1
0
  0
DICTIONARY
  5
32F
330
32E
100
AcDbDictionary
280
     1
281
     1
  3
BUMPTILE
360
331
  3
DIFFUSETILE
360
330
  3
OPACITYTILE
360
334
  3
REFLECTIONTILE
360
333
  3
REFRACTIONTILE
360
335
  3
SPECULARTILE
360
332
  0
DICTIONARY
  5
327
330
326
100
AcDbDictionary
280
     1
281
     1
  3
BUMPTILE
360
329
  3
DIFFUSETILE
360
328
  3
OPACITYTILE
360
32C
  3
REFLECTIONTILE
360
32B
  3
REFRACTIONTILE
360
32D
  3
SPECULARTILE
360
32A
  0
DICTIONARY
  5
337
330
336
100
AcDbDictionary
280
     1
281
     1
  3
BUMPTILE
360
339
  3
DIFFUSETILE
360
338
  3
OPACITYTILE
360
33C
  3
REFLECTIONTILE
360
33B
  3
REFRACTIONTILE
360
33D
  3
SPECULARTILE
360
33A
  0
DICTIONARY
  5
376
330
354
100
AcDbDictionary
280
     1
281
     1
  3
ACAD_ROUNDTRIP_2008_TABLESTYLE_CELLSTYLEMAP
360
377
  0
XRECORD
  5
331
102
{ACAD_REACTORS
330
32F
102
}
330
32F
100
AcDbXrecord
280
     1
270
     1
271
     1
  0
XRECORD
  5
330
102
{ACAD_REACTORS
330
32F
102
}
330
32F
100
AcDbXrecord
280
     1
270
     1
271
     1
  0
XRECORD
  5
334
102
{ACAD_REACTORS
330
32F
102
}
330
32F
100
AcDbXrecord
280
     1
270
     1
271
     1
  0
XRECORD
  5
333
102
{ACAD_REACTORS
330
32F
102
}
330
32F
100
AcDbXrecord
280
     1
270
     1
271
     1
  0
XRECORD
  5
335
102
{ACAD_REACTORS
330
32F
102
}
330
32F
100
AcDbXrecord
280
     1
270
     1
271
     1
  0
XRECORD
  5
332
102
{ACAD_REACTORS
330
32F
102
}
330
32F
100
AcDbXrecord
280
     1
270
     1
271
     1
  0
XRECORD
  5
329
102
{ACAD_REACTORS
330
327
102
}
330
327
100
AcDbXrecord
280
     1
270
     1
271
     1
  0
XRECORD
  5
328
102
{ACAD_REACTORS
330
327
102
}
330
327
100
AcDbXrecord
280
     1
270
     1
271
     1
  0
XRECORD
  5
32C
102
{ACAD_REACTORS
330
327
102
}
330
327
100
AcDbXrecord
280
     1
270
     1
271
     1
  0
XRECORD
  5
32B
102
{ACAD_REACTORS
330
327
102
}
330
327
100
AcDbXrecord
280
     1
270
     1
271
     1
  0
XRECORD
  5
32D
102
{ACAD_REACTORS
330
327
102
}
330
327
100
AcDbXrecord
280
     1
270
     1
271
     1
  0
XRECORD
  5
32A
102
{ACAD_REACTORS
330
327
102
}
330
327
100
AcDbXrecord
280
     1
270
     1
271
     1
  0
XRECORD
  5
339
102
{ACAD_REACTORS
330
337
102
}
330
337
100
AcDbXrecord
280
     1
270
     1
271
     1
  0
XRECORD
  5
338
102
{ACAD_REACTORS
330
337
102
}
330
337
100
AcDbXrecord
280
     1
270
     1
271
     1
  0
XRECORD
  5
33C
102
{ACAD_REACTORS
330
337
102
}
330
337
100
AcDbXrecord
280
     1
270
     1
271
     1
  0
XRECORD
  5
33B
102
{ACAD_REACTORS
330
337
102
}
330
337
100
AcDbXrecord
280
     1
270
     1
271
     1
  0
XRECORD
  5
33D
102
{ACAD_REACTORS
330
337
102
}
330
337
100
AcDbXrecord
280
     1
270
     1
271
     1
  0
XRECORD
  5
33A
102
{ACAD_REACTORS
330
337
102
}
330
337
100
AcDbXrecord
280
     1
270
     1
271
     1
  0
CELLSTYLEMAP
  5
377
102
{ACAD_REACTORS
330
376
102
}
330
376
100
AcDbCellStyleMap
 90
        3
300
CELLSTYLE
  1
TABLEFORMAT_BEGIN
 90
        5
170
     1
 91
        0
 92
    32768
 62
   257
 93
        1
300
CONTENTFORMAT
  1
CONTENTFORMAT_BEGIN
 90
        0
 91
        0
 92
      512
 93
        0
300

 40
0.0
140
1.0
 94
        5
 62
     0
340
11
144
6.0
309
CONTENTFORMAT_END
171
     1
301
MARGIN
  1
CELLMARGIN_BEGIN
 40
1.5
 40
1.5
 40
1.5
 40
1.5
 40
4.5
 40
4.5
309
CELLMARGIN_END
 94
        6
 95
        1
302
GRIDFORMAT
  1
GRIDFORMAT_BEGIN
 90
        0
 91
        1
 62
     0
 92
       -2
340
0
 93
        0
 40
1.125
309
GRIDFORMAT_END
 95
        2
302
GRIDFORMAT
  1
GRIDFORMAT_BEGIN
 90
        0
 91
        1
 62
     0
 92
       -2
340
0
 93
        0
 40
1.125
309
GRIDFORMAT_END
 95
        4
302
GRIDFORMAT
  1
GRIDFORMAT_BEGIN
 90
        0
 91
        1
 62
     0
 92
       -2
340
0
 93
        0
 40
1.125
309
GRIDFORMAT_END
 95
        8
302
GRIDFORMAT
  1
GRIDFORMAT_BEGIN
 90
        0
 91
        1
 62
     0
 92
       -2
340
0
 93
        0
 40
1.125
309
GRIDFORMAT_END
 95
       16
302
GRIDFORMAT
  1
GRIDFORMAT_BEGIN
 90
        0
 91
        1
 62
     0
 92
       -2
340
0
 93
        0
 40
1.125
309
GRIDFORMAT_END
 95
       32
302
GRIDFORMAT
  1
GRIDFORMAT_BEGIN
 90
        0
 91
        1
 62
     0
 92
       -2
340
0
 93
        0
 40
1.125
309
GRIDFORMAT_END
309
TABLEFORMAT_END
  1
CELLSTYLE_BEGIN
 90
        1
 91
        1
300
_TITLE
309
CELLSTYLE_END
300
CELLSTYLE
  1
TABLEFORMAT_BEGIN
 90
        5
170
     1
 91
        0
 92
        0
 62
   257
 93
        1
300
CONTENTFORMAT
  1
CONTENTFORMAT_BEGIN
 90
        0
 91
        0
 92
      512
 93
        0
300

 40
0.0
140
1.0
 94
        5
 62
     0
340
11
144
4.5
309
CONTENTFORMAT_END
171
     1
301
MARGIN
  1
CELLMARGIN_BEGIN
 40
1.5
 40
1.5
 40
1.5
 40
1.5
 40
4.5
 40
4.5
309
CELLMARGIN_END
 94
        6
 95
        1
302
GRIDFORMAT
  1
GRIDFORMAT_BEGIN
 90
        0
 91
        1
 62
     0
 92
       -2
340
0
 93
        0
 40
1.125
309
GRIDFORMAT_END
 95
        2
302
GRIDFORMAT
  1
GRIDFORMAT_BEGIN
 90
        0
 91
        1
 62
     0
 92
       -2
340
0
 93
        0
 40
1.125
309
GRIDFORMAT_END
 95
        4
302
GRIDFORMAT
  1
GRIDFORMAT_BEGIN
 90
        0
 91
        1
 62
     0
 92
       -2
340
0
 93
        0
 40
1.125
309
GRIDFORMAT_END
 95
        8
302
GRIDFORMAT
  1
GRIDFORMAT_BEGIN
 90
        0
 91
        1
 62
     0
 92
       -2
340
0
 93
        0
 40
1.125
309
GRIDFORMAT_END
 95
       16
302
GRIDFORMAT
  1
GRIDFORMAT_BEGIN
 90
        0
 91
        1
 62
     0
 92
       -2
340
0
 93
        0
 40
1.125
309
GRIDFORMAT_END
 95
       32
302
GRIDFORMAT
  1
GRIDFORMAT_BEGIN
 90
        0
 91
        1
 62
     0
 92
       -2
340
0
 93
        0
 40
1.125
309
GRIDFORMAT_END
309
TABLEFORMAT_END
  1
CELLSTYLE_BEGIN
 90
        2
 91
        1
300
_HEADER
309
CELLSTYLE_END
300
CELLSTYLE
  1
TABLEFORMAT_BEGIN
 90
        5
170
     1
 91
        0
 92
        0
 62
   257
 93
        1
300
CONTENTFORMAT
  1
CONTENTFORMAT_BEGIN
 90
        0
 91
        0
 92
      512
 93
        0
300

 40
0.0
140
1.0
 94
        2
 62
     0
340
11
144
4.5
309
CONTENTFORMAT_END
171
     1
301
MARGIN
  1
CELLMARGIN_BEGIN
 40
1.5
 40
1.5
 40
1.5
 40
1.5
 40
4.5
 40
4.5
309
CELLMARGIN_END
 94
        6
 95
        1
302
GRIDFORMAT
  1
GRIDFORMAT_BEGIN
 90
        0
 91
        1
 62
     0
 92
       -2
340
0
 93
        0
 40
1.125
309
GRIDFORMAT_END
 95
        2
302
GRIDFORMAT
  1
GRIDFORMAT_BEGIN
 90
        0
 91
        1
 62
     0
 92
       -2
340
0
 93
        0
 40
1.125
309
GRIDFORMAT_END
 95
        4
302
GRIDFORMAT
  1
GRIDFORMAT_BEGIN
 90
        0
 91
        1
 62
     0
 92
       -2
340
0
 93
        0
 40
1.125
309
GRIDFORMAT_END
 95
        8
302
GRIDFORMAT
  1
GRIDFORMAT_BEGIN
 90
        0
 91
        1
 62
     0
 92
       -2
340
0
 93
        0
 40
1.125
309
GRIDFORMAT_END
 95
       16
302
GRIDFORMAT
  1
GRIDFORMAT_BEGIN
 90
        0
 91
        1
 62
     0
 92
       -2
340
0
 93
        0
 40
1.125
309
GRIDFORMAT_END
 95
       32
302
GRIDFORMAT
  1
GRIDFORMAT_BEGIN
 90
        0
 91
        1
 62
     0
 92
       -2
340
0
 93
        0
 40
1.125
309
GRIDFORMAT_END
309
TABLEFORMAT_END
  1
CELLSTYLE_BEGIN
 90
        3
 91
        2
300
_DATA
309
CELLSTYLE_END
  0
ENDSEC
  0
EOF
