  0
SECTION
  2
HEADER
  9
$ACADVER
  1
AC1024
  9
$ACADMAINTVER
 70
     6
  9
$DWGCODEPAGE
  3
ANSI_932
  9
$LASTSAVEDBY
  1
kanatani
  9
$INSBASE
 10
0.0
 20
0.0
 30
0.0
  9
$EXTMIN
 10
-58.7635463632273
 20
-63.74343539021163
 30
0.0
  9
$EXTMAX
 10
253.500015258789
 20
238.7635463632273
 30
0.0
  9
$LIMMIN
 10
0.0
 20
0.0
  9
$LIMMAX
 10
420.0
 20
297.0
  9
$ORTHOMODE
 70
     0
  9
$REGENMODE
 70
     1
  9
$FILLMODE
 70
     1
  9
$QTEXTMODE
 70
     0
  9
$MIRRTEXT
 70
     1
  9
$LTSCALE
 40
0.2
  9
$ATTMODE
 70
     1
  9
$TEXTSIZE
 40
2.5
  9
$TRACEWID
 40
1.0
  9
$TEXTSTYLE
  7
Standard
  9
$CLAYER
  8
0
  9
$CELTYPE
  6
ByLayer
  9
$CECOLOR
 62
   256
  9
$CELTSCALE
 40
1.0
  9
$DISPSILH
 70
     0
  9
$DIMSCALE
 40
1.0
  9
$DIMASZ
 40
2.5
  9
$DIMEXO
 40
0.625
  9
$DIMDLI
 40
3.75
  9
$DIMRND
 40
0.0
  9
$DIMDLE
 40
0.0
  9
$DIMEXE
 40
1.25
  9
$DIMTP
 40
0.0
  9
$DIMTM
 40
0.0
  9
$DIMTXT
 40
2.5
  9
$DIMCEN
 40
2.5
  9
$DIMTSZ
 40
0.0
  9
$DIMTOL
 70
     0
  9
$DIMLIM
 70
     0
  9
$DIMTIH
 70
     0
  9
$DIMTOH
 70
     0
  9
$DIMSE1
 70
     0
  9
$DIMSE2
 70
     0
  9
$DIMTAD
 70
     1
  9
$DIMZIN
 70
     8
  9
$DIMBLK
  1

  9
$DIMASO
 70
     1
  9
$DIMSHO
 70
     1
  9
$DIMPOST
  1

  9
$DIMAPOST
  1

  9
$DIMALT
 70
     0
  9
$DIMALTD
 70
     3
  9
$DIMALTF
 40
0.03937007874016
  9
$DIMLFAC
 40
1.0
  9
$DIMTOFL
 70
     1
  9
$DIMTVP
 40
0.0
  9
$DIMTIX
 70
     0
  9
$DIMSOXD
 70
     0
  9
$DIMSAH
 70
     0
  9
$DIMBLK1
  1

  9
$DIMBLK2
  1

  9
$DIMSTYLE
  2
ISO-25
  9
$DIMCLRD
 70
     0
  9
$DIMCLRE
 70
     0
  9
$DIMCLRT
 70
     0
  9
$DIMTFAC
 40
1.0
  9
$DIMGAP
 40
0.625
  9
$DIMJUST
 70
     0
  9
$DIMSD1
 70
     0
  9
$DIMSD2
 70
     0
  9
$DIMTOLJ
 70
     0
  9
$DIMTZIN
 70
     8
  9
$DIMALTZ
 70
     0
  9
$DIMALTTZ
 70
     0
  9
$DIMUPT
 70
     0
  9
$DIMDEC
 70
     2
  9
$DIMTDEC
 70
     2
  9
$DIMALTU
 70
     2
  9
$DIMALTTD
 70
     3
  9
$DIMTXSTY
  7
Standard
  9
$DIMAUNIT
 70
     0
  9
$DIMADEC
 70
     0
  9
$DIMALTRND
 40
0.0
  9
$DIMAZIN
 70
     0
  9
$DIMDSEP
 70
    44
  9
$DIMATFIT
 70
     3
  9
$DIMFRAC
 70
     0
  9
$DIMLDRBLK
  1

  9
$DIMLUNIT
 70
     2
  9
$DIMLWD
 70
    -2
  9
$DIMLWE
 70
    -2
  9
$DIMTMOVE
 70
     0
  9
$DIMFXL
 40
1.0
  9
$DIMFXLON
 70
     0
  9
$DIMJOGANG
 40
0.7853981633974483
  9
$DIMTFILL
 70
     0
  9
$DIMTFILLCLR
 70
     0
  9
$DIMARCSYM
 70
     0
  9
$DIMLTYPE
  6

  9
$DIMLTEX1
  6

  9
$DIMLTEX2
  6

  9
$DIMTXTDIRECTION
 70
     0
  9
$LUNITS
 70
     2
  9
$LUPREC
 70
     4
  9
$SKETCHINC
 40
1.0
  9
$FILLETRAD
 40
10.0
  9
$AUNITS
 70
     0
  9
$AUPREC
 70
     0
  9
$MENU
  1
.
  9
$ELEVATION
 40
0.0
  9
$PELEVATION
 40
0.0
  9
$THICKNESS
 40
0.0
  9
$LIMCHECK
 70
     0
  9
$CHAMFERA
 40
10.0
  9
$CHAMFERB
 40
10.0
  9
$CHAMFERC
 40
20.0
  9
$CHAMFERD
 40
0.0
  9
$SKPOLY
 70
     0
  9
$TDCREATE
 40
2456874.593217083
  9
$TDUCREATE
 40
2456874.218217083
  9
$TDUPDATE
 40
2456910.409848912
  9
$TDUUPDATE
 40
2456910.034848912
  9
$TDINDWG
 40
0.0146472917
  9
$TDUSRTIMER
 40
0.0146472801
  9
$USRTIMER
 70
     1
  9
$ANGBASE
 50
0.0
  9
$ANGDIR
 70
     0
  9
$PDMODE
 70
     0
  9
$PDSIZE
 40
0.0
  9
$PLINEWID
 40
0.0
  9
$SPLFRAME
 70
     0
  9
$SPLINETYPE
 70
     6
  9
$SPLINESEGS
 70
     8
  9
$HANDSEED
  5
309
  9
$SURFTAB1
 70
     6
  9
$SURFTAB2
 70
     6
  9
$SURFTYPE
 70
     6
  9
$SURFU
 70
     6
  9
$SURFV
 70
     6
  9
$UCSBASE
  2

  9
$UCSNAME
  2

  9
$UCSORG
 10
0.0
 20
0.0
 30
0.0
  9
$UCSXDIR
 10
1.0
 20
0.0
 30
0.0
  9
$UCSYDIR
 10
0.0
 20
1.0
 30
0.0
  9
$UCSORTHOREF
  2

  9
$UCSORTHOVIEW
 70
     0
  9
$UCSORGTOP
 10
0.0
 20
0.0
 30
0.0
  9
$UCSORGBOTTOM
 10
0.0
 20
0.0
 30
0.0
  9
$UCSORGLEFT
 10
0.0
 20
0.0
 30
0.0
  9
$UCSORGRIGHT
 10
0.0
 20
0.0
 30
0.0
  9
$UCSORGFRONT
 10
0.0
 20
0.0
 30
0.0
  9
$UCSORGBACK
 10
0.0
 20
0.0
 30
0.0
  9
$PUCSBASE
  2

  9
$PUCSNAME
  2

  9
$PUCSORG
 10
0.0
 20
0.0
 30
0.0
  9
$PUCSXDIR
 10
1.0
 20
0.0
 30
0.0
  9
$PUCSYDIR
 10
0.0
 20
1.0
 30
0.0
  9
$PUCSORTHOREF
  2

  9
$PUCSORTHOVIEW
 70
     0
  9
$PUCSORGTOP
 10
0.0
 20
0.0
 30
0.0
  9
$PUCSORGBOTTOM
 10
0.0
 20
0.0
 30
0.0
  9
$PUCSORGLEFT
 10
0.0
 20
0.0
 30
0.0
  9
$PUCSORGRIGHT
 10
0.0
 20
0.0
 30
0.0
  9
$PUCSORGFRONT
 10
0.0
 20
0.0
 30
0.0
  9
$PUCSORGBACK
 10
0.0
 20
0.0
 30
0.0
  9
$USERI1
 70
     0
  9
$USERI2
 70
     0
  9
$USERI3
 70
     0
  9
$USERI4
 70
     0
  9
$USERI5
 70
     0
  9
$USERR1
 40
0.0
  9
$USERR2
 40
0.0
  9
$USERR3
 40
0.0
  9
$USERR4
 40
0.0
  9
$USERR5
 40
0.0
  9
$WORLDVIEW
 70
     1
  9
$SHADEDGE
 70
     3
  9
$SHADEDIF
 70
    70
  9
$TILEMODE
 70
     1
  9
$MAXACTVP
 70
    64
  9
$PINSBASE
 10
0.0
 20
0.0
 30
0.0
  9
$PLIMCHECK
 70
     0
  9
$PEXTMIN
 10
26.66076962115563
 20
20.31135699206658
 30
-0.0015258207003583
  9
$PEXTMAX
 10
240.039213369355
 20
182.8886381005154
 30
0.0000000349246037
  9
$PLIMMIN
 10
-6.350006103515625
 20
-6.349999904632568
  9
$PLIMMAX
 10
273.0499877929688
 20
209.5499939918518
  9
$UNITMODE
 70
     0
  9
$VISRETAIN
 70
     1
  9
$PLINEGEN
 70
     0
  9
$PSLTSCALE
 70
     1
  9
$TREEDEPTH
 70
  3020
  9
$CMLSTYLE
  2
Standard
  9
$CMLJUST
 70
     0
  9
$CMLSCALE
 40
20.0
  9
$PROXYGRAPHICS
 70
     1
  9
$MEASUREMENT
 70
     1
  9
$CELWEIGHT
370
    -1
  9
$ENDCAPS
280
     0
  9
$JOINSTYLE
280
     0
  9
$LWDISPLAY
290
     0
  9
$INSUNITS
 70
     4
  9
$HYPERLINKBASE
  1

  9
$STYLESHEET
  1

  9
$XEDIT
290
     1
  9
$CEPSNTYPE
380
     0
  9
$PSTYLEMODE
290
     1
  9
$FINGERPRINTGUID
  2
{FDEAD578-A652-11D2-9A35-0060089B3A3F}
  9
$VERSIONGUID
  2
{90F58AFC-E2E3-4070-B788-B6B27A43A1D8}
  9
$EXTNAMES
290
     1
  9
$PSVPSCALE
 40
0.0
  9
$OLESTARTUP
290
     0
  9
$SORTENTS
280
   127
  9
$INDEXCTL
280
     0
  9
$HIDETEXT
280
     1
  9
$XCLIPFRAME
280
     2
  9
$HALOGAP
280
     0
  9
$OBSCOLOR
 70
   257
  9
$OBSLTYPE
280
     0
  9
$INTERSECTIONDISPLAY
280
     0
  9
$INTERSECTIONCOLOR
 70
   257
  9
$DIMASSOC
280
     2
  9
$PROJECTNAME
  1

  9
$CAMERADISPLAY
290
     0
  9
$LENSLENGTH
 40
50.0
  9
$CAMERAHEIGHT
 40
0.0
  9
$STEPSPERSEC
 40
2.0
  9
$STEPSIZE
 40
6.0
  9
$3DDWFPREC
 40
2.0
  9
$PSOLWIDTH
 40
0.25
  9
$PSOLHEIGHT
 40
4.0
  9
$LOFTANG1
 40
1.570796326794896
  9
$LOFTANG2
 40
1.570796326794896
  9
$LOFTMAG1
 40
0.0
  9
$LOFTMAG2
 40
0.0
  9
$LOFTPARAM
 70
     7
  9
$LOFTNORMALS
280
     1
  9
$LATITUDE
 40
37.795
  9
$LONGITUDE
 40
-122.394
  9
$NORTHDIRECTION
 40
0.0
  9
$TIMEZONE
 70
 -8000
  9
$LIGHTGLYPHDISPLAY
280
     1
  9
$TILEMODELIGHTSYNCH
280
     1
  9
$CMATERIAL
347
2B6
  9
$SOLIDHIST
280
     1
  9
$SHOWHIST
280
     1
  9
$DWFFRAME
280
     2
  9
$DGNFRAME
280
     0
  9
$REALWORLDSCALE
290
     1
  9
$INTERFERECOLOR
 62
     1
  9
$INTERFEREOBJVS
345
2D8
  9
$INTERFEREVPVS
346
2D5
  9
$CSHADOW
280
     0
  9
$SHADOWPLANELOCATION
 40
0.0
  0
ENDSEC
  0
SECTION
  2
CLASSES
  0
CLASS
  1
ACDBDICTIONARYWDFLT
  2
AcDbDictionaryWithDefault
  3
ObjectDBX Classes
 90
        0
 91
        1
280
     0
281
     0
  0
CLASS
  1
DICTIONARYVAR
  2
AcDbDictionaryVar
  3
ObjectDBX Classes
 90
        0
 91
        9
280
     0
281
     0
  0
CLASS
  1
MATERIAL
  2
AcDbMaterial
  3
ObjectDBX Classes
 90
     1153
 91
        3
280
     0
281
     0
  0
CLASS
  1
VISUALSTYLE
  2
AcDbVisualStyle
  3
ObjectDBX Classes
 90
     4095
 91
       19
280
     0
281
     0
  0
CLASS
  1
TABLESTYLE
  2
AcDbTableStyle
  3
ObjectDBX Classes
 90
     4095
 91
        1
280
     0
281
     0
  0
CLASS
  1
SCALE
  2
AcDbScale
  3
ObjectDBX Classes
 90
     1153
 91
       17
280
     0
281
     0
  0
CLASS
  1
MLEADERSTYLE
  2
AcDbMLeaderStyle
  3
ACDB_MLEADERSTYLE_CLASS
 90
     4095
 91
        1
280
     0
281
     0
  0
CLASS
  1
CELLSTYLEMAP
  2
AcDbCellStyleMap
  3
ObjectDBX Classes
 90
     1152
 91
        1
280
     0
281
     0
  0
ENDSEC
  0
SECTION
  2
TABLES
  0
TABLE
  2
VPORT
  5
8
330
0
100
AcDbSymbolTable
 70
     1
  0
VPORT
  5
2B3
330
8
100
AcDbSymbolTableRecord
100
AcDbViewportTableRecord
  2
*Active
 70
     0
 10
0.0
 20
0.0
 11
1.0
 21
1.0
 12
98.30221938266625
 22
95.40190703377207
 13
0.0
 23
0.0
 14
10.0
 24
10.0
 15
10.0
 25
10.0
 16
0.0
 26
0.0
 36
1.0
 17
0.0
 27
0.0
 37
0.0
 40
320.2128866618105
 41
1.857142857142857
 42
50.0
 43
0.0
 44
0.0
 50
0.0
 51
0.0
 71
     0
 72
   100
 73
     1
 74
     3
 75
     0
 76
     0
 77
     0
 78
     0
281
     0
 65
     1
110
0.0
120
0.0
130
0.0
111
1.0
121
0.0
131
0.0
112
0.0
122
1.0
132
0.0
 79
     0
146
0.0
348
2D4
 60
     3
 61
     5
292
     1
282
     1
141
0.0
142
0.0
 63
   250
421
  3355443
  0
ENDTAB
  0
TABLE
  2
LTYPE
  5
5
330
0
100
AcDbSymbolTable
 70
     4
  0
LTYPE
  5
14
330
5
100
AcDbSymbolTableRecord
100
AcDbLinetypeTableRecord
  2
ByBlock
 70
     0
  3

 72
    65
 73
     0
 40
0.0
  0
LTYPE
  5
15
330
5
100
AcDbSymbolTableRecord
100
AcDbLinetypeTableRecord
  2
ByLayer
 70
     0
  3

 72
    65
 73
     0
 40
0.0
  0
LTYPE
  5
16
330
5
100
AcDbSymbolTableRecord
100
AcDbLinetypeTableRecord
  2
Continuous
 70
     0
  3
Solid line
 72
    65
 73
     0
 40
0.0
  0
LTYPE
  5
8D
330
5
100
AcDbSymbolTableRecord
100
AcDbLinetypeTableRecord
  2
CENTER
 70
     0
  3
Center ____ _ ____ _ ____ _ ____ _ ____ _ ____
 72
    65
 73
     4
 40
50.8
 49
31.75
 74
     0
 49
-6.349999999999999
 74
     0
 49
6.349999999999999
 74
     0
 49
-6.349999999999999
 74
     0
  0
LTYPE
  5
8E
330
5
100
AcDbSymbolTableRecord
100
AcDbLinetypeTableRecord
  2
PHANTOM
 70
     0
  3
Phantom ______  __  __  ______  __  __  ______
 72
    65
 73
     6
 40
63.5
 49
31.75
 74
     0
 49
-6.349999999999999
 74
     0
 49
6.349999999999999
 74
     0
 49
-6.349999999999999
 74
     0
 49
6.349999999999999
 74
     0
 49
-6.349999999999999
 74
     0
  0
LTYPE
  5
8F
330
5
100
AcDbSymbolTableRecord
100
AcDbLinetypeTableRecord
  2
DASHED
 70
     0
  3
Dashed __ __ __ __ __ __ __ __ __ __ __ __ __ _
 72
    65
 73
     2
 40
19.05
 49
12.7
 74
     0
 49
-6.349999999999999
 74
     0
  0
ENDTAB
  0
TABLE
  2
LAYER
  5
2
102
{ACAD_XDICTIONARY
360
99
102
}
330
0
100
AcDbSymbolTable
 70
     4
  0
LAYER
  5
10
102
{ACAD_XDICTIONARY
360
2FB
102
}
330
2
100
AcDbSymbolTableRecord
100
AcDbLayerTableRecord
  2
0
 70
     0
 62
     7
  6
Continuous
370
    -3
390
F
347
2C6
  0
LAYER
  5
90
102
{ACAD_XDICTIONARY
360
91
102
}
330
2
100
AcDbSymbolTableRecord
100
AcDbLayerTableRecord
  2
2
 70
     0
 62
     2
  6
PHANTOM
370
    -3
390
F
347
2C6
1001
AcAecLayerStandard
1000

1000

1001
ACCMTRANSPARENCY
1071
        0
  0
LAYER
  5
93
102
{ACAD_XDICTIONARY
360
94
102
}
330
2
100
AcDbSymbolTableRecord
100
AcDbLayerTableRecord
  2
1
 70
     0
 62
     5
  6
CENTER
370
    -3
390
F
347
2C6
1001
AcAecLayerStandard
1000

1000

1001
ACCMTRANSPARENCY
1071
        0
  0
LAYER
  5
96
102
{ACAD_XDICTIONARY
360
2FD
102
}
330
2
100
AcDbSymbolTableRecord
100
AcDbLayerTableRecord
  2
3
 70
     0
 62
     3
  6
DASHED
370
    -3
390
F
347
2C6
1001
AcAecLayerStandard
1000

1000

1001
ACCMTRANSPARENCY
1071
        0
  0
ENDTAB
  0
TABLE
  2
STYLE
  5
3
330
0
100
AcDbSymbolTable
 70
     1
  0
STYLE
  5
11
330
3
100
AcDbSymbolTableRecord
100
AcDbTextStyleTableRecord
  2
Standard
 70
     0
 40
0.0
 41
1.0
 50
0.0
 71
     0
 42
2.5
  3
txt
  4

  0
ENDTAB
  0
TABLE
  2
VIEW
  5
6
330
0
100
AcDbSymbolTable
 70
     0
  0
ENDTAB
  0
TABLE
  2
UCS
  5
7
330
0
100
AcDbSymbolTable
 70
     0
  0
ENDTAB
  0
TABLE
  2
APPID
  5
9
330
0
100
AcDbSymbolTable
 70
     3
  0
APPID
  5
12
330
9
100
AcDbSymbolTableRecord
100
AcDbRegAppTableRecord
  2
ACAD
 70
     0
  0
APPID
  5
97
330
9
100
AcDbSymbolTableRecord
100
AcDbRegAppTableRecord
  2
AcAecLayerStandard
 70
     0
  0
APPID
  5
98
330
9
100
AcDbSymbolTableRecord
100
AcDbRegAppTableRecord
  2
ACCMTRANSPARENCY
 70
     0
  0
ENDTAB
  0
TABLE
  2
DIMSTYLE
  5
A
330
0
100
AcDbSymbolTable
 70
     1
100
AcDbDimStyleTable
 71
     0
  0
DIMSTYLE
105
27
330
A
100
AcDbSymbolTableRecord
100
AcDbDimStyleTableRecord
  2
ISO-25
 70
     0
 41
2.5
 42
0.625
 43
3.75
 44
1.25
 73
     0
 74
     0
 77
     1
 78
     8
140
2.5
141
2.5
143
0.03937007874016
147
0.625
171
     3
172
     1
271
     2
272
     2
274
     3
278
    44
283
     0
284
     8
340
11
  0
ENDTAB
  0
TABLE
  2
BLOCK_RECORD
  5
1
330
0
100
AcDbSymbolTable
 70
     1
  0
BLOCK_RECORD
  5
1F
330
1
100
AcDbSymbolTableRecord
100
AcDbBlockTableRecord
  2
*Model_Space
340
22
 70
     0
280
     1
281
     0
  0
BLOCK_RECORD
  5
55
330
1
100
AcDbSymbolTableRecord
100
AcDbBlockTableRecord
  2
*Paper_Space
340
56
 70
     0
280
     1
281
     0
  0
BLOCK_RECORD
  5
50
330
1
100
AcDbSymbolTableRecord
100
AcDbBlockTableRecord
  2
*Paper_Space0
340
51
 70
     0
280
     1
281
     0
  0
ENDTAB
  0
ENDSEC
  0
SECTION
  2
BLOCKS
  0
BLOCK
  5
20
330
1F
100
AcDbEntity
  8
0
100
AcDbBlockBegin
  2
*Model_Space
 70
     0
 10
0.0
 20
0.0
 30
0.0
  3
*Model_Space
  1

  0
ENDBLK
  5
21
330
1F
100
AcDbEntity
  8
0
100
AcDbBlockEnd
  0
BLOCK
  5
57
330
55
100
AcDbEntity
 67
     1
  8
0
100
AcDbBlockBegin
  2
*Paper_Space
 70
     0
 10
0.0
 20
0.0
 30
0.0
  3
*Paper_Space
  1

  0
ENDBLK
  5
58
330
55
100
AcDbEntity
 67
     1
  8
0
100
AcDbBlockEnd
  0
BLOCK
  5
52
330
50
100
AcDbEntity
 67
     1
  8
0
100
AcDbBlockBegin
  2
*Paper_Space0
 70
     0
 10
0.0
 20
0.0
 30
0.0
  3
*Paper_Space0
  1

  0
VIEWPORT
  5
6B
330
50
100
AcDbEntity
 67
     1
  8
0
100
AcDbViewport
 10
133.3499908447266
 20
101.5999970436096
 30
0.0
 40
381.3957395593835
 41
218.2856291881582
 68
     0
 69
     0
 12
133.3499908447266
 22
101.5999970436096
 13
0.0
 23
0.0
 14
10.0
 24
10.0
 15
10.0
 25
10.0
 16
0.0
 26
0.0
 36
1.0
 17
0.0
 27
0.0
 37
0.0
 42
50.0
 43
0.0
 44
0.0
 45
218.2856291881582
 50
0.0
 51
0.0
 72
   100
 90
    32800
  1

281
     0
 71
     1
 74
     0
110
0.0
120
0.0
130
0.0
111
1.0
121
0.0
131
0.0
112
0.0
122
1.0
132
0.0
 79
     0
146
0.0
170
     0
 61
     5
348
2D4
292
     1
282
     1
141
0.0
142
0.0
 63
   250
421
  3355443
  0
VIEWPORT
  5
6D
330
50
100
AcDbEntity
 67
     1
  8
0
100
AcDbViewport
 10
133.3499939441681
 20
101.5999939441681
 30
0.0
 40
213.3599903106689
 41
162.5599903106689
 68
     0
 69
     0
 12
210.0
 22
148.5
 13
0.0
 23
0.0
 14
10.0
 24
10.0
 15
10.0
 25
10.0
 16
0.0
 26
0.0
 36
1.0
 17
0.0
 27
0.0
 37
0.0
 42
50.0
 43
0.0
 44
0.0
 45
324.0677920111345
 50
0.0
 51
0.0
 72
   100
 90
    32864
  1

281
     0
 71
     1
 74
     0
110
0.0
120
0.0
130
0.0
111
1.0
121
0.0
131
0.0
112
0.0
122
1.0
132
0.0
 79
     0
146
0.0
170
     0
 61
     5
348
2D4
292
     1
282
     1
141
0.0
142
0.0
 63
   250
421
  3355443
  0
ENDBLK
  5
53
330
50
100
AcDbEntity
 67
     1
  8
0
100
AcDbBlockEnd
  0
ENDSEC
  0
SECTION
  2
ENTITIES
  0
ARC
  5
1A0
330
1F
100
AcDbEntity
  8
2
100
AcDbCircle
 10
-17.5000012665987
 20
-3.624999839812517
 30
0.0
 40
10.62500031664968
100
AcDbArc
 50
68.67631584023621
 51
111.3236891687108
  0
LINE
  5
1A1
330
1F
100
AcDbEntity
  8
2
100
AcDbLine
 10
-22.00000140070915
 20
4.000000387430191
 30
0.0
 11
-13.00000113248825
 21
4.000000387430191
 31
0.0
  0
LINE
  5
1A2
330
1F
100
AcDbEntity
  8
0
100
AcDbLine
 10
-25.0
 20
0.0
 30
0.0
 11
34.0
 21
0.0
 31
0.0
  0
LINE
  5
1A3
330
1F
100
AcDbEntity
  8
2
100
AcDbLine
 10
-25.0
 20
-6.0
 30
0.0
 11
25.0
 21
-6.0
 31
0.0
  0
LINE
  5
1A4
330
1F
100
AcDbEntity
  8
2
100
AcDbLine
 10
-25.0
 20
-1.0
 30
0.0
 11
25.0
 21
-1.0
 31
0.0
  0
LINE
  5
1A5
330
1F
100
AcDbEntity
  8
0
100
AcDbLine
 10
-25.0
 20
3.0
 30
0.0
 11
34.0
 21
3.0
 31
0.0
  0
LINE
  5
1A6
330
1F
100
AcDbEntity
  8
2
100
AcDbLine
 10
44.50001525878906
 20
-12.0
 30
0.0
 11
-44.50001525878906
 21
-12.0
 31
0.0
  0
LINE
  5
1A7
330
1F
100
AcDbEntity
  8
2
100
AcDbLine
 10
24.00003480911255
 20
-6.999999999997726
 30
0.0
 11
-23.99997663497925
 21
-6.999999999997726
 31
0.0
  0
LINE
  5
1A8
330
1F
100
AcDbEntity
  8
2
100
AcDbLine
 10
23.99998474121094
 20
-7.0
 30
0.0
 11
-23.50001525878906
 21
-7.0
 31
0.0
  0
LINE
  5
1A9
330
1F
100
AcDbEntity
  8
2
100
AcDbLine
 10
-53.50001525878929
 20
-53.7913932688399
 30
0.0
 11
-53.50001525878929
 21
-21.0
 31
0.0
  0
ARC
  5
1AA
330
1F
100
AcDbEntity
  8
2
100
AcDbCircle
 10
-44.50001525878929
 20
-21.0
 30
0.0
 40
9.0
100
AcDbArc
 50
90.0
 51
180.0000025044817
  0
LINE
  5
1AB
330
1F
100
AcDbEntity
  8
2
100
AcDbLine
 10
-25.0
 20
-1.0
 30
0.0
 11
-25.0
 21
-6.0
 31
0.0
  0
LINE
  5
1AC
330
1F
100
AcDbEntity
  8
0
100
AcDbLine
 10
-25.0
 20
3.0
 30
0.0
 11
-25.0
 21
0.0
 31
0.0
  0
LINE
  5
1AD
330
1F
100
AcDbEntity
  8
2
100
AcDbLine
 10
-22.00000140070915
 20
5.341082046660176
 30
0.0
 11
-22.00000140070915
 21
3.000000357627868
 31
0.0
  0
ARC
  5
1AE
330
1F
100
AcDbEntity
  8
2
100
AcDbCircle
 10
-21.00000137090683
 20
5.341082046660176
 30
0.0
 40
1.000000029802321
100
AcDbArc
 50
111.3236891687108
 51
180.0000050089634
  0
LINE
  5
1AF
330
1F
100
AcDbEntity
  8
2
100
AcDbLine
 10
-25.00000673710747
 20
-0.999990218534549
 30
0.0
 11
-24.00000561625621
 21
0.0000108180224743
 31
0.0
  0
ARC
  5
1B0
330
1F
100
AcDbEntity
  8
2
100
AcDbCircle
 10
-23.50001525878906
 20
-8.5
 30
0.0
 40
1.5
100
AcDbArc
 50
90.0
 51
180.0000025044817
  0
LINE
  5
1B1
330
1F
100
AcDbEntity
  8
2
100
AcDbLine
 10
-24.00000591128628
 20
-6.999996732903582
 30
0.0
 11
-25.00000694784285
 21
-5.999995612053226
 31
0.0
  0
LINE
  5
1B2
330
1F
100
AcDbEntity
  8
2
100
AcDbLine
 10
-25.00001525878906
 20
-12.0
 30
0.0
 11
-25.00001525878906
 21
-8.5
 31
0.0
  0
LINE
  5
1B3
330
1F
100
AcDbEntity
  8
2
100
AcDbLine
 10
65.0
 20
36.24999618530273
 30
0.0
 11
65.0
 21
18.24999618530273
 31
0.0
  0
ARC
  5
1B4
330
1F
100
AcDbEntity
  8
2
100
AcDbCircle
 10
35.802734375
 20
16.74999618530273
 30
0.0
 40
6.19754076004028
100
AcDbArc
 50
325.6157510527462
 51
34.38424712601857
  0
ARC
  5
1B5
330
1F
100
AcDbEntity
  8
2
100
AcDbCircle
 10
37.1976318359375
 20
16.74999618530273
 30
0.0
 40
6.19754076004028
100
AcDbArc
 50
145.6157665343731
 51
214.3842387019747
  0
LINE
  5
1B6
330
1F
100
AcDbEntity
  8
2
100
AcDbLine
 10
42.0001220703125
 20
39.37432479858399
 30
0.0
 11
42.0001220703125
 21
15.12566757202148
 31
0.0
  0
LINE
  5
1B7
330
1F
100
AcDbEntity
  8
2
100
AcDbLine
 10
31.000244140625
 20
39.37432479858399
 30
0.0
 11
31.000244140625
 21
15.12566757202148
 31
0.0
  0
LINE
  5
1B8
330
1F
100
AcDbEntity
  8
2
100
AcDbLine
 10
23.00009155273437
 20
36.24999618530273
 30
0.0
 11
23.00009155273437
 21
18.24999618530273
 31
0.0
  0
LINE
  5
1B9
330
1F
100
AcDbEntity
  8
1
100
AcDbLine
 10
0.0
 20
-63.74343539021163
 30
0.0
 11
0.0
 21
83.39016169624619
 31
0.0
  0
LINE
  5
1BA
330
1F
100
AcDbEntity
  8
0
100
AcDbLine
 10
35.0
 20
98.0
 30
0.0
 11
35.0
 21
4.000000000000454
 31
0.0
  0
LINE
  5
1BB
330
1F
100
AcDbEntity
  8
0
100
AcDbLine
 10
38.0
 20
98.0
 30
0.0
 11
38.0
 21
4.000000000000454
 31
0.0
  0
LINE
  5
1BC
330
1F
100
AcDbEntity
  8
3
  6
DASHED
100
AcDbLine
 10
42.0001220703125
 20
70.49999618530273
 30
0.0
 11
65.0
 21
70.49999618530273
 31
0.0
  0
LINE
  5
1BD
330
1F
100
AcDbEntity
  8
2
100
AcDbLine
 10
42.0001220703125
 20
36.24999618530273
 30
0.0
 11
65.0
 21
36.24999618530273
 31
0.0
  0
LINE
  5
1BE
330
1F
100
AcDbEntity
  8
1
100
AcDbLine
 10
15.29188369269741
 20
27.24999618530274
 30
0.0
 11
70.7474618030501
 21
27.24999618530274
 31
0.0
  0
LINE
  5
1BF
330
1F
100
AcDbEntity
  8
3
  6
DASHED
100
AcDbLine
 10
42.0001220703125
 20
88.49999618530274
 30
0.0
 11
65.0
 21
88.49999618530274
 31
0.0
  0
LINE
  5
1C0
330
1F
100
AcDbEntity
  8
1
100
AcDbLine
 10
15.29188369269741
 20
79.50000891093878
 30
0.0
 11
70.7474618030501
 21
79.49991735820487
 31
0.0
  0
LINE
  5
1C1
330
1F
100
AcDbEntity
  8
3
  6
DASHED
100
AcDbLine
 10
23.00009155273437
 20
88.49999618530274
 30
0.0
 11
23.00009155273437
 21
70.49999618530273
 31
0.0
  0
ARC
  5
1C2
330
1F
100
AcDbEntity
  8
3
  6
DASHED
100
AcDbCircle
 10
18.83425903320312
 20
79.49999618530274
 30
0.0
 40
23.16580867767334
100
AcDbArc
 50
342.4120468256359
 51
17.58795135312516
  0
ARC
  5
1C3
330
1F
100
AcDbEntity
  8
3
  6
DASHED
100
AcDbCircle
 10
54.166015625
 20
79.49999618530274
 30
0.0
 40
23.16580867767334
100
AcDbArc
 50
162.4120418166818
 51
197.5879531743641
  0
LINE
  5
1C4
330
1F
100
AcDbEntity
  8
3
  6
DASHED
100
AcDbLine
 10
42.0001220703125
 20
91.62432479858399
 30
0.0
 11
42.0001220703125
 21
67.37566757202149
 31
0.0
  0
LINE
  5
1C5
330
1F
100
AcDbEntity
  8
3
  6
DASHED
100
AcDbLine
 10
31.000244140625
 20
91.62432479858399
 30
0.0
 11
31.000244140625
 21
67.37566757202149
 31
0.0
  0
LINE
  5
1C6
330
1F
100
AcDbEntity
  8
0
100
AcDbLine
 10
35.0
 20
98.0
 30
0.0
 11
38.0
 21
98.0
 31
0.0
  0
LINE
  5
1C7
330
1F
100
AcDbEntity
  8
3
  6
DASHED
100
AcDbLine
 10
32.0831298828125
 20
93.50005722045898
 30
0.0
 11
35.0
 21
93.50005722045898
 31
0.0
  0
LINE
  5
1C8
330
1F
100
AcDbEntity
  8
3
  6
DASHED
100
AcDbLine
 10
35.0
 20
86.50011825561524
 30
0.0
 11
32.0831298828125
 21
86.50011825561524
 31
0.0
  0
ARC
  5
1C9
330
1F
100
AcDbEntity
  8
3
  6
DASHED
100
AcDbCircle
 10
37.1976318359375
 20
89.99999618530273
 30
0.0
 40
6.19754076004028
100
AcDbArc
 50
145.6157665343731
 51
214.3842387019747
  0
LINE
  5
1CA
330
1F
100
AcDbEntity
  8
3
  6
DASHED
100
AcDbLine
 10
31.00016200149549
 20
91.62428446723424
 30
0.0
 11
32.08304775826036
 21
93.49989758307902
 31
0.0
  0
LINE
  5
1CB
330
1F
100
AcDbEntity
  8
3
  6
DASHED
100
AcDbLine
 10
23.00009155273437
 20
88.49999618530274
 30
0.0
 11
31.000244140625
 21
88.49999618530274
 31
0.0
  0
ARC
  5
1CC
330
1F
100
AcDbEntity
  8
3
  6
DASHED
100
AcDbCircle
 10
35.802734375
 20
89.99999618530273
 30
0.0
 40
6.19754076004028
100
AcDbArc
 50
325.6157510527462
 51
34.38424712601857
  0
LINE
  5
1CD
330
1F
100
AcDbEntity
  8
3
  6
DASHED
100
AcDbLine
 10
42.00006120919261
 20
91.62433162910929
 30
0.0
 11
40.91717545242864
 21
93.49994474495407
 31
0.0
  0
LINE
  5
1CE
330
1F
100
AcDbEntity
  8
3
  6
DASHED
100
AcDbLine
 10
40.917236328125
 20
93.50005722045898
 30
0.0
 11
38.0
 21
93.50005722045898
 31
0.0
  0
LINE
  5
1CF
330
1F
100
AcDbEntity
  8
3
  6
DASHED
100
AcDbLine
 10
38.0
 20
86.50011825561524
 30
0.0
 11
40.917236328125
 21
86.50011825561524
 31
0.0
  0
LINE
  5
1D0
330
1F
100
AcDbEntity
  8
3
  6
DASHED
100
AcDbLine
 10
32.0831298828125
 20
65.50011825561523
 30
0.0
 11
35.0
 21
65.50011825561523
 31
0.0
  0
LINE
  5
1D1
330
1F
100
AcDbEntity
  8
3
  6
DASHED
100
AcDbLine
 10
35.0
 20
72.50005722045898
 30
0.0
 11
32.0831298828125
 21
72.50005722045898
 31
0.0
  0
LINE
  5
1D2
330
1F
100
AcDbEntity
  8
3
  6
DASHED
100
AcDbLine
 10
31.00009928176769
 20
67.37567734872573
 30
0.0
 11
32.08303081489976
 21
65.49998494588726
 31
0.0
  0
ARC
  5
1D3
330
1F
100
AcDbEntity
  8
3
  6
DASHED
100
AcDbCircle
 10
37.1976318359375
 20
68.99999618530273
 30
0.0
 40
6.19754076004028
100
AcDbArc
 50
145.6157665343731
 51
214.3842387019747
  0
LINE
  5
1D4
330
1F
100
AcDbEntity
  8
3
  6
DASHED
100
AcDbLine
 10
23.00009155273437
 20
70.49999618530273
 30
0.0
 11
31.000244140625
 21
70.49999618530273
 31
0.0
  0
LINE
  5
1D5
330
1F
100
AcDbEntity
  8
3
  6
DASHED
100
AcDbLine
 10
42.00011779605119
 20
67.37552801167203
 30
0.0
 11
40.91723203928632
 21
65.49991489582726
 31
0.0
  0
ARC
  5
1D6
330
1F
100
AcDbEntity
  8
3
  6
DASHED
100
AcDbCircle
 10
35.802734375
 20
68.99999618530273
 30
0.0
 40
6.19754076004028
100
AcDbArc
 50
325.6157510527462
 51
34.38424712601857
  0
LINE
  5
1D7
330
1F
100
AcDbEntity
  8
3
  6
DASHED
100
AcDbLine
 10
38.0
 20
72.50005722045898
 30
0.0
 11
40.917236328125
 21
72.50005722045898
 31
0.0
  0
LINE
  5
1D8
330
1F
100
AcDbEntity
  8
3
  6
DASHED
100
AcDbLine
 10
40.917236328125
 20
65.50011825561523
 30
0.0
 11
38.0
 21
65.50011825561523
 31
0.0
  0
LINE
  5
1D9
330
1F
100
AcDbEntity
  8
2
100
AcDbLine
 10
35.0
 20
20.25005722045898
 30
0.0
 11
32.0831298828125
 21
20.25005722045898
 31
0.0
  0
LINE
  5
1DA
330
1F
100
AcDbEntity
  8
2
100
AcDbLine
 10
35.0
 20
34.25011825561524
 30
0.0
 11
32.0831298828125
 21
34.25011825561524
 31
0.0
  0
LINE
  5
1DB
330
1F
100
AcDbEntity
  8
2
100
AcDbLine
 10
32.0831298828125
 20
41.25005722045898
 30
0.0
 11
35.0
 21
41.25005722045898
 31
0.0
  0
ARC
  5
1DC
330
1F
100
AcDbEntity
  8
2
100
AcDbCircle
 10
54.166015625
 20
27.24999618530274
 30
0.0
 40
23.16580867767334
100
AcDbArc
 50
162.4120418166818
 51
197.5879531743641
  0
LINE
  5
1DD
330
1F
100
AcDbEntity
  8
2
100
AcDbLine
 10
31.00016200149549
 20
39.37428446723425
 30
0.0
 11
32.08304775826036
 21
41.24989758307902
 31
0.0
  0
LINE
  5
1DE
330
1F
100
AcDbEntity
  8
2
100
AcDbLine
 10
23.00009155273437
 20
36.24999618530273
 30
0.0
 11
31.000244140625
 21
36.24999618530273
 31
0.0
  0
ARC
  5
1DF
330
1F
100
AcDbEntity
  8
2
100
AcDbCircle
 10
37.1976318359375
 20
37.74999618530273
 30
0.0
 40
6.19754076004028
100
AcDbArc
 50
145.6157665343731
 51
214.3842387019747
  0
ARC
  5
1E0
330
1F
100
AcDbEntity
  8
2
100
AcDbCircle
 10
18.83425903320312
 20
27.24999618530274
 30
0.0
 40
23.16580867767334
100
AcDbArc
 50
342.4120468256359
 51
17.58795135312516
  0
LINE
  5
1E1
330
1F
100
AcDbEntity
  8
2
100
AcDbLine
 10
38.0
 20
34.25011825561524
 30
0.0
 11
40.917236328125
 21
34.25011825561524
 31
0.0
  0
LINE
  5
1E2
330
1F
100
AcDbEntity
  8
2
100
AcDbLine
 10
40.917236328125
 20
41.25005722045898
 30
0.0
 11
38.0
 21
41.25005722045898
 31
0.0
  0
LINE
  5
1E3
330
1F
100
AcDbEntity
  8
2
100
AcDbLine
 10
42.00006120919261
 20
39.37433162910929
 30
0.0
 11
40.91717545242864
 21
41.24994474495406
 31
0.0
  0
ARC
  5
1E4
330
1F
100
AcDbEntity
  8
2
100
AcDbCircle
 10
35.802734375
 20
37.74999618530273
 30
0.0
 40
6.19754076004028
100
AcDbArc
 50
325.6157510527462
 51
34.38424712601857
  0
LINE
  5
1E5
330
1F
100
AcDbEntity
  8
2
100
AcDbLine
 10
38.0
 20
20.25005722045898
 30
0.0
 11
40.917236328125
 21
20.25005722045898
 31
0.0
  0
LINE
  5
1E6
330
1F
100
AcDbEntity
  8
3
  6
DASHED
100
AcDbLine
 10
65.0
 20
88.49999618530274
 30
0.0
 11
65.0
 21
70.49999618530273
 31
0.0
  0
LINE
  5
1E7
330
1F
100
AcDbEntity
  8
3
  6
DASHED
100
AcDbLine
 10
65.0
 20
82.49999618530273
 30
0.0
 11
70.7474618030501
 21
82.49999618530273
 31
0.0
  0
LINE
  5
1E8
330
1F
100
AcDbEntity
  8
3
  6
DASHED
100
AcDbLine
 10
65.0
 20
76.49999618530273
 30
0.0
 11
70.7474618030501
 21
76.49999618530273
 31
0.0
  0
LINE
  5
1E9
330
1F
100
AcDbEntity
  8
2
100
AcDbLine
 10
65.0
 20
30.25008773803711
 30
0.0
 11
70.7474618030501
 21
30.25008773803711
 31
0.0
  0
LINE
  5
1EA
330
1F
100
AcDbEntity
  8
2
100
AcDbLine
 10
65.0
 20
24.25008773803711
 30
0.0
 11
70.7474618030501
 21
24.25008773803711
 31
0.0
  0
ARC
  5
1EB
330
1F
100
AcDbEntity
  8
2
100
AcDbCircle
 10
44.50001525878906
 20
-21.0
 30
0.0
 40
9.0
100
AcDbArc
 50
359.9999974955182
 51
90.0
  0
LINE
  5
1EC
330
1F
100
AcDbEntity
  8
2
100
AcDbLine
 10
42.0001220703125
 20
18.24999618530273
 30
0.0
 11
65.0
 21
18.24999618530273
 31
0.0
  0
LINE
  5
1ED
330
1F
100
AcDbEntity
  8
2
100
AcDbLine
 10
-8.000000000000113
 20
3.0
 30
0.0
 11
-8.000000000000227
 21
24.2679443359375
 31
0.0
  0
LINE
  5
1EE
330
1F
100
AcDbEntity
  8
2
100
AcDbLine
 10
-13.00000113248825
 20
5.341082046660176
 30
0.0
 11
-13.00000113248825
 21
3.000000357627868
 31
0.0
  0
ARC
  5
1EF
330
1F
100
AcDbEntity
  8
2
100
AcDbCircle
 10
-14.00000116229057
 20
5.341082046660176
 30
0.0
 40
1.000000029802321
100
AcDbArc
 50
0.0000025044687019
 51
68.67631584023621
  0
LINE
  5
1F0
330
1F
100
AcDbEntity
  8
2
100
AcDbLine
 10
7.999984741210937
 20
6.973495787720452
 30
0.0
 11
7.999984741210937
 21
24.2679443359375
 31
0.0
  0
LINE
  5
1F1
330
1F
100
AcDbEntity
  8
2
100
AcDbLine
 10
13.24999964982271
 20
5.341082046660176
 30
0.0
 11
13.24999964982271
 21
3.000000357627868
 31
0.0
  0
ARC
  5
1F2
330
1F
100
AcDbEntity
  8
2
100
AcDbCircle
 10
12.24999962002039
 20
5.341082046660176
 30
0.0
 40
1.000000029802321
100
AcDbArc
 50
0.0000025044687019
 51
68.67631584023621
  0
LINE
  5
1F3
330
1F
100
AcDbEntity
  8
2
100
AcDbLine
 10
4.24999938160181
 20
5.341082046660176
 30
0.0
 11
4.24999938160181
 21
3.000000357627868
 31
0.0
  0
ARC
  5
1F4
330
1F
100
AcDbEntity
  8
2
100
AcDbCircle
 10
5.249999411404132
 20
5.341082046660176
 30
0.0
 40
1.000000029802321
100
AcDbArc
 50
111.3236891687108
 51
180.0000050089634
  0
ARC
  5
1F5
330
1F
100
AcDbEntity
  8
2
100
AcDbCircle
 10
8.749999515712261
 20
-3.624999839812517
 30
0.0
 40
10.62500031664968
100
AcDbArc
 50
68.67631584023621
 51
111.3236891687108
  0
LINE
  5
1F6
330
1F
100
AcDbEntity
  8
2
100
AcDbLine
 10
4.24999938160181
 20
4.000000387430191
 30
0.0
 11
13.24999964982271
 21
4.000000387430191
 31
0.0
  0
LINE
  5
1F7
330
1F
100
AcDbEntity
  8
2
100
AcDbLine
 10
25.0
 20
-1.0
 30
0.0
 11
25.0
 21
-6.0
 31
0.0
  0
ARC
  5
1F8
330
1F
100
AcDbEntity
  8
0
100
AcDbCircle
 10
34.0
 20
4.000000000000454
 30
0.0
 40
4.0
100
AcDbArc
 50
269.9999974955182
 51
0.0
  0
ARC
  5
1F9
330
1F
100
AcDbEntity
  8
0
100
AcDbCircle
 10
34.0
 20
4.000000000000454
 30
0.0
 40
1.0
100
AcDbArc
 50
269.9999974955182
 51
0.0
  0
LINE
  5
1FA
330
1F
100
AcDbEntity
  8
2
100
AcDbLine
 10
32.0831298828125
 20
13.25011825561523
 30
0.0
 11
35.0
 21
13.25011825561523
 31
0.0
  0
LINE
  5
1FB
330
1F
100
AcDbEntity
  8
2
100
AcDbLine
 10
23.00009155273437
 20
18.24999618530273
 30
0.0
 11
31.000244140625
 21
18.24999618530273
 31
0.0
  0
LINE
  5
1FC
330
1F
100
AcDbEntity
  8
2
100
AcDbLine
 10
31.00009928176769
 20
15.12567734872573
 30
0.0
 11
32.08303081489976
 21
13.24998494588772
 31
0.0
  0
LINE
  5
1FD
330
1F
100
AcDbEntity
  8
2
100
AcDbLine
 10
24.00000300315151
 20
0.0000087949738372
 30
0.0
 11
25.00000403970807
 21
-0.999992325876974
 31
0.0
  0
LINE
  5
1FE
330
1F
100
AcDbEntity
  8
2
100
AcDbLine
 10
40.917236328125
 20
13.25011825561523
 30
0.0
 11
38.0
 21
13.25011825561523
 31
0.0
  0
LINE
  5
1FF
330
1F
100
AcDbEntity
  8
2
100
AcDbLine
 10
42.00011779605119
 20
15.12552801167203
 30
0.0
 11
40.91723203928632
 21
13.24991489582771
 31
0.0
  0
ARC
  5
200
330
1F
100
AcDbEntity
  8
2
100
AcDbCircle
 10
23.99998474121094
 20
-7.999999999999545
 30
0.0
 40
1.0
100
AcDbArc
 50
359.9999974955182
 51
90.0
  0
LINE
  5
201
330
1F
100
AcDbEntity
  8
2
100
AcDbLine
 10
25.00000382897451
 20
-5.999997719395651
 30
0.0
 11
24.00000270812416
 21
-6.999998755952674
 31
0.0
  0
LINE
  5
202
330
1F
100
AcDbEntity
  8
2
100
AcDbLine
 10
25.00001525878906
 20
-12.0
 30
0.0
 11
25.00001525878906
 21
-7.999999999999545
 31
0.0
  0
LINE
  5
203
330
1F
100
AcDbEntity
  8
2
100
AcDbLine
 10
53.50001525878906
 20
-53.79139326885172
 30
0.0
 11
53.50001525878906
 21
-21.0
 31
0.0
  0
LINE
  5
204
330
1F
100
AcDbEntity
  8
2
100
AcDbLine
 10
-20.0
 20
34.50000008742291
 30
0.0
 11
20.00000185894351
 21
34.50000008742291
 31
0.0
  0
LINE
  5
205
330
1F
100
AcDbEntity
  8
2
100
AcDbLine
 10
-20.0
 20
30.50000008742291
 30
0.0
 11
20.00000527679549
 21
30.50000008742291
 31
0.0
  0
LINE
  5
206
330
1F
100
AcDbEntity
  8
2
100
AcDbLine
 10
-19.0
 20
29.50000008742336
 30
0.0
 11
19.0
 21
29.50000008742336
 31
0.0
  0
LINE
  5
207
330
1F
100
AcDbEntity
  8
2
100
AcDbLine
 10
-19.0
 20
35.50000008742336
 30
0.0
 11
19.0
 21
35.50000008742336
 31
0.0
  0
LINE
  5
208
330
1F
100
AcDbEntity
  8
2
100
AcDbLine
 10
-20.0
 20
34.50000063250764
 30
0.0
 11
-20.0
 21
30.50000185645831
 31
0.0
  0
LINE
  5
209
330
1F
100
AcDbEntity
  8
2
100
AcDbLine
 10
-19.99999984372152
 20
34.50000078878566
 30
0.0
 11
-19.00000142026965
 21
35.49999912794465
 31
0.0
  0
LINE
  5
20A
330
1F
100
AcDbEntity
  8
2
100
AcDbLine
 10
-18.99999627835313
 20
29.49999805051993
 30
0.0
 11
-19.99999731491061
 21
30.49999917137075
 31
0.0
  0
LINE
  5
20B
330
1F
100
AcDbEntity
  8
2
100
AcDbLine
 10
-7.999997480254023
 20
24.26796562758273
 30
0.0
 11
-7.099304352783292
 21
27.62939811315937
 31
0.0
  0
LINE
  5
20C
330
1F
100
AcDbEntity
  8
2
100
AcDbLine
 10
7.99999235001087
 20
24.26794055734672
 30
0.0
 11
7.099291324007936
 21
27.62940252064027
 31
0.0
  0
LINE
  5
20D
330
1F
100
AcDbEntity
  8
2
100
AcDbLine
 10
6.616324572986741
 20
27.99995806183563
 30
0.0
 11
-6.616341442638258
 21
27.99995806183563
 31
0.0
  0
LINE
  5
20E
330
1F
100
AcDbEntity
  8
2
100
AcDbLine
 10
6.616324572986741
 20
27.99995806183563
 30
0.0
 11
-6.616341442638258
 21
27.99995806183563
 31
0.0
  0
LINE
  5
20F
330
1F
100
AcDbEntity
  8
2
100
AcDbLine
 10
-8.0
 20
23.0
 30
0.0
 11
8.0
 21
23.0
 31
0.0
  0
LINE
  5
210
330
1F
100
AcDbEntity
  8
2
100
AcDbLine
 10
-9.99993896484375
 20
35.50000008742336
 30
0.0
 11
9.99993896484375
 21
35.50000008742336
 31
0.0
  0
LINE
  5
211
330
1F
100
AcDbEntity
  8
2
100
AcDbLine
 10
-9.0
 20
28.5000000874229
 30
0.0
 11
-9.0
 21
24.00000008742291
 31
0.0
  0
ARC
  5
212
330
1F
100
AcDbEntity
  8
2
100
AcDbCircle
 10
-10.0
 20
28.5000000874229
 30
0.0
 40
1.0
100
AcDbArc
 50
0.0
 51
90.00000250446868
  0
ARC
  5
213
330
1F
100
AcDbEntity
  8
2
100
AcDbCircle
 10
-8.0
 20
24.0
 30
0.0
 40
1.0
100
AcDbArc
 50
179.9999949910365
 51
269.9999974955182
  0
ARC
  5
214
330
1F
100
AcDbEntity
  8
2
100
AcDbCircle
 10
-6.616341442638258
 20
27.49998857941375
 30
0.0
 40
0.5
100
AcDbArc
 50
90.0
 51
164.9999986719699
  0
LINE
  5
215
330
1F
100
AcDbEntity
  8
2
100
AcDbLine
 10
9.0
 20
28.5000000874229
 30
0.0
 11
9.0
 21
24.00000008742291
 31
0.0
  0
ARC
  5
216
330
1F
100
AcDbEntity
  8
2
100
AcDbCircle
 10
10.0
 20
28.5000000874229
 30
0.0
 40
1.0
100
AcDbArc
 50
90.00000250446868
 51
180.0000050089634
  0
ARC
  5
217
330
1F
100
AcDbEntity
  8
2
100
AcDbCircle
 10
8.0
 20
24.0
 30
0.0
 40
1.0
100
AcDbArc
 50
269.9999974955182
 51
0.0
  0
ARC
  5
218
330
1F
100
AcDbEntity
  8
2
100
AcDbCircle
 10
6.616324572986741
 20
27.49998857941375
 30
0.0
 40
0.5
100
AcDbArc
 50
15.00000132803003
 51
90.0
  0
LINE
  5
219
330
1F
100
AcDbEntity
  8
2
100
AcDbLine
 10
20.0
 20
34.50000008742291
 30
0.0
 11
20.0
 21
30.50000008742291
 31
0.0
  0
LINE
  5
21A
330
1F
100
AcDbEntity
  8
2
100
AcDbLine
 10
19.00000045819979
 20
35.50000157246268
 30
0.0
 11
20.00000149475636
 21
34.50000045161232
 31
0.0
  0
LINE
  5
21B
330
1F
100
AcDbEntity
  8
2
100
AcDbLine
 10
20.00000402356636
 20
30.49999883419423
 30
0.0
 11
19.000002902716
 21
29.49999779763766
 31
0.0
  0
LINE
  5
21C
330
1F
100
AcDbEntity
  8
2
100
AcDbLine
 10
7.999984741210937
 20
24.26794442336041
 30
0.0
 11
-8.0
 21
24.26794442336041
 31
0.0
  0
LINE
  5
21D
330
1F
100
AcDbEntity
  8
0
100
AcDbLine
 10
-25.0
 20
195.0
 30
0.0
 11
-25.0
 21
165.0
 31
0.0
  0
ARC
  5
21E
330
1F
100
AcDbEntity
  8
0
100
AcDbCircle
 10
-15.0
 20
195.0
 30
0.0
 40
10.0
100
AcDbArc
 50
90.0
 51
180.0
  0
LINE
  5
21F
330
1F
100
AcDbEntity
  8
0
100
AcDbLine
 10
38.0
 20
155.0
 30
0.0
 11
38.0
 21
205.0
 31
0.0
  0
LINE
  5
220
330
1F
100
AcDbEntity
  8
0
100
AcDbLine
 10
35.0
 20
155.0
 30
0.0
 11
35.0
 21
205.0
 31
0.0
  0
LINE
  5
221
330
1F
100
AcDbEntity
  8
0
100
AcDbLine
 10
-15.0
 20
155.0
 30
0.0
 11
38.0
 21
155.0
 31
0.0
  0
ARC
  5
222
330
1F
100
AcDbEntity
  8
0
100
AcDbCircle
 10
-15.0
 20
165.0
 30
0.0
 40
10.0
100
AcDbArc
 50
180.0
 51
270.0
  0
LINE
  5
223
330
1F
100
AcDbEntity
  8
0
100
AcDbLine
 10
-15.0
 20
205.0
 30
0.0
 11
38.0
 21
205.0
 31
0.0
  0
LINE
  5
224
330
1F
100
AcDbEntity
  8
1
100
AcDbLine
 10
58.7635463632273
 20
180.0
 30
0.0
 11
-58.7635463632273
 21
180.0
 31
0.0
  0
CIRCLE
  5
225
330
1F
100
AcDbEntity
  8
0
100
AcDbCircle
 10
0.0
 20
180.0
 30
0.0
 40
10.0
  0
CIRCLE
  5
226
330
1F
100
AcDbEntity
  8
1
100
AcDbCircle
 10
0.0
 20
180.0
 30
0.0
 40
17.5
  0
CIRCLE
  5
227
330
1F
100
AcDbEntity
  8
0
100
AcDbCircle
 10
-17.5
 20
180.0
 30
0.0
 40
2.75
  0
CIRCLE
  5
228
330
1F
100
AcDbEntity
  8
0
100
AcDbCircle
 10
8.75
 20
164.8445554337723
 30
0.0
 40
2.749999999999999
  0
LINE
  5
229
330
1F
100
AcDbEntity
  8
1
100
AcDbLine
 10
12.5
 20
158.349364905389
 30
0.0
 11
5.0
 21
171.3397459621557
 31
0.0
  0
CIRCLE
  5
22A
330
1F
100
AcDbEntity
  8
0
100
AcDbCircle
 10
8.75
 20
195.1554445662276
 30
0.0
 40
2.749999999999999
  0
LINE
  5
22B
330
1F
100
AcDbEntity
  8
1
100
AcDbLine
 10
12.5
 20
201.650635094611
 30
0.0
 11
5.0
 21
188.6602540378443
 31
0.0
  0
LINE
  5
22C
330
1F
100
AcDbEntity
  8
0
100
AcDbLine
 10
175.0
 20
0.0
 30
0.0
 11
225.0
 21
0.0
 31
0.0
  0
LINE
  5
22D
330
1F
100
AcDbEntity
  8
0
100
AcDbLine
 10
190.5
 20
3.0
 30
0.0
 11
209.5
 21
3.0
 31
0.0
  0
LINE
  5
22E
330
1F
100
AcDbEntity
  8
1
100
AcDbLine
 10
183.3722158270445
 20
79.5
 30
0.0
 11
216.6277841729554
 21
79.5
 31
0.0
  0
LINE
  5
22F
330
1F
100
AcDbEntity
  8
0
100
AcDbLine
 10
180.0
 20
98.0
 30
0.0
 11
220.0
 21
98.0
 31
0.0
  0
LINE
  5
230
330
1F
100
AcDbEntity
  8
0
100
AcDbLine
 10
175.0
 20
93.0
 30
0.0
 11
175.0
 21
0.0
 31
0.0
  0
LINE
  5
231
330
1F
100
AcDbEntity
  8
1
100
AcDbLine
 10
200.0
 20
105.8031632334177
 30
0.0
 11
200.0
 21
-63.74343539021163
 31
0.0
  0
LINE
  5
232
330
1F
100
AcDbEntity
  8
0
100
AcDbLine
 10
209.5
 20
79.5
 30
0.0
 11
209.5
 21
0.0
 31
0.0
  0
LINE
  5
233
330
1F
100
AcDbEntity
  8
0
100
AcDbLine
 10
190.5
 20
79.5
 30
0.0
 11
190.5
 21
0.0
 31
0.0
  0
LINE
  5
234
330
1F
100
AcDbEntity
  8
0
100
AcDbLine
 10
225.0
 20
93.0
 30
0.0
 11
225.0
 21
0.0
 31
0.0
  0
ARC
  5
235
330
1F
100
AcDbEntity
  8
0
100
AcDbCircle
 10
180.0
 20
93.00000000000006
 30
0.0
 40
5.0
100
AcDbArc
 50
90.0
 51
180.0
  0
ARC
  5
236
330
1F
100
AcDbEntity
  8
0
100
AcDbCircle
 10
220.0000000000001
 20
93.00000000000011
 30
0.0
 40
5.0
100
AcDbArc
 50
359.9999999999984
 51
90.0
  0
ARC
  5
237
330
1F
100
AcDbEntity
  8
0
100
AcDbCircle
 10
200.0
 20
79.5
 30
0.0
 40
9.5
100
AcDbArc
 50
0.0
 51
180.0
  0
CIRCLE
  5
238
330
1F
100
AcDbEntity
  8
2
100
AcDbCircle
 10
0.0
 20
180.0
 30
0.0
 40
53.50001525878929
  0
LINE
  5
239
330
1F
100
AcDbEntity
  8
1
100
AcDbLine
 10
0.0
 20
238.7635463632273
 30
0.0
 11
0.0
 21
121.2364536367727
 31
0.0
  0
LINE
  5
23A
330
1F
100
AcDbEntity
  8
2
100
AcDbLine
 10
175.0
 20
-6.0
 30
0.0
 11
225.0
 21
-6.0
 31
0.0
  0
LINE
  5
23B
330
1F
100
AcDbEntity
  8
2
100
AcDbLine
 10
175.0
 20
-1.0
 30
0.0
 11
225.0
 21
-1.0
 31
0.0
  0
LINE
  5
23C
330
1F
100
AcDbEntity
  8
2
100
AcDbLine
 10
244.5000152587891
 20
-12.0
 30
0.0
 11
155.4999847412109
 21
-12.0
 31
0.0
  0
LINE
  5
23D
330
1F
100
AcDbEntity
  8
2
100
AcDbLine
 10
224.0000348091125
 20
-6.999999999997726
 30
0.0
 11
176.0000233650207
 21
-6.999999999997726
 31
0.0
  0
LINE
  5
23E
330
1F
100
AcDbEntity
  8
2
100
AcDbLine
 10
223.9999847412109
 20
-7.0
 30
0.0
 11
176.4999847412109
 21
-7.0
 31
0.0
  0
LINE
  5
23F
330
1F
100
AcDbEntity
  8
2
100
AcDbLine
 10
146.4999847412107
 20
-53.7913932688399
 30
0.0
 11
146.4999847412107
 21
-21.0
 31
0.0
  0
ARC
  5
240
330
1F
100
AcDbEntity
  8
2
100
AcDbCircle
 10
155.4999847412107
 20
-21.0
 30
0.0
 40
9.0
100
AcDbArc
 50
90.0
 51
180.0000025044817
  0
LINE
  5
241
330
1F
100
AcDbEntity
  8
2
100
AcDbLine
 10
175.0
 20
-1.0
 30
0.0
 11
175.0
 21
-6.0
 31
0.0
  0
LINE
  5
242
330
1F
100
AcDbEntity
  8
2
100
AcDbLine
 10
174.9999932628925
 20
-0.999990218534549
 30
0.0
 11
175.9999943837438
 21
0.0000108180224743
 31
0.0
  0
ARC
  5
243
330
1F
100
AcDbEntity
  8
2
100
AcDbCircle
 10
176.4999847412109
 20
-8.5
 30
0.0
 40
1.5
100
AcDbArc
 50
90.0
 51
180.0000025044817
  0
LINE
  5
244
330
1F
100
AcDbEntity
  8
2
100
AcDbLine
 10
175.9999940887137
 20
-6.999996732903582
 30
0.0
 11
174.9999930521571
 21
-5.999995612053226
 31
0.0
  0
LINE
  5
245
330
1F
100
AcDbEntity
  8
2
100
AcDbLine
 10
174.9999847412109
 20
-12.0
 30
0.0
 11
174.9999847412109
 21
-8.5
 31
0.0
  0
ARC
  5
246
330
1F
100
AcDbEntity
  8
2
100
AcDbCircle
 10
244.5000152587891
 20
-21.0
 30
0.0
 40
9.0
100
AcDbArc
 50
359.9999974955182
 51
90.0
  0
LINE
  5
247
330
1F
100
AcDbEntity
  8
2
100
AcDbLine
 10
225.0
 20
-1.0
 30
0.0
 11
225.0
 21
-6.0
 31
0.0
  0
LINE
  5
248
330
1F
100
AcDbEntity
  8
2
100
AcDbLine
 10
224.0000030031515
 20
0.0000087949738372
 30
0.0
 11
225.0000040397081
 21
-0.999992325876974
 31
0.0
  0
ARC
  5
249
330
1F
100
AcDbEntity
  8
2
100
AcDbCircle
 10
223.9999847412109
 20
-7.999999999999545
 30
0.0
 40
1.0
100
AcDbArc
 50
359.9999974955182
 51
90.0
  0
LINE
  5
24A
330
1F
100
AcDbEntity
  8
2
100
AcDbLine
 10
225.0000038289745
 20
-5.999997719395651
 30
0.0
 11
224.0000027081241
 21
-6.999998755952674
 31
0.0
  0
LINE
  5
24B
330
1F
100
AcDbEntity
  8
2
100
AcDbLine
 10
225.0000152587891
 20
-12.0
 30
0.0
 11
225.0000152587891
 21
-7.999999999999545
 31
0.0
  0
LINE
  5
24C
330
1F
100
AcDbEntity
  8
2
100
AcDbLine
 10
253.500015258789
 20
-53.79139326885172
 30
0.0
 11
253.500015258789
 21
-21.0
 31
0.0
  0
LINE
  5
24D
330
1F
100
AcDbEntity
  8
3
  6
DASHED
100
AcDbLine
 10
42.0001220703125
 20
171.0000325365272
 30
0.0
 11
65.0
 21
171.0000325365272
 31
0.0
  0
LINE
  5
24E
330
1F
100
AcDbEntity
  8
3
  6
DASHED
100
AcDbLine
 10
42.0001220703125
 20
189.0000325365272
 30
0.0
 11
65.0
 21
189.0000325365272
 31
0.0
  0
LINE
  5
24F
330
1F
100
AcDbEntity
  8
1
100
AcDbLine
 10
15.29188369269741
 20
180.0000325365272
 30
0.0
 11
70.7474618030501
 21
179.9999409837933
 31
0.0
  0
LINE
  5
250
330
1F
100
AcDbEntity
  8
3
  6
DASHED
100
AcDbLine
 10
23.00009155273437
 20
189.0000325365272
 30
0.0
 11
23.00009155273437
 21
171.0000325365272
 31
0.0
  0
LINE
  5
251
330
1F
100
AcDbEntity
  8
3
  6
DASHED
100
AcDbLine
 10
23.00009155273437
 20
189.0000325365272
 30
0.0
 11
31.000244140625
 21
189.0000325365272
 31
0.0
  0
LINE
  5
252
330
1F
100
AcDbEntity
  8
3
  6
DASHED
100
AcDbLine
 10
23.00009155273437
 20
171.0000325365272
 30
0.0
 11
31.000244140625
 21
171.0000325365272
 31
0.0
  0
LINE
  5
253
330
1F
100
AcDbEntity
  8
3
  6
DASHED
100
AcDbLine
 10
65.0
 20
189.0000325365272
 30
0.0
 11
65.0
 21
171.0000325365272
 31
0.0
  0
LINE
  5
254
330
1F
100
AcDbEntity
  8
3
  6
DASHED
100
AcDbLine
 10
65.0
 20
183.0000325365272
 30
0.0
 11
70.7474618030501
 21
183.0000325365272
 31
0.0
  0
LINE
  5
255
330
1F
100
AcDbEntity
  8
3
  6
DASHED
100
AcDbLine
 10
65.0
 20
177.0000325365272
 30
0.0
 11
70.7474618030501
 21
177.0000325365272
 31
0.0
  0
LINE
  5
256
330
1F
100
AcDbEntity
  8
3
  6
DASHED
100
AcDbLine
 10
31.0
 20
191.5000066036808
 30
0.0
 11
31.0
 21
168.5000066036808
 31
0.0
  0
ARC
  5
257
330
1F
100
AcDbEntity
  8
3
  6
DASHED
100
AcDbCircle
 10
48.61895530395509
 20
186.0000066036807
 30
0.0
 40
17.33028030395508
100
AcDbArc
 50
159.7444458007816
 51
200.2555541992184
  0
ARC
  5
258
330
1F
100
AcDbEntity
  8
3
  6
DASHED
100
AcDbCircle
 10
48.61895530395509
 20
174.0000066036807
 30
0.0
 40
17.33028030395508
100
AcDbArc
 50
159.7444458007816
 51
200.2555541992184
  0
LINE
  5
259
330
1F
100
AcDbEntity
  8
3
  6
DASHED
100
AcDbLine
 10
35.0
 20
168.0000066036808
 30
0.0
 11
31.28867500000001
 21
168.0000066036808
 31
0.0
  0
LINE
  5
25A
330
1F
100
AcDbEntity
  8
3
  6
DASHED
100
AcDbLine
 10
31.28867500000001
 20
168.0000066036808
 30
0.0
 11
31.0
 21
168.5000066036808
 31
0.0
  0
LINE
  5
25B
330
1F
100
AcDbEntity
  8
3
  6
DASHED
100
AcDbLine
 10
35.0
 20
180.0000066036807
 30
0.0
 11
32.36046754
 21
180.0000066036808
 31
0.0
  0
LINE
  5
25C
330
1F
100
AcDbEntity
  8
3
  6
DASHED
100
AcDbLine
 10
35.0
 20
192.0000066036808
 30
0.0
 11
31.28867500000001
 21
192.0000066036808
 31
0.0
  0
LINE
  5
25D
330
1F
100
AcDbEntity
  8
3
  6
DASHED
100
AcDbLine
 10
31.28867500000001
 20
192.0000066036808
 30
0.0
 11
31.0
 21
191.5000066036808
 31
0.0
  0
LINE
  5
25E
330
1F
100
AcDbEntity
  8
3
  6
DASHED
100
AcDbLine
 10
42.0
 20
191.5
 30
0.0
 11
42.0
 21
168.5
 31
0.0
  0
ARC
  5
25F
330
1F
100
AcDbEntity
  8
3
  6
DASHED
100
AcDbCircle
 10
24.38104469604491
 20
186.0
 30
0.0
 40
17.33028030395508
100
AcDbArc
 50
339.7440290212161
 51
20.25555419921841
  0
ARC
  5
260
330
1F
100
AcDbEntity
  8
3
  6
DASHED
100
AcDbCircle
 10
24.38104469604491
 20
174.0
 30
0.0
 40
17.33028030395508
100
AcDbArc
 50
339.7444458007816
 51
20.25597097878388
  0
LINE
  5
261
330
1F
100
AcDbEntity
  8
3
  6
DASHED
100
AcDbLine
 10
41.71132499999998
 20
168.0
 30
0.0
 11
38.0
 21
168.0
 31
0.0
  0
LINE
  5
262
330
1F
100
AcDbEntity
  8
3
  6
DASHED
100
AcDbLine
 10
41.71132499999998
 20
168.0
 30
0.0
 11
42.0
 21
168.5
 31
0.0
  0
LINE
  5
263
330
1F
100
AcDbEntity
  8
3
  6
DASHED
100
AcDbLine
 10
40.63953833517564
 20
179.9999999999999
 30
0.0
 11
38.0
 21
179.9999999999999
 31
0.0
  0
LINE
  5
264
330
1F
100
AcDbEntity
  8
3
  6
DASHED
100
AcDbLine
 10
41.7113250000001
 20
192.0
 30
0.0
 11
38.0
 21
192.0
 31
0.0
  0
LINE
  5
265
330
1F
100
AcDbEntity
  8
3
  6
DASHED
100
AcDbLine
 10
41.71132499999998
 20
192.0
 30
0.0
 11
42.0
 21
191.5
 31
0.0
  0
CIRCLE
  5
266
330
1F
100
AcDbEntity
  8
2
100
AcDbCircle
 10
0.0
 20
180.0
 30
0.0
 40
20.00000092947175
  0
LINE
  5
267
330
1F
100
AcDbEntity
  8
3
  6
DASHED
100
AcDbLine
 10
188.0000055950013
 20
72.57175040893577
 30
0.0
 11
200.0
 21
65.64355040893577
 31
0.0
  0
CIRCLE
  5
268
330
1F
100
AcDbEntity
  8
3
  6
DASHED
100
AcDbCircle
 10
200.0
 20
79.49995040893577
 30
0.0
 40
11.5
  0
LINE
  5
269
330
1F
100
AcDbEntity
  8
3
  6
DASHED
100
AcDbLine
 10
200.0
 20
93.35635040893578
 30
0.0
 11
188.0000055950013
 21
86.42815040893578
 31
0.0
  0
LINE
  5
26A
330
1F
100
AcDbEntity
  8
3
  6
DASHED
100
AcDbLine
 10
188.0000055950013
 20
86.42815040893578
 30
0.0
 11
188.0000055950013
 21
72.57175040893577
 31
0.0
  0
LINE
  5
26B
330
1F
100
AcDbEntity
  8
3
  6
DASHED
100
AcDbLine
 10
200.0
 20
65.64355040893577
 30
0.0
 11
211.9999944049987
 21
72.57175040893577
 31
0.0
  0
LINE
  5
26C
330
1F
100
AcDbEntity
  8
3
  6
DASHED
100
AcDbLine
 10
211.9999944049987
 20
86.42815040893578
 30
0.0
 11
200.0
 21
93.35635040893578
 31
0.0
  0
LINE
  5
26D
330
1F
100
AcDbEntity
  8
3
  6
DASHED
100
AcDbLine
 10
211.9999944049987
 20
72.57175040893577
 30
0.0
 11
211.9999944049987
 21
86.42815040893578
 31
0.0
  0
CIRCLE
  5
26E
330
1F
100
AcDbEntity
  8
3
  6
DASHED
100
AcDbCircle
 10
200.0
 20
79.49991412116958
 30
0.0
 40
9.0
  0
CIRCLE
  5
26F
330
1F
100
AcDbEntity
  8
3
  6
DASHED
100
AcDbCircle
 10
200.0
 20
79.49991412116958
 30
0.0
 40
3.0
  0
LINE
  5
270
330
1F
100
AcDbEntity
  8
2
100
AcDbLine
 10
188.0000055950013
 20
20.3217958171214
 30
0.0
 11
200.0
 21
13.39359581712139
 31
0.0
  0
CIRCLE
  5
271
330
1F
100
AcDbEntity
  8
2
100
AcDbCircle
 10
200.0
 20
27.2499958171214
 30
0.0
 40
11.5
  0
LINE
  5
272
330
1F
100
AcDbEntity
  8
2
100
AcDbLine
 10
200.0
 20
41.10639581712141
 30
0.0
 11
188.0000055950013
 21
34.17819581712141
 31
0.0
  0
LINE
  5
273
330
1F
100
AcDbEntity
  8
2
100
AcDbLine
 10
188.0000055950013
 20
34.17819581712141
 30
0.0
 11
188.0000055950013
 21
20.3217958171214
 31
0.0
  0
LINE
  5
274
330
1F
100
AcDbEntity
  8
2
100
AcDbLine
 10
200.0
 20
13.39359581712139
 30
0.0
 11
211.9999944049987
 21
20.3217958171214
 31
0.0
  0
LINE
  5
275
330
1F
100
AcDbEntity
  8
2
100
AcDbLine
 10
211.9999944049987
 20
34.17819581712141
 30
0.0
 11
200.0
 21
41.10639581712141
 31
0.0
  0
LINE
  5
276
330
1F
100
AcDbEntity
  8
2
100
AcDbLine
 10
211.9999944049987
 20
20.3217958171214
 30
0.0
 11
211.9999944049987
 21
34.17819581712141
 31
0.0
  0
CIRCLE
  5
277
330
1F
100
AcDbEntity
  8
2
100
AcDbCircle
 10
200.0
 20
27.24995952935521
 30
0.0
 40
9.0
  0
CIRCLE
  5
278
330
1F
100
AcDbEntity
  8
2
100
AcDbCircle
 10
200.0
 20
27.24995952935521
 30
0.0
 40
3.0
  0
LINE
  5
279
330
1F
100
AcDbEntity
  8
2
100
AcDbLine
 10
9.199999999999988
 20
38.00000008742336
 30
0.0
 11
-9.200000000000045
 21
38.00000008742336
 31
0.0
  0
LINE
  5
27A
330
1F
100
AcDbEntity
  8
2
100
AcDbLine
 10
9.199999999999988
 20
35.50000008742336
 30
0.0
 11
-9.200000000000045
 21
35.50000008742336
 31
0.0
  0
LINE
  5
27B
330
1F
100
AcDbEntity
  8
2
100
AcDbLine
 10
-9.200000000000045
 20
35.50000008742336
 30
0.0
 11
-9.200000000000045
 21
38.00000008742336
 31
0.0
  0
LINE
  5
27C
330
1F
100
AcDbEntity
  8
2
100
AcDbLine
 10
9.199999999999988
 20
35.50000008742336
 30
0.0
 11
9.199999999999988
 21
38.00000008742336
 31
0.0
  0
LINE
  5
27D
330
1F
100
AcDbEntity
  8
2
100
AcDbLine
 10
9.81495000000001
 20
38.00000008742336
 30
0.0
 11
-9.81495000000001
 21
38.00000008742336
 31
0.0
  0
LINE
  5
27E
330
1F
100
AcDbEntity
  8
2
100
AcDbLine
 10
8.25
 20
45.00000008742335
 30
0.0
 11
-8.25
 21
45.00000008742335
 31
0.0
  0
ARC
  5
27F
330
1F
100
AcDbEntity
  8
2
100
AcDbCircle
 10
0.0
 20
31.22080334822658
 30
0.0
 40
13.77919673919678
100
AcDbArc
 50
69.13599562606686
 51
110.8640043739331
  0
LINE
  5
280
330
1F
100
AcDbEntity
  8
2
100
AcDbLine
 10
-9.81495000000001
 20
44.0964762049233
 30
0.0
 11
-8.25
 21
45.00000008742335
 31
0.0
  0
ARC
  5
281
330
1F
100
AcDbEntity
  8
2
100
AcDbCircle
 10
-7.361212499999965
 20
39.84647664229397
 30
0.0
 40
4.907476425170898
100
AcDbArc
 50
60.00000901438021
 51
119.9999909856198
  0
LINE
  5
282
330
1F
100
AcDbEntity
  8
2
100
AcDbLine
 10
-9.81495000000001
 20
38.00000008742336
 30
0.0
 11
-9.81495000000001
 21
44.0964762049233
 31
0.0
  0
LINE
  5
283
330
1F
100
AcDbEntity
  8
2
100
AcDbLine
 10
-4.907474999999976
 20
38.00000008742336
 30
0.0
 11
-4.907474999999976
 21
44.0964762049233
 31
0.0
  0
LINE
  5
284
330
1F
100
AcDbEntity
  8
2
100
AcDbLine
 10
9.81495000000001
 20
44.0964762049233
 30
0.0
 11
8.25
 21
45.00000008742335
 31
0.0
  0
ARC
  5
285
330
1F
100
AcDbEntity
  8
2
100
AcDbCircle
 10
7.361212500000021
 20
39.84647664229397
 30
0.0
 40
4.907476425170898
100
AcDbArc
 50
60.00000901438021
 51
119.9999909856198
  0
LINE
  5
286
330
1F
100
AcDbEntity
  8
2
100
AcDbLine
 10
4.907474999999976
 20
38.00000008742336
 30
0.0
 11
4.907474999999976
 21
44.0964762049233
 31
0.0
  0
LINE
  5
287
330
1F
100
AcDbEntity
  8
2
100
AcDbLine
 10
9.81495000000001
 20
38.00000008742336
 30
0.0
 11
9.81495000000001
 21
44.0964762049233
 31
0.0
  0
LINE
  5
288
330
1F
100
AcDbEntity
  8
1
100
AcDbLine
 10
183.3722158270445
 20
79.49991412116958
 30
0.0
 11
216.6277841729554
 21
79.49991412116958
 31
0.0
  0
LINE
  5
289
330
1F
100
AcDbEntity
  8
1
100
AcDbLine
 10
183.3722158270445
 20
27.24995952935521
 30
0.0
 11
216.6277841729554
 21
27.24995952935521
 31
0.0
  0
LINE
  5
28A
330
1F
100
AcDbEntity
  8
2
100
AcDbLine
 10
4.907493787581302
 20
188.4999994851499
 30
0.0
 11
-4.907456212418708
 21
188.4999994851499
 31
0.0
  0
LINE
  5
28B
330
1F
100
AcDbEntity
  8
2
100
AcDbLine
 10
-4.907456212418708
 20
171.5000074114018
 30
0.0
 11
4.907493787581302
 21
171.5000074114017
 31
0.0
  0
CIRCLE
  5
28C
330
1F
100
AcDbEntity
  8
2
100
AcDbCircle
 10
0.0000187875813253
 20
180.0000034482758
 30
0.0
 40
8.25
  0
LINE
  5
28D
330
1F
100
AcDbEntity
  8
2
100
AcDbLine
 10
-9.814931212418684
 20
180.0000034482758
 30
0.0
 11
-4.907456212418708
 21
171.5000074114018
 31
0.0
  0
LINE
  5
28E
330
1F
100
AcDbEntity
  8
2
100
AcDbLine
 10
-4.907456212418708
 20
188.4999994851499
 30
0.0
 11
-9.814931212418684
 21
180.0000034482758
 31
0.0
  0
LINE
  5
28F
330
1F
100
AcDbEntity
  8
2
100
AcDbLine
 10
4.907493787581302
 20
171.5000074114017
 30
0.0
 11
9.814968787581278
 21
180.0000034482758
 31
0.0
  0
LINE
  5
290
330
1F
100
AcDbEntity
  8
2
100
AcDbLine
 10
9.814968787581278
 20
180.0000034482758
 30
0.0
 11
4.907493787581302
 21
188.4999994851499
 31
0.0
  0
LINE
  5
291
330
1F
100
AcDbEntity
  8
1
100
AcDbLine
 10
87.18981094317541
 20
-33.50000000000006
 30
0.0
 11
43.5
 21
-33.50000000000006
 31
0.0
  0
LINE
  5
292
330
1F
100
AcDbEntity
  8
2
100
AcDbLine
 10
55.49993896484375
 20
-25.49993896484381
 30
0.0
 11
55.49993896484375
 21
-41.50006103515631
 31
0.0
  0
LINE
  5
293
330
1F
100
AcDbEntity
  8
2
100
AcDbLine
 10
55.49993896484375
 20
-41.50006103515631
 30
0.0
 11
81.49993896484375
 21
-41.50006103515631
 31
0.0
  0
LINE
  5
294
330
1F
100
AcDbEntity
  8
2
100
AcDbLine
 10
55.49993896484375
 20
-25.49993896484381
 30
0.0
 11
81.49993896484375
 21
-25.49993896484381
 31
0.0
  0
LINE
  5
295
330
1F
100
AcDbEntity
  8
2
100
AcDbLine
 10
81.49993896484375
 20
-25.49993896484381
 30
0.0
 11
81.49993896484375
 21
-41.50006103515631
 31
0.0
  0
LINE
  5
296
330
1F
100
AcDbEntity
  8
2
100
AcDbLine
 10
53.5
 20
-40.0000610351563
 30
0.0
 11
55.49993896484375
 21
-40.0000610351563
 31
0.0
  0
LINE
  5
297
330
1F
100
AcDbEntity
  8
2
100
AcDbLine
 10
53.5
 20
-26.99993896484381
 30
0.0
 11
55.49993896484375
 21
-26.99993896484381
 31
0.0
  0
CIRCLE
  5
298
330
1F
100
AcDbEntity
  8
2
100
AcDbCircle
 10
200.0
 20
-33.50000000000006
 30
0.0
 40
8.000061035156246
  0
LINE
  5
299
330
1F
100
AcDbEntity
  8
1
100
AcDbLine
 10
212.1226619124736
 20
-33.50000000000006
 30
0.0
 11
187.8773380875264
 21
-33.50000000000006
 31
0.0
  0
LINE
  5
29A
330
1F
100
AcDbEntity
  8
1
100
AcDbLine
 10
87.19016341458701
 20
179.9999694573692
 30
0.0
 11
43.50035247141159
 21
179.9999694573692
 31
0.0
  0
LINE
  5
29B
330
1F
100
AcDbEntity
  8
2
100
AcDbLine
 10
55.50029143625534
 20
188.0000304925255
 30
0.0
 11
55.50029143625534
 21
171.999908422213
 31
0.0
  0
LINE
  5
29C
330
1F
100
AcDbEntity
  8
2
100
AcDbLine
 10
55.50029143625534
 20
171.999908422213
 30
0.0
 11
81.50029143625534
 21
171.999908422213
 31
0.0
  0
LINE
  5
29D
330
1F
100
AcDbEntity
  8
2
100
AcDbLine
 10
55.50029143625534
 20
188.0000304925255
 30
0.0
 11
81.50029143625534
 21
188.0000304925255
 31
0.0
  0
LINE
  5
29E
330
1F
100
AcDbEntity
  8
2
100
AcDbLine
 10
81.50029143625534
 20
188.0000304925255
 30
0.0
 11
81.50029143625534
 21
171.999908422213
 31
0.0
  0
LINE
  5
29F
330
1F
100
AcDbEntity
  8
2
100
AcDbLine
 10
53.50035247141159
 20
173.499908422213
 30
0.0
 11
55.50029143625534
 21
173.499908422213
 31
0.0
  0
LINE
  5
2A0
330
1F
100
AcDbEntity
  8
2
100
AcDbLine
 10
53.50035247141159
 20
186.5000304925255
 30
0.0
 11
55.50029143625534
 21
186.5000304925255
 31
0.0
  0
LINE
  5
2AC
330
1F
100
AcDbEntity
  8
0
  6
DASHED
100
AcDbLine
 10
175.0
 20
3.0
 30
0.0
 11
190.5
 21
3.0
 31
0.0
  0
LINE
  5
2AD
330
1F
100
AcDbEntity
  8
0
  6
DASHED
100
AcDbLine
 10
209.5
 20
3.0
 30
0.0
 11
225.0
 21
3.0
 31
0.0
  0
VIEWPORT
  5
71
330
55
100
AcDbEntity
 67
     1
  8
0
100
AcDbViewport
 10
133.3499908447266
 20
101.5999970436096
 30
0.0
 40
381.3957395593835
 41
218.2856291881582
 68
     1
 69
     1
 12
133.3499908447266
 22
101.5999970436096
 13
0.0
 23
0.0
 14
10.0
 24
10.0
 15
10.0
 25
10.0
 16
0.0
 26
0.0
 36
1.0
 17
0.0
 27
0.0
 37
0.0
 42
50.0
 43
0.0
 44
0.0
 45
218.2856291881582
 50
0.0
 51
0.0
 72
   100
 90
    32800
  1

281
     0
 71
     1
 74
     0
110
0.0
120
0.0
130
0.0
111
1.0
121
0.0
131
0.0
112
0.0
122
1.0
132
0.0
 79
     0
146
0.0
170
     0
 61
     5
348
2D4
292
     1
282
     1
141
0.0
142
0.0
 63
   250
421
  3355443
  0
VIEWPORT
  5
73
330
55
100
AcDbEntity
 67
     1
  8
0
100
AcDbViewport
 10
133.3499939441681
 20
101.5999939441681
 30
0.0
 40
213.3599903106689
 41
162.5599903106689
 68
     2
 69
     2
 12
210.0
 22
148.5
 13
0.0
 23
0.0
 14
10.0
 24
10.0
 15
10.0
 25
10.0
 16
0.0
 26
0.0
 36
1.0
 17
0.0
 27
0.0
 37
0.0
 42
50.0
 43
0.0
 44
0.0
 45
324.0677920111345
 50
0.0
 51
0.0
 72
   100
 90
    32864
  1

281
     0
 71
     1
 74
     0
110
0.0
120
0.0
130
0.0
111
1.0
121
0.0
131
0.0
112
0.0
122
1.0
132
0.0
 79
     0
146
0.0
170
     0
 61
     5
348
2D4
292
     1
282
     1
141
0.0
142
0.0
 63
   250
421
  3355443
  0
ENDSEC
  0
SECTION
  2
OBJECTS
  0
DICTIONARY
  5
C
330
0
100
AcDbDictionary
281
     1
  3
ACAD_COLOR
350
2E2
  3
ACAD_GROUP
350
D
  3
ACAD_LAYOUT
350
1A
  3
ACAD_MATERIAL
350
2B5
  3
ACAD_MLEADERSTYLE
350
2F7
  3
ACAD_MLINESTYLE
350
17
  3
ACAD_PLOTSETTINGS
350
19
  3
ACAD_PLOTSTYLENAME
350
E
  3
ACAD_SCALELIST
350
2E5
  3
ACAD_TABLESTYLE
350
2E3
  3
ACAD_VISUALSTYLE
350
2CE
  3
ACDB_RECOMPOSE_DATA
350
308
  3
AcDbVariableDictionary
350
5E
  0
DICTIONARY
  5
99
330
2
100
AcDbDictionary
280
     1
281
     1
  3
ACAD_LAYERSTATES
360
9A
  0
DICTIONARY
  5
2FB
330
10
100
AcDbDictionary
280
     1
281
     1
  3
ADSK_XREC_LAYER_RECONCILED
360
2FC
  0
DICTIONARY
  5
91
330
90
100
AcDbDictionary
280
     1
281
     1
  3
ADSK_XREC_LAYER_RECONCILED
360
92
  0
DICTIONARY
  5
94
330
93
100
AcDbDictionary
280
     1
281
     1
  3
ADSK_XREC_LAYER_RECONCILED
360
95
  0
DICTIONARY
  5
2FD
330
96
100
AcDbDictionary
280
     1
281
     1
  3
ADSK_XREC_LAYER_RECONCILED
360
2FE
  0
DICTIONARY
  5
2E2
102
{ACAD_REACTORS
330
C
102
}
330
C
100
AcDbDictionary
281
     1
  0
DICTIONARY
  5
D
102
{ACAD_REACTORS
330
C
102
}
330
C
100
AcDbDictionary
281
     1
  0
DICTIONARY
  5
1A
102
{ACAD_REACTORS
330
C
102
}
330
C
100
AcDbDictionary
281
     1
  3
Model
350
22
  3
ﾚｲｱｳﾄ1
350
51
  3
ﾚｲｱｳﾄ2
350
56
  0
DICTIONARY
  5
2B5
102
{ACAD_REACTORS
330
C
102
}
330
C
100
AcDbDictionary
281
     1
  3
ByBlock
350
2BE
  3
ByLayer
350
2B6
  3
Global
350
2C6
  0
DICTIONARY
  5
2F7
102
{ACAD_REACTORS
330
C
102
}
330
C
100
AcDbDictionary
281
     1
  3
Standard
350
2F8
  0
DICTIONARY
  5
17
102
{ACAD_REACTORS
330
C
102
}
330
C
100
AcDbDictionary
281
     1
  3
Standard
350
18
  0
DICTIONARY
  5
19
102
{ACAD_REACTORS
330
C
102
}
330
C
100
AcDbDictionary
281
     1
  0
ACDBDICTIONARYWDFLT
  5
E
102
{ACAD_REACTORS
330
C
102
}
330
C
100
AcDbDictionary
281
     1
  3
Normal
350
F
100
AcDbDictionaryWithDefault
340
F
  0
DICTIONARY
  5
2E5
102
{ACAD_REACTORS
330
C
102
}
330
C
100
AcDbDictionary
281
     1
  3
A0
350
2E6
  3
A1
350
2E7
  3
A2
350
2E8
  3
A3
350
2E9
  3
A4
350
2EA
  3
A5
350
2EB
  3
A6
350
2EC
  3
A7
350
2ED
  3
A8
350
2EE
  3
A9
350
2EF
  3
B0
350
2F0
  3
B1
350
2F1
  3
B2
350
2F2
  3
B3
350
2F3
  3
B4
350
2F4
  3
B5
350
2F5
  3
B6
350
2F6
  0
DICTIONARY
  5
2E3
102
{ACAD_REACTORS
330
C
102
}
330
C
100
AcDbDictionary
281
     1
  3
Standard
350
2E4
  0
DICTIONARY
  5
2CE
102
{ACAD_REACTORS
330
C
102
}
330
C
100
AcDbDictionary
281
     1
  3
2dWireframe
350
2D4
  3
3D Hidden
350
2D6
  3
3dWireframe
350
2D5
  3
Basic
350
2D3
  3
Brighten
350
2DA
  3
ColorChange
350
2DE
  3
Conceptual
350
2D7
  3
Dim
350
2D9
  3
EdgeColorOff
350
2E1
  3
Facepattern
350
2DD
  3
Flat
350
2CF
  3
FlatWithEdges
350
2D0
  3
Gouraud
350
2D1
  3
GouraudWithEdges
350
2D2
  3
JitterOff
350
2DF
  3
Linepattern
350
2DC
  3
OverhangOff
350
2E0
  3
Realistic
350
2D8
  3
Thicken
350
2DB
  0
XRECORD
  5
308
102
{ACAD_REACTORS
330
C
102
}
330
C
100
AcDbXrecord
280
     1
 90
        1
330
2E4
  0
DICTIONARY
  5
5E
102
{ACAD_REACTORS
330
C
102
}
330
C
100
AcDbDictionary
281
     1
  3
CANNOSCALE
350
302
  3
CMLEADERSTYLE
350
300
  3
CTABLESTYLE
350
2FF
  3
DIMASSOC
350
5F
  3
HIDETEXT
350
63
  3
LAYEREVAL
350
304
  3
LAYERNOTIFY
350
305
  3
LIGHTINGUNITS
350
303
  3
MSLTSCALE
350
301
  0
DICTIONARY
  5
9A
102
{ACAD_REACTORS
330
99
102
}
330
99
100
AcDbDictionary
281
     1
  0
XRECORD
  5
2FC
102
{ACAD_REACTORS
330
2FB
102
}
330
2FB
100
AcDbXrecord
280
     1
290
     1
  0
XRECORD
  5
92
102
{ACAD_REACTORS
330
91
102
}
330
91
100
AcDbXrecord
280
     1
290
     1
  0
XRECORD
  5
95
102
{ACAD_REACTORS
330
94
102
}
330
94
100
AcDbXrecord
280
     1
290
     1
  0
XRECORD
  5
2FE
102
{ACAD_REACTORS
330
2FD
102
}
330
2FD
100
AcDbXrecord
280
     1
290
     1
  0
LAYOUT
  5
22
102
{ACAD_REACTORS
330
1A
102
}
330
1A
100
AcDbPlotSettings
  1

  2
none_device
  4
ANSI_A_(8.50_x_11.00_Inches)
  6

 40
6.349999904632568
 41
19.04999923706055
 42
6.350006103515625
 43
19.04998779296875
 44
215.8999938964844
 45
279.3999938964844
 46
0.0
 47
0.0
 48
0.0
 49
0.0
140
0.0
141
0.0
142
1.0
143
78.436453180766
 70
 11952
 72
     0
 73
     1
 74
     0
  7

 75
     0
147
0.0127491741332998
 76
     0
 77
     2
 78
   300
148
0.0
149
0.0
100
AcDbLayout
  1
Model
 70
     1
 71
     0
 10
0.0
 20
0.0
 11
12.0
 21
9.0
 12
0.0
 22
0.0
 32
0.0
 14
0.0
 24
0.0
 34
0.0
 15
0.0
 25
0.0
 35
0.0
146
0.0
 13
0.0
 23
0.0
 33
0.0
 16
1.0
 26
0.0
 36
0.0
 17
0.0
 27
1.0
 37
0.0
 76
     0
330
1F
331
2B3
  0
LAYOUT
  5
51
102
{ACAD_REACTORS
330
1A
102
}
330
1A
100
AcDbPlotSettings
  1

  2
none_device
  4
Letter_(8.50_x_11.00_Inches)
  6

 40
6.349999904632568
 41
6.349999904632568
 42
6.350006103515625
 43
6.350006103515625
 44
215.8999938964844
 45
279.3999938964844
 46
0.0
 47
0.0
 48
0.0
 49
0.0
140
0.0
141
0.0
142
1.0
143
1.0
 70
   688
 72
     1
 73
     1
 74
     5
  7

 75
    16
147
1.0
 76
     0
 77
     2
 78
   300
148
0.0
149
0.0
100
AcDbLayout
  1
ﾚｲｱｳﾄ1
 70
     1
 71
     1
 10
-6.350006103515625
 20
-6.349999904632568
 11
273.0499877929688
 21
209.5499939918518
 12
0.0
 22
0.0
 32
0.0
 14
26.66076962115563
 24
20.31135699206658
 34
-0.0015258207003583
 15
240.039213369355
 25
182.8886381005154
 35
0.0000000349246037
146
0.0
 13
0.0
 23
0.0
 33
0.0
 16
1.0
 26
0.0
 36
0.0
 17
0.0
 27
1.0
 37
0.0
 76
     0
330
50
331
6B
  0
LAYOUT
  5
56
102
{ACAD_REACTORS
330
1A
102
}
330
1A
100
AcDbPlotSettings
  1

  2
none_device
  4
Letter_(8.50_x_11.00_Inches)
  6

 40
6.349999904632568
 41
6.349999904632568
 42
6.350006103515625
 43
6.350006103515625
 44
215.8999938964844
 45
279.3999938964844
 46
0.0
 47
0.0
 48
0.0
 49
0.0
140
0.0
141
0.0
142
1.0
143
1.0
 70
   688
 72
     1
 73
     1
 74
     5
  7

 75
    16
147
1.0
 76
     0
 77
     2
 78
   300
148
0.0
149
0.0
100
AcDbLayout
  1
ﾚｲｱｳﾄ2
 70
     1
 71
     2
 10
-6.350006103515625
 20
-6.349999904632568
 11
273.0499877929688
 21
209.5499939918518
 12
0.0
 22
0.0
 32
0.0
 14
26.66076962115563
 24
20.31135699206658
 34
-0.0015258207003583
 15
240.039213369355
 25
182.8886381005154
 35
0.0000000349246037
146
0.0
 13
0.0
 23
0.0
 33
0.0
 16
1.0
 26
0.0
 36
0.0
 17
0.0
 27
1.0
 37
0.0
 76
     0
330
55
331
71
  0
MATERIAL
  5
2BE
102
{ACAD_XDICTIONARY
360
2BF
102
}
102
{ACAD_REACTORS
330
2B5
102
}
330
2B5
100
AcDbMaterial
  1
ByBlock
 72
     0
 43
0.0008202099737533
 43
0.0
 43
0.0
 43
0.0
 43
0.0
 43
0.0008202099737533
 43
0.0
 43
0.0
 43
0.0
 43
0.0
 43
1.0
 43
0.0
 43
0.0
 43
0.0
 43
0.0
 43
1.0
 77
     0
 47
0.0008202099737533
 47
0.0
 47
0.0
 47
0.0
 47
0.0
 47
0.0008202099737533
 47
0.0
 47
0.0
 47
0.0
 47
0.0
 47
1.0
 47
0.0
 47
0.0
 47
0.0
 47
0.0
 47
1.0
171
     0
 49
0.0008202099737533
 49
0.0
 49
0.0
 49
0.0
 49
0.0
 49
0.0008202099737533
 49
0.0
 49
0.0
 49
0.0
 49
0.0
 49
1.0
 49
0.0
 49
0.0
 49
0.0
 49
0.0
 49
1.0
175
     0
142
0.0008202099737533
142
0.0
142
0.0
142
0.0
142
0.0
142
0.0008202099737533
142
0.0
142
0.0
142
0.0
142
0.0
142
1.0
142
0.0
142
0.0
142
0.0
142
0.0
142
1.0
179
     0
144
0.0008202099737533
144
0.0
144
0.0
144
0.0
144
0.0
144
0.0008202099737533
144
0.0
144
0.0
144
0.0
144
0.0
144
1.0
144
0.0
144
0.0
144
0.0
144
0.0
144
1.0
147
0.0008202099737533
147
0.0
147
0.0
147
0.0
147
0.0
147
0.0008202099737533
147
0.0
147
0.0
147
0.0
147
0.0
147
1.0
147
0.0
147
0.0
147
0.0
147
0.0
147
1.0
  0
MATERIAL
  5
2B6
102
{ACAD_XDICTIONARY
360
2B7
102
}
102
{ACAD_REACTORS
330
2B5
102
}
330
2B5
100
AcDbMaterial
  1
ByLayer
 72
     0
 43
0.0008202099737533
 43
0.0
 43
0.0
 43
0.0
 43
0.0
 43
0.0008202099737533
 43
0.0
 43
0.0
 43
0.0
 43
0.0
 43
1.0
 43
0.0
 43
0.0
 43
0.0
 43
0.0
 43
1.0
 77
     0
 47
0.0008202099737533
 47
0.0
 47
0.0
 47
0.0
 47
0.0
 47
0.0008202099737533
 47
0.0
 47
0.0
 47
0.0
 47
0.0
 47
1.0
 47
0.0
 47
0.0
 47
0.0
 47
0.0
 47
1.0
171
     0
 49
0.0008202099737533
 49
0.0
 49
0.0
 49
0.0
 49
0.0
 49
0.0008202099737533
 49
0.0
 49
0.0
 49
0.0
 49
0.0
 49
1.0
 49
0.0
 49
0.0
 49
0.0
 49
0.0
 49
1.0
175
     0
142
0.0008202099737533
142
0.0
142
0.0
142
0.0
142
0.0
142
0.0008202099737533
142
0.0
142
0.0
142
0.0
142
0.0
142
1.0
142
0.0
142
0.0
142
0.0
142
0.0
142
1.0
179
     0
144
0.0008202099737533
144
0.0
144
0.0
144
0.0
144
0.0
144
0.0008202099737533
144
0.0
144
0.0
144
0.0
144
0.0
144
1.0
144
0.0
144
0.0
144
0.0
144
0.0
144
1.0
147
0.0008202099737533
147
0.0
147
0.0
147
0.0
147
0.0
147
0.0008202099737533
147
0.0
147
0.0
147
0.0
147
0.0
147
1.0
147
0.0
147
0.0
147
0.0
147
0.0
147
1.0
  0
MATERIAL
  5
2C6
102
{ACAD_XDICTIONARY
360
2C7
102
}
102
{ACAD_REACTORS
330
2B5
102
}
330
2B5
100
AcDbMaterial
  1
Global
 72
     0
 43
0.0008202099737533
 43
0.0
 43
0.0
 43
0.0
 43
0.0
 43
0.0008202099737533
 43
0.0
 43
0.0
 43
0.0
 43
0.0
 43
1.0
 43
0.0
 43
0.0
 43
0.0
 43
0.0
 43
1.0
 77
     0
 47
0.0008202099737533
 47
0.0
 47
0.0
 47
0.0
 47
0.0
 47
0.0008202099737533
 47
0.0
 47
0.0
 47
0.0
 47
0.0
 47
1.0
 47
0.0
 47
0.0
 47
0.0
 47
0.0
 47
1.0
171
     0
 49
0.0008202099737533
 49
0.0
 49
0.0
 49
0.0
 49
0.0
 49
0.0008202099737533
 49
0.0
 49
0.0
 49
0.0
 49
0.0
 49
1.0
 49
0.0
 49
0.0
 49
0.0
 49
0.0
 49
1.0
175
     0
142
0.0008202099737533
142
0.0
142
0.0
142
0.0
142
0.0
142
0.0008202099737533
142
0.0
142
0.0
142
0.0
142
0.0
142
1.0
142
0.0
142
0.0
142
0.0
142
0.0
142
1.0
179
     0
144
0.0008202099737533
144
0.0
144
0.0
144
0.0
144
0.0
144
0.0008202099737533
144
0.0
144
0.0
144
0.0
144
0.0
144
1.0
144
0.0
144
0.0
144
0.0
144
0.0
144
1.0
147
0.0008202099737533
147
0.0
147
0.0
147
0.0
147
0.0
147
0.0008202099737533
147
0.0
147
0.0
147
0.0
147
0.0
147
1.0
147
0.0
147
0.0
147
0.0
147
0.0
147
1.0
  0
MLEADERSTYLE
  5
2F8
102
{ACAD_REACTORS
330
2F7
102
}
330
2F7
100
AcDbMLeaderStyle
179
     2
170
     2
171
     1
172
     0
 90
        2
 40
0.0
 41
0.0
173
     1
 91
-1056964608
340
14
 92
       -2
290
     1
 42
2.0
291
     1
 43
0.36
  3
Standard
 44
4.0
300

342
11
174
     1
178
     6
175
     1
176
     0
 93
-1056964608
 45
4.0
292
     0
297
     0
 46
4.0
 94
-1056964608
 47
1.0
 49
1.0
140
1.0
293
     1
141
0.0
294
     1
177
     0
142
1.0
295
     1
296
     0
143
0.125
271
     0
272
     9
273
     9
  0
MLINESTYLE
  5
18
102
{ACAD_REACTORS
330
17
102
}
330
17
100
AcDbMlineStyle
  2
STANDARD
 70
     0
  3

 62
   256
 51
90.0
 52
90.0
 71
     2
 49
0.5
 62
   256
  6
BYLAYER
 49
-0.5
 62
   256
  6
BYLAYER
  0
ACDBPLACEHOLDER
  5
F
102
{ACAD_REACTORS
330
E
102
}
330
E
  0
SCALE
  5
2E6
102
{ACAD_REACTORS
330
2E5
102
}
330
2E5
100
AcDbScale
 70
     0
300
1:1
140
1.0
141
1.0
290
     1
  0
SCALE
  5
2E7
102
{ACAD_REACTORS
330
2E5
102
}
330
2E5
100
AcDbScale
 70
     0
300
1:2
140
1.0
141
2.0
290
     0
  0
SCALE
  5
2E8
102
{ACAD_REACTORS
330
2E5
102
}
330
2E5
100
AcDbScale
 70
     0
300
1:4
140
1.0
141
4.0
290
     0
  0
SCALE
  5
2E9
102
{ACAD_REACTORS
330
2E5
102
}
330
2E5
100
AcDbScale
 70
     0
300
1:5
140
1.0
141
5.0
290
     0
  0
SCALE
  5
2EA
102
{ACAD_REACTORS
330
2E5
102
}
330
2E5
100
AcDbScale
 70
     0
300
1:8
140
1.0
141
8.0
290
     0
  0
SCALE
  5
2EB
102
{ACAD_REACTORS
330
2E5
102
}
330
2E5
100
AcDbScale
 70
     0
300
1:10
140
1.0
141
10.0
290
     0
  0
SCALE
  5
2EC
102
{ACAD_REACTORS
330
2E5
102
}
330
2E5
100
AcDbScale
 70
     0
300
1:16
140
1.0
141
16.0
290
     0
  0
SCALE
  5
2ED
102
{ACAD_REACTORS
330
2E5
102
}
330
2E5
100
AcDbScale
 70
     0
300
1:20
140
1.0
141
20.0
290
     0
  0
SCALE
  5
2EE
102
{ACAD_REACTORS
330
2E5
102
}
330
2E5
100
AcDbScale
 70
     0
300
1:30
140
1.0
141
30.0
290
     0
  0
SCALE
  5
2EF
102
{ACAD_REACTORS
330
2E5
102
}
330
2E5
100
AcDbScale
 70
     0
300
1:40
140
1.0
141
40.0
290
     0
  0
SCALE
  5
2F0
102
{ACAD_REACTORS
330
2E5
102
}
330
2E5
100
AcDbScale
 70
     0
300
1:50
140
1.0
141
50.0
290
     0
  0
SCALE
  5
2F1
102
{ACAD_REACTORS
330
2E5
102
}
330
2E5
100
AcDbScale
 70
     0
300
1:100
140
1.0
141
100.0
290
     0
  0
SCALE
  5
2F2
102
{ACAD_REACTORS
330
2E5
102
}
330
2E5
100
AcDbScale
 70
     0
300
2:1
140
2.0
141
1.0
290
     0
  0
SCALE
  5
2F3
102
{ACAD_REACTORS
330
2E5
102
}
330
2E5
100
AcDbScale
 70
     0
300
4:1
140
4.0
141
1.0
290
     0
  0
SCALE
  5
2F4
102
{ACAD_REACTORS
330
2E5
102
}
330
2E5
100
AcDbScale
 70
     0
300
8:1
140
8.0
141
1.0
290
     0
  0
SCALE
  5
2F5
102
{ACAD_REACTORS
330
2E5
102
}
330
2E5
100
AcDbScale
 70
     0
300
10:1
140
10.0
141
1.0
290
     0
  0
SCALE
  5
2F6
102
{ACAD_REACTORS
330
2E5
102
}
330
2E5
100
AcDbScale
 70
     0
300
100:1
140
100.0
141
1.0
290
     0
  0
TABLESTYLE
  5
2E4
102
{ACAD_XDICTIONARY
360
306
102
}
102
{ACAD_REACTORS
330
2E3
102
}
330
2E3
100
AcDbTableStyle
280
     0
  3
Standard
 70
     0
 71
     0
 40
1.5
 41
1.5
280
     0
281
     0
  7
Standard
140
4.5
170
     2
 62
     0
 63
     7
283
     0
 90
      512
 91
        0
  1

274
    -2
284
     1
 64
     0
275
    -2
285
     1
 65
     0
276
    -2
286
     1
 66
     0
277
    -2
287
     1
 67
     0
278
    -2
288
     1
 68
     0
279
    -2
289
     1
 69
     0
  7
Standard
140
6.0
170
     5
 62
     0
 63
     7
283
     0
 90
      512
 91
        0
  1

274
    -2
284
     1
 64
     0
275
    -2
285
     1
 65
     0
276
    -2
286
     1
 66
     0
277
    -2
287
     1
 67
     0
278
    -2
288
     1
 68
     0
279
    -2
289
     1
 69
     0
  7
Standard
140
4.5
170
     5
 62
     0
 63
     7
283
     0
 90
      512
 91
        0
  1

274
    -2
284
     1
 64
     0
275
    -2
285
     1
 65
     0
276
    -2
286
     1
 66
     0
277
    -2
287
     1
 67
     0
278
    -2
288
     1
 68
     0
279
    -2
289
     1
 69
     0
  0
VISUALSTYLE
  5
2D4
102
{ACAD_REACTORS
330
2CE
102
}
330
2CE
100
AcDbVisualStyle
  2
2dWireframe
 70
     4
177
     2
291
     0
 71
     0
176
     1
 72
     2
176
     1
 73
     0
176
     1
 90
        0
176
     1
 40
0.6
176
     1
 41
30.0
176
     1
 63
     7
421
 16777215
176
     1
 74
     1
176
     1
 91
        4
176
     1
 64
     7
176
     1
 65
   257
176
     1
 75
     1
176
     1
175
     1
176
     1
 42
1.0
176
     1
 92
        0
176
     1
 66
   257
176
     1
 43
1.0
176
     1
 76
     1
176
     1
 77
     6
176
     1
 78
     2
176
     1
 67
     7
176
     1
 79
     5
176
     1
170
     0
176
     1
171
     0
176
     1
290
     0
176
     1
 93
        1
176
     1
 44
0.0
176
     1
173
     0
176
     1
  0
VISUALSTYLE
  5
2D6
102
{ACAD_REACTORS
330
2CE
102
}
330
2CE
100
AcDbVisualStyle
  2
3D Hidden
 70
     6
177
     2
291
     0
 71
     1
176
     1
 72
     2
176
     1
 73
     2
176
     1
 90
        0
176
     1
 40
0.6
176
     1
 41
30.0
176
     1
 63
     7
421
 16777215
176
     1
 74
     2
176
     1
 91
        2
176
     1
 64
     7
176
     1
 65
   257
176
     1
 75
     2
176
     1
175
     1
176
     1
 42
179.0
176
     1
 92
        0
176
     1
 66
   257
176
     1
 43
1.0
176
     1
 76
     1
176
     1
 77
     6
176
     1
 78
     2
176
     1
 67
     7
176
     1
 79
     3
176
     1
170
     0
176
     1
171
     0
176
     1
290
     0
176
     1
 93
        1
176
     1
 44
0.0
176
     1
173
     0
176
     1
  0
VISUALSTYLE
  5
2D5
102
{ACAD_REACTORS
330
2CE
102
}
330
2CE
100
AcDbVisualStyle
  2
3dWireframe
 70
     5
177
     2
291
     0
 71
     0
176
     1
 72
     2
176
     1
 73
     0
176
     1
 90
        0
176
     1
 40
0.6
176
     1
 41
30.0
176
     1
 63
     7
421
 16777215
176
     1
 74
     1
176
     1
 91
        4
176
     1
 64
     7
176
     1
 65
   257
176
     1
 75
     1
176
     1
175
     1
176
     1
 42
1.0
176
     1
 92
        0
176
     1
 66
   257
176
     1
 43
1.0
176
     1
 76
     1
176
     1
 77
     6
176
     1
 78
     2
176
     1
 67
     7
176
     1
 79
     5
176
     1
170
     0
176
     1
171
     0
176
     1
290
     0
176
     1
 93
        1
176
     1
 44
0.0
176
     1
173
     0
176
     1
  0
VISUALSTYLE
  5
2D3
102
{ACAD_REACTORS
330
2CE
102
}
330
2CE
100
AcDbVisualStyle
  2
Basic
 70
     7
177
     2
291
     1
 71
     1
176
     1
 72
     0
176
     1
 73
     1
176
     1
 90
        0
176
     1
 40
0.6
176
     1
 41
30.0
176
     1
 63
     7
421
 16777215
176
     1
 74
     0
176
     1
 91
        4
176
     1
 64
     7
176
     1
 65
   257
176
     1
 75
     1
176
     1
175
     1
176
     1
 42
1.0
176
     1
 92
        8
176
     1
 66
     7
176
     1
 43
1.0
176
     1
 76
     1
176
     1
 77
     6
176
     1
 78
     2
176
     1
 67
     7
176
     1
 79
     5
176
     1
170
     0
176
     1
171
     0
176
     1
290
     0
176
     1
 93
        1
176
     1
 44
0.0
176
     1
173
     0
176
     1
  0
VISUALSTYLE
  5
2DA
102
{ACAD_REACTORS
330
2CE
102
}
330
2CE
100
AcDbVisualStyle
  2
Brighten
 70
    12
177
     2
291
     1
 71
     2
176
     1
 72
     2
176
     1
 73
     0
176
     1
 90
        0
176
     1
 40
0.6
176
     1
 41
30.0
176
     1
 63
     7
421
 16777215
176
     1
 74
     1
176
     1
 91
        4
176
     1
 64
     7
176
     1
 65
   257
176
     1
 75
     1
176
     1
175
     1
176
     1
 42
1.0
176
     1
 92
        8
176
     1
 66
     7
176
     1
 43
1.0
176
     1
 76
     1
176
     1
 77
     6
176
     1
 78
     2
176
     1
 67
     7
176
     1
 79
     5
176
     1
170
     0
176
     1
171
     0
176
     1
290
     0
176
     1
 93
        1
176
     1
 44
50.0
176
     1
173
     0
176
     1
  0
VISUALSTYLE
  5
2DE
102
{ACAD_REACTORS
330
2CE
102
}
330
2CE
100
AcDbVisualStyle
  2
ColorChange
 70
    16
177
     2
291
     1
 71
     2
176
     1
 72
     2
176
     1
 73
     3
176
     1
 90
        0
176
     1
 40
0.6
176
     1
 41
30.0
176
     1
 63
     8
421
  8421504
176
     1
 74
     1
176
     1
 91
        4
176
     1
 64
     7
176
     1
 65
   257
176
     1
 75
     1
176
     1
175
     1
176
     1
 42
1.0
176
     1
 92
        8
176
     1
 66
     8
424
  8421504
176
     1
 43
1.0
176
     1
 76
     1
176
     1
 77
     6
176
     1
 78
     2
176
     1
 67
     7
176
     1
 79
     5
176
     1
170
     0
176
     1
171
     0
176
     1
290
     0
176
     1
 93
        1
176
     1
 44
0.0
176
     1
173
     0
176
     1
  0
VISUALSTYLE
  5
2D7
102
{ACAD_REACTORS
330
2CE
102
}
330
2CE
100
AcDbVisualStyle
  2
Conceptual
 70
     9
177
     2
291
     0
 71
     3
176
     1
 72
     2
176
     1
 73
     0
176
     1
 90
        0
176
     1
 40
0.6
176
     1
 41
30.0
176
     1
 63
     7
421
 16777215
176
     1
 74
     2
176
     1
 91
        2
176
     1
 64
     7
176
     1
 65
   257
176
     1
 75
     1
176
     1
175
     1
176
     1
 42
179.0
176
     1
 92
        8
176
     1
 66
     7
176
     1
 43
1.0
176
     1
 76
     1
176
     1
 77
     6
176
     1
 78
     2
176
     1
 67
     7
176
     1
 79
     3
176
     1
170
     0
176
     1
171
     0
176
     1
290
     0
176
     1
 93
        1
176
     1
 44
0.0
176
     1
173
     0
176
     1
  0
VISUALSTYLE
  5
2D9
102
{ACAD_REACTORS
330
2CE
102
}
330
2CE
100
AcDbVisualStyle
  2
Dim
 70
    11
177
     2
291
     1
 71
     2
176
     1
 72
     2
176
     1
 73
     0
176
     1
 90
        0
176
     1
 40
0.6
176
     1
 41
30.0
176
     1
 63
     7
421
 16777215
176
     1
 74
     1
176
     1
 91
        4
176
     1
 64
     7
176
     1
 65
   257
176
     1
 75
     1
176
     1
175
     1
176
     1
 42
1.0
176
     1
 92
        8
176
     1
 66
     7
176
     1
 43
1.0
176
     1
 76
     1
176
     1
 77
     6
176
     1
 78
     2
176
     1
 67
     7
176
     1
 79
     5
176
     1
170
     0
176
     1
171
     0
176
     1
290
     0
176
     1
 93
        1
176
     1
 44
-50.0
176
     1
173
     0
176
     1
  0
VISUALSTYLE
  5
2E1
102
{ACAD_REACTORS
330
2CE
102
}
330
2CE
100
AcDbVisualStyle
  2
EdgeColorOff
 70
    22
177
     2
291
     1
 71
     2
176
     0
 72
     2
176
     0
 73
     0
176
     0
 90
        0
176
     0
 40
0.6
176
     0
 41
30.0
176
     0
 63
     7
421
 16777215
176
     0
 74
     1
176
     0
 91
        4
176
     0
 64
     7
176
     0
 65
   257
176
     0
 75
     1
176
     0
175
     1
176
     0
 42
1.0
176
     0
 92
        8
176
     2
 66
     7
176
     0
 43
1.0
176
     0
 76
     1
176
     0
 77
     6
176
     0
 78
     2
176
     0
 67
     7
176
     0
 79
     5
176
     0
170
     0
176
     0
171
     0
176
     0
290
     0
176
     0
 93
        1
176
     0
 44
0.0
176
     0
173
     0
176
     0
  0
VISUALSTYLE
  5
2DD
102
{ACAD_REACTORS
330
2CE
102
}
330
2CE
100
AcDbVisualStyle
  2
Facepattern
 70
    15
177
     2
291
     1
 71
     2
176
     1
 72
     2
176
     1
 73
     0
176
     1
 90
        0
176
     1
 40
0.6
176
     1
 41
30.0
176
     1
 63
     7
421
 16777215
176
     1
 74
     1
176
     1
 91
        4
176
     1
 64
     7
176
     1
 65
   257
176
     1
 75
     1
176
     1
175
     1
176
     1
 42
1.0
176
     1
 92
        8
176
     1
 66
     7
176
     1
 43
1.0
176
     1
 76
     1
176
     1
 77
     6
176
     1
 78
     2
176
     1
 67
     7
176
     1
 79
     5
176
     1
170
     0
176
     1
171
     0
176
     1
290
     0
176
     1
 93
        1
176
     1
 44
0.0
176
     1
173
     0
176
     1
  0
VISUALSTYLE
  5
2CF
102
{ACAD_REACTORS
330
2CE
102
}
330
2CE
100
AcDbVisualStyle
  2
Flat
 70
     0
177
     2
291
     1
 71
     2
176
     1
 72
     1
176
     1
 73
     1
176
     1
 90
        2
176
     1
 40
0.6
176
     1
 41
30.0
176
     1
 63
     7
421
 16777215
176
     1
 74
     0
176
     1
 91
        4
176
     1
 64
     7
176
     1
 65
   257
176
     1
 75
     1
176
     1
175
     1
176
     1
 42
1.0
176
     1
 92
        8
176
     1
 66
     7
176
     1
 43
1.0
176
     1
 76
     1
176
     1
 77
     6
176
     1
 78
     2
176
     1
 67
     7
176
     1
 79
     5
176
     1
170
     0
176
     1
171
     0
176
     1
290
     0
176
     1
 93
       13
176
     1
 44
0.0
176
     1
173
     0
176
     1
  0
VISUALSTYLE
  5
2D0
102
{ACAD_REACTORS
330
2CE
102
}
330
2CE
100
AcDbVisualStyle
  2
FlatWithEdges
 70
     1
177
     2
291
     1
 71
     2
176
     1
 72
     1
176
     1
 73
     1
176
     1
 90
        2
176
     1
 40
0.6
176
     1
 41
30.0
176
     1
 63
     7
421
 16777215
176
     1
 74
     1
176
     1
 91
        4
176
     1
 64
     7
176
     1
 65
   257
176
     1
 75
     1
176
     1
175
     1
176
     1
 42
1.0
176
     1
 92
        0
176
     1
 66
   257
176
     1
 43
1.0
176
     1
 76
     1
176
     1
 77
     6
176
     1
 78
     2
176
     1
 67
     7
176
     1
 79
     5
176
     1
170
     0
176
     1
171
     0
176
     1
290
     0
176
     1
 93
       13
176
     1
 44
0.0
176
     1
173
     0
176
     1
  0
VISUALSTYLE
  5
2D1
102
{ACAD_REACTORS
330
2CE
102
}
330
2CE
100
AcDbVisualStyle
  2
Gouraud
 70
     2
177
     2
291
     1
 71
     2
176
     1
 72
     2
176
     1
 73
     1
176
     1
 90
        2
176
     1
 40
0.6
176
     1
 41
30.0
176
     1
 63
     7
421
 16777215
176
     1
 74
     0
176
     1
 91
        4
176
     1
 64
     7
176
     1
 65
   257
176
     1
 75
     1
176
     1
175
     1
176
     1
 42
1.0
176
     1
 92
        0
176
     1
 66
     7
176
     1
 43
1.0
176
     1
 76
     1
176
     1
 77
     6
176
     1
 78
     2
176
     1
 67
     7
176
     1
 79
     5
176
     1
170
     0
176
     1
171
     0
176
     1
290
     0
176
     1
 93
       13
176
     1
 44
0.0
176
     1
173
     0
176
     1
  0
VISUALSTYLE
  5
2D2
102
{ACAD_REACTORS
330
2CE
102
}
330
2CE
100
AcDbVisualStyle
  2
GouraudWithEdges
 70
     3
177
     2
291
     1
 71
     2
176
     1
 72
     2
176
     1
 73
     1
176
     1
 90
        2
176
     1
 40
0.6
176
     1
 41
30.0
176
     1
 63
     7
421
 16777215
176
     1
 74
     1
176
     1
 91
        4
176
     1
 64
     7
176
     1
 65
   257
176
     1
 75
     1
176
     1
175
     1
176
     1
 42
1.0
176
     1
 92
        0
176
     1
 66
   257
176
     1
 43
1.0
176
     1
 76
     1
176
     1
 77
     6
176
     1
 78
     2
176
     1
 67
     7
176
     1
 79
     5
176
     1
170
     0
176
     1
171
     0
176
     1
290
     0
176
     1
 93
       13
176
     1
 44
0.0
176
     1
173
     0
176
     1
  0
VISUALSTYLE
  5
2DF
102
{ACAD_REACTORS
330
2CE
102
}
330
2CE
100
AcDbVisualStyle
  2
JitterOff
 70
    20
177
     2
291
     1
 71
     2
176
     0
 72
     2
176
     0
 73
     0
176
     0
 90
        0
176
     0
 40
0.6
176
     0
 41
30.0
176
     0
 63
     7
421
 16777215
176
     0
 74
     1
176
     0
 91
        4
176
     0
 64
     7
176
     0
 65
   257
176
     0
 75
     1
176
     0
175
     1
176
     0
 42
1.0
176
     0
 92
       10
176
     2
 66
     7
176
     0
 43
1.0
176
     0
 76
     1
176
     0
 77
     6
176
     0
 78
     2
176
     0
 67
     7
176
     0
 79
     5
176
     0
170
     0
176
     0
171
     0
176
     0
290
     0
176
     0
 93
        1
176
     0
 44
0.0
176
     0
173
     0
176
     0
  0
VISUALSTYLE
  5
2DC
102
{ACAD_REACTORS
330
2CE
102
}
330
2CE
100
AcDbVisualStyle
  2
Linepattern
 70
    14
177
     2
291
     1
 71
     2
176
     1
 72
     2
176
     1
 73
     0
176
     1
 90
        0
176
     1
 40
0.6
176
     1
 41
30.0
176
     1
 63
     7
421
 16777215
176
     1
 74
     1
176
     1
 91
        4
176
     1
 64
     7
176
     1
 65
   257
176
     1
 75
     7
176
     1
175
     7
176
     1
 42
1.0
176
     1
 92
        8
176
     1
 66
     7
176
     1
 43
1.0
176
     1
 76
     1
176
     1
 77
     6
176
     1
 78
     2
176
     1
 67
     7
176
     1
 79
     5
176
     1
170
     0
176
     1
171
     0
176
     1
290
     0
176
     1
 93
        1
176
     1
 44
0.0
176
     1
173
     0
176
     1
  0
VISUALSTYLE
  5
2E0
102
{ACAD_REACTORS
330
2CE
102
}
330
2CE
100
AcDbVisualStyle
  2
OverhangOff
 70
    21
177
     2
291
     1
 71
     2
176
     0
 72
     2
176
     0
 73
     0
176
     0
 90
        0
176
     0
 40
0.6
176
     0
 41
30.0
176
     0
 63
     7
421
 16777215
176
     0
 74
     1
176
     0
 91
        4
176
     0
 64
     7
176
     0
 65
   257
176
     0
 75
     1
176
     0
175
     1
176
     0
 42
1.0
176
     0
 92
        9
176
     2
 66
     7
176
     0
 43
1.0
176
     0
 76
     1
176
     0
 77
     6
176
     0
 78
     2
176
     0
 67
     7
176
     0
 79
     5
176
     0
170
     0
176
     0
171
     0
176
     0
290
     0
176
     0
 93
        1
176
     0
 44
0.0
176
     0
173
     0
176
     0
  0
VISUALSTYLE
  5
2D8
102
{ACAD_REACTORS
330
2CE
102
}
330
2CE
100
AcDbVisualStyle
  2
Realistic
 70
     8
177
     2
291
     0
 71
     2
176
     1
 72
     2
176
     1
 73
     0
176
     1
 90
        0
176
     1
 40
0.6
176
     1
 41
30.0
176
     1
 63
     7
421
 16777215
176
     1
 74
     1
176
     1
 91
        0
176
     1
 64
     7
176
     1
 65
   257
176
     1
 75
     1
176
     1
175
     1
176
     1
 42
1.0
176
     1
 92
        8
176
     1
 66
     8
424
  7895160
176
     1
 43
1.0
176
     1
 76
     1
176
     1
 77
     6
176
     1
 78
     2
176
     1
 67
     7
176
     1
 79
     5
176
     1
170
     0
176
     1
171
     0
176
     1
290
     0
176
     1
 93
       13
176
     1
 44
0.0
176
     1
173
     0
176
     1
  0
VISUALSTYLE
  5
2DB
102
{ACAD_REACTORS
330
2CE
102
}
330
2CE
100
AcDbVisualStyle
  2
Thicken
 70
    13
177
     2
291
     1
 71
     2
176
     1
 72
     2
176
     1
 73
     0
176
     1
 90
        0
176
     1
 40
0.6
176
     1
 41
30.0
176
     1
 63
     7
421
 16777215
176
     1
 74
     1
176
     1
 91
        4
176
     1
 64
     7
176
     1
 65
   257
176
     1
 75
     1
176
     1
175
     1
176
     1
 42
1.0
176
     1
 92
       12
176
     1
 66
     7
176
     1
 43
1.0
176
     1
 76
     1
176
     1
 77
     6
176
     1
 78
     2
176
     1
 67
     7
176
     1
 79
     5
176
     1
170
     0
176
     1
171
     0
176
     1
290
     0
176
     1
 93
        1
176
     1
 44
0.0
176
     1
173
     0
176
     1
  0
DICTIONARYVAR
  5
302
102
{ACAD_REACTORS
330
5E
102
}
330
5E
100
DictionaryVariables
280
     0
  1
1:1
  0
DICTIONARYVAR
  5
300
102
{ACAD_REACTORS
330
5E
102
}
330
5E
100
DictionaryVariables
280
     0
  1
STANDARD
  0
DICTIONARYVAR
  5
2FF
102
{ACAD_REACTORS
330
5E
102
}
330
5E
100
DictionaryVariables
280
     0
  1
STANDARD
  0
DICTIONARYVAR
  5
5F
102
{ACAD_REACTORS
330
5E
102
}
330
5E
100
DictionaryVariables
280
     0
  1
2
  0
DICTIONARYVAR
  5
63
102
{ACAD_REACTORS
330
5E
102
}
330
5E
100
DictionaryVariables
280
     0
  1
1
  0
DICTIONARYVAR
  5
304
102
{ACAD_REACTORS
330
5E
102
}
330
5E
100
DictionaryVariables
280
     0
  1
1
  0
DICTIONARYVAR
  5
305
102
{ACAD_REACTORS
330
5E
102
}
330
5E
100
DictionaryVariables
280
     0
  1
15
  0
DICTIONARYVAR
  5
303
102
{ACAD_REACTORS
330
5E
102
}
330
5E
100
DictionaryVariables
280
     0
  1
0
  0
DICTIONARYVAR
  5
301
102
{ACAD_REACTORS
330
5E
102
}
330
5E
100
DictionaryVariables
280
     0
  1
0
  0
DICTIONARY
  5
2BF
330
2BE
100
AcDbDictionary
280
     1
281
     1
  3
BUMPTILE
360
2C1
  3
DIFFUSETILE
360
2C0
  3
OPACITYTILE
360
2C4
  3
REFLECTIONTILE
360
2C3
  3
REFRACTIONTILE
360
2C5
  3
SPECULARTILE
360
2C2
  0
DICTIONARY
  5
2B7
330
2B6
100
AcDbDictionary
280
     1
281
     1
  3
BUMPTILE
360
2B9
  3
DIFFUSETILE
360
2B8
  3
OPACITYTILE
360
2BC
  3
REFLECTIONTILE
360
2BB
  3
REFRACTIONTILE
360
2BD
  3
SPECULARTILE
360
2BA
  0
DICTIONARY
  5
2C7
330
2C6
100
AcDbDictionary
280
     1
281
     1
  3
BUMPTILE
360
2C9
  3
DIFFUSETILE
360
2C8
  3
OPACITYTILE
360
2CC
  3
REFLECTIONTILE
360
2CB
  3
REFRACTIONTILE
360
2CD
  3
SPECULARTILE
360
2CA
  0
DICTIONARY
  5
306
330
2E4
100
AcDbDictionary
280
     1
281
     1
  3
ACAD_ROUNDTRIP_2008_TABLESTYLE_CELLSTYLEMAP
360
307
  0
XRECORD
  5
2C1
102
{ACAD_REACTORS
330
2BF
102
}
330
2BF
100
AcDbXrecord
280
     1
270
     1
271
     1
  0
XRECORD
  5
2C0
102
{ACAD_REACTORS
330
2BF
102
}
330
2BF
100
AcDbXrecord
280
     1
270
     1
271
     1
  0
XRECORD
  5
2C4
102
{ACAD_REACTORS
330
2BF
102
}
330
2BF
100
AcDbXrecord
280
     1
270
     1
271
     1
  0
XRECORD
  5
2C3
102
{ACAD_REACTORS
330
2BF
102
}
330
2BF
100
AcDbXrecord
280
     1
270
     1
271
     1
  0
XRECORD
  5
2C5
102
{ACAD_REACTORS
330
2BF
102
}
330
2BF
100
AcDbXrecord
280
     1
270
     1
271
     1
  0
XRECORD
  5
2C2
102
{ACAD_REACTORS
330
2BF
102
}
330
2BF
100
AcDbXrecord
280
     1
270
     1
271
     1
  0
XRECORD
  5
2B9
102
{ACAD_REACTORS
330
2B7
102
}
330
2B7
100
AcDbXrecord
280
     1
270
     1
271
     1
  0
XRECORD
  5
2B8
102
{ACAD_REACTORS
330
2B7
102
}
330
2B7
100
AcDbXrecord
280
     1
270
     1
271
     1
  0
XRECORD
  5
2BC
102
{ACAD_REACTORS
330
2B7
102
}
330
2B7
100
AcDbXrecord
280
     1
270
     1
271
     1
  0
XRECORD
  5
2BB
102
{ACAD_REACTORS
330
2B7
102
}
330
2B7
100
AcDbXrecord
280
     1
270
     1
271
     1
  0
XRECORD
  5
2BD
102
{ACAD_REACTORS
330
2B7
102
}
330
2B7
100
AcDbXrecord
280
     1
270
     1
271
     1
  0
XRECORD
  5
2BA
102
{ACAD_REACTORS
330
2B7
102
}
330
2B7
100
AcDbXrecord
280
     1
270
     1
271
     1
  0
XRECORD
  5
2C9
102
{ACAD_REACTORS
330
2C7
102
}
330
2C7
100
AcDbXrecord
280
     1
270
     1
271
     1
  0
XRECORD
  5
2C8
102
{ACAD_REACTORS
330
2C7
102
}
330
2C7
100
AcDbXrecord
280
     1
270
     1
271
     1
  0
XRECORD
  5
2CC
102
{ACAD_REACTORS
330
2C7
102
}
330
2C7
100
AcDbXrecord
280
     1
270
     1
271
     1
  0
XRECORD
  5
2CB
102
{ACAD_REACTORS
330
2C7
102
}
330
2C7
100
AcDbXrecord
280
     1
270
     1
271
     1
  0
XRECORD
  5
2CD
102
{ACAD_REACTORS
330
2C7
102
}
330
2C7
100
AcDbXrecord
280
     1
270
     1
271
     1
  0
XRECORD
  5
2CA
102
{ACAD_REACTORS
330
2C7
102
}
330
2C7
100
AcDbXrecord
280
     1
270
     1
271
     1
  0
CELLSTYLEMAP
  5
307
102
{ACAD_REACTORS
330
306
102
}
330
306
100
AcDbCellStyleMap
 90
        3
300
CELLSTYLE
  1
TABLEFORMAT_BEGIN
 90
        5
170
     1
 91
        0
 92
    32768
 62
   257
 93
        1
300
CONTENTFORMAT
  1
CONTENTFORMAT_BEGIN
 90
        0
 91
        0
 92
      512
 93
        0
300

 40
0.0
140
1.0
 94
        5
 62
     0
340
11
144
6.0
309
CONTENTFORMAT_END
171
     1
301
MARGIN
  1
CELLMARGIN_BEGIN
 40
1.5
 40
1.5
 40
1.5
 40
1.5
 40
4.5
 40
4.5
309
CELLMARGIN_END
 94
        6
 95
        1
302
GRIDFORMAT
  1
GRIDFORMAT_BEGIN
 90
        0
 91
        1
 62
     0
 92
       -2
340
0
 93
        0
 40
1.125
309
GRIDFORMAT_END
 95
        2
302
GRIDFORMAT
  1
GRIDFORMAT_BEGIN
 90
        0
 91
        1
 62
     0
 92
       -2
340
0
 93
        0
 40
1.125
309
GRIDFORMAT_END
 95
        4
302
GRIDFORMAT
  1
GRIDFORMAT_BEGIN
 90
        0
 91
        1
 62
     0
 92
       -2
340
0
 93
        0
 40
1.125
309
GRIDFORMAT_END
 95
        8
302
GRIDFORMAT
  1
GRIDFORMAT_BEGIN
 90
        0
 91
        1
 62
     0
 92
       -2
340
0
 93
        0
 40
1.125
309
GRIDFORMAT_END
 95
       16
302
GRIDFORMAT
  1
GRIDFORMAT_BEGIN
 90
        0
 91
        1
 62
     0
 92
       -2
340
0
 93
        0
 40
1.125
309
GRIDFORMAT_END
 95
       32
302
GRIDFORMAT
  1
GRIDFORMAT_BEGIN
 90
        0
 91
        1
 62
     0
 92
       -2
340
0
 93
        0
 40
1.125
309
GRIDFORMAT_END
309
TABLEFORMAT_END
  1
CELLSTYLE_BEGIN
 90
        1
 91
        1
300
_TITLE
309
CELLSTYLE_END
300
CELLSTYLE
  1
TABLEFORMAT_BEGIN
 90
        5
170
     1
 91
        0
 92
        0
 62
   257
 93
        1
300
CONTENTFORMAT
  1
CONTENTFORMAT_BEGIN
 90
        0
 91
        0
 92
      512
 93
        0
300

 40
0.0
140
1.0
 94
        5
 62
     0
340
11
144
4.5
309
CONTENTFORMAT_END
171
     1
301
MARGIN
  1
CELLMARGIN_BEGIN
 40
1.5
 40
1.5
 40
1.5
 40
1.5
 40
4.5
 40
4.5
309
CELLMARGIN_END
 94
        6
 95
        1
302
GRIDFORMAT
  1
GRIDFORMAT_BEGIN
 90
        0
 91
        1
 62
     0
 92
       -2
340
0
 93
        0
 40
1.125
309
GRIDFORMAT_END
 95
        2
302
GRIDFORMAT
  1
GRIDFORMAT_BEGIN
 90
        0
 91
        1
 62
     0
 92
       -2
340
0
 93
        0
 40
1.125
309
GRIDFORMAT_END
 95
        4
302
GRIDFORMAT
  1
GRIDFORMAT_BEGIN
 90
        0
 91
        1
 62
     0
 92
       -2
340
0
 93
        0
 40
1.125
309
GRIDFORMAT_END
 95
        8
302
GRIDFORMAT
  1
GRIDFORMAT_BEGIN
 90
        0
 91
        1
 62
     0
 92
       -2
340
0
 93
        0
 40
1.125
309
GRIDFORMAT_END
 95
       16
302
GRIDFORMAT
  1
GRIDFORMAT_BEGIN
 90
        0
 91
        1
 62
     0
 92
       -2
340
0
 93
        0
 40
1.125
309
GRIDFORMAT_END
 95
       32
302
GRIDFORMAT
  1
GRIDFORMAT_BEGIN
 90
        0
 91
        1
 62
     0
 92
       -2
340
0
 93
        0
 40
1.125
309
GRIDFORMAT_END
309
TABLEFORMAT_END
  1
CELLSTYLE_BEGIN
 90
        2
 91
        1
300
_HEADER
309
CELLSTYLE_END
300
CELLSTYLE
  1
TABLEFORMAT_BEGIN
 90
        5
170
     1
 91
        0
 92
        0
 62
   257
 93
        1
300
CONTENTFORMAT
  1
CONTENTFORMAT_BEGIN
 90
        0
 91
        0
 92
      512
 93
        0
300

 40
0.0
140
1.0
 94
        2
 62
     0
340
11
144
4.5
309
CONTENTFORMAT_END
171
     1
301
MARGIN
  1
CELLMARGIN_BEGIN
 40
1.5
 40
1.5
 40
1.5
 40
1.5
 40
4.5
 40
4.5
309
CELLMARGIN_END
 94
        6
 95
        1
302
GRIDFORMAT
  1
GRIDFORMAT_BEGIN
 90
        0
 91
        1
 62
     0
 92
       -2
340
0
 93
        0
 40
1.125
309
GRIDFORMAT_END
 95
        2
302
GRIDFORMAT
  1
GRIDFORMAT_BEGIN
 90
        0
 91
        1
 62
     0
 92
       -2
340
0
 93
        0
 40
1.125
309
GRIDFORMAT_END
 95
        4
302
GRIDFORMAT
  1
GRIDFORMAT_BEGIN
 90
        0
 91
        1
 62
     0
 92
       -2
340
0
 93
        0
 40
1.125
309
GRIDFORMAT_END
 95
        8
302
GRIDFORMAT
  1
GRIDFORMAT_BEGIN
 90
        0
 91
        1
 62
     0
 92
       -2
340
0
 93
        0
 40
1.125
309
GRIDFORMAT_END
 95
       16
302
GRIDFORMAT
  1
GRIDFORMAT_BEGIN
 90
        0
 91
        1
 62
     0
 92
       -2
340
0
 93
        0
 40
1.125
309
GRIDFORMAT_END
 95
       32
302
GRIDFORMAT
  1
GRIDFORMAT_BEGIN
 90
        0
 91
        1
 62
     0
 92
       -2
340
0
 93
        0
 40
1.125
309
GRIDFORMAT_END
309
TABLEFORMAT_END
  1
CELLSTYLE_BEGIN
 90
        3
 91
        2
300
_DATA
309
CELLSTYLE_END
  0
ENDSEC
  0
EOF
