  0
SECTION
  2
HEADER
  9
$ACADVER
  1
AC1024
  9
$ACADMAINTVER
 70
     6
  9
$DWGCODEPAGE
  3
ANSI_932
  9
$LASTSAVEDBY
  1
kanatani
  9
$INSBASE
 10
0.0
 20
0.0
 30
0.0
  9
$EXTMIN
 10
-62.3589472007277
 20
-59.37519997314211
 30
0.0
  9
$EXTMAX
 10
210.7688463386128
 20
215.5843296319994
 30
0.0
  9
$LIMMIN
 10
0.0
 20
0.0
  9
$LIMMAX
 10
420.0
 20
297.0
  9
$ORTHOMODE
 70
     0
  9
$REGENMODE
 70
     1
  9
$FILLMODE
 70
     1
  9
$QTEXTMODE
 70
     0
  9
$MIRRTEXT
 70
     1
  9
$LTSCALE
 40
0.2
  9
$ATTMODE
 70
     1
  9
$TEXTSIZE
 40
2.5
  9
$TRACEWID
 40
1.0
  9
$TEXTSTYLE
  7
Standard
  9
$CLAYER
  8
0
  9
$CELTYPE
  6
ByLayer
  9
$CECOLOR
 62
   256
  9
$CELTSCALE
 40
1.0
  9
$DISPSILH
 70
     0
  9
$DIMSCALE
 40
1.0
  9
$DIMASZ
 40
2.5
  9
$DIMEXO
 40
0.625
  9
$DIMDLI
 40
3.75
  9
$DIMRND
 40
0.0
  9
$DIMDLE
 40
0.0
  9
$DIMEXE
 40
1.25
  9
$DIMTP
 40
0.0
  9
$DIMTM
 40
0.0
  9
$DIMTXT
 40
2.5
  9
$DIMCEN
 40
2.5
  9
$DIMTSZ
 40
0.0
  9
$DIMTOL
 70
     0
  9
$DIMLIM
 70
     0
  9
$DIMTIH
 70
     0
  9
$DIMTOH
 70
     0
  9
$DIMSE1
 70
     0
  9
$DIMSE2
 70
     0
  9
$DIMTAD
 70
     1
  9
$DIMZIN
 70
     8
  9
$DIMBLK
  1

  9
$DIMASO
 70
     1
  9
$DIMSHO
 70
     1
  9
$DIMPOST
  1

  9
$DIMAPOST
  1

  9
$DIMALT
 70
     0
  9
$DIMALTD
 70
     3
  9
$DIMALTF
 40
0.03937007874016
  9
$DIMLFAC
 40
1.0
  9
$DIMTOFL
 70
     1
  9
$DIMTVP
 40
0.0
  9
$DIMTIX
 70
     0
  9
$DIMSOXD
 70
     0
  9
$DIMSAH
 70
     0
  9
$DIMBLK1
  1

  9
$DIMBLK2
  1

  9
$DIMSTYLE
  2
ISO-25
  9
$DIMCLRD
 70
     0
  9
$DIMCLRE
 70
     0
  9
$DIMCLRT
 70
     0
  9
$DIMTFAC
 40
1.0
  9
$DIMGAP
 40
0.625
  9
$DIMJUST
 70
     0
  9
$DIMSD1
 70
     0
  9
$DIMSD2
 70
     0
  9
$DIMTOLJ
 70
     0
  9
$DIMTZIN
 70
     8
  9
$DIMALTZ
 70
     0
  9
$DIMALTTZ
 70
     0
  9
$DIMUPT
 70
     0
  9
$DIMDEC
 70
     2
  9
$DIMTDEC
 70
     2
  9
$DIMALTU
 70
     2
  9
$DIMALTTD
 70
     3
  9
$DIMTXSTY
  7
Standard
  9
$DIMAUNIT
 70
     0
  9
$DIMADEC
 70
     0
  9
$DIMALTRND
 40
0.0
  9
$DIMAZIN
 70
     0
  9
$DIMDSEP
 70
    44
  9
$DIMATFIT
 70
     3
  9
$DIMFRAC
 70
     0
  9
$DIMLDRBLK
  1

  9
$DIMLUNIT
 70
     2
  9
$DIMLWD
 70
    -2
  9
$DIMLWE
 70
    -2
  9
$DIMTMOVE
 70
     0
  9
$DIMFXL
 40
1.0
  9
$DIMFXLON
 70
     0
  9
$DIMJOGANG
 40
0.7853981633974483
  9
$DIMTFILL
 70
     0
  9
$DIMTFILLCLR
 70
     0
  9
$DIMARCSYM
 70
     0
  9
$DIMLTYPE
  6

  9
$DIMLTEX1
  6

  9
$DIMLTEX2
  6

  9
$DIMTXTDIRECTION
 70
     0
  9
$LUNITS
 70
     2
  9
$LUPREC
 70
     4
  9
$SKETCHINC
 40
1.0
  9
$FILLETRAD
 40
10.0
  9
$AUNITS
 70
     0
  9
$AUPREC
 70
     0
  9
$MENU
  1
.
  9
$ELEVATION
 40
0.0
  9
$PELEVATION
 40
0.0
  9
$THICKNESS
 40
0.0
  9
$LIMCHECK
 70
     0
  9
$CHAMFERA
 40
10.0
  9
$CHAMFERB
 40
10.0
  9
$CHAMFERC
 40
20.0
  9
$CHAMFERD
 40
0.0
  9
$SKPOLY
 70
     0
  9
$TDCREATE
 40
2456874.593217083
  9
$TDUCREATE
 40
2456874.218217083
  9
$TDUPDATE
 40
2456910.409331956
  9
$TDUUPDATE
 40
2456910.034331956
  9
$TDINDWG
 40
0.0151286806
  9
$TDUSRTIMER
 40
0.0151286690
  9
$USRTIMER
 70
     1
  9
$ANGBASE
 50
0.0
  9
$ANGDIR
 70
     0
  9
$PDMODE
 70
     0
  9
$PDSIZE
 40
0.0
  9
$PLINEWID
 40
0.0
  9
$SPLFRAME
 70
     0
  9
$SPLINETYPE
 70
     6
  9
$SPLINESEGS
 70
     8
  9
$HANDSEED
  5
32B
  9
$SURFTAB1
 70
     6
  9
$SURFTAB2
 70
     6
  9
$SURFTYPE
 70
     6
  9
$SURFU
 70
     6
  9
$SURFV
 70
     6
  9
$UCSBASE
  2

  9
$UCSNAME
  2

  9
$UCSORG
 10
0.0
 20
0.0
 30
0.0
  9
$UCSXDIR
 10
1.0
 20
0.0
 30
0.0
  9
$UCSYDIR
 10
0.0
 20
1.0
 30
0.0
  9
$UCSORTHOREF
  2

  9
$UCSORTHOVIEW
 70
     0
  9
$UCSORGTOP
 10
0.0
 20
0.0
 30
0.0
  9
$UCSORGBOTTOM
 10
0.0
 20
0.0
 30
0.0
  9
$UCSORGLEFT
 10
0.0
 20
0.0
 30
0.0
  9
$UCSORGRIGHT
 10
0.0
 20
0.0
 30
0.0
  9
$UCSORGFRONT
 10
0.0
 20
0.0
 30
0.0
  9
$UCSORGBACK
 10
0.0
 20
0.0
 30
0.0
  9
$PUCSBASE
  2

  9
$PUCSNAME
  2

  9
$PUCSORG
 10
0.0
 20
0.0
 30
0.0
  9
$PUCSXDIR
 10
1.0
 20
0.0
 30
0.0
  9
$PUCSYDIR
 10
0.0
 20
1.0
 30
0.0
  9
$PUCSORTHOREF
  2

  9
$PUCSORTHOVIEW
 70
     0
  9
$PUCSORGTOP
 10
0.0
 20
0.0
 30
0.0
  9
$PUCSORGBOTTOM
 10
0.0
 20
0.0
 30
0.0
  9
$PUCSORGLEFT
 10
0.0
 20
0.0
 30
0.0
  9
$PUCSORGRIGHT
 10
0.0
 20
0.0
 30
0.0
  9
$PUCSORGFRONT
 10
0.0
 20
0.0
 30
0.0
  9
$PUCSORGBACK
 10
0.0
 20
0.0
 30
0.0
  9
$USERI1
 70
     0
  9
$USERI2
 70
     0
  9
$USERI3
 70
     0
  9
$USERI4
 70
     0
  9
$USERI5
 70
     0
  9
$USERR1
 40
0.0
  9
$USERR2
 40
0.0
  9
$USERR3
 40
0.0
  9
$USERR4
 40
0.0
  9
$USERR5
 40
0.0
  9
$WORLDVIEW
 70
     1
  9
$SHADEDGE
 70
     3
  9
$SHADEDIF
 70
    70
  9
$TILEMODE
 70
     1
  9
$MAXACTVP
 70
    64
  9
$PINSBASE
 10
0.0
 20
0.0
 30
0.0
  9
$PLIMCHECK
 70
     0
  9
$PEXTMIN
 10
26.66076962115563
 20
20.31135699206658
 30
-0.0015258207003583
  9
$PEXTMAX
 10
240.039213369355
 20
182.8886381005154
 30
0.0000000349246037
  9
$PLIMMIN
 10
-6.350006103515625
 20
-6.349999904632568
  9
$PLIMMAX
 10
273.0499877929688
 20
209.5499939918518
  9
$UNITMODE
 70
     0
  9
$VISRETAIN
 70
     1
  9
$PLINEGEN
 70
     0
  9
$PSLTSCALE
 70
     1
  9
$TREEDEPTH
 70
  3020
  9
$CMLSTYLE
  2
Standard
  9
$CMLJUST
 70
     0
  9
$CMLSCALE
 40
20.0
  9
$PROXYGRAPHICS
 70
     1
  9
$MEASUREMENT
 70
     1
  9
$CELWEIGHT
370
    -1
  9
$ENDCAPS
280
     0
  9
$JOINSTYLE
280
     0
  9
$LWDISPLAY
290
     0
  9
$INSUNITS
 70
     4
  9
$HYPERLINKBASE
  1

  9
$STYLESHEET
  1

  9
$XEDIT
290
     1
  9
$CEPSNTYPE
380
     0
  9
$PSTYLEMODE
290
     1
  9
$FINGERPRINTGUID
  2
{FDEAD578-A652-11D2-9A35-0060089B3A3F}
  9
$VERSIONGUID
  2
{425DFEEB-0ADE-4F58-94E8-009A1AF589B3}
  9
$EXTNAMES
290
     1
  9
$PSVPSCALE
 40
0.0
  9
$OLESTARTUP
290
     0
  9
$SORTENTS
280
   127
  9
$INDEXCTL
280
     0
  9
$HIDETEXT
280
     1
  9
$XCLIPFRAME
280
     2
  9
$HALOGAP
280
     0
  9
$OBSCOLOR
 70
   257
  9
$OBSLTYPE
280
     0
  9
$INTERSECTIONDISPLAY
280
     0
  9
$INTERSECTIONCOLOR
 70
   257
  9
$DIMASSOC
280
     2
  9
$PROJECTNAME
  1

  9
$CAMERADISPLAY
290
     0
  9
$LENSLENGTH
 40
50.0
  9
$CAMERAHEIGHT
 40
0.0
  9
$STEPSPERSEC
 40
2.0
  9
$STEPSIZE
 40
6.0
  9
$3DDWFPREC
 40
2.0
  9
$PSOLWIDTH
 40
0.25
  9
$PSOLHEIGHT
 40
4.0
  9
$LOFTANG1
 40
1.570796326794896
  9
$LOFTANG2
 40
1.570796326794896
  9
$LOFTMAG1
 40
0.0
  9
$LOFTMAG2
 40
0.0
  9
$LOFTPARAM
 70
     7
  9
$LOFTNORMALS
280
     1
  9
$LATITUDE
 40
37.795
  9
$LONGITUDE
 40
-122.394
  9
$NORTHDIRECTION
 40
0.0
  9
$TIMEZONE
 70
 -8000
  9
$LIGHTGLYPHDISPLAY
280
     1
  9
$TILEMODELIGHTSYNCH
280
     1
  9
$CMATERIAL
347
2DA
  9
$SOLIDHIST
280
     1
  9
$SHOWHIST
280
     1
  9
$DWFFRAME
280
     2
  9
$DGNFRAME
280
     0
  9
$REALWORLDSCALE
290
     1
  9
$INTERFERECOLOR
 62
     1
  9
$INTERFEREOBJVS
345
2FC
  9
$INTERFEREVPVS
346
2F9
  9
$CSHADOW
280
     0
  9
$SHADOWPLANELOCATION
 40
0.0
  0
ENDSEC
  0
SECTION
  2
CLASSES
  0
CLASS
  1
ACDBDICTIONARYWDFLT
  2
AcDbDictionaryWithDefault
  3
ObjectDBX Classes
 90
        0
 91
        1
280
     0
281
     0
  0
CLASS
  1
DICTIONARYVAR
  2
AcDbDictionaryVar
  3
ObjectDBX Classes
 90
        0
 91
        9
280
     0
281
     0
  0
CLASS
  1
MATERIAL
  2
AcDbMaterial
  3
ObjectDBX Classes
 90
     1153
 91
        3
280
     0
281
     0
  0
CLASS
  1
VISUALSTYLE
  2
AcDbVisualStyle
  3
ObjectDBX Classes
 90
     4095
 91
       19
280
     0
281
     0
  0
CLASS
  1
TABLESTYLE
  2
AcDbTableStyle
  3
ObjectDBX Classes
 90
     4095
 91
        1
280
     0
281
     0
  0
CLASS
  1
SCALE
  2
AcDbScale
  3
ObjectDBX Classes
 90
     1153
 91
       17
280
     0
281
     0
  0
CLASS
  1
MLEADERSTYLE
  2
AcDbMLeaderStyle
  3
ACDB_MLEADERSTYLE_CLASS
 90
     4095
 91
        1
280
     0
281
     0
  0
CLASS
  1
CELLSTYLEMAP
  2
AcDbCellStyleMap
  3
ObjectDBX Classes
 90
     1152
 91
        1
280
     0
281
     0
  0
ENDSEC
  0
SECTION
  2
TABLES
  0
TABLE
  2
VPORT
  5
8
330
0
100
AcDbSymbolTable
 70
     1
  0
VPORT
  5
2D7
330
8
100
AcDbSymbolTableRecord
100
AcDbViewportTableRecord
  2
*Active
 70
     0
 10
0.0
 20
0.0
 11
1.0
 21
1.0
 12
74.50828577242424
 22
85.2738906965526
 13
0.0
 23
0.0
 14
10.0
 24
10.0
 15
10.0
 25
10.0
 16
0.0
 26
0.0
 36
1.0
 17
0.0
 27
0.0
 37
0.0
 40
291.0901911619625
 41
1.857142857142857
 42
50.0
 43
0.0
 44
0.0
 50
0.0
 51
0.0
 71
     0
 72
   100
 73
     1
 74
     3
 75
     0
 76
     0
 77
     0
 78
     0
281
     0
 65
     1
110
0.0
120
0.0
130
0.0
111
1.0
121
0.0
131
0.0
112
0.0
122
1.0
132
0.0
 79
     0
146
0.0
348
2F8
 60
     3
 61
     5
292
     1
282
     1
141
0.0
142
0.0
 63
   250
421
  3355443
  0
ENDTAB
  0
TABLE
  2
LTYPE
  5
5
330
0
100
AcDbSymbolTable
 70
     4
  0
LTYPE
  5
14
330
5
100
AcDbSymbolTableRecord
100
AcDbLinetypeTableRecord
  2
ByBlock
 70
     0
  3

 72
    65
 73
     0
 40
0.0
  0
LTYPE
  5
15
330
5
100
AcDbSymbolTableRecord
100
AcDbLinetypeTableRecord
  2
ByLayer
 70
     0
  3

 72
    65
 73
     0
 40
0.0
  0
LTYPE
  5
16
330
5
100
AcDbSymbolTableRecord
100
AcDbLinetypeTableRecord
  2
Continuous
 70
     0
  3
Solid line
 72
    65
 73
     0
 40
0.0
  0
LTYPE
  5
8D
330
5
100
AcDbSymbolTableRecord
100
AcDbLinetypeTableRecord
  2
CENTER
 70
     0
  3
Center ____ _ ____ _ ____ _ ____ _ ____ _ ____
 72
    65
 73
     4
 40
50.8
 49
31.75
 74
     0
 49
-6.349999999999999
 74
     0
 49
6.349999999999999
 74
     0
 49
-6.349999999999999
 74
     0
  0
LTYPE
  5
8E
330
5
100
AcDbSymbolTableRecord
100
AcDbLinetypeTableRecord
  2
PHANTOM
 70
     0
  3
Phantom ______  __  __  ______  __  __  ______
 72
    65
 73
     6
 40
63.5
 49
31.75
 74
     0
 49
-6.349999999999999
 74
     0
 49
6.349999999999999
 74
     0
 49
-6.349999999999999
 74
     0
 49
6.349999999999999
 74
     0
 49
-6.349999999999999
 74
     0
  0
LTYPE
  5
2CC
330
5
100
AcDbSymbolTableRecord
100
AcDbLinetypeTableRecord
  2
DASHED
 70
     0
  3
Dashed __ __ __ __ __ __ __ __ __ __ __ __ __ _
 72
    65
 73
     2
 40
19.05
 49
12.7
 74
     0
 49
-6.349999999999999
 74
     0
  0
ENDTAB
  0
TABLE
  2
LAYER
  5
2
102
{ACAD_XDICTIONARY
360
97
102
}
330
0
100
AcDbSymbolTable
 70
     3
  0
LAYER
  5
10
102
{ACAD_XDICTIONARY
360
31F
102
}
330
2
100
AcDbSymbolTableRecord
100
AcDbLayerTableRecord
  2
0
 70
     0
 62
     7
  6
Continuous
370
    -3
390
F
347
2EA
  0
LAYER
  5
8F
102
{ACAD_XDICTIONARY
360
90
102
}
330
2
100
AcDbSymbolTableRecord
100
AcDbLayerTableRecord
  2
2
 70
     0
 62
     2
  6
PHANTOM
370
    -3
390
F
347
2EA
1001
AcAecLayerStandard
1000

1000

1001
ACCMTRANSPARENCY
1071
        0
  0
LAYER
  5
92
102
{ACAD_XDICTIONARY
360
93
102
}
330
2
100
AcDbSymbolTableRecord
100
AcDbLayerTableRecord
  2
1
 70
     0
 62
     5
  6
CENTER
370
    -3
390
F
347
2EA
1001
AcAecLayerStandard
1000

1000

1001
ACCMTRANSPARENCY
1071
        0
  0
ENDTAB
  0
TABLE
  2
STYLE
  5
3
330
0
100
AcDbSymbolTable
 70
     1
  0
STYLE
  5
11
330
3
100
AcDbSymbolTableRecord
100
AcDbTextStyleTableRecord
  2
Standard
 70
     0
 40
0.0
 41
1.0
 50
0.0
 71
     0
 42
2.5
  3
txt
  4

  0
ENDTAB
  0
TABLE
  2
VIEW
  5
6
330
0
100
AcDbSymbolTable
 70
     0
  0
ENDTAB
  0
TABLE
  2
UCS
  5
7
330
0
100
AcDbSymbolTable
 70
     0
  0
ENDTAB
  0
TABLE
  2
APPID
  5
9
330
0
100
AcDbSymbolTable
 70
     3
  0
APPID
  5
12
330
9
100
AcDbSymbolTableRecord
100
AcDbRegAppTableRecord
  2
ACAD
 70
     0
  0
APPID
  5
95
330
9
100
AcDbSymbolTableRecord
100
AcDbRegAppTableRecord
  2
AcAecLayerStandard
 70
     0
  0
APPID
  5
96
330
9
100
AcDbSymbolTableRecord
100
AcDbRegAppTableRecord
  2
ACCMTRANSPARENCY
 70
     0
  0
ENDTAB
  0
TABLE
  2
DIMSTYLE
  5
A
330
0
100
AcDbSymbolTable
 70
     1
100
AcDbDimStyleTable
 71
     0
  0
DIMSTYLE
105
27
330
A
100
AcDbSymbolTableRecord
100
AcDbDimStyleTableRecord
  2
ISO-25
 70
     0
 41
2.5
 42
0.625
 43
3.75
 44
1.25
 73
     0
 74
     0
 77
     1
 78
     8
140
2.5
141
2.5
143
0.03937007874016
147
0.625
171
     3
172
     1
271
     2
272
     2
274
     3
278
    44
283
     0
284
     8
340
11
  0
ENDTAB
  0
TABLE
  2
BLOCK_RECORD
  5
1
330
0
100
AcDbSymbolTable
 70
     1
  0
BLOCK_RECORD
  5
1F
330
1
100
AcDbSymbolTableRecord
100
AcDbBlockTableRecord
  2
*Model_Space
340
22
 70
     0
280
     1
281
     0
  0
BLOCK_RECORD
  5
55
330
1
100
AcDbSymbolTableRecord
100
AcDbBlockTableRecord
  2
*Paper_Space
340
56
 70
     0
280
     1
281
     0
  0
BLOCK_RECORD
  5
50
330
1
100
AcDbSymbolTableRecord
100
AcDbBlockTableRecord
  2
*Paper_Space0
340
51
 70
     0
280
     1
281
     0
  0
ENDTAB
  0
ENDSEC
  0
SECTION
  2
BLOCKS
  0
BLOCK
  5
20
330
1F
100
AcDbEntity
  8
0
100
AcDbBlockBegin
  2
*Model_Space
 70
     0
 10
0.0
 20
0.0
 30
0.0
  3
*Model_Space
  1

  0
ENDBLK
  5
21
330
1F
100
AcDbEntity
  8
0
100
AcDbBlockEnd
  0
BLOCK
  5
57
330
55
100
AcDbEntity
 67
     1
  8
0
100
AcDbBlockBegin
  2
*Paper_Space
 70
     0
 10
0.0
 20
0.0
 30
0.0
  3
*Paper_Space
  1

  0
ENDBLK
  5
58
330
55
100
AcDbEntity
 67
     1
  8
0
100
AcDbBlockEnd
  0
BLOCK
  5
52
330
50
100
AcDbEntity
 67
     1
  8
0
100
AcDbBlockBegin
  2
*Paper_Space0
 70
     0
 10
0.0
 20
0.0
 30
0.0
  3
*Paper_Space0
  1

  0
VIEWPORT
  5
6B
330
50
100
AcDbEntity
 67
     1
  8
0
100
AcDbViewport
 10
133.3499908447266
 20
101.5999970436096
 30
0.0
 40
381.3957395593835
 41
218.2856291881582
 68
     0
 69
     0
 12
133.3499908447266
 22
101.5999970436096
 13
0.0
 23
0.0
 14
10.0
 24
10.0
 15
10.0
 25
10.0
 16
0.0
 26
0.0
 36
1.0
 17
0.0
 27
0.0
 37
0.0
 42
50.0
 43
0.0
 44
0.0
 45
218.2856291881582
 50
0.0
 51
0.0
 72
   100
 90
    32800
  1

281
     0
 71
     1
 74
     0
110
0.0
120
0.0
130
0.0
111
1.0
121
0.0
131
0.0
112
0.0
122
1.0
132
0.0
 79
     0
146
0.0
170
     0
 61
     5
348
2F8
292
     1
282
     1
141
0.0
142
0.0
 63
   250
421
  3355443
  0
VIEWPORT
  5
6D
330
50
100
AcDbEntity
 67
     1
  8
0
100
AcDbViewport
 10
133.3499939441681
 20
101.5999939441681
 30
0.0
 40
213.3599903106689
 41
162.5599903106689
 68
     0
 69
     0
 12
210.0
 22
148.5
 13
0.0
 23
0.0
 14
10.0
 24
10.0
 15
10.0
 25
10.0
 16
0.0
 26
0.0
 36
1.0
 17
0.0
 27
0.0
 37
0.0
 42
50.0
 43
0.0
 44
0.0
 45
324.0677920111345
 50
0.0
 51
0.0
 72
   100
 90
    32864
  1

281
     0
 71
     1
 74
     0
110
0.0
120
0.0
130
0.0
111
1.0
121
0.0
131
0.0
112
0.0
122
1.0
132
0.0
 79
     0
146
0.0
170
     0
 61
     5
348
2F8
292
     1
282
     1
141
0.0
142
0.0
 63
   250
421
  3355443
  0
ENDBLK
  5
53
330
50
100
AcDbEntity
 67
     1
  8
0
100
AcDbBlockEnd
  0
ENDSEC
  0
SECTION
  2
ENTITIES
  0
ARC
  5
1B1
330
1F
100
AcDbEntity
  8
2
100
AcDbCircle
 10
41.54998799999975
 20
-15.57976999999982
 30
0.0
 40
3.0
100
AcDbArc
 50
0.0
 51
88.00000000000938
  0
LINE
  5
1B2
330
1F
100
AcDbEntity
  8
1
100
AcDbLine
 10
64.12670899999989
 20
-22.0
 30
0.0
 11
42.22975772433483
 21
-22.0
 31
0.0
  0
LINE
  5
1B3
330
1F
100
AcDbEntity
  8
2
100
AcDbLine
 10
-44.54998800000021
 20
-41.79139326887713
 30
0.0
 11
-44.54998800000021
 21
-15.57977000000005
 31
0.0
  0
LINE
  5
1B4
330
1F
100
AcDbEntity
  8
1
100
AcDbLine
 10
0.0
 20
-59.37519997314211
 30
0.0
 11
0.0
 21
55.29257987134769
 31
0.0
  0
LINE
  5
1B5
330
1F
100
AcDbEntity
  8
2
100
AcDbLine
 10
-25.0
 20
-1.0
 30
0.0
 11
25.0
 21
-1.0
 31
0.0
  0
LINE
  5
1B6
330
1F
100
AcDbEntity
  8
2
100
AcDbLine
 10
-25.0
 20
-6.0
 30
0.0
 11
25.0
 21
-6.0
 31
0.0
  0
LINE
  5
1B7
330
1F
100
AcDbEntity
  8
2
100
AcDbLine
 10
-24.0
 20
0.0
 30
0.0
 11
24.00004399999989
 21
0.0
 31
0.0
  0
LINE
  5
1B8
330
1F
100
AcDbEntity
  8
2
100
AcDbLine
 10
-24.67054700000017
 20
-11.72893999999996
 30
0.0
 11
24.67053200000009
 21
-11.72893999999996
 31
0.0
  0
LINE
  5
1B9
330
1F
100
AcDbEntity
  8
2
100
AcDbLine
 10
-24.0
 20
-7.0
 30
0.0
 11
23.99997100000019
 21
-7.0
 31
0.0
  0
ARC
  5
1BA
330
1F
100
AcDbEntity
  8
2
100
AcDbCircle
 10
-26.0
 20
-11.0342999999998
 30
0.0
 40
1.0
100
AcDbArc
 50
271.9999999999906
 51
0.0
  0
LINE
  5
1BB
330
1F
100
AcDbEntity
  8
2
100
AcDbLine
 10
-25.96509300000025
 20
-12.03367000000003
 30
0.0
 11
-41.65468700000019
 21
-12.58157000000005
 31
0.0
  0
ARC
  5
1BC
330
1F
100
AcDbEntity
  8
2
100
AcDbCircle
 10
-41.54998800000021
 20
-15.57976999999982
 30
0.0
 40
3.0
100
AcDbArc
 50
91.99999800000711
 51
180.0000100000009
  0
LINE
  5
1BD
330
1F
100
AcDbEntity
  8
2
100
AcDbLine
 10
-25.0
 20
-11.03430000000003
 30
0.0
 11
-25.0
 21
-8.0
 31
0.0
  0
LINE
  5
1BE
330
1F
100
AcDbEntity
  8
2
100
AcDbLine
 10
-24.99999600000001
 20
-0.9999699999998483
 30
0.0
 11
-24.00001599999996
 21
0.0000099999999748
 31
0.0
  0
LINE
  5
1BF
330
1F
100
AcDbEntity
  8
2
100
AcDbLine
 10
-25.0
 20
-1.0
 30
0.0
 11
-25.0
 21
-6.0
 31
0.0
  0
ARC
  5
1C0
330
1F
100
AcDbEntity
  8
2
100
AcDbCircle
 10
-24.0
 20
-8.0
 30
0.0
 40
1.0
100
AcDbArc
 50
90.00000899999308
 51
180.0000100000009
  0
LINE
  5
1C1
330
1F
100
AcDbEntity
  8
2
100
AcDbLine
 10
-24.00002700000005
 20
-7.000009999999974
 30
0.0
 11
-25.00002799999993
 21
-6.000009999999974
 31
0.0
  0
LINE
  5
1C2
330
1F
100
AcDbEntity
  8
2
100
AcDbLine
 10
25.0
 20
-11.03430000000003
 30
0.0
 11
25.0
 21
-8.0
 31
0.0
  0
LINE
  5
1C3
330
1F
100
AcDbEntity
  8
2
100
AcDbLine
 10
24.00001400000019
 20
0.0000300000001516
 30
0.0
 11
25.00001500000008
 21
-0.9999699999998483
 31
0.0
  0
ARC
  5
1C4
330
1F
100
AcDbEntity
  8
2
100
AcDbCircle
 10
24.0
 20
-8.0
 30
0.0
 40
1.0
100
AcDbArc
 50
0.0
 51
90.00000299999769
  0
LINE
  5
1C5
330
1F
100
AcDbEntity
  8
2
100
AcDbLine
 10
24.99997200000007
 20
-6.0
 30
0.0
 11
23.99999200000002
 21
-6.99998000000005
 31
0.0
  0
LINE
  5
1C6
330
1F
100
AcDbEntity
  8
2
100
AcDbLine
 10
25.0
 20
-1.0
 30
0.0
 11
25.0
 21
-6.0
 31
0.0
  0
LINE
  5
1C7
330
1F
100
AcDbEntity
  8
2
100
AcDbLine
 10
25.96510600000011
 20
-12.03368
 30
0.0
 11
41.65470199999981
 21
-12.58157000000005
 31
0.0
  0
ARC
  5
1C8
330
1F
100
AcDbEntity
  8
2
100
AcDbCircle
 10
26.0
 20
-11.0342999999998
 30
0.0
 40
1.0
100
AcDbArc
 50
180.0000100000009
 51
268.0000000000094
  0
LINE
  5
1C9
330
1F
100
AcDbEntity
  8
2
100
AcDbLine
 10
44.54998799999976
 20
-41.79139326887713
 30
0.0
 11
44.54998799999976
 21
-15.57977000000005
 31
0.0
  0
LINE
  5
1CA
330
1F
100
AcDbEntity
  8
2
100
AcDbLine
 10
44.98608400000011
 20
-17.25
 30
0.0
 11
44.98608400000011
 21
-26.75
 31
0.0
  0
LINE
  5
1CB
330
1F
100
AcDbEntity
  8
2
100
AcDbLine
 10
48.04998799999975
 20
-17.0
 30
0.0
 11
48.04998799999975
 21
-27.0
 31
0.0
  0
LINE
  5
1CC
330
1F
100
AcDbEntity
  8
2
100
AcDbLine
 10
60.54998799999953
 20
-17.0
 30
0.0
 11
60.54998799999953
 21
-27.0
 31
0.0
  0
LINE
  5
1CD
330
1F
100
AcDbEntity
  8
2
100
AcDbLine
 10
60.54998799999953
 20
-17.0
 30
0.0
 11
48.04998799999975
 21
-17.0
 31
0.0
  0
LINE
  5
1CE
330
1F
100
AcDbEntity
  8
2
100
AcDbLine
 10
48.04998799999975
 20
-17.25
 30
0.0
 11
44.54998799999953
 21
-17.25
 31
0.0
  0
LINE
  5
1CF
330
1F
100
AcDbEntity
  8
2
100
AcDbLine
 10
60.54998799999953
 20
-27.0
 30
0.0
 11
48.04998799999975
 21
-27.0
 31
0.0
  0
LINE
  5
1D0
330
1F
100
AcDbEntity
  8
2
100
AcDbLine
 10
48.04998799999975
 20
-26.75
 30
0.0
 11
44.54998799999953
 21
-26.75
 31
0.0
  0
LINE
  5
1D1
330
1F
100
AcDbEntity
  8
2
100
AcDbLine
 10
-22.00000013411068
 20
3.299999999999954
 30
0.0
 11
-12.99999986588977
 21
3.299999999999954
 31
0.0
  0
LINE
  5
1D2
330
1F
100
AcDbEntity
  8
1
100
AcDbLine
 10
-17.5
 20
8.860066666666625
 30
0.0
 11
-17.5
 21
-3.0
 31
0.0
  0
LINE
  5
1D3
330
1F
100
AcDbEntity
  8
2
100
AcDbLine
 10
4.249999865889549
 20
3.299999999999954
 30
0.0
 11
13.25000013411045
 21
3.299999999999954
 31
0.0
  0
LINE
  5
1D4
330
1F
100
AcDbEntity
  8
1
100
AcDbLine
 10
8.75
 20
8.860066666666625
 30
0.0
 11
8.75
 21
-3.0
 31
0.0
  0
ARC
  5
1D5
330
1F
100
AcDbEntity
  8
2
100
AcDbCircle
 10
-17.50000000000023
 20
-4.325000227242753
 30
0.0
 40
10.62500031664968
100
AcDbArc
 50
68.67631584023621
 51
111.3236891687108
  0
LINE
  5
1D6
330
1F
100
AcDbEntity
  8
2
100
AcDbLine
 10
-22.00000013411068
 20
4.641081659229939
 30
0.0
 11
-22.00000013411091
 21
2.0
 31
0.0
  0
ARC
  5
1D7
330
1F
100
AcDbEntity
  8
2
100
AcDbCircle
 10
-21.00000010430836
 20
4.641081659229939
 30
0.0
 40
1.000000029802321
100
AcDbArc
 50
111.3236891687108
 51
180.0000050089634
  0
LINE
  5
1D8
330
1F
100
AcDbEntity
  8
2
100
AcDbLine
 10
-12.99999986588977
 20
4.641081659229939
 30
0.0
 11
-12.99999986588977
 21
2.0
 31
0.0
  0
ARC
  5
1D9
330
1F
100
AcDbEntity
  8
2
100
AcDbCircle
 10
-13.9999998956921
 20
4.641081659229939
 30
0.0
 40
1.000000029802321
100
AcDbArc
 50
0.0000025044687019
 51
68.67631584023621
  0
ARC
  5
1DA
330
1F
100
AcDbEntity
  8
2
100
AcDbCircle
 10
8.749999999999772
 20
-4.325000227242753
 30
0.0
 40
10.62500031664968
100
AcDbArc
 50
68.67631584023621
 51
111.3236891687108
  0
LINE
  5
1DB
330
1F
100
AcDbEntity
  8
2
100
AcDbLine
 10
4.249999865889321
 20
4.641081659229939
 30
0.0
 11
4.249999865889321
 21
2.0
 31
0.0
  0
ARC
  5
1DC
330
1F
100
AcDbEntity
  8
2
100
AcDbCircle
 10
5.249999895691644
 20
4.641081659229939
 30
0.0
 40
1.000000029802321
100
AcDbArc
 50
111.3236891687108
 51
180.0000050089634
  0
LINE
  5
1DD
330
1F
100
AcDbEntity
  8
2
100
AcDbLine
 10
13.25000013411022
 20
4.641081659229939
 30
0.0
 11
13.25000013410999
 21
2.0
 31
0.0
  0
ARC
  5
1DE
330
1F
100
AcDbEntity
  8
2
100
AcDbCircle
 10
12.2500001043079
 20
4.641081659229939
 30
0.0
 40
1.000000029802321
100
AcDbArc
 50
0.0000025044687019
 51
68.67631584023621
  0
LINE
  5
1DF
330
1F
100
AcDbEntity
  8
0
100
AcDbLine
 10
-24.99997800000006
 20
0.0
 30
0.0
 11
29.00002199999994
 21
0.0
 31
0.0
  0
LINE
  5
1E0
330
1F
100
AcDbEntity
  8
0
100
AcDbLine
 10
-24.99997800000006
 20
2.0
 30
0.0
 11
29.00002199999994
 21
2.0
 31
0.0
  0
ARC
  5
1E1
330
1F
100
AcDbEntity
  8
0
100
AcDbCircle
 10
29.00002199999994
 20
3.0
 30
0.0
 40
1.0
100
AcDbArc
 50
270.0
 51
0.0
  0
ARC
  5
1E2
330
1F
100
AcDbEntity
  8
0
100
AcDbCircle
 10
29.00002199999994
 20
3.0
 30
0.0
 40
3.0
100
AcDbArc
 50
270.0
 51
0.0
  0
LINE
  5
1E3
330
1F
100
AcDbEntity
  8
0
100
AcDbLine
 10
30.00002199999995
 20
76.0
 30
0.0
 11
32.00002199999995
 21
76.0
 31
0.0
  0
LINE
  5
1E4
330
1F
100
AcDbEntity
  8
0
100
AcDbLine
 10
-24.99997800000006
 20
0.0
 30
0.0
 11
-24.99997800000006
 21
2.0
 31
0.0
  0
LINE
  5
1E5
330
1F
100
AcDbEntity
  8
0
100
AcDbLine
 10
30.00002199999995
 20
3.0
 30
0.0
 11
30.00002199999995
 21
76.0
 31
0.0
  0
LINE
  5
1E6
330
1F
100
AcDbEntity
  8
0
100
AcDbLine
 10
32.00002199999995
 20
3.0
 30
0.0
 11
32.00002199999995
 21
75.99999999999997
 31
0.0
  0
LINE
  5
1E7
330
1F
100
AcDbEntity
  8
1
100
AcDbLine
 10
-62.3589472007277
 20
157.2456680721703
 30
0.0
 11
64.12670899999989
 21
157.2456680721703
 31
0.0
  0
LINE
  5
1E8
330
1F
100
AcDbEntity
  8
0
100
AcDbLine
 10
20.00000000000023
 20
142.2456680721703
 30
0.0
 11
32.00002199999995
 21
142.2456680721703
 31
0.0
  0
LINE
  5
1E9
330
1F
100
AcDbEntity
  8
0
100
AcDbLine
 10
20.00000000000023
 20
172.2456680721703
 30
0.0
 11
32.00002199999995
 21
172.2456680721703
 31
0.0
  0
LINE
  5
1EA
330
1F
100
AcDbEntity
  8
1
100
AcDbLine
 10
0.0
 20
98.90700651234135
 30
0.0
 11
0.0
 21
215.5843296319994
 31
0.0
  0
ARC
  5
1EB
330
1F
100
AcDbEntity
  8
0
100
AcDbCircle
 10
0.0
 20
157.2456680721703
 30
0.0
 40
25.0
100
AcDbArc
 50
36.86989764584565
 51
323.1301023541544
  0
LINE
  5
1EC
330
1F
100
AcDbEntity
  8
0
100
AcDbLine
 10
32.00002199999995
 20
172.2456680721703
 30
0.0
 11
32.00002199999995
 21
142.2456680721703
 31
0.0
  0
LINE
  5
1ED
330
1F
100
AcDbEntity
  8
0
100
AcDbLine
 10
30.00002199999995
 20
142.2456680721703
 30
0.0
 11
30.00002199999995
 21
172.2456680721703
 31
0.0
  0
CIRCLE
  5
1EE
330
1F
100
AcDbEntity
  8
2
100
AcDbCircle
 10
0.0
 20
157.2456680721703
 30
0.0
 40
44.55
  0
CIRCLE
  5
1EF
330
1F
100
AcDbEntity
  8
1
100
AcDbCircle
 10
0.0
 20
157.2456680721703
 30
0.0
 40
17.5
  0
CIRCLE
  5
1F0
330
1F
100
AcDbEntity
  8
0
100
AcDbCircle
 10
0.0
 20
157.2456680721703
 30
0.0
 40
9.0
  0
CIRCLE
  5
1F1
330
1F
100
AcDbEntity
  8
0
100
AcDbCircle
 10
-17.5
 20
157.2456680721703
 30
0.0
 40
2.75
  0
CIRCLE
  5
1F2
330
1F
100
AcDbEntity
  8
0
100
AcDbCircle
 10
8.75
 20
142.0902235059426
 30
0.0
 40
2.749999999999999
  0
LINE
  5
1F3
330
1F
100
AcDbEntity
  8
1
100
AcDbLine
 10
6.441314186527051
 20
146.0889846335911
 30
0.0
 11
11.05868581347272
 21
138.0914623782943
 31
0.0
  0
CIRCLE
  5
1F4
330
1F
100
AcDbEntity
  8
0
100
AcDbCircle
 10
8.75
 20
172.4011126383981
 30
0.0
 40
2.749999999999999
  0
LINE
  5
1F5
330
1F
100
AcDbEntity
  8
1
100
AcDbLine
 10
6.441314186527051
 20
168.4023515107496
 30
0.0
 11
11.05868581347272
 21
176.3998737660464
 31
0.0
  0
LINE
  5
1F6
330
1F
100
AcDbEntity
  8
0
100
AcDbLine
 10
20.0
 20
2.0
 30
0.0
 11
20.0
 21
0.0
 31
0.0
  0
LINE
  5
1F7
330
1F
100
AcDbEntity
  8
1
100
AcDbLine
 10
64.12670899999989
 20
157.2783666941183
 30
0.0
 11
42.22975772433483
 21
157.2783666941183
 31
0.0
  0
LINE
  5
1F8
330
1F
100
AcDbEntity
  8
2
100
AcDbLine
 10
44.98608400000057
 20
162.0283666941183
 30
0.0
 11
44.98608400000057
 21
152.5283666941183
 31
0.0
  0
LINE
  5
1F9
330
1F
100
AcDbEntity
  8
2
100
AcDbLine
 10
48.04998799999975
 20
162.2783666941183
 30
0.0
 11
48.04998799999975
 21
152.2783666941183
 31
0.0
  0
LINE
  5
1FA
330
1F
100
AcDbEntity
  8
2
100
AcDbLine
 10
60.54998799999953
 20
162.2783666941183
 30
0.0
 11
60.54998799999953
 21
152.2783666941183
 31
0.0
  0
LINE
  5
1FB
330
1F
100
AcDbEntity
  8
2
100
AcDbLine
 10
60.54998799999953
 20
162.2783666941183
 30
0.0
 11
48.04998799999975
 21
162.2783666941183
 31
0.0
  0
LINE
  5
1FC
330
1F
100
AcDbEntity
  8
2
100
AcDbLine
 10
48.04998799999975
 20
162.0283666941183
 30
0.0
 11
44.29253090411089
 21
162.0283666941183
 31
0.0
  0
LINE
  5
1FD
330
1F
100
AcDbEntity
  8
2
100
AcDbLine
 10
60.54998799999953
 20
152.2783666941183
 30
0.0
 11
48.04998799999975
 21
152.2783666941183
 31
0.0
  0
LINE
  5
1FE
330
1F
100
AcDbEntity
  8
2
100
AcDbLine
 10
48.04998799999975
 20
152.5283666941183
 30
0.0
 11
44.29954365124581
 21
152.5283666941183
 31
0.0
  0
ARC
  5
1FF
330
1F
100
AcDbEntity
  8
2
100
AcDbCircle
 10
207.7688463386128
 20
-15.57976999999982
 30
0.0
 40
3.0
100
AcDbArc
 50
0.0
 51
88.00000000000938
  0
LINE
  5
200
330
1F
100
AcDbEntity
  8
1
100
AcDbLine
 10
177.1673339764454
 20
-22.0
 30
0.0
 11
155.2703827007806
 21
-22.0
 31
0.0
  0
LINE
  5
201
330
1F
100
AcDbEntity
  8
2
100
AcDbLine
 10
121.6688703386132
 20
-41.79139326887713
 30
0.0
 11
121.6688703386132
 21
-15.57977000000005
 31
0.0
  0
LINE
  5
202
330
1F
100
AcDbEntity
  8
1
100
AcDbLine
 10
166.218858338613
 20
-59.37519997314211
 30
0.0
 11
166.218858338613
 21
82.21223253665039
 31
0.0
  0
LINE
  5
203
330
1F
100
AcDbEntity
  8
0
100
AcDbLine
 10
181.218858338613
 20
0.0
 30
0.0
 11
181.218858338613
 21
72.99999999999997
 31
0.0
  0
ARC
  5
204
330
1F
100
AcDbEntity
  8
0
100
AcDbCircle
 10
178.218858338613
 20
72.99999999999997
 30
0.0
 40
3.0
100
AcDbArc
 50
0.0
 51
90.0
  0
LINE
  5
205
330
1F
100
AcDbEntity
  8
0
100
AcDbLine
 10
151.218858338613
 20
0.0
 30
0.0
 11
151.218858338613
 21
72.99999999999997
 31
0.0
  0
ARC
  5
206
330
1F
100
AcDbEntity
  8
0
100
AcDbCircle
 10
154.218858338613
 20
72.99999999999997
 30
0.0
 40
3.0
100
AcDbArc
 50
90.0
 51
180.0
  0
LINE
  5
207
330
1F
100
AcDbEntity
  8
2
100
AcDbLine
 10
141.218858338613
 20
-1.0
 30
0.0
 11
191.218858338613
 21
-1.0
 31
0.0
  0
LINE
  5
208
330
1F
100
AcDbEntity
  8
2
100
AcDbLine
 10
141.218858338613
 20
-6.0
 30
0.0
 11
191.218858338613
 21
-6.0
 31
0.0
  0
LINE
  5
209
330
1F
100
AcDbEntity
  8
2
100
AcDbLine
 10
142.218858338613
 20
0.0
 30
0.0
 11
190.2189023386133
 21
0.0
 31
0.0
  0
LINE
  5
20A
330
1F
100
AcDbEntity
  8
2
100
AcDbLine
 10
141.5483113386133
 20
-11.72893999999996
 30
0.0
 11
190.8893903386131
 21
-11.72893999999996
 31
0.0
  0
LINE
  5
20B
330
1F
100
AcDbEntity
  8
2
100
AcDbLine
 10
142.218858338613
 20
-7.0
 30
0.0
 11
190.2188293386132
 21
-7.0
 31
0.0
  0
ARC
  5
20C
330
1F
100
AcDbEntity
  8
2
100
AcDbCircle
 10
140.218858338613
 20
-11.0342999999998
 30
0.0
 40
1.0
100
AcDbArc
 50
271.9999999999906
 51
0.0
  0
LINE
  5
20D
330
1F
100
AcDbEntity
  8
2
100
AcDbLine
 10
140.2537653386132
 20
-12.03367000000003
 30
0.0
 11
124.5641713386128
 21
-12.58157000000005
 31
0.0
  0
ARC
  5
20E
330
1F
100
AcDbEntity
  8
2
100
AcDbCircle
 10
124.6688703386132
 20
-15.57976999999982
 30
0.0
 40
3.0
100
AcDbArc
 50
91.99999800000711
 51
180.0000100000009
  0
LINE
  5
20F
330
1F
100
AcDbEntity
  8
2
100
AcDbLine
 10
141.218858338613
 20
-11.03430000000003
 30
0.0
 11
141.218858338613
 21
-8.0
 31
0.0
  0
LINE
  5
210
330
1F
100
AcDbEntity
  8
2
100
AcDbLine
 10
141.2188623386134
 20
-0.9999699999998483
 30
0.0
 11
142.218842338613
 21
0.0000099999999748
 31
0.0
  0
LINE
  5
211
330
1F
100
AcDbEntity
  8
2
100
AcDbLine
 10
141.218858338613
 20
-1.0
 30
0.0
 11
141.218858338613
 21
-6.0
 31
0.0
  0
ARC
  5
212
330
1F
100
AcDbEntity
  8
2
100
AcDbCircle
 10
142.218858338613
 20
-8.0
 30
0.0
 40
1.0
100
AcDbArc
 50
90.00000899999308
 51
180.0000100000009
  0
LINE
  5
213
330
1F
100
AcDbEntity
  8
2
100
AcDbLine
 10
142.2188313386129
 20
-7.000009999999974
 30
0.0
 11
141.2188303386135
 21
-6.000009999999974
 31
0.0
  0
LINE
  5
214
330
1F
100
AcDbEntity
  8
2
100
AcDbLine
 10
191.218858338613
 20
-11.03430000000003
 30
0.0
 11
191.218858338613
 21
-8.0
 31
0.0
  0
LINE
  5
215
330
1F
100
AcDbEntity
  8
2
100
AcDbLine
 10
190.2188723386132
 20
0.0000300000001516
 30
0.0
 11
191.2188733386135
 21
-0.9999699999998483
 31
0.0
  0
ARC
  5
216
330
1F
100
AcDbEntity
  8
2
100
AcDbCircle
 10
190.218858338613
 20
-8.0
 30
0.0
 40
1.0
100
AcDbArc
 50
0.0
 51
90.00000299999769
  0
LINE
  5
217
330
1F
100
AcDbEntity
  8
2
100
AcDbLine
 10
191.2188303386135
 20
-6.0
 30
0.0
 11
190.218850338613
 21
-6.99998000000005
 31
0.0
  0
LINE
  5
218
330
1F
100
AcDbEntity
  8
2
100
AcDbLine
 10
191.218858338613
 20
-1.0
 30
0.0
 11
191.218858338613
 21
-6.0
 31
0.0
  0
LINE
  5
219
330
1F
100
AcDbEntity
  8
2
100
AcDbLine
 10
192.1839643386135
 20
-12.03368
 30
0.0
 11
207.8735603386128
 21
-12.58157000000005
 31
0.0
  0
ARC
  5
21A
330
1F
100
AcDbEntity
  8
2
100
AcDbCircle
 10
192.218858338613
 20
-11.0342999999998
 30
0.0
 40
1.0
100
AcDbArc
 50
180.0000100000009
 51
268.0000000000094
  0
LINE
  5
21B
330
1F
100
AcDbEntity
  8
2
100
AcDbLine
 10
210.7688463386128
 20
-41.79139326887713
 30
0.0
 11
210.7688463386128
 21
-15.57977000000005
 31
0.0
  0
LINE
  5
21C
330
1F
100
AcDbEntity
  8
0
100
AcDbLine
 10
141.2188803386132
 20
0.0
 30
0.0
 11
191.2188363386128
 21
0.0
 31
0.0
  0
LINE
  5
21D
330
1F
100
AcDbEntity
  8
0
100
AcDbLine
 10
141.2188803386132
 20
2.0
 30
0.0
 11
151.218858338613
 21
2.0
 31
0.0
  0
LINE
  5
21E
330
1F
100
AcDbEntity
  8
1
100
AcDbLine
 10
156.959705217693
 20
16.0
 30
0.0
 11
175.478011459533
 21
16.0
 31
0.0
  0
LINE
  5
21F
330
1F
100
AcDbEntity
  8
1
100
AcDbLine
 10
156.959705217693
 20
58.0
 30
0.0
 11
175.478011459533
 21
58.0
 31
0.0
  0
LINE
  5
220
330
1F
100
AcDbEntity
  8
0
100
AcDbLine
 10
181.2188583386125
 20
2.0
 30
0.0
 11
191.2188363386128
 21
2.0
 31
0.0
  0
LINE
  5
221
330
1F
100
AcDbEntity
  8
0
100
AcDbLine
 10
141.2188803386132
 20
0.0
 30
0.0
 11
141.2188803386132
 21
2.0
 31
0.0
  0
LINE
  5
222
330
1F
100
AcDbEntity
  8
0
100
AcDbLine
 10
154.218858338613
 20
75.99999999999997
 30
0.0
 11
178.218858338613
 21
75.99999999999997
 31
0.0
  0
LINE
  5
223
330
1F
100
AcDbEntity
  8
0
100
AcDbLine
 10
191.2188363386128
 20
0.0
 30
0.0
 11
191.2188363386128
 21
2.0
 31
0.0
  0
ARC
  5
224
330
1F
100
AcDbEntity
  8
0
100
AcDbCircle
 10
166.218858338613
 20
58.0
 30
0.0
 40
6.25
100
AcDbArc
 50
0.0
 51
180.0
  0
ARC
  5
225
330
1F
100
AcDbEntity
  8
0
100
AcDbCircle
 10
166.218858338613
 20
16.0
 30
0.0
 40
6.25
100
AcDbArc
 50
180.0
 51
0.0
  0
LINE
  5
226
330
1F
100
AcDbEntity
  8
0
100
AcDbLine
 10
159.968858338613
 20
58.0
 30
0.0
 11
159.968858338613
 21
16.0
 31
0.0
  0
LINE
  5
227
330
1F
100
AcDbEntity
  8
0
100
AcDbLine
 10
172.468858338613
 20
58.0
 30
0.0
 11
172.468858338613
 21
16.0
 31
0.0
  0
LWPOLYLINE
  5
228
330
1F
100
AcDbEntity
  8
2
100
AcDbPolyline
 90
       23
 70
     0
 43
0.0
 10
26.75921137855471
 20
27.62909325142513
 10
26.71635663450138
 20
27.55399821364915
 10
26.63481524497024
 20
27.40584154891457
 10
26.5586948187231
 20
27.26020418056089
 10
26.52262024904962
 20
27.18826053027249
 10
26.48784629456736
 20
27.11686416852152
 10
26.42213664516771
 20
26.97560809825805
 10
26.36144808724771
 20
26.83623000430757
 10
26.30567740632682
 20
26.69853035801935
 10
26.25473538806068
 20
26.56231510892346
 10
26.20854634973307
 20
26.42739476999279
 10
26.18721415346068
 20
26.36036200783929
 10
26.16704776678876
 20
26.29358353770806
 10
26.13018999054862
 20
26.1606984383283
 10
26.09793605442405
 20
26.02855849211773
 10
26.07026156709094
 20
25.89698388749048
 10
26.04715469220378
 20
25.76579515711461
 10
26.02861621533953
 20
25.6348123479616
 10
26.0210638594906
 20
25.56934158838899
 10
26.01465970002232
 20
25.50385417709919
 10
26.0053117358691
 20
25.37273716469556
 10
26.00061228317759
 20
25.24127473521972
 10
26.00002199999995
 20
25.17535460736923
  0
LWPOLYLINE
  5
229
330
1F
100
AcDbEntity
  8
2
100
AcDbPolyline
 90
       23
 70
     0
 43
0.0
 10
26.00002199999995
 20
25.17535460736923
 10
26.00061228317759
 20
25.10943447951871
 10
26.0053117358691
 20
24.97797205004287
 10
26.01465970002232
 20
24.84685503763927
 10
26.0210638594906
 20
24.78136762634944
 10
26.02861621533953
 20
24.71589686677686
 10
26.04715469220378
 20
24.58491405762379
 10
26.07026156709094
 20
24.45372532724795
 10
26.09793605442405
 20
24.32215072262073
 10
26.13018999054862
 20
24.19001077641013
 10
26.16704776678876
 20
24.0571256770304
 10
26.18721415346068
 20
23.99034720689915
 10
26.20854634973307
 20
23.92331444474564
 10
26.25473538806068
 20
23.78839410581497
 10
26.30567740632682
 20
23.6521788567191
 10
26.36144808724771
 20
23.51447921043086
 10
26.42213664516771
 20
23.37510111648038
 10
26.48784629456736
 20
23.23384504621691
 10
26.52262024904962
 20
23.16244868446597
 10
26.5586948187231
 20
23.09050503417757
 10
26.63481524497024
 20
22.94486766582386
 10
26.71635663450138
 20
22.79671100108928
 10
26.75921137855471
 20
22.7216159633133
  0
LWPOLYLINE
  5
22A
330
1F
100
AcDbEntity
  8
2
100
AcDbPolyline
 90
       23
 70
     0
 43
0.0
 10
26.75921137855471
 20
42.35152511576058
 10
26.71635663450138
 20
42.27643007798462
 10
26.63481524497024
 20
42.12827341325004
 10
26.5586948187231
 20
41.98263604489634
 10
26.52262024904962
 20
41.91069239460794
 10
26.48784629456736
 20
41.83929603285696
 10
26.42213664516771
 20
41.69803996259349
 10
26.36144808724771
 20
41.55866186864301
 10
26.30567740632682
 20
41.4209622223548
 10
26.25473538806068
 20
41.28474697325891
 10
26.20854634973307
 20
41.14982663432823
 10
26.18721415346068
 20
41.08279387217476
 10
26.16704776678876
 20
41.01601540204351
 10
26.13018999054862
 20
40.88313030266374
 10
26.09793605442405
 20
40.75099035645317
 10
26.07026156709094
 20
40.61941575182595
 10
26.04715469220378
 20
40.48822702145009
 10
26.02861621533953
 20
40.35724421229704
 10
26.0210638594906
 20
40.29177345272444
 10
26.01465970002232
 20
40.22628604143463
 10
26.0053117358691
 20
40.09516902903101
 10
26.00061228317713
 20
39.96370659955517
 10
26.00002199999995
 20
39.89778647170468
  0
LWPOLYLINE
  5
22B
330
1F
100
AcDbEntity
  8
2
100
AcDbPolyline
 90
       23
 70
     0
 43
0.0
 10
26.00002199999995
 20
39.89778647170468
 10
26.00061228317759
 20
39.83186634385419
 10
26.0053117358691
 20
39.70040391437834
 10
26.01465970002232
 20
39.56928690197472
 10
26.0210638594906
 20
39.50379949068491
 10
26.02861621533953
 20
39.43832873111231
 10
26.04715469220378
 20
39.30734592195927
 10
26.07026156709094
 20
39.1761571915834
 10
26.09793605442405
 20
39.04458258695618
 10
26.13018999054862
 20
38.91244264074561
 10
26.16704776678876
 20
38.77955754136588
 10
26.18721415346068
 20
38.71277907123459
 10
26.20854634973307
 20
38.64574630908112
 10
26.25473538806068
 20
38.51082597015045
 10
26.30567740632682
 20
38.37461072105455
 10
26.36144808724771
 20
38.23691107476634
 10
26.42213664516771
 20
38.09753298081586
 10
26.48784629456736
 20
37.95627691055239
 10
26.52262024904962
 20
37.88488054880142
 10
26.5586948187231
 20
37.81293689851302
 10
26.63481524497024
 20
37.66729953015931
 10
26.71635663450138
 20
37.51914286542473
 10
26.75921137855471
 20
37.44404782764878
  0
LINE
  5
22C
330
1F
100
AcDbEntity
  8
2
100
AcDbLine
 10
26.75921137855471
 20
42.35152511576058
 30
0.0
 11
26.00002199999995
 21
41.03657053953696
 31
0.0
  0
LINE
  5
22D
330
1F
100
AcDbEntity
  8
2
100
AcDbLine
 10
26.00002199999995
 20
24.03657053953697
 30
0.0
 11
26.75921137855471
 21
22.7216159633133
 31
0.0
  0
LINE
  5
22E
330
1F
100
AcDbEntity
  8
2
100
AcDbLine
 10
30.00002199999995
 20
41.03657053953694
 30
0.0
 11
29.24083262144518
 21
42.35152511576058
 31
0.0
  0
LINE
  5
22F
330
1F
100
AcDbEntity
  8
2
100
AcDbLine
 10
29.24083262144518
 20
22.7216159633133
 30
0.0
 11
30.00002199999995
 21
24.03657053953697
 31
0.0
  0
LINE
  5
230
330
1F
100
AcDbEntity
  8
2
100
AcDbLine
 10
26.00002199999995
 20
24.03657053953697
 30
0.0
 11
26.00002199999995
 21
41.03657053953694
 31
0.0
  0
LINE
  5
231
330
1F
100
AcDbEntity
  8
2
100
AcDbLine
 10
32.00002199999995
 20
24.03657053953697
 30
0.0
 11
32.00002199999995
 21
41.03657053953694
 31
0.0
  0
LINE
  5
232
330
1F
100
AcDbEntity
  8
2
100
AcDbLine
 10
26.75921137855471
 20
22.7216159633133
 30
0.0
 11
29.24083262144518
 21
22.7216159633133
 31
0.0
  0
LWPOLYLINE
  5
233
330
1F
100
AcDbEntity
  8
2
100
AcDbPolyline
 90
       23
 70
     0
 43
0.0
 10
26.75921137855471
 20
22.7216159633133
 10
26.71635663450138
 20
22.79671100108928
 10
26.63481524497024
 20
22.94486766582386
 10
26.5586948187231
 20
23.09050503417757
 10
26.52262024904962
 20
23.16244868446597
 10
26.48784629456736
 20
23.23384504621691
 10
26.42213664516771
 20
23.37510111648038
 10
26.36144808724771
 20
23.51447921043086
 10
26.30567740632682
 20
23.6521788567191
 10
26.25473538806068
 20
23.78839410581497
 10
26.20854634973307
 20
23.92331444474564
 10
26.18721415346068
 20
23.99034720689915
 10
26.16704776678876
 20
24.0571256770304
 10
26.13018999054862
 20
24.19001077641013
 10
26.09793605442405
 20
24.32215072262073
 10
26.07026156709094
 20
24.45372532724795
 10
26.04715469220378
 20
24.58491405762382
 10
26.02861621533953
 20
24.71589686677686
 10
26.0210638594906
 20
24.78136762634944
 10
26.01465970002232
 20
24.84685503763927
 10
26.0053117358691
 20
24.97797205004289
 10
26.00061228317713
 20
25.10943447951871
 10
26.00002199999995
 20
25.17535460736923
  0
LWPOLYLINE
  5
234
330
1F
100
AcDbEntity
  8
2
100
AcDbPolyline
 90
       23
 70
     0
 43
0.0
 10
26.00002199999995
 20
25.17535460736923
 10
26.00061228317759
 20
25.24127473521972
 10
26.0053117358691
 20
25.37273716469556
 10
26.01465970002232
 20
25.50385417709919
 10
26.0210638594906
 20
25.56934158838899
 10
26.02861621533953
 20
25.6348123479616
 10
26.04715469220378
 20
25.76579515711461
 10
26.07026156709094
 20
25.89698388749048
 10
26.09793605442405
 20
26.02855849211773
 10
26.13018999054862
 20
26.1606984383283
 10
26.16704776678876
 20
26.29358353770803
 10
26.18721415346068
 20
26.36036200783929
 10
26.20854634973307
 20
26.42739476999279
 10
26.25473538806068
 20
26.56231510892346
 10
26.30567740632682
 20
26.69853035801935
 10
26.36144808724771
 20
26.83623000430757
 10
26.42213664516771
 20
26.97560809825805
 10
26.48784629456736
 20
27.11686416852152
 10
26.52262024904962
 20
27.18826053027249
 10
26.5586948187231
 20
27.26020418056089
 10
26.63481524497024
 20
27.40584154891457
 10
26.71635663450138
 20
27.55399821364915
 10
26.75921137855471
 20
27.62909325142513
  0
LWPOLYLINE
  5
235
330
1F
100
AcDbEntity
  8
2
100
AcDbPolyline
 90
       23
 70
     0
 43
0.0
 10
29.24083262144518
 20
27.62909325142513
 10
29.28368736549851
 20
27.55399821364915
 10
29.36522875502965
 20
27.40584154891457
 10
29.44134918127679
 20
27.26020418056089
 10
29.47742375095027
 20
27.18826053027249
 10
29.51219770543253
 20
27.11686416852152
 10
29.57790735483218
 20
26.97560809825805
 10
29.63859591275218
 20
26.83623000430757
 10
29.69436659367307
 20
26.69853035801935
 10
29.74530861193921
 20
26.56231510892346
 10
29.79149765026682
 20
26.42739476999279
 10
29.81282984653922
 20
26.36036200783929
 10
29.83299623321114
 20
26.29358353770806
 10
29.86985400945128
 20
26.1606984383283
 10
29.90210794557583
 20
26.02855849211773
 10
29.92978243290895
 20
25.89698388749048
 10
29.95288930779612
 20
25.76579515711464
 10
29.97142778466037
 20
25.6348123479616
 10
29.9789801405093
 20
25.56934158838899
 10
29.98538429997757
 20
25.50385417709919
 10
29.99473226413079
 20
25.37273716469556
 10
29.9994317168223
 20
25.24127473521972
 10
30.00002199999995
 20
25.17535460736923
  0
LWPOLYLINE
  5
236
330
1F
100
AcDbEntity
  8
2
100
AcDbPolyline
 90
       23
 70
     0
 43
0.0
 10
30.00002199999995
 20
25.17535460736923
 10
29.9994317168223
 20
25.10943447951871
 10
29.99473226413079
 20
24.97797205004287
 10
29.98538429997757
 20
24.84685503763927
 10
29.9789801405093
 20
24.78136762634944
 10
29.97142778466037
 20
24.71589686677686
 10
29.95288930779612
 20
24.58491405762382
 10
29.92978243290895
 20
24.45372532724795
 10
29.90210794557583
 20
24.32215072262073
 10
29.86985400945128
 20
24.19001077641013
 10
29.83299623321114
 20
24.0571256770304
 10
29.81282984653922
 20
23.99034720689915
 10
29.79149765026682
 20
23.92331444474564
 10
29.74530861193921
 20
23.78839410581497
 10
29.69436659367307
 20
23.6521788567191
 10
29.63859591275218
 20
23.51447921043086
 10
29.57790735483218
 20
23.37510111648038
 10
29.51219770543253
 20
23.23384504621691
 10
29.47742375095027
 20
23.16244868446597
 10
29.44134918127679
 20
23.09050503417757
 10
29.36522875502965
 20
22.94486766582386
 10
29.28368736549851
 20
22.79671100108928
 10
29.24083262144518
 20
22.7216159633133
  0
LINE
  5
237
330
1F
100
AcDbEntity
  8
2
100
AcDbLine
 10
26.75921137855471
 20
27.62909325142513
 30
0.0
 11
29.24083262144518
 21
27.62909325142513
 31
0.0
  0
LWPOLYLINE
  5
238
330
1F
100
AcDbEntity
  8
2
100
AcDbPolyline
 90
       23
 70
     0
 43
0.0
 10
26.75921137855471
 20
27.62909325142513
 10
26.71635663450138
 20
27.77928332697707
 10
26.63481524497024
 20
28.07559665644624
 10
26.5586948187231
 20
28.36687139315362
 10
26.52262024904962
 20
28.51075869373045
 10
26.48784629456736
 20
28.65355141723234
 10
26.42213664516771
 20
28.93606355775927
 10
26.36144808724771
 20
29.21481974566024
 10
26.30567740632682
 20
29.49021903823672
 10
26.25473538806068
 20
29.76264953642846
 10
26.20854634973307
 20
30.0324902142898
 10
26.18721415346068
 20
30.1665557385968
 10
26.16704776678876
 20
30.30011267885931
 10
26.13018999054862
 20
30.56588287761878
 10
26.09793605442405
 20
30.83016277003995
 10
26.07026156709094
 20
31.09331197929441
 10
26.04715469220378
 20
31.35568944004615
 10
26.02861621533953
 20
31.61765505835223
 10
26.0210638594906
 20
31.74859657749738
 10
26.01465970002232
 20
31.87957140007703
 10
26.0053117358691
 20
32.1418054248843
 10
26.00061228317713
 20
32.40473028383593
 10
26.00002199999995
 20
32.53657053953697
  0
LWPOLYLINE
  5
239
330
1F
100
AcDbEntity
  8
2
100
AcDbPolyline
 90
       23
 70
     0
 43
0.0
 10
26.00002199999995
 20
32.53657053953697
 10
26.00061228317759
 20
32.66841079523795
 10
26.0053117358691
 20
32.93133565418964
 10
26.01465970002232
 20
33.19356967899688
 10
26.0210638594906
 20
33.3245445015765
 10
26.02861621533953
 20
33.45548602072168
 10
26.04715469220378
 20
33.71745163902776
 10
26.07026156709094
 20
33.97982909977947
 10
26.09793605442405
 20
34.24297830903396
 10
26.13018999054862
 20
34.5072582014551
 10
26.16704776678876
 20
34.77302840021457
 10
26.18721415346068
 20
34.90658534047708
 10
26.20854634973307
 20
35.04065086478409
 10
26.25473538806068
 20
35.31049154264542
 10
26.30567740632682
 20
35.58292204083719
 10
26.36144808724771
 20
35.85832133341364
 10
26.42213664516771
 20
36.13707752131461
 10
26.48784629456736
 20
36.41958966184154
 10
26.52262024904962
 20
36.56238238534346
 10
26.5586948187231
 20
36.70626968592029
 10
26.63481524497024
 20
36.99754442262767
 10
26.71635663450138
 20
37.29385775209684
 10
26.75921137855471
 20
37.44404782764878
  0
LWPOLYLINE
  5
23A
330
1F
100
AcDbEntity
  8
2
100
AcDbPolyline
 90
       23
 70
     0
 43
0.0
 10
29.24083262144518
 20
37.44404782764878
 10
29.28368736549851
 20
37.29385775209684
 10
29.36522875502965
 20
36.99754442262767
 10
29.44134918127679
 20
36.70626968592029
 10
29.47742375095027
 20
36.56238238534346
 10
29.51219770543253
 20
36.41958966184154
 10
29.57790735483218
 20
36.13707752131461
 10
29.63859591275218
 20
35.85832133341364
 10
29.69436659367307
 20
35.58292204083719
 10
29.74530861193921
 20
35.31049154264542
 10
29.79149765026682
 20
35.04065086478409
 10
29.81282984653922
 20
34.90658534047711
 10
29.83299623321114
 20
34.77302840021457
 10
29.86985400945128
 20
34.5072582014551
 10
29.90210794557583
 20
34.24297830903396
 10
29.92978243290895
 20
33.97982909977947
 10
29.95288930779612
 20
33.71745163902776
 10
29.97142778466037
 20
33.45548602072168
 10
29.9789801405093
 20
33.3245445015765
 10
29.98538429997757
 20
33.19356967899688
 10
29.99473226413079
 20
32.93133565418964
 10
29.9994317168223
 20
32.66841079523795
 10
30.00002199999995
 20
32.53657053953697
  0
LWPOLYLINE
  5
23B
330
1F
100
AcDbEntity
  8
2
100
AcDbPolyline
 90
       23
 70
     0
 43
0.0
 10
30.00002199999995
 20
32.53657053953697
 10
29.9994317168223
 20
32.40473028383596
 10
29.99473226413079
 20
32.1418054248843
 10
29.98538429997757
 20
31.87957140007703
 10
29.9789801405093
 20
31.74859657749738
 10
29.97142778466037
 20
31.61765505835223
 10
29.95288930779612
 20
31.35568944004615
 10
29.92978243290895
 20
31.09331197929441
 10
29.90210794557583
 20
30.83016277003995
 10
29.86985400945128
 20
30.56588287761878
 10
29.83299623321114
 20
30.30011267885931
 10
29.81282984653922
 20
30.1665557385968
 10
29.79149765026682
 20
30.0324902142898
 10
29.74530861193921
 20
29.76264953642846
 10
29.69436659367307
 20
29.49021903823672
 10
29.63859591275218
 20
29.21481974566024
 10
29.57790735483218
 20
28.93606355775927
 10
29.51219770543253
 20
28.65355141723234
 10
29.47742375095027
 20
28.51075869373045
 10
29.44134918127679
 20
28.36687139315362
 10
29.36522875502965
 20
28.07559665644624
 10
29.28368736549851
 20
27.77928332697707
 10
29.24083262144518
 20
27.62909325142513
  0
LWPOLYLINE
  5
23C
330
1F
100
AcDbEntity
  8
2
100
AcDbPolyline
 90
       23
 70
     0
 43
0.0
 10
30.00002199999995
 20
39.89778647170468
 10
29.9994317168223
 20
39.83186634385419
 10
29.99473226413079
 20
39.70040391437834
 10
29.98538429997757
 20
39.56928690197472
 10
29.9789801405093
 20
39.50379949068491
 10
29.97142778466037
 20
39.43832873111231
 10
29.95288930779612
 20
39.30734592195927
 10
29.92978243290895
 20
39.1761571915834
 10
29.90210794557583
 20
39.04458258695618
 10
29.86985400945128
 20
38.91244264074561
 10
29.83299623321114
 20
38.77955754136588
 10
29.81282984653922
 20
38.71277907123459
 10
29.79149765026682
 20
38.64574630908112
 10
29.74530861193921
 20
38.51082597015045
 10
29.69436659367307
 20
38.37461072105455
 10
29.63859591275218
 20
38.23691107476634
 10
29.57790735483218
 20
38.09753298081586
 10
29.51219770543253
 20
37.95627691055239
 10
29.47742375095027
 20
37.88488054880142
 10
29.44134918127679
 20
37.81293689851302
 10
29.36522875502965
 20
37.66729953015931
 10
29.28368736549851
 20
37.51914286542473
 10
29.24083262144518
 20
37.44404782764878
  0
LINE
  5
23D
330
1F
100
AcDbEntity
  8
2
100
AcDbLine
 10
26.75921137855471
 20
37.44404782764878
 30
0.0
 11
29.24083262144518
 21
37.44404782764878
 31
0.0
  0
LWPOLYLINE
  5
23E
330
1F
100
AcDbEntity
  8
2
100
AcDbPolyline
 90
       23
 70
     0
 43
0.0
 10
26.75921137855471
 20
37.44404782764878
 10
26.71635663450138
 20
37.51914286542473
 10
26.63481524497024
 20
37.66729953015931
 10
26.5586948187231
 20
37.81293689851302
 10
26.52262024904962
 20
37.88488054880142
 10
26.48784629456736
 20
37.95627691055239
 10
26.42213664516771
 20
38.09753298081586
 10
26.36144808724771
 20
38.23691107476634
 10
26.30567740632682
 20
38.37461072105455
 10
26.25473538806068
 20
38.51082597015045
 10
26.20854634973307
 20
38.64574630908112
 10
26.18721415346068
 20
38.71277907123459
 10
26.16704776678876
 20
38.77955754136588
 10
26.13018999054862
 20
38.91244264074561
 10
26.09793605442405
 20
39.04458258695618
 10
26.07026156709094
 20
39.1761571915834
 10
26.04715469220378
 20
39.30734592195927
 10
26.02861621533953
 20
39.43832873111231
 10
26.0210638594906
 20
39.50379949068491
 10
26.01465970002232
 20
39.56928690197472
 10
26.0053117358691
 20
39.70040391437834
 10
26.00061228317759
 20
39.83186634385419
 10
26.00002199999995
 20
39.89778647170468
  0
LWPOLYLINE
  5
23F
330
1F
100
AcDbEntity
  8
2
100
AcDbPolyline
 90
       23
 70
     0
 43
0.0
 10
26.00002199999995
 20
39.89778647170468
 10
26.00061228317759
 20
39.96370659955517
 10
26.0053117358691
 20
40.09516902903101
 10
26.01465970002232
 20
40.22628604143463
 10
26.0210638594906
 20
40.29177345272444
 10
26.02861621533953
 20
40.35724421229704
 10
26.04715469220378
 20
40.48822702145009
 10
26.07026156709094
 20
40.61941575182595
 10
26.09793605442405
 20
40.7509903564532
 10
26.13018999054862
 20
40.88313030266374
 10
26.16704776678876
 20
41.01601540204348
 10
26.18721415346068
 20
41.08279387217476
 10
26.20854634973307
 20
41.14982663432823
 10
26.25473538806068
 20
41.28474697325891
 10
26.30567740632682
 20
41.4209622223548
 10
26.36144808724771
 20
41.55866186864301
 10
26.42213664516771
 20
41.69803996259349
 10
26.48784629456736
 20
41.83929603285696
 10
26.52262024904962
 20
41.91069239460794
 10
26.5586948187231
 20
41.98263604489634
 10
26.63481524497024
 20
42.12827341325004
 10
26.71635663450138
 20
42.27643007798462
 10
26.75921137855471
 20
42.35152511576058
  0
LINE
  5
240
330
1F
100
AcDbEntity
  8
2
100
AcDbLine
 10
26.75921137855471
 20
42.35152511576058
 30
0.0
 11
29.24083262144518
 21
42.35152511576058
 31
0.0
  0
LWPOLYLINE
  5
241
330
1F
100
AcDbEntity
  8
2
100
AcDbPolyline
 90
       23
 70
     0
 43
0.0
 10
29.24083262144518
 20
42.35152511576058
 10
29.28368736549851
 20
42.27643007798462
 10
29.36522875502965
 20
42.12827341325004
 10
29.44134918127679
 20
41.98263604489634
 10
29.47742375095027
 20
41.91069239460794
 10
29.51219770543253
 20
41.83929603285696
 10
29.57790735483218
 20
41.69803996259349
 10
29.63859591275218
 20
41.55866186864301
 10
29.69436659367307
 20
41.4209622223548
 10
29.74530861193921
 20
41.28474697325891
 10
29.79149765026682
 20
41.14982663432823
 10
29.81282984653922
 20
41.08279387217476
 10
29.83299623321114
 20
41.01601540204348
 10
29.86985400945128
 20
40.88313030266374
 10
29.90210794557583
 20
40.75099035645317
 10
29.92978243290895
 20
40.61941575182595
 10
29.95288930779612
 20
40.48822702145009
 10
29.97142778466037
 20
40.35724421229704
 10
29.9789801405093
 20
40.29177345272444
 10
29.98538429997757
 20
40.22628604143463
 10
29.99473226413079
 20
40.09516902903101
 10
29.9994317168223
 20
39.96370659955517
 10
30.00002199999995
 20
39.89778647170468
  0
LWPOLYLINE
  5
242
330
1F
100
AcDbEntity
  8
2
100
AcDbPolyline
 90
       23
 70
     0
 43
0.0
 10
32.75921137855471
 20
27.62909325142513
 10
32.71635663450138
 20
27.55399821364915
 10
32.63481524497024
 20
27.40584154891457
 10
32.5586948187231
 20
27.26020418056089
 10
32.52262024904962
 20
27.18826053027249
 10
32.48784629456736
 20
27.11686416852152
 10
32.42213664516771
 20
26.97560809825805
 10
32.36144808724771
 20
26.83623000430757
 10
32.30567740632682
 20
26.69853035801935
 10
32.25473538806068
 20
26.56231510892346
 10
32.20854634973307
 20
26.42739476999279
 10
32.18721415346067
 20
26.36036200783929
 10
32.16704776678876
 20
26.29358353770806
 10
32.13018999054862
 20
26.1606984383283
 10
32.09793605442405
 20
26.02855849211773
 10
32.07026156709094
 20
25.89698388749048
 10
32.04715469220378
 20
25.76579515711461
 10
32.02861621533953
 20
25.6348123479616
 10
32.0210638594906
 20
25.56934158838899
 10
32.01465970002232
 20
25.50385417709919
 10
32.0053117358691
 20
25.37273716469556
 10
32.00061228317713
 20
25.24127473521972
 10
32.00002199999995
 20
25.17535460736923
  0
LWPOLYLINE
  5
243
330
1F
100
AcDbEntity
  8
2
100
AcDbPolyline
 90
       23
 70
     0
 43
0.0
 10
32.00002199999995
 20
39.89778647170468
 10
32.00061228317713
 20
39.83186634385419
 10
32.0053117358691
 20
39.70040391437834
 10
32.01465970002232
 20
39.56928690197472
 10
32.0210638594906
 20
39.50379949068491
 10
32.02861621533953
 20
39.43832873111231
 10
32.04715469220378
 20
39.30734592195927
 10
32.07026156709094
 20
39.1761571915834
 10
32.09793605442405
 20
39.04458258695618
 10
32.13018999054862
 20
38.91244264074561
 10
32.16704776678876
 20
38.77955754136588
 10
32.18721415346067
 20
38.71277907123459
 10
32.20854634973307
 20
38.64574630908112
 10
32.25473538806068
 20
38.51082597015045
 10
32.30567740632682
 20
38.37461072105455
 10
32.36144808724771
 20
38.23691107476634
 10
32.42213664516771
 20
38.09753298081586
 10
32.48784629456736
 20
37.95627691055239
 10
32.52262024904962
 20
37.88488054880142
 10
32.5586948187231
 20
37.81293689851302
 10
32.63481524497024
 20
37.66729953015931
 10
32.71635663450138
 20
37.51914286542473
 10
32.75921137855471
 20
37.44404782764878
  0
LWPOLYLINE
  5
244
330
1F
100
AcDbEntity
  8
2
100
AcDbPolyline
 90
       23
 70
     0
 43
0.0
 10
35.24083262144518
 20
37.44404782764878
 10
35.28368736549851
 20
37.51914286542473
 10
35.36522875502965
 20
37.66729953015931
 10
35.44134918127679
 20
37.81293689851302
 10
35.47742375095026
 20
37.88488054880142
 10
35.51219770543253
 20
37.95627691055239
 10
35.57790735483218
 20
38.09753298081586
 10
35.63859591275218
 20
38.23691107476634
 10
35.69436659367307
 20
38.37461072105455
 10
35.74530861193921
 20
38.51082597015045
 10
35.79149765026682
 20
38.64574630908112
 10
35.81282984653922
 20
38.71277907123459
 10
35.83299623321114
 20
38.77955754136585
 10
35.86985400945128
 20
38.91244264074561
 10
35.90210794557584
 20
39.04458258695616
 10
35.92978243290895
 20
39.1761571915834
 10
35.95288930779612
 20
39.30734592195927
 10
35.97142778466036
 20
39.43832873111231
 10
35.9789801405093
 20
39.50379949068491
 10
35.98538429997757
 20
39.56928690197472
 10
35.99473226413079
 20
39.70040391437834
 10
35.9994317168223
 20
39.83186634385419
 10
36.00002199999995
 20
39.89778647170468
  0
LWPOLYLINE
  5
245
330
1F
100
AcDbEntity
  8
2
100
AcDbPolyline
 90
       23
 70
     0
 43
0.0
 10
32.75921137855471
 20
37.44404782764878
 10
32.71635663450138
 20
37.29385775209684
 10
32.63481524497024
 20
36.99754442262767
 10
32.5586948187231
 20
36.70626968592029
 10
32.52262024904962
 20
36.56238238534346
 10
32.48784629456736
 20
36.41958966184154
 10
32.42213664516771
 20
36.13707752131461
 10
32.36144808724771
 20
35.85832133341364
 10
32.30567740632682
 20
35.58292204083719
 10
32.25473538806068
 20
35.31049154264542
 10
32.20854634973307
 20
35.04065086478409
 10
32.18721415346067
 20
34.90658534047708
 10
32.16704776678876
 20
34.77302840021457
 10
32.13018999054862
 20
34.5072582014551
 10
32.09793605442405
 20
34.24297830903396
 10
32.07026156709094
 20
33.97982909977947
 10
32.04715469220378
 20
33.71745163902776
 10
32.02861621533953
 20
33.45548602072168
 10
32.0210638594906
 20
33.3245445015765
 10
32.01465970002232
 20
33.19356967899688
 10
32.0053117358691
 20
32.93133565418964
 10
32.00061228317713
 20
32.66841079523795
 10
32.00002199999995
 20
32.53657053953697
  0
LWPOLYLINE
  5
246
330
1F
100
AcDbEntity
  8
2
100
AcDbPolyline
 90
       23
 70
     0
 43
0.0
 10
32.00002199999995
 20
32.53657053953697
 10
32.00061228317713
 20
32.40473028383596
 10
32.0053117358691
 20
32.1418054248843
 10
32.01465970002232
 20
31.87957140007703
 10
32.0210638594906
 20
31.74859657749738
 10
32.02861621533953
 20
31.61765505835223
 10
32.04715469220378
 20
31.35568944004615
 10
32.07026156709094
 20
31.09331197929441
 10
32.09793605442405
 20
30.83016277003995
 10
32.13018999054862
 20
30.56588287761878
 10
32.16704776678876
 20
30.30011267885931
 10
32.18721415346067
 20
30.1665557385968
 10
32.20854634973307
 20
30.0324902142898
 10
32.25473538806068
 20
29.76264953642846
 10
32.30567740632682
 20
29.49021903823672
 10
32.36144808724771
 20
29.21481974566024
 10
32.42213664516771
 20
28.93606355775927
 10
32.48784629456736
 20
28.65355141723234
 10
32.52262024904962
 20
28.51075869373045
 10
32.5586948187231
 20
28.36687139315362
 10
32.63481524497024
 20
28.07559665644624
 10
32.71635663450138
 20
27.77928332697707
 10
32.75921137855471
 20
27.62909325142513
  0
LWPOLYLINE
  5
247
330
1F
100
AcDbEntity
  8
2
100
AcDbPolyline
 90
       23
 70
     0
 43
0.0
 10
35.24083262144518
 20
27.62909325142513
 10
35.28368736549851
 20
27.77928332697707
 10
35.36522875502965
 20
28.07559665644624
 10
35.44134918127679
 20
28.36687139315362
 10
35.47742375095026
 20
28.51075869373045
 10
35.51219770543253
 20
28.65355141723234
 10
35.57790735483218
 20
28.93606355775927
 10
35.63859591275218
 20
29.21481974566024
 10
35.69436659367307
 20
29.49021903823672
 10
35.74530861193921
 20
29.76264953642846
 10
35.79149765026682
 20
30.0324902142898
 10
35.81282984653922
 20
30.1665557385968
 10
35.83299623321114
 20
30.30011267885931
 10
35.86985400945128
 20
30.56588287761878
 10
35.90210794557584
 20
30.83016277003995
 10
35.92978243290895
 20
31.09331197929441
 10
35.95288930779612
 20
31.35568944004615
 10
35.97142778466036
 20
31.61765505835223
 10
35.9789801405093
 20
31.74859657749738
 10
35.98538429997757
 20
31.87957140007703
 10
35.99473226413079
 20
32.1418054248843
 10
35.9994317168223
 20
32.40473028383596
 10
36.00002199999995
 20
32.53657053953697
  0
LINE
  5
248
330
1F
100
AcDbEntity
  8
2
100
AcDbLine
 10
32.75921137855471
 20
42.35152511576058
 30
0.0
 11
32.00002199999995
 21
41.03657053953694
 31
0.0
  0
LINE
  5
249
330
1F
100
AcDbEntity
  8
2
100
AcDbLine
 10
32.00002199999995
 20
24.03657053953697
 30
0.0
 11
32.75921137855471
 21
22.7216159633133
 31
0.0
  0
LINE
  5
24A
330
1F
100
AcDbEntity
  8
2
100
AcDbLine
 10
36.00002199999995
 20
41.03657053953694
 30
0.0
 11
35.24083262144518
 21
42.35152511576058
 31
0.0
  0
LINE
  5
24B
330
1F
100
AcDbEntity
  8
2
100
AcDbLine
 10
35.24083262144518
 20
22.7216159633133
 30
0.0
 11
36.00002199999995
 21
24.03657053953697
 31
0.0
  0
LINE
  5
24C
330
1F
100
AcDbEntity
  8
2
100
AcDbLine
 10
30.00002199999995
 20
24.03657053953697
 30
0.0
 11
30.00002199999995
 21
41.03657053953694
 31
0.0
  0
LINE
  5
24D
330
1F
100
AcDbEntity
  8
2
100
AcDbLine
 10
36.00002199999995
 20
24.03657053953697
 30
0.0
 11
36.00002199999995
 21
41.03657053953694
 31
0.0
  0
LINE
  5
24E
330
1F
100
AcDbEntity
  8
2
100
AcDbLine
 10
32.75921137855471
 20
22.7216159633133
 30
0.0
 11
35.24083262144518
 21
22.7216159633133
 31
0.0
  0
LWPOLYLINE
  5
24F
330
1F
100
AcDbEntity
  8
2
100
AcDbPolyline
 90
       23
 70
     0
 43
0.0
 10
32.75921137855471
 20
22.7216159633133
 10
32.71635663450138
 20
22.79671100108928
 10
32.63481524497024
 20
22.94486766582386
 10
32.5586948187231
 20
23.09050503417757
 10
32.52262024904962
 20
23.16244868446597
 10
32.48784629456736
 20
23.23384504621691
 10
32.42213664516771
 20
23.37510111648038
 10
32.36144808724771
 20
23.51447921043086
 10
32.30567740632682
 20
23.6521788567191
 10
32.25473538806068
 20
23.78839410581497
 10
32.20854634973307
 20
23.92331444474564
 10
32.18721415346067
 20
23.99034720689915
 10
32.16704776678876
 20
24.0571256770304
 10
32.13018999054862
 20
24.19001077641013
 10
32.09793605442405
 20
24.32215072262073
 10
32.07026156709094
 20
24.45372532724795
 10
32.04715469220378
 20
24.58491405762382
 10
32.02861621533953
 20
24.71589686677686
 10
32.0210638594906
 20
24.78136762634944
 10
32.01465970002232
 20
24.84685503763927
 10
32.0053117358691
 20
24.97797205004289
 10
32.00061228317713
 20
25.10943447951871
 10
32.00002199999995
 20
25.17535460736923
  0
LWPOLYLINE
  5
250
330
1F
100
AcDbEntity
  8
2
100
AcDbPolyline
 90
       23
 70
     0
 43
0.0
 10
32.00002199999995
 20
25.17535460736923
 10
32.00061228317713
 20
25.24127473521972
 10
32.0053117358691
 20
25.37273716469556
 10
32.01465970002232
 20
25.50385417709919
 10
32.0210638594906
 20
25.56934158838899
 10
32.02861621533953
 20
25.6348123479616
 10
32.04715469220378
 20
25.76579515711461
 10
32.07026156709094
 20
25.89698388749048
 10
32.09793605442405
 20
26.02855849211773
 10
32.13018999054862
 20
26.1606984383283
 10
32.16704776678876
 20
26.29358353770803
 10
32.18721415346067
 20
26.36036200783929
 10
32.20854634973307
 20
26.42739476999279
 10
32.25473538806068
 20
26.56231510892346
 10
32.30567740632682
 20
26.69853035801935
 10
32.36144808724771
 20
26.83623000430757
 10
32.42213664516771
 20
26.97560809825805
 10
32.48784629456736
 20
27.11686416852152
 10
32.52262024904962
 20
27.18826053027249
 10
32.5586948187231
 20
27.26020418056089
 10
32.63481524497024
 20
27.40584154891457
 10
32.71635663450138
 20
27.55399821364915
 10
32.75921137855471
 20
27.62909325142513
  0
LWPOLYLINE
  5
251
330
1F
100
AcDbEntity
  8
2
100
AcDbPolyline
 90
       23
 70
     0
 43
0.0
 10
35.24083262144518
 20
27.62909325142513
 10
35.28368736549851
 20
27.55399821364915
 10
35.36522875502965
 20
27.40584154891457
 10
35.44134918127679
 20
27.26020418056089
 10
35.47742375095026
 20
27.18826053027249
 10
35.51219770543253
 20
27.11686416852152
 10
35.57790735483218
 20
26.97560809825805
 10
35.63859591275218
 20
26.83623000430757
 10
35.69436659367307
 20
26.69853035801935
 10
35.74530861193921
 20
26.56231510892346
 10
35.79149765026682
 20
26.42739476999279
 10
35.81282984653922
 20
26.36036200783929
 10
35.83299623321114
 20
26.29358353770806
 10
35.86985400945128
 20
26.1606984383283
 10
35.90210794557584
 20
26.02855849211773
 10
35.92978243290895
 20
25.89698388749048
 10
35.95288930779612
 20
25.76579515711464
 10
35.97142778466036
 20
25.6348123479616
 10
35.9789801405093
 20
25.56934158838899
 10
35.98538429997757
 20
25.50385417709919
 10
35.99473226413079
 20
25.37273716469556
 10
35.9994317168223
 20
25.24127473521972
 10
36.00002199999995
 20
25.17535460736923
  0
LWPOLYLINE
  5
252
330
1F
100
AcDbEntity
  8
2
100
AcDbPolyline
 90
       23
 70
     0
 43
0.0
 10
36.00002199999995
 20
25.17535460736923
 10
35.99943171682276
 20
25.10943447951871
 10
35.99473226413079
 20
24.97797205004287
 10
35.98538429997757
 20
24.84685503763927
 10
35.9789801405093
 20
24.78136762634944
 10
35.97142778466036
 20
24.71589686677686
 10
35.95288930779612
 20
24.58491405762382
 10
35.92978243290895
 20
24.45372532724795
 10
35.90210794557584
 20
24.32215072262073
 10
35.86985400945128
 20
24.19001077641013
 10
35.83299623321114
 20
24.0571256770304
 10
35.81282984653922
 20
23.99034720689915
 10
35.79149765026682
 20
23.92331444474564
 10
35.74530861193921
 20
23.78839410581497
 10
35.69436659367307
 20
23.6521788567191
 10
35.63859591275218
 20
23.51447921043086
 10
35.57790735483218
 20
23.37510111648038
 10
35.51219770543253
 20
23.23384504621691
 10
35.47742375095026
 20
23.16244868446597
 10
35.44134918127679
 20
23.09050503417757
 10
35.36522875502965
 20
22.94486766582386
 10
35.28368736549851
 20
22.79671100108928
 10
35.24083262144518
 20
22.7216159633133
  0
LINE
  5
253
330
1F
100
AcDbEntity
  8
2
100
AcDbLine
 10
32.75921137855471
 20
27.62909325142513
 30
0.0
 11
35.24083262144518
 21
27.62909325142513
 31
0.0
  0
LWPOLYLINE
  5
254
330
1F
100
AcDbEntity
  8
2
100
AcDbPolyline
 90
       23
 70
     0
 43
0.0
 10
32.75921137855471
 20
27.62909325142513
 10
32.71635663450138
 20
27.77928332697707
 10
32.63481524497024
 20
28.07559665644624
 10
32.5586948187231
 20
28.36687139315362
 10
32.52262024904962
 20
28.51075869373045
 10
32.48784629456736
 20
28.65355141723234
 10
32.42213664516771
 20
28.93606355775927
 10
32.36144808724771
 20
29.21481974566024
 10
32.30567740632682
 20
29.49021903823672
 10
32.25473538806068
 20
29.76264953642846
 10
32.20854634973307
 20
30.0324902142898
 10
32.18721415346067
 20
30.1665557385968
 10
32.16704776678876
 20
30.30011267885931
 10
32.13018999054862
 20
30.56588287761878
 10
32.09793605442405
 20
30.83016277003995
 10
32.07026156709094
 20
31.09331197929441
 10
32.04715469220378
 20
31.35568944004615
 10
32.02861621533953
 20
31.61765505835223
 10
32.0210638594906
 20
31.74859657749738
 10
32.01465970002232
 20
31.87957140007703
 10
32.0053117358691
 20
32.1418054248843
 10
32.00061228317713
 20
32.40473028383593
 10
32.00002199999995
 20
32.53657053953697
  0
LWPOLYLINE
  5
255
330
1F
100
AcDbEntity
  8
2
100
AcDbPolyline
 90
       23
 70
     0
 43
0.0
 10
32.00002199999995
 20
32.53657053953697
 10
32.00061228317713
 20
32.66841079523795
 10
32.0053117358691
 20
32.93133565418964
 10
32.01465970002232
 20
33.19356967899688
 10
32.0210638594906
 20
33.3245445015765
 10
32.02861621533953
 20
33.45548602072168
 10
32.04715469220378
 20
33.71745163902776
 10
32.07026156709094
 20
33.97982909977947
 10
32.09793605442405
 20
34.24297830903396
 10
32.13018999054862
 20
34.5072582014551
 10
32.16704776678876
 20
34.77302840021457
 10
32.18721415346067
 20
34.90658534047708
 10
32.20854634973307
 20
35.04065086478409
 10
32.25473538806068
 20
35.31049154264542
 10
32.30567740632682
 20
35.58292204083719
 10
32.36144808724771
 20
35.85832133341364
 10
32.42213664516771
 20
36.13707752131461
 10
32.48784629456736
 20
36.41958966184154
 10
32.52262024904962
 20
36.56238238534346
 10
32.5586948187231
 20
36.70626968592029
 10
32.63481524497024
 20
36.99754442262767
 10
32.71635663450138
 20
37.29385775209684
 10
32.75921137855471
 20
37.44404782764878
  0
LWPOLYLINE
  5
256
330
1F
100
AcDbEntity
  8
2
100
AcDbPolyline
 90
       23
 70
     0
 43
0.0
 10
35.24083262144518
 20
37.44404782764878
 10
35.28368736549851
 20
37.29385775209684
 10
35.36522875502965
 20
36.99754442262767
 10
35.44134918127679
 20
36.70626968592029
 10
35.47742375095026
 20
36.56238238534346
 10
35.51219770543253
 20
36.41958966184154
 10
35.57790735483218
 20
36.13707752131461
 10
35.63859591275218
 20
35.85832133341364
 10
35.69436659367307
 20
35.58292204083719
 10
35.74530861193921
 20
35.31049154264542
 10
35.79149765026682
 20
35.04065086478409
 10
35.81282984653922
 20
34.90658534047708
 10
35.83299623321114
 20
34.77302840021457
 10
35.86985400945128
 20
34.5072582014551
 10
35.90210794557584
 20
34.24297830903396
 10
35.92978243290895
 20
33.97982909977947
 10
35.95288930779612
 20
33.71745163902776
 10
35.97142778466036
 20
33.45548602072168
 10
35.9789801405093
 20
33.3245445015765
 10
35.98538429997757
 20
33.19356967899688
 10
35.99473226413079
 20
32.93133565418964
 10
35.9994317168223
 20
32.66841079523795
 10
36.00002199999995
 20
32.53657053953697
  0
LWPOLYLINE
  5
257
330
1F
100
AcDbEntity
  8
2
100
AcDbPolyline
 90
       23
 70
     0
 43
0.0
 10
36.00002199999995
 20
32.53657053953697
 10
35.9994317168223
 20
32.40473028383596
 10
35.99473226413079
 20
32.1418054248843
 10
35.98538429997757
 20
31.87957140007703
 10
35.9789801405093
 20
31.74859657749738
 10
35.97142778466036
 20
31.61765505835223
 10
35.95288930779612
 20
31.35568944004615
 10
35.92978243290895
 20
31.09331197929441
 10
35.90210794557584
 20
30.83016277003995
 10
35.86985400945128
 20
30.56588287761878
 10
35.83299623321114
 20
30.30011267885931
 10
35.81282984653922
 20
30.1665557385968
 10
35.79149765026682
 20
30.0324902142898
 10
35.74530861193921
 20
29.76264953642846
 10
35.69436659367307
 20
29.49021903823672
 10
35.63859591275218
 20
29.21481974566024
 10
35.57790735483218
 20
28.93606355775927
 10
35.51219770543253
 20
28.65355141723234
 10
35.47742375095026
 20
28.51075869373045
 10
35.44134918127679
 20
28.36687139315362
 10
35.36522875502965
 20
28.07559665644624
 10
35.28368736549851
 20
27.77928332697707
 10
35.24083262144518
 20
27.62909325142513
  0
LWPOLYLINE
  5
258
330
1F
100
AcDbEntity
  8
2
100
AcDbPolyline
 90
       23
 70
     0
 43
0.0
 10
36.00002199999995
 20
39.89778647170468
 10
35.9994317168223
 20
39.83186634385419
 10
35.99473226413079
 20
39.70040391437834
 10
35.98538429997757
 20
39.56928690197472
 10
35.9789801405093
 20
39.50379949068491
 10
35.97142778466036
 20
39.43832873111231
 10
35.95288930779612
 20
39.30734592195927
 10
35.92978243290895
 20
39.1761571915834
 10
35.90210794557584
 20
39.04458258695618
 10
35.86985400945128
 20
38.91244264074561
 10
35.83299623321114
 20
38.77955754136588
 10
35.81282984653922
 20
38.71277907123459
 10
35.79149765026682
 20
38.64574630908112
 10
35.74530861193921
 20
38.51082597015045
 10
35.69436659367307
 20
38.37461072105455
 10
35.63859591275218
 20
38.23691107476634
 10
35.57790735483218
 20
38.09753298081586
 10
35.51219770543253
 20
37.95627691055239
 10
35.47742375095026
 20
37.88488054880142
 10
35.44134918127679
 20
37.81293689851302
 10
35.36522875502965
 20
37.66729953015931
 10
35.28368736549851
 20
37.51914286542473
 10
35.24083262144518
 20
37.44404782764878
  0
LINE
  5
259
330
1F
100
AcDbEntity
  8
2
100
AcDbLine
 10
32.75921137855471
 20
37.44404782764878
 30
0.0
 11
35.24083262144518
 21
37.44404782764878
 31
0.0
  0
LWPOLYLINE
  5
25A
330
1F
100
AcDbEntity
  8
2
100
AcDbPolyline
 90
       23
 70
     0
 43
0.0
 10
32.75921137855471
 20
37.44404782764878
 10
32.71635663450138
 20
37.51914286542473
 10
32.63481524497024
 20
37.66729953015931
 10
32.5586948187231
 20
37.81293689851302
 10
32.52262024904962
 20
37.88488054880142
 10
32.48784629456736
 20
37.95627691055239
 10
32.42213664516771
 20
38.09753298081586
 10
32.36144808724771
 20
38.23691107476634
 10
32.30567740632682
 20
38.37461072105455
 10
32.25473538806068
 20
38.51082597015045
 10
32.20854634973307
 20
38.64574630908112
 10
32.18721415346067
 20
38.71277907123459
 10
32.16704776678876
 20
38.77955754136585
 10
32.13018999054862
 20
38.91244264074561
 10
32.09793605442405
 20
39.04458258695618
 10
32.07026156709094
 20
39.1761571915834
 10
32.04715469220378
 20
39.30734592195927
 10
32.02861621533953
 20
39.43832873111231
 10
32.0210638594906
 20
39.50379949068491
 10
32.01465970002232
 20
39.56928690197472
 10
32.0053117358691
 20
39.70040391437834
 10
32.00061228317713
 20
39.83186634385419
 10
32.00002199999995
 20
39.89778647170468
  0
LWPOLYLINE
  5
25B
330
1F
100
AcDbEntity
  8
2
100
AcDbPolyline
 90
       23
 70
     0
 43
0.0
 10
32.00002199999995
 20
39.89778647170468
 10
32.00061228317713
 20
39.96370659955517
 10
32.0053117358691
 20
40.09516902903101
 10
32.01465970002232
 20
40.22628604143463
 10
32.0210638594906
 20
40.29177345272444
 10
32.02861621533953
 20
40.35724421229704
 10
32.04715469220378
 20
40.48822702145009
 10
32.07026156709094
 20
40.61941575182595
 10
32.09793605442405
 20
40.7509903564532
 10
32.13018999054862
 20
40.88313030266374
 10
32.16704776678876
 20
41.01601540204348
 10
32.18721415346067
 20
41.08279387217476
 10
32.20854634973307
 20
41.14982663432823
 10
32.25473538806068
 20
41.28474697325891
 10
32.30567740632682
 20
41.4209622223548
 10
32.36144808724771
 20
41.55866186864301
 10
32.42213664516771
 20
41.69803996259349
 10
32.48784629456736
 20
41.83929603285696
 10
32.52262024904962
 20
41.91069239460794
 10
32.5586948187231
 20
41.98263604489634
 10
32.63481524497024
 20
42.12827341325004
 10
32.71635663450138
 20
42.27643007798462
 10
32.75921137855471
 20
42.35152511576058
  0
LINE
  5
25C
330
1F
100
AcDbEntity
  8
2
100
AcDbLine
 10
32.75921137855471
 20
42.35152511576058
 30
0.0
 11
35.24083262144518
 21
42.35152511576058
 31
0.0
  0
LWPOLYLINE
  5
25D
330
1F
100
AcDbEntity
  8
2
100
AcDbPolyline
 90
       23
 70
     0
 43
0.0
 10
35.24083262144518
 20
42.35152511576058
 10
35.28368736549851
 20
42.27643007798462
 10
35.36522875502965
 20
42.12827341325004
 10
35.44134918127679
 20
41.98263604489634
 10
35.47742375095026
 20
41.91069239460794
 10
35.51219770543253
 20
41.83929603285696
 10
35.57790735483218
 20
41.69803996259349
 10
35.63859591275218
 20
41.55866186864301
 10
35.69436659367307
 20
41.4209622223548
 10
35.74530861193921
 20
41.28474697325891
 10
35.79149765026682
 20
41.14982663432823
 10
35.81282984653922
 20
41.08279387217476
 10
35.83299623321114
 20
41.01601540204348
 10
35.86985400945128
 20
40.88313030266374
 10
35.90210794557584
 20
40.75099035645317
 10
35.92978243290895
 20
40.61941575182595
 10
35.95288930779612
 20
40.48822702145009
 10
35.97142778466036
 20
40.35724421229704
 10
35.9789801405093
 20
40.29177345272444
 10
35.98538429997757
 20
40.22628604143463
 10
35.99473226413079
 20
40.09516902903101
 10
35.9994317168223
 20
39.96370659955517
 10
36.00002199999995
 20
39.89778647170468
  0
LINE
  5
25E
330
1F
100
AcDbEntity
  8
2
100
AcDbLine
 10
55.29738024732956
 20
38.53657053953694
 30
0.0
 11
36.00002199999995
 21
38.53657053953694
 31
0.0
  0
LINE
  5
25F
330
1F
100
AcDbEntity
  8
1
100
AcDbLine
 10
85.04738024732956
 20
32.53657053953694
 30
0.0
 11
13.54738024732955
 21
32.53657053953697
 31
0.0
  0
LINE
  5
260
330
1F
100
AcDbEntity
  8
2
100
AcDbLine
 10
58.79738024732955
 20
30.08657053953695
 30
0.0
 11
81.79738024732955
 21
30.08657053953695
 31
0.0
  0
LINE
  5
261
330
1F
100
AcDbEntity
  8
2
100
AcDbLine
 10
81.79738024732955
 20
34.98657053953696
 30
0.0
 11
58.79738024732955
 21
34.98657053953696
 31
0.0
  0
ARC
  5
262
330
1F
100
AcDbEntity
  8
2
100
AcDbCircle
 10
58.39738024732946
 20
36.1304534906306
 30
0.0
 40
0.4000000000000004
100
AcDbArc
 50
0.0
 51
87.99999999999636
  0
ARC
  5
263
330
1F
100
AcDbEntity
  8
2
100
AcDbCircle
 10
58.39738024732946
 20
28.94268758844328
 30
0.0
 40
0.3999999999999999
100
AcDbArc
 50
272.0000000000037
 51
359.9999991462263
  0
LINE
  5
264
330
1F
100
AcDbEntity
  8
2
100
AcDbLine
 10
56.79738024732955
 20
28.48657053953696
 30
0.0
 11
58.41134004601077
 21
28.54293125763565
 31
0.0
  0
LINE
  5
265
330
1F
100
AcDbEntity
  8
2
100
AcDbLine
 10
58.41134004601077
 20
36.53020982143826
 30
0.0
 11
56.79738024732955
 21
36.58657053953695
 31
0.0
  0
LINE
  5
266
330
1F
100
AcDbEntity
  8
2
100
AcDbLine
 10
16.79738024732955
 20
26.53657053953697
 30
0.0
 11
26.00002199999995
 21
26.53657053953697
 31
0.0
  0
LINE
  5
267
330
1F
100
AcDbEntity
  8
2
100
AcDbLine
 10
36.00002199999995
 20
26.53657053953697
 30
0.0
 11
55.29738024732956
 21
26.53657053953694
 31
0.0
  0
LINE
  5
268
330
1F
100
AcDbEntity
  8
2
100
AcDbLine
 10
26.00002199999995
 20
38.53657053953697
 30
0.0
 11
16.79738024732955
 21
38.53657053953697
 31
0.0
  0
LINE
  5
269
330
1F
100
AcDbEntity
  8
2
100
AcDbLine
 10
55.29738024732956
 20
27.23657053953696
 30
0.0
 11
56.79738024732955
 21
27.23657053953696
 31
0.0
  0
LINE
  5
26A
330
1F
100
AcDbEntity
  8
2
100
AcDbLine
 10
56.79738024732955
 20
37.83657053953695
 30
0.0
 11
55.29738024732956
 21
37.83657053953695
 31
0.0
  0
LINE
  5
26B
330
1F
100
AcDbEntity
  8
2
100
AcDbLine
 10
81.79738024732955
 20
34.98657053953696
 30
0.0
 11
81.79738024732955
 21
30.08657053953695
 31
0.0
  0
LINE
  5
26C
330
1F
100
AcDbEntity
  8
2
100
AcDbLine
 10
58.79738024732955
 20
36.1304534906306
 30
0.0
 11
58.79738024732955
 21
28.94268758844328
 31
0.0
  0
LINE
  5
26D
330
1F
100
AcDbEntity
  8
2
100
AcDbLine
 10
55.29738024732956
 20
38.53657053953694
 30
0.0
 11
55.29738024732956
 21
26.53657053953694
 31
0.0
  0
LINE
  5
26E
330
1F
100
AcDbEntity
  8
2
100
AcDbLine
 10
16.79738024732955
 20
38.53657053953697
 30
0.0
 11
16.79738024732955
 21
26.53657053953697
 31
0.0
  0
LINE
  5
26F
330
1F
100
AcDbEntity
  8
2
100
AcDbLine
 10
56.79738024732955
 20
37.83657053953695
 30
0.0
 11
56.79738024732955
 21
27.23657053953696
 31
0.0
  0
LINE
  5
270
330
1F
100
AcDbEntity
  8
2
100
AcDbLine
 10
-11.49999999999954
 20
27.99904000000026
 30
0.0
 11
11.50000000000045
 21
27.99904000000026
 31
0.0
  0
LINE
  5
271
330
1F
100
AcDbEntity
  8
2
100
AcDbLine
 10
-11.49999999999954
 20
33.99904000000026
 30
0.0
 11
11.50000000000045
 21
33.99904000000026
 31
0.0
  0
ARC
  5
272
330
1F
100
AcDbEntity
  8
2
100
AcDbCircle
 10
-11.49999999999954
 20
32.99903999999981
 30
0.0
 40
1.0
100
AcDbArc
 50
90.00000899999308
 51
180.0000100000009
  0
ARC
  5
273
330
1F
100
AcDbEntity
  8
2
100
AcDbCircle
 10
-11.49999999999954
 20
28.99904000000004
 30
0.0
 40
1.0
100
AcDbArc
 50
179.999989999999
 51
270.0
  0
LINE
  5
274
330
1F
100
AcDbEntity
  8
2
100
AcDbLine
 10
8.000000000000454
 20
27.99904000000026
 30
0.0
 11
8.000000000000454
 21
9.865070000000173
 31
0.0
  0
LINE
  5
275
330
1F
100
AcDbEntity
  8
2
100
AcDbLine
 10
-7.999999999999545
 20
27.99904000000026
 30
0.0
 11
-7.999999999999545
 21
9.865070000000173
 31
0.0
  0
LINE
  5
276
330
1F
100
AcDbEntity
  8
2
100
AcDbLine
 10
-3.872979999999643
 20
14.99904000000015
 30
0.0
 11
-3.872979999999643
 21
7.999040000000036
 31
0.0
  0
LINE
  5
277
330
1F
100
AcDbEntity
  8
2
100
AcDbLine
 10
-3.872979999999643
 20
14.99904000000015
 30
0.0
 11
3.872990000000299
 21
14.99904000000015
 31
0.0
  0
ARC
  5
278
330
1F
100
AcDbEntity
  8
2
100
AcDbCircle
 10
11.50000000000045
 20
32.99903999999981
 30
0.0
 40
1.0
100
AcDbArc
 50
0.0000025044687019
 51
90.00000299999769
  0
LINE
  5
279
330
1F
100
AcDbEntity
  8
2
100
AcDbLine
 10
12.50000000000045
 20
32.99904000000015
 30
0.0
 11
12.50000000000045
 21
28.99904000000004
 31
0.0
  0
ARC
  5
27A
330
1F
100
AcDbEntity
  8
2
100
AcDbCircle
 10
11.50000000000045
 20
28.99904000000004
 30
0.0
 40
1.0
100
AcDbArc
 50
270.0
 51
0.0000025044687019
  0
LINE
  5
27B
330
1F
100
AcDbEntity
  8
2
100
AcDbLine
 10
7.5
 20
7.999040000000036
 30
0.0
 11
-7.49998000000005
 21
7.999040000000036
 31
0.0
  0
LINE
  5
27C
330
1F
100
AcDbEntity
  8
2
100
AcDbLine
 10
5.285724449577628
 20
6.133009999999899
 30
0.0
 11
-7.99998000000005
 21
6.133009999999899
 31
0.0
  0
LINE
  5
27D
330
1F
100
AcDbEntity
  8
2
100
AcDbLine
 10
3.872990000000299
 20
9.865070000000173
 30
0.0
 11
8.000000000000454
 21
9.865070000000173
 31
0.0
  0
LINE
  5
27E
330
1F
100
AcDbEntity
  8
2
100
AcDbLine
 10
-7.999999999999545
 20
6.133009999999899
 30
0.0
 11
-7.999999999999545
 21
2.0
 31
0.0
  0
LINE
  5
27F
330
1F
100
AcDbEntity
  8
2
100
AcDbLine
 10
-7.999999999999545
 20
9.865070000000173
 30
0.0
 11
-3.872979999999643
 21
9.865070000000173
 31
0.0
  0
LINE
  5
280
330
1F
100
AcDbEntity
  8
2
100
AcDbLine
 10
-7.499949999999898
 20
7.998979999999846
 30
0.0
 11
-7.999959999999646
 21
9.865040000000249
 31
0.0
  0
LINE
  5
281
330
1F
100
AcDbEntity
  8
2
100
AcDbLine
 10
-7.499969999999393
 20
7.999040000000036
 30
0.0
 11
-7.999969999999393
 21
6.133020000000215
 31
0.0
  0
LINE
  5
282
330
1F
100
AcDbEntity
  8
2
100
AcDbLine
 10
7.500070000000505
 20
7.999009999999771
 30
0.0
 11
8.000060000000303
 21
9.865009999999983
 31
0.0
  0
LINE
  5
283
330
1F
100
AcDbEntity
  8
2
100
AcDbLine
 10
7.5
 20
7.999040000000036
 30
0.0
 11
7.771462059012719
 21
6.98592730804205
 31
0.0
  0
LINE
  5
284
330
1F
100
AcDbEntity
  8
2
100
AcDbLine
 10
-12.49999999999954
 20
32.99904013082187
 30
0.0
 11
-12.49999999999954
 21
28.99904013082176
 31
0.0
  0
LINE
  5
285
330
1F
100
AcDbEntity
  8
2
100
AcDbLine
 10
3.872990000000299
 20
14.99904000000015
 30
0.0
 11
3.872990000000299
 21
7.999040000000036
 31
0.0
  0
CIRCLE
  5
286
330
1F
100
AcDbEntity
  8
2
100
AcDbCircle
 10
166.218858338613
 20
-22.0
 30
0.0
 40
5.0
  0
LINE
  5
287
330
1F
100
AcDbEntity
  8
2
100
AcDbLine
 10
36.00002199999995
 20
165.7456680721703
 30
0.0
 11
36.00002199999995
 21
148.7456680721703
 31
0.0
  0
LINE
  5
288
330
1F
100
AcDbEntity
  8
2
100
AcDbLine
 10
32.00002199999995
 20
165.7456680721703
 30
0.0
 11
32.00002199999995
 21
148.7456680721703
 31
0.0
  0
LWPOLYLINE
  5
289
330
1F
100
AcDbEntity
  8
2
100
AcDbPolyline
 90
       23
 70
     0
 43
0.0
 10
35.24083262144518
 20
165.7456680721703
 10
35.28368736549851
 20
165.6155996513461
 10
35.36522875502965
 20
165.3589847805459
 10
35.44134918127725
 20
165.1067334590766
 10
35.47742375095072
 20
164.9821234014951
 10
35.51219770543253
 20
164.8584612754669
 10
35.57790735483263
 20
164.613798584893
 10
35.63859591275264
 20
164.3723886447087
 10
35.69436659367307
 20
164.1338858611532
 10
35.74530861193921
 20
163.8979541289535
 10
35.79149765026727
 20
163.6642652469512
 10
35.81282984653967
 20
163.5481610971296
 10
35.83299623321114
 20
163.4324973940106
 10
35.86985400945128
 20
163.202333650316
 10
35.90210794557584
 20
162.9734605497699
 10
35.92978243290895
 20
162.7455666495697
 10
35.95288930779612
 20
162.5183411031783
 10
35.97142778466036
 20
162.2914722228071
 10
35.9789801405093
 20
162.1780735408173
 10
35.98538429997757
 20
162.0646460172072
 10
35.99473226413079
 20
161.8375446899874
 10
35.99943171682276
 20
161.6098450828489
 10
36.00002199999995
 20
161.4956680721703
  0
LWPOLYLINE
  5
28A
330
1F
100
AcDbEntity
  8
2
100
AcDbPolyline
 90
       23
 70
     0
 43
0.0
 10
36.00002199999995
 20
161.4956680721703
 10
35.99943171682276
 20
161.3814910614919
 10
35.99473226413079
 20
161.1537914543532
 10
35.98538429997757
 20
160.9266901271336
 10
35.9789801405093
 20
160.8132626035234
 10
35.97142778466036
 20
160.6998639215336
 10
35.95288930779612
 20
160.4729950411624
 10
35.92978243290895
 20
160.245769494771
 10
35.90210794557584
 20
160.0178755945708
 10
35.86985400945128
 20
159.7890024940247
 10
35.83299623321114
 20
159.5588387503301
 10
35.81282984653967
 20
159.4431750472111
 10
35.79149765026727
 20
159.3270708973896
 10
35.74530861193921
 20
159.0933820153872
 10
35.69436659367307
 20
158.8574502831875
 10
35.63859591275264
 20
158.618947499632
 10
35.57790735483263
 20
158.3775375594476
 10
35.51219770543253
 20
158.1328748688738
 10
35.47742375095072
 20
158.0092127428456
 10
35.44134918127725
 20
157.8846026852641
 10
35.36522875502965
 20
157.6323513637949
 10
35.28368736549851
 20
157.3757364929946
 10
35.24083262144518
 20
157.2456680721703
  0
LWPOLYLINE
  5
28B
330
1F
100
AcDbEntity
  8
2
100
AcDbPolyline
 90
       23
 70
     0
 43
0.0
 10
32.75921137855471
 20
157.2456680721703
 10
32.71635663450183
 20
157.3757364929946
 10
32.6348152449707
 20
157.6323513637949
 10
32.5586948187231
 20
157.8846026852641
 10
32.52262024904962
 20
158.0092127428456
 10
32.48784629456736
 20
158.1328748688738
 10
32.42213664516771
 20
158.3775375594476
 10
32.36144808724771
 20
158.618947499632
 10
32.30567740632682
 20
158.8574502831875
 10
32.25473538806068
 20
159.0933820153872
 10
32.20854634973307
 20
159.3270708973896
 10
32.18721415346067
 20
159.4431750472111
 10
32.16704776678876
 20
159.5588387503301
 10
32.13018999054907
 20
159.7890024940247
 10
32.09793605442405
 20
160.0178755945708
 10
32.07026156709139
 20
160.245769494771
 10
32.04715469220423
 20
160.4729950411624
 10
32.02861621533998
 20
160.6998639215336
 10
32.0210638594906
 20
160.8132626035234
 10
32.01465970002278
 20
160.9266901271336
 10
32.0053117358691
 20
161.1537914543532
 10
32.00061228317759
 20
161.3814910614919
 10
32.00002199999995
 20
161.4956680721703
  0
LWPOLYLINE
  5
28C
330
1F
100
AcDbEntity
  8
2
100
AcDbPolyline
 90
       23
 70
     0
 43
0.0
 10
32.00002199999995
 20
161.4956680721703
 10
32.00061228317759
 20
161.6098450828489
 10
32.0053117358691
 20
161.8375446899874
 10
32.01465970002278
 20
162.0646460172072
 10
32.0210638594906
 20
162.1780735408173
 10
32.02861621533998
 20
162.2914722228071
 10
32.04715469220423
 20
162.5183411031783
 10
32.07026156709139
 20
162.7455666495698
 10
32.09793605442405
 20
162.9734605497699
 10
32.13018999054907
 20
163.202333650316
 10
32.16704776678876
 20
163.4324973940106
 10
32.18721415346067
 20
163.5481610971296
 10
32.20854634973307
 20
163.6642652469512
 10
32.25473538806068
 20
163.8979541289535
 10
32.30567740632682
 20
164.1338858611532
 10
32.36144808724771
 20
164.3723886447087
 10
32.42213664516771
 20
164.613798584893
 10
32.48784629456736
 20
164.8584612754669
 10
32.52262024904962
 20
164.9821234014951
 10
32.5586948187231
 20
165.1067334590766
 10
32.6348152449707
 20
165.3589847805459
 10
32.71635663450183
 20
165.6155996513461
 10
32.75921137855471
 20
165.7456680721703
  0
LINE
  5
28D
330
1F
100
AcDbEntity
  8
2
100
AcDbLine
 10
35.24083262144518
 20
157.2456680721703
 30
0.0
 11
32.75921137855471
 21
157.2456680721703
 31
0.0
  0
LWPOLYLINE
  5
28E
330
1F
100
AcDbEntity
  8
2
100
AcDbPolyline
 90
       23
 70
     0
 43
0.0
 10
35.24083262144518
 20
157.2456680721703
 10
35.28368736549851
 20
157.1155996513461
 10
35.36522875502965
 20
156.8589847805459
 10
35.44134918127725
 20
156.6067334590766
 10
35.47742375095072
 20
156.4821234014951
 10
35.51219770543253
 20
156.3584612754669
 10
35.57790735483263
 20
156.113798584893
 10
35.63859591275264
 20
155.8723886447087
 10
35.69436659367307
 20
155.6338858611532
 10
35.74530861193921
 20
155.3979541289535
 10
35.79149765026727
 20
155.1642652469512
 10
35.81282984653967
 20
155.0481610971296
 10
35.83299623321114
 20
154.9324973940106
 10
35.86985400945128
 20
154.702333650316
 10
35.90210794557584
 20
154.4734605497699
 10
35.92978243290895
 20
154.2455666495697
 10
35.95288930779612
 20
154.0183411031783
 10
35.97142778466036
 20
153.7914722228071
 10
35.9789801405093
 20
153.6780735408173
 10
35.98538429997757
 20
153.5646460172072
 10
35.99473226413079
 20
153.3375446899874
 10
35.99943171682276
 20
153.1098450828489
 10
36.00002199999995
 20
152.9956680721703
  0
LWPOLYLINE
  5
28F
330
1F
100
AcDbEntity
  8
2
100
AcDbPolyline
 90
       23
 70
     0
 43
0.0
 10
36.00002199999995
 20
152.9956680721703
 10
35.99943171682276
 20
152.8814910614919
 10
35.99473226413079
 20
152.6537914543532
 10
35.98538429997757
 20
152.4266901271336
 10
35.9789801405093
 20
152.3132626035234
 10
35.97142778466036
 20
152.1998639215336
 10
35.95288930779612
 20
151.9729950411624
 10
35.92978243290895
 20
151.745769494771
 10
35.90210794557584
 20
151.5178755945708
 10
35.86985400945128
 20
151.2890024940247
 10
35.83299623321114
 20
151.0588387503301
 10
35.81282984653967
 20
150.943175047211
 10
35.79149765026727
 20
150.8270708973896
 10
35.74530861193921
 20
150.5933820153872
 10
35.69436659367307
 20
150.3574502831875
 10
35.63859591275264
 20
150.118947499632
 10
35.57790735483263
 20
149.8775375594476
 10
35.51219770543253
 20
149.6328748688738
 10
35.47742375095072
 20
149.5092127428456
 10
35.44134918127725
 20
149.3846026852641
 10
35.36522875502965
 20
149.1323513637949
 10
35.28368736549851
 20
148.8757364929946
 10
35.24083262144518
 20
148.7456680721703
  0
LWPOLYLINE
  5
290
330
1F
100
AcDbEntity
  8
2
100
AcDbPolyline
 90
       23
 70
     0
 43
0.0
 10
32.75921137855471
 20
148.7456680721703
 10
32.71635663450183
 20
148.8757364929946
 10
32.6348152449707
 20
149.1323513637949
 10
32.5586948187231
 20
149.3846026852641
 10
32.52262024904962
 20
149.5092127428456
 10
32.48784629456736
 20
149.6328748688738
 10
32.42213664516771
 20
149.8775375594476
 10
32.36144808724771
 20
150.118947499632
 10
32.30567740632682
 20
150.3574502831875
 10
32.25473538806068
 20
150.5933820153872
 10
32.20854634973307
 20
150.8270708973896
 10
32.18721415346067
 20
150.943175047211
 10
32.16704776678876
 20
151.0588387503301
 10
32.13018999054907
 20
151.2890024940247
 10
32.09793605442405
 20
151.5178755945708
 10
32.07026156709139
 20
151.745769494771
 10
32.04715469220423
 20
151.9729950411624
 10
32.02861621533998
 20
152.1998639215336
 10
32.0210638594906
 20
152.3132626035234
 10
32.01465970002278
 20
152.4266901271336
 10
32.0053117358691
 20
152.6537914543532
 10
32.00061228317759
 20
152.8814910614919
 10
32.00002199999995
 20
152.9956680721703
  0
LWPOLYLINE
  5
291
330
1F
100
AcDbEntity
  8
2
100
AcDbPolyline
 90
       23
 70
     0
 43
0.0
 10
32.00002199999995
 20
152.9956680721703
 10
32.00061228317759
 20
153.1098450828489
 10
32.0053117358691
 20
153.3375446899874
 10
32.01465970002278
 20
153.5646460172072
 10
32.0210638594906
 20
153.6780735408173
 10
32.02861621533998
 20
153.7914722228071
 10
32.04715469220423
 20
154.0183411031783
 10
32.07026156709139
 20
154.2455666495697
 10
32.09793605442405
 20
154.4734605497699
 10
32.13018999054907
 20
154.702333650316
 10
32.16704776678876
 20
154.9324973940106
 10
32.18721415346067
 20
155.0481610971296
 10
32.20854634973307
 20
155.1642652469512
 10
32.25473538806068
 20
155.3979541289535
 10
32.30567740632682
 20
155.6338858611532
 10
32.36144808724771
 20
155.8723886447087
 10
32.42213664516771
 20
156.113798584893
 10
32.48784629456736
 20
156.3584612754669
 10
32.52262024904962
 20
156.4821234014951
 10
32.5586948187231
 20
156.6067334590766
 10
32.6348152449707
 20
156.8589847805459
 10
32.71635663450183
 20
157.1155996513461
 10
32.75921137855471
 20
157.2456680721703
  0
LINE
  5
292
330
1F
100
AcDbEntity
  8
2
100
AcDbLine
 10
32.00002199999995
 20
148.7456680721703
 30
0.0
 11
36.00002199999995
 21
148.7456680721703
 31
0.0
  0
LINE
  5
293
330
1F
100
AcDbEntity
  8
2
100
AcDbLine
 10
36.00002199999995
 20
165.7456680721703
 30
0.0
 11
32.00002199999995
 21
165.7456680721703
 31
0.0
  0
LINE
  5
294
330
1F
100
AcDbEntity
  8
2
100
AcDbLine
 10
30.00002199999995
 20
165.7456680721703
 30
0.0
 11
30.00002199999995
 21
148.7456680721703
 31
0.0
  0
LINE
  5
295
330
1F
100
AcDbEntity
  8
2
100
AcDbLine
 10
26.00002199999995
 20
165.7456680721703
 30
0.0
 11
26.00002199999995
 21
148.7456680721703
 31
0.0
  0
LWPOLYLINE
  5
296
330
1F
100
AcDbEntity
  8
2
100
AcDbPolyline
 90
       23
 70
     0
 43
0.0
 10
29.24083262144518
 20
165.7456680721703
 10
29.28368736549851
 20
165.6155996513461
 10
29.36522875502965
 20
165.3589847805459
 10
29.44134918127725
 20
165.1067334590766
 10
29.47742375095072
 20
164.9821234014951
 10
29.51219770543253
 20
164.8584612754669
 10
29.57790735483263
 20
164.613798584893
 10
29.63859591275264
 20
164.3723886447087
 10
29.69436659367307
 20
164.1338858611532
 10
29.74530861193921
 20
163.8979541289535
 10
29.79149765026728
 20
163.6642652469512
 10
29.81282984653967
 20
163.5481610971296
 10
29.83299623321114
 20
163.4324973940106
 10
29.86985400945128
 20
163.202333650316
 10
29.90210794557583
 20
162.9734605497699
 10
29.92978243290895
 20
162.7455666495697
 10
29.95288930779612
 20
162.5183411031783
 10
29.97142778466037
 20
162.2914722228071
 10
29.9789801405093
 20
162.1780735408173
 10
29.98538429997757
 20
162.0646460172072
 10
29.99473226413079
 20
161.8375446899874
 10
29.99943171682275
 20
161.6098450828489
 10
30.00002199999995
 20
161.4956680721703
  0
LWPOLYLINE
  5
297
330
1F
100
AcDbEntity
  8
2
100
AcDbPolyline
 90
       23
 70
     0
 43
0.0
 10
30.00002199999995
 20
161.4956680721703
 10
29.99943171682275
 20
161.3814910614919
 10
29.99473226413079
 20
161.1537914543532
 10
29.98538429997757
 20
160.9266901271336
 10
29.9789801405093
 20
160.8132626035234
 10
29.97142778466037
 20
160.6998639215336
 10
29.95288930779612
 20
160.4729950411624
 10
29.92978243290895
 20
160.245769494771
 10
29.90210794557583
 20
160.0178755945708
 10
29.86985400945128
 20
159.7890024940247
 10
29.83299623321114
 20
159.5588387503301
 10
29.81282984653967
 20
159.4431750472111
 10
29.79149765026728
 20
159.3270708973896
 10
29.74530861193921
 20
159.0933820153872
 10
29.69436659367307
 20
158.8574502831875
 10
29.63859591275264
 20
158.618947499632
 10
29.57790735483263
 20
158.3775375594476
 10
29.51219770543253
 20
158.1328748688738
 10
29.47742375095072
 20
158.0092127428456
 10
29.44134918127725
 20
157.8846026852641
 10
29.36522875502965
 20
157.6323513637949
 10
29.28368736549851
 20
157.3757364929946
 10
29.24083262144518
 20
157.2456680721703
  0
LWPOLYLINE
  5
298
330
1F
100
AcDbEntity
  8
2
100
AcDbPolyline
 90
       23
 70
     0
 43
0.0
 10
26.75921137855471
 20
157.2456680721703
 10
26.71635663450184
 20
157.3757364929946
 10
26.6348152449707
 20
157.6323513637949
 10
26.5586948187231
 20
157.8846026852641
 10
26.52262024904962
 20
158.0092127428456
 10
26.48784629456736
 20
158.1328748688738
 10
26.42213664516771
 20
158.3775375594476
 10
26.36144808724771
 20
158.618947499632
 10
26.30567740632682
 20
158.8574502831875
 10
26.25473538806068
 20
159.0933820153872
 10
26.20854634973307
 20
159.3270708973896
 10
26.18721415346068
 20
159.4431750472111
 10
26.16704776678876
 20
159.5588387503301
 10
26.13018999054907
 20
159.7890024940247
 10
26.09793605442405
 20
160.0178755945708
 10
26.07026156709139
 20
160.245769494771
 10
26.04715469220423
 20
160.4729950411624
 10
26.02861621533998
 20
160.6998639215336
 10
26.0210638594906
 20
160.8132626035234
 10
26.01465970002278
 20
160.9266901271336
 10
26.0053117358691
 20
161.1537914543532
 10
26.00061228317759
 20
161.3814910614919
 10
26.00002199999995
 20
161.4956680721703
  0
LWPOLYLINE
  5
299
330
1F
100
AcDbEntity
  8
2
100
AcDbPolyline
 90
       23
 70
     0
 43
0.0
 10
26.00002199999995
 20
161.4956680721703
 10
26.00061228317759
 20
161.6098450828489
 10
26.0053117358691
 20
161.8375446899874
 10
26.01465970002278
 20
162.0646460172072
 10
26.0210638594906
 20
162.1780735408173
 10
26.02861621533998
 20
162.2914722228071
 10
26.04715469220423
 20
162.5183411031783
 10
26.07026156709139
 20
162.7455666495698
 10
26.09793605442405
 20
162.9734605497699
 10
26.13018999054907
 20
163.202333650316
 10
26.16704776678876
 20
163.4324973940106
 10
26.18721415346068
 20
163.5481610971296
 10
26.20854634973307
 20
163.6642652469512
 10
26.25473538806068
 20
163.8979541289535
 10
26.30567740632682
 20
164.1338858611532
 10
26.36144808724771
 20
164.3723886447087
 10
26.42213664516771
 20
164.613798584893
 10
26.48784629456736
 20
164.8584612754669
 10
26.52262024904962
 20
164.9821234014951
 10
26.5586948187231
 20
165.1067334590766
 10
26.6348152449707
 20
165.3589847805459
 10
26.71635663450184
 20
165.6155996513461
 10
26.75921137855471
 20
165.7456680721703
  0
LINE
  5
29A
330
1F
100
AcDbEntity
  8
2
100
AcDbLine
 10
29.24083262144518
 20
157.2456680721703
 30
0.0
 11
26.75921137855471
 21
157.2456680721703
 31
0.0
  0
LWPOLYLINE
  5
29B
330
1F
100
AcDbEntity
  8
2
100
AcDbPolyline
 90
       23
 70
     0
 43
0.0
 10
29.24083262144518
 20
157.2456680721703
 10
29.28368736549851
 20
157.1155996513461
 10
29.36522875502965
 20
156.8589847805459
 10
29.44134918127725
 20
156.6067334590766
 10
29.47742375095072
 20
156.4821234014951
 10
29.51219770543253
 20
156.3584612754669
 10
29.57790735483263
 20
156.113798584893
 10
29.63859591275264
 20
155.8723886447087
 10
29.69436659367307
 20
155.6338858611532
 10
29.74530861193921
 20
155.3979541289535
 10
29.79149765026728
 20
155.1642652469512
 10
29.81282984653967
 20
155.0481610971296
 10
29.83299623321114
 20
154.9324973940106
 10
29.86985400945128
 20
154.702333650316
 10
29.90210794557583
 20
154.4734605497699
 10
29.92978243290895
 20
154.2455666495697
 10
29.95288930779612
 20
154.0183411031783
 10
29.97142778466037
 20
153.7914722228071
 10
29.9789801405093
 20
153.6780735408173
 10
29.98538429997757
 20
153.5646460172072
 10
29.99473226413079
 20
153.3375446899874
 10
29.99943171682275
 20
153.1098450828489
 10
30.00002199999995
 20
152.9956680721703
  0
LWPOLYLINE
  5
29C
330
1F
100
AcDbEntity
  8
2
100
AcDbPolyline
 90
       23
 70
     0
 43
0.0
 10
30.00002199999995
 20
152.9956680721703
 10
29.99943171682275
 20
152.8814910614919
 10
29.99473226413079
 20
152.6537914543532
 10
29.98538429997757
 20
152.4266901271336
 10
29.9789801405093
 20
152.3132626035234
 10
29.97142778466037
 20
152.1998639215336
 10
29.95288930779612
 20
151.9729950411624
 10
29.92978243290895
 20
151.745769494771
 10
29.90210794557583
 20
151.5178755945708
 10
29.86985400945128
 20
151.2890024940247
 10
29.83299623321114
 20
151.0588387503301
 10
29.81282984653967
 20
150.943175047211
 10
29.79149765026728
 20
150.8270708973896
 10
29.74530861193921
 20
150.5933820153872
 10
29.69436659367307
 20
150.3574502831875
 10
29.63859591275264
 20
150.118947499632
 10
29.57790735483263
 20
149.8775375594476
 10
29.51219770543253
 20
149.6328748688738
 10
29.47742375095072
 20
149.5092127428456
 10
29.44134918127725
 20
149.3846026852641
 10
29.36522875502965
 20
149.1323513637949
 10
29.28368736549851
 20
148.8757364929946
 10
29.24083262144518
 20
148.7456680721703
  0
LWPOLYLINE
  5
29D
330
1F
100
AcDbEntity
  8
2
100
AcDbPolyline
 90
       23
 70
     0
 43
0.0
 10
26.75921137855471
 20
148.7456680721703
 10
26.71635663450184
 20
148.8757364929946
 10
26.6348152449707
 20
149.1323513637949
 10
26.5586948187231
 20
149.3846026852641
 10
26.52262024904962
 20
149.5092127428456
 10
26.48784629456736
 20
149.6328748688738
 10
26.42213664516771
 20
149.8775375594476
 10
26.36144808724771
 20
150.118947499632
 10
26.30567740632682
 20
150.3574502831875
 10
26.25473538806068
 20
150.5933820153872
 10
26.20854634973307
 20
150.8270708973896
 10
26.18721415346068
 20
150.943175047211
 10
26.16704776678876
 20
151.0588387503301
 10
26.13018999054907
 20
151.2890024940247
 10
26.09793605442405
 20
151.5178755945708
 10
26.07026156709139
 20
151.745769494771
 10
26.04715469220423
 20
151.9729950411624
 10
26.02861621533998
 20
152.1998639215336
 10
26.0210638594906
 20
152.3132626035234
 10
26.01465970002278
 20
152.4266901271336
 10
26.0053117358691
 20
152.6537914543532
 10
26.00061228317759
 20
152.8814910614919
 10
26.00002199999995
 20
152.9956680721703
  0
LWPOLYLINE
  5
29E
330
1F
100
AcDbEntity
  8
2
100
AcDbPolyline
 90
       23
 70
     0
 43
0.0
 10
26.00002199999995
 20
152.9956680721703
 10
26.00061228317759
 20
153.1098450828489
 10
26.0053117358691
 20
153.3375446899874
 10
26.01465970002278
 20
153.5646460172072
 10
26.0210638594906
 20
153.6780735408173
 10
26.02861621533998
 20
153.7914722228071
 10
26.04715469220423
 20
154.0183411031783
 10
26.07026156709139
 20
154.2455666495697
 10
26.09793605442405
 20
154.4734605497699
 10
26.13018999054907
 20
154.702333650316
 10
26.16704776678876
 20
154.9324973940106
 10
26.18721415346068
 20
155.0481610971296
 10
26.20854634973307
 20
155.1642652469512
 10
26.25473538806068
 20
155.3979541289535
 10
26.30567740632682
 20
155.6338858611532
 10
26.36144808724771
 20
155.8723886447087
 10
26.42213664516771
 20
156.113798584893
 10
26.48784629456736
 20
156.3584612754669
 10
26.52262024904962
 20
156.4821234014951
 10
26.5586948187231
 20
156.6067334590766
 10
26.6348152449707
 20
156.8589847805459
 10
26.71635663450184
 20
157.1155996513461
 10
26.75921137855471
 20
157.2456680721703
  0
LINE
  5
29F
330
1F
100
AcDbEntity
  8
2
100
AcDbLine
 10
26.00002199999995
 20
148.7456680721703
 30
0.0
 11
30.00002199999995
 21
148.7456680721703
 31
0.0
  0
LINE
  5
2A0
330
1F
100
AcDbEntity
  8
2
100
AcDbLine
 10
30.00002199999995
 20
165.7456680721703
 30
0.0
 11
26.00002199999995
 21
165.7456680721703
 31
0.0
  0
LINE
  5
2A1
330
1F
100
AcDbEntity
  8
0
100
AcDbLine
 10
174.718858338613
 20
37.44404782764878
 30
0.0
 11
166.218858338613
 21
42.35152511576058
 31
0.0
  0
LINE
  5
2A2
330
1F
100
AcDbEntity
  8
2
100
AcDbLine
 10
166.218858338613
 20
42.35152511576058
 30
0.0
 11
157.718858338613
 21
37.44404782764878
 31
0.0
  0
LINE
  5
2A3
330
1F
100
AcDbEntity
  8
0
100
AcDbLine
 10
157.718858338613
 20
37.44404782764878
 30
0.0
 11
157.718858338613
 21
27.62909325142513
 31
0.0
  0
LINE
  5
2A4
330
1F
100
AcDbEntity
  8
0
100
AcDbLine
 10
166.218858338613
 20
22.7216159633133
 30
0.0
 11
174.718858338613
 21
27.62909325142513
 31
0.0
  0
LINE
  5
2A5
330
1F
100
AcDbEntity
  8
0
100
AcDbLine
 10
157.718858338613
 20
27.62909325142513
 30
0.0
 11
166.218858338613
 21
22.7216159633133
 31
0.0
  0
LINE
  5
2A6
330
1F
100
AcDbEntity
  8
0
100
AcDbLine
 10
174.718858338613
 20
27.62909325142513
 30
0.0
 11
174.718858338613
 21
37.44404782764878
 31
0.0
  0
CIRCLE
  5
2A7
330
1F
100
AcDbEntity
  8
2
100
AcDbCircle
 10
166.218858338613
 20
32.53657053953694
 30
0.0
 40
8.500000000000005
  0
LINE
  5
2A8
330
1F
100
AcDbEntity
  8
2
100
AcDbLine
 10
174.718858338613
 20
37.44404782764878
 30
0.0
 11
166.218858338613
 21
42.35152511576058
 31
0.0
  0
LINE
  5
2A9
330
1F
100
AcDbEntity
  8
2
100
AcDbLine
 10
166.218858338613
 20
42.35152511576058
 30
0.0
 11
157.718858338613
 21
37.44404782764878
 31
0.0
  0
LINE
  5
2AA
330
1F
100
AcDbEntity
  8
2
100
AcDbLine
 10
157.718858338613
 20
37.44404782764878
 30
0.0
 11
157.718858338613
 21
27.62909325142513
 31
0.0
  0
LINE
  5
2AB
330
1F
100
AcDbEntity
  8
2
100
AcDbLine
 10
166.218858338613
 20
22.7216159633133
 30
0.0
 11
174.718858338613
 21
27.62909325142513
 31
0.0
  0
LINE
  5
2AC
330
1F
100
AcDbEntity
  8
2
100
AcDbLine
 10
157.718858338613
 20
27.62909325142513
 30
0.0
 11
166.218858338613
 21
22.7216159633133
 31
0.0
  0
LINE
  5
2AD
330
1F
100
AcDbEntity
  8
2
100
AcDbLine
 10
174.718858338613
 20
27.62909325142513
 30
0.0
 11
174.718858338613
 21
37.44404782764878
 31
0.0
  0
CIRCLE
  5
2AE
330
1F
100
AcDbEntity
  8
2
100
AcDbCircle
 10
166.218858338613
 20
32.53657053953697
 30
0.0
 40
5.999999999999996
  0
CIRCLE
  5
2AF
330
1F
100
AcDbEntity
  8
2
100
AcDbCircle
 10
166.218858338613
 20
32.53657053953694
 30
0.0
 40
5.3
  0
CIRCLE
  5
2B0
330
1F
100
AcDbEntity
  8
2
100
AcDbCircle
 10
166.218858338613
 20
32.53657053953697
 30
0.0
 40
2.449999999999995
  0
LINE
  5
2B1
330
1F
100
AcDbEntity
  8
1
100
AcDbLine
 10
156.959705217693
 20
32.53657053953694
 30
0.0
 11
175.478011459533
 21
32.53657053953694
 31
0.0
  0
LINE
  5
2B2
330
1F
100
AcDbEntity
  8
2
100
AcDbLine
 10
55.29738024732956
 20
163.2456680721703
 30
0.0
 11
36.00002199999995
 21
163.2456680721703
 31
0.0
  0
LINE
  5
2B3
330
1F
100
AcDbEntity
  8
1
100
AcDbLine
 10
85.04738024732956
 20
157.2456680721703
 30
0.0
 11
13.54738024732955
 21
157.2456680721703
 31
0.0
  0
LINE
  5
2B4
330
1F
100
AcDbEntity
  8
2
100
AcDbLine
 10
58.79738024732955
 20
154.7956680721704
 30
0.0
 11
81.79738024732955
 21
154.7956680721704
 31
0.0
  0
LINE
  5
2B5
330
1F
100
AcDbEntity
  8
2
100
AcDbLine
 10
81.79738024732955
 20
159.6956680721704
 30
0.0
 11
58.79738024732955
 21
159.6956680721704
 31
0.0
  0
ARC
  5
2B6
330
1F
100
AcDbEntity
  8
2
100
AcDbCircle
 10
58.39738024732946
 20
160.839551023264
 30
0.0
 40
0.4000000000000004
100
AcDbArc
 50
0.0
 51
87.99999999999636
  0
ARC
  5
2B7
330
1F
100
AcDbEntity
  8
2
100
AcDbCircle
 10
58.39738024732946
 20
153.6517851210767
 30
0.0
 40
0.3999999999999999
100
AcDbArc
 50
272.0000000000037
 51
359.9999991462263
  0
LINE
  5
2B8
330
1F
100
AcDbEntity
  8
2
100
AcDbLine
 10
56.79738024732955
 20
153.1956680721704
 30
0.0
 11
58.41134004601077
 21
153.252028790269
 31
0.0
  0
LINE
  5
2B9
330
1F
100
AcDbEntity
  8
2
100
AcDbLine
 10
58.41134004601077
 20
161.2393073540717
 30
0.0
 11
56.79738024732955
 21
161.2956680721703
 31
0.0
  0
LINE
  5
2BA
330
1F
100
AcDbEntity
  8
2
100
AcDbLine
 10
16.79738024732955
 20
151.2456680721703
 30
0.0
 11
26.00002199999995
 21
151.2456680721703
 31
0.0
  0
LINE
  5
2BB
330
1F
100
AcDbEntity
  8
2
100
AcDbLine
 10
36.00002199999995
 20
151.2456680721703
 30
0.0
 11
55.29738024732956
 21
151.2456680721703
 31
0.0
  0
LINE
  5
2BC
330
1F
100
AcDbEntity
  8
2
100
AcDbLine
 10
26.00002199999995
 20
163.2456680721703
 30
0.0
 11
16.79738024732955
 21
163.2456680721703
 31
0.0
  0
LINE
  5
2BD
330
1F
100
AcDbEntity
  8
2
100
AcDbLine
 10
55.29738024732956
 20
151.9456680721704
 30
0.0
 11
56.79738024732955
 21
151.9456680721704
 31
0.0
  0
LINE
  5
2BE
330
1F
100
AcDbEntity
  8
2
100
AcDbLine
 10
56.79738024732955
 20
162.5456680721704
 30
0.0
 11
55.29738024732956
 21
162.5456680721704
 31
0.0
  0
LINE
  5
2BF
330
1F
100
AcDbEntity
  8
2
100
AcDbLine
 10
81.79738024732955
 20
159.6956680721704
 30
0.0
 11
81.79738024732955
 21
154.7956680721704
 31
0.0
  0
LINE
  5
2C0
330
1F
100
AcDbEntity
  8
2
100
AcDbLine
 10
58.79738024732955
 20
160.839551023264
 30
0.0
 11
58.79738024732955
 21
153.6517851210767
 31
0.0
  0
LINE
  5
2C1
330
1F
100
AcDbEntity
  8
2
100
AcDbLine
 10
55.29738024732956
 20
163.2456680721703
 30
0.0
 11
55.29738024732956
 21
151.2456680721703
 31
0.0
  0
LINE
  5
2C2
330
1F
100
AcDbEntity
  8
2
100
AcDbLine
 10
16.79738024732955
 20
163.2456680721703
 30
0.0
 11
16.79738024732955
 21
151.2456680721703
 31
0.0
  0
LINE
  5
2C3
330
1F
100
AcDbEntity
  8
2
100
AcDbLine
 10
56.79738024732955
 20
162.5456680721704
 30
0.0
 11
56.79738024732955
 21
151.9456680721704
 31
0.0
  0
CIRCLE
  5
2C4
330
1F
100
AcDbEntity
  8
2
100
AcDbCircle
 10
0.0
 20
157.2456680721703
 30
0.0
 40
12.5
  0
LINE
  5
2CB
330
1F
100
AcDbEntity
  8
0
  6
DASHED
100
AcDbLine
 10
151.218858338613
 20
2.0
 30
0.0
 11
181.218858338613
 21
2.0
 31
0.0
  0
VIEWPORT
  5
71
330
55
100
AcDbEntity
 67
     1
  8
0
100
AcDbViewport
 10
133.3499908447266
 20
101.5999970436096
 30
0.0
 40
381.3957395593835
 41
218.2856291881582
 68
     1
 69
     1
 12
133.3499908447266
 22
101.5999970436096
 13
0.0
 23
0.0
 14
10.0
 24
10.0
 15
10.0
 25
10.0
 16
0.0
 26
0.0
 36
1.0
 17
0.0
 27
0.0
 37
0.0
 42
50.0
 43
0.0
 44
0.0
 45
218.2856291881582
 50
0.0
 51
0.0
 72
   100
 90
    32800
  1

281
     0
 71
     1
 74
     0
110
0.0
120
0.0
130
0.0
111
1.0
121
0.0
131
0.0
112
0.0
122
1.0
132
0.0
 79
     0
146
0.0
170
     0
 61
     5
348
2F8
292
     1
282
     1
141
0.0
142
0.0
 63
   250
421
  3355443
  0
VIEWPORT
  5
73
330
55
100
AcDbEntity
 67
     1
  8
0
100
AcDbViewport
 10
133.3499939441681
 20
101.5999939441681
 30
0.0
 40
213.3599903106689
 41
162.5599903106689
 68
     2
 69
     2
 12
210.0
 22
148.5
 13
0.0
 23
0.0
 14
10.0
 24
10.0
 15
10.0
 25
10.0
 16
0.0
 26
0.0
 36
1.0
 17
0.0
 27
0.0
 37
0.0
 42
50.0
 43
0.0
 44
0.0
 45
324.0677920111345
 50
0.0
 51
0.0
 72
   100
 90
    32864
  1

281
     0
 71
     1
 74
     0
110
0.0
120
0.0
130
0.0
111
1.0
121
0.0
131
0.0
112
0.0
122
1.0
132
0.0
 79
     0
146
0.0
170
     0
 61
     5
348
2F8
292
     1
282
     1
141
0.0
142
0.0
 63
   250
421
  3355443
  0
ENDSEC
  0
SECTION
  2
OBJECTS
  0
DICTIONARY
  5
C
330
0
100
AcDbDictionary
281
     1
  3
ACAD_COLOR
350
306
  3
ACAD_GROUP
350
D
  3
ACAD_LAYOUT
350
1A
  3
ACAD_MATERIAL
350
2D9
  3
ACAD_MLEADERSTYLE
350
31B
  3
ACAD_MLINESTYLE
350
17
  3
ACAD_PLOTSETTINGS
350
19
  3
ACAD_PLOTSTYLENAME
350
E
  3
ACAD_SCALELIST
350
309
  3
ACAD_TABLESTYLE
350
307
  3
ACAD_VISUALSTYLE
350
2F2
  3
ACDB_RECOMPOSE_DATA
350
32A
  3
AcDbVariableDictionary
350
5E
  0
DICTIONARY
  5
97
330
2
100
AcDbDictionary
280
     1
281
     1
  3
ACAD_LAYERSTATES
360
98
  0
DICTIONARY
  5
31F
330
10
100
AcDbDictionary
280
     1
281
     1
  3
ADSK_XREC_LAYER_RECONCILED
360
320
  0
DICTIONARY
  5
90
330
8F
100
AcDbDictionary
280
     1
281
     1
  3
ADSK_XREC_LAYER_RECONCILED
360
91
  0
DICTIONARY
  5
93
330
92
100
AcDbDictionary
280
     1
281
     1
  3
ADSK_XREC_LAYER_RECONCILED
360
94
  0
DICTIONARY
  5
306
102
{ACAD_REACTORS
330
C
102
}
330
C
100
AcDbDictionary
281
     1
  0
DICTIONARY
  5
D
102
{ACAD_REACTORS
330
C
102
}
330
C
100
AcDbDictionary
281
     1
  0
DICTIONARY
  5
1A
102
{ACAD_REACTORS
330
C
102
}
330
C
100
AcDbDictionary
281
     1
  3
Model
350
22
  3
ﾚｲｱｳﾄ1
350
51
  3
ﾚｲｱｳﾄ2
350
56
  0
DICTIONARY
  5
2D9
102
{ACAD_REACTORS
330
C
102
}
330
C
100
AcDbDictionary
281
     1
  3
ByBlock
350
2E2
  3
ByLayer
350
2DA
  3
Global
350
2EA
  0
DICTIONARY
  5
31B
102
{ACAD_REACTORS
330
C
102
}
330
C
100
AcDbDictionary
281
     1
  3
Standard
350
31C
  0
DICTIONARY
  5
17
102
{ACAD_REACTORS
330
C
102
}
330
C
100
AcDbDictionary
281
     1
  3
Standard
350
18
  0
DICTIONARY
  5
19
102
{ACAD_REACTORS
330
C
102
}
330
C
100
AcDbDictionary
281
     1
  0
ACDBDICTIONARYWDFLT
  5
E
102
{ACAD_REACTORS
330
C
102
}
330
C
100
AcDbDictionary
281
     1
  3
Normal
350
F
100
AcDbDictionaryWithDefault
340
F
  0
DICTIONARY
  5
309
102
{ACAD_REACTORS
330
C
102
}
330
C
100
AcDbDictionary
281
     1
  3
A0
350
30A
  3
A1
350
30B
  3
A2
350
30C
  3
A3
350
30D
  3
A4
350
30E
  3
A5
350
30F
  3
A6
350
310
  3
A7
350
311
  3
A8
350
312
  3
A9
350
313
  3
B0
350
314
  3
B1
350
315
  3
B2
350
316
  3
B3
350
317
  3
B4
350
318
  3
B5
350
319
  3
B6
350
31A
  0
DICTIONARY
  5
307
102
{ACAD_REACTORS
330
C
102
}
330
C
100
AcDbDictionary
281
     1
  3
Standard
350
308
  0
DICTIONARY
  5
2F2
102
{ACAD_REACTORS
330
C
102
}
330
C
100
AcDbDictionary
281
     1
  3
2dWireframe
350
2F8
  3
3D Hidden
350
2FA
  3
3dWireframe
350
2F9
  3
Basic
350
2F7
  3
Brighten
350
2FE
  3
ColorChange
350
302
  3
Conceptual
350
2FB
  3
Dim
350
2FD
  3
EdgeColorOff
350
305
  3
Facepattern
350
301
  3
Flat
350
2F3
  3
FlatWithEdges
350
2F4
  3
Gouraud
350
2F5
  3
GouraudWithEdges
350
2F6
  3
JitterOff
350
303
  3
Linepattern
350
300
  3
OverhangOff
350
304
  3
Realistic
350
2FC
  3
Thicken
350
2FF
  0
XRECORD
  5
32A
102
{ACAD_REACTORS
330
C
102
}
330
C
100
AcDbXrecord
280
     1
 90
        1
330
308
  0
DICTIONARY
  5
5E
102
{ACAD_REACTORS
330
C
102
}
330
C
100
AcDbDictionary
281
     1
  3
CANNOSCALE
350
324
  3
CMLEADERSTYLE
350
322
  3
CTABLESTYLE
350
321
  3
DIMASSOC
350
5F
  3
HIDETEXT
350
63
  3
LAYEREVAL
350
326
  3
LAYERNOTIFY
350
327
  3
LIGHTINGUNITS
350
325
  3
MSLTSCALE
350
323
  0
DICTIONARY
  5
98
102
{ACAD_REACTORS
330
97
102
}
330
97
100
AcDbDictionary
281
     1
  0
XRECORD
  5
320
102
{ACAD_REACTORS
330
31F
102
}
330
31F
100
AcDbXrecord
280
     1
290
     1
  0
XRECORD
  5
91
102
{ACAD_REACTORS
330
90
102
}
330
90
100
AcDbXrecord
280
     1
290
     1
  0
XRECORD
  5
94
102
{ACAD_REACTORS
330
93
102
}
330
93
100
AcDbXrecord
280
     1
290
     1
  0
LAYOUT
  5
22
102
{ACAD_REACTORS
330
1A
102
}
330
1A
100
AcDbPlotSettings
  1

  2
none_device
  4
ANSI_A_(8.50_x_11.00_Inches)
  6

 40
6.349999904632568
 41
19.04999923706055
 42
6.350006103515625
 43
19.04998779296875
 44
215.8999938964844
 45
279.3999938964844
 46
0.0
 47
0.0
 48
0.0
 49
0.0
140
0.0
141
0.0
142
1.0
143
78.436453180766
 70
 11952
 72
     0
 73
     1
 74
     0
  7

 75
     0
147
0.0127491741332998
 76
     0
 77
     2
 78
   300
148
0.0
149
0.0
100
AcDbLayout
  1
Model
 70
     1
 71
     0
 10
0.0
 20
0.0
 11
12.0
 21
9.0
 12
0.0
 22
0.0
 32
0.0
 14
0.0
 24
0.0
 34
0.0
 15
0.0
 25
0.0
 35
0.0
146
0.0
 13
0.0
 23
0.0
 33
0.0
 16
1.0
 26
0.0
 36
0.0
 17
0.0
 27
1.0
 37
0.0
 76
     0
330
1F
331
2D7
  0
LAYOUT
  5
51
102
{ACAD_REACTORS
330
1A
102
}
330
1A
100
AcDbPlotSettings
  1

  2
none_device
  4
Letter_(8.50_x_11.00_Inches)
  6

 40
6.349999904632568
 41
6.349999904632568
 42
6.350006103515625
 43
6.350006103515625
 44
215.8999938964844
 45
279.3999938964844
 46
0.0
 47
0.0
 48
0.0
 49
0.0
140
0.0
141
0.0
142
1.0
143
1.0
 70
   688
 72
     1
 73
     1
 74
     5
  7

 75
    16
147
1.0
 76
     0
 77
     2
 78
   300
148
0.0
149
0.0
100
AcDbLayout
  1
ﾚｲｱｳﾄ1
 70
     1
 71
     1
 10
-6.350006103515625
 20
-6.349999904632568
 11
273.0499877929688
 21
209.5499939918518
 12
0.0
 22
0.0
 32
0.0
 14
26.66076962115563
 24
20.31135699206658
 34
-0.0015258207003583
 15
240.039213369355
 25
182.8886381005154
 35
0.0000000349246037
146
0.0
 13
0.0
 23
0.0
 33
0.0
 16
1.0
 26
0.0
 36
0.0
 17
0.0
 27
1.0
 37
0.0
 76
     0
330
50
331
6B
  0
LAYOUT
  5
56
102
{ACAD_REACTORS
330
1A
102
}
330
1A
100
AcDbPlotSettings
  1

  2
none_device
  4
Letter_(8.50_x_11.00_Inches)
  6

 40
6.349999904632568
 41
6.349999904632568
 42
6.350006103515625
 43
6.350006103515625
 44
215.8999938964844
 45
279.3999938964844
 46
0.0
 47
0.0
 48
0.0
 49
0.0
140
0.0
141
0.0
142
1.0
143
1.0
 70
   688
 72
     1
 73
     1
 74
     5
  7

 75
    16
147
1.0
 76
     0
 77
     2
 78
   300
148
0.0
149
0.0
100
AcDbLayout
  1
ﾚｲｱｳﾄ2
 70
     1
 71
     2
 10
-6.350006103515625
 20
-6.349999904632568
 11
273.0499877929688
 21
209.5499939918518
 12
0.0
 22
0.0
 32
0.0
 14
26.66076962115563
 24
20.31135699206658
 34
-0.0015258207003583
 15
240.039213369355
 25
182.8886381005154
 35
0.0000000349246037
146
0.0
 13
0.0
 23
0.0
 33
0.0
 16
1.0
 26
0.0
 36
0.0
 17
0.0
 27
1.0
 37
0.0
 76
     0
330
55
331
71
  0
MATERIAL
  5
2E2
102
{ACAD_XDICTIONARY
360
2E3
102
}
102
{ACAD_REACTORS
330
2D9
102
}
330
2D9
100
AcDbMaterial
  1
ByBlock
 72
     0
 43
0.0008202099737533
 43
0.0
 43
0.0
 43
0.0
 43
0.0
 43
0.0008202099737533
 43
0.0
 43
0.0
 43
0.0
 43
0.0
 43
1.0
 43
0.0
 43
0.0
 43
0.0
 43
0.0
 43
1.0
 77
     0
 47
0.0008202099737533
 47
0.0
 47
0.0
 47
0.0
 47
0.0
 47
0.0008202099737533
 47
0.0
 47
0.0
 47
0.0
 47
0.0
 47
1.0
 47
0.0
 47
0.0
 47
0.0
 47
0.0
 47
1.0
171
     0
 49
0.0008202099737533
 49
0.0
 49
0.0
 49
0.0
 49
0.0
 49
0.0008202099737533
 49
0.0
 49
0.0
 49
0.0
 49
0.0
 49
1.0
 49
0.0
 49
0.0
 49
0.0
 49
0.0
 49
1.0
175
     0
142
0.0008202099737533
142
0.0
142
0.0
142
0.0
142
0.0
142
0.0008202099737533
142
0.0
142
0.0
142
0.0
142
0.0
142
1.0
142
0.0
142
0.0
142
0.0
142
0.0
142
1.0
179
     0
144
0.0008202099737533
144
0.0
144
0.0
144
0.0
144
0.0
144
0.0008202099737533
144
0.0
144
0.0
144
0.0
144
0.0
144
1.0
144
0.0
144
0.0
144
0.0
144
0.0
144
1.0
147
0.0008202099737533
147
0.0
147
0.0
147
0.0
147
0.0
147
0.0008202099737533
147
0.0
147
0.0
147
0.0
147
0.0
147
1.0
147
0.0
147
0.0
147
0.0
147
0.0
147
1.0
  0
MATERIAL
  5
2DA
102
{ACAD_XDICTIONARY
360
2DB
102
}
102
{ACAD_REACTORS
330
2D9
102
}
330
2D9
100
AcDbMaterial
  1
ByLayer
 72
     0
 43
0.0008202099737533
 43
0.0
 43
0.0
 43
0.0
 43
0.0
 43
0.0008202099737533
 43
0.0
 43
0.0
 43
0.0
 43
0.0
 43
1.0
 43
0.0
 43
0.0
 43
0.0
 43
0.0
 43
1.0
 77
     0
 47
0.0008202099737533
 47
0.0
 47
0.0
 47
0.0
 47
0.0
 47
0.0008202099737533
 47
0.0
 47
0.0
 47
0.0
 47
0.0
 47
1.0
 47
0.0
 47
0.0
 47
0.0
 47
0.0
 47
1.0
171
     0
 49
0.0008202099737533
 49
0.0
 49
0.0
 49
0.0
 49
0.0
 49
0.0008202099737533
 49
0.0
 49
0.0
 49
0.0
 49
0.0
 49
1.0
 49
0.0
 49
0.0
 49
0.0
 49
0.0
 49
1.0
175
     0
142
0.0008202099737533
142
0.0
142
0.0
142
0.0
142
0.0
142
0.0008202099737533
142
0.0
142
0.0
142
0.0
142
0.0
142
1.0
142
0.0
142
0.0
142
0.0
142
0.0
142
1.0
179
     0
144
0.0008202099737533
144
0.0
144
0.0
144
0.0
144
0.0
144
0.0008202099737533
144
0.0
144
0.0
144
0.0
144
0.0
144
1.0
144
0.0
144
0.0
144
0.0
144
0.0
144
1.0
147
0.0008202099737533
147
0.0
147
0.0
147
0.0
147
0.0
147
0.0008202099737533
147
0.0
147
0.0
147
0.0
147
0.0
147
1.0
147
0.0
147
0.0
147
0.0
147
0.0
147
1.0
  0
MATERIAL
  5
2EA
102
{ACAD_XDICTIONARY
360
2EB
102
}
102
{ACAD_REACTORS
330
2D9
102
}
330
2D9
100
AcDbMaterial
  1
Global
 72
     0
 43
0.0008202099737533
 43
0.0
 43
0.0
 43
0.0
 43
0.0
 43
0.0008202099737533
 43
0.0
 43
0.0
 43
0.0
 43
0.0
 43
1.0
 43
0.0
 43
0.0
 43
0.0
 43
0.0
 43
1.0
 77
     0
 47
0.0008202099737533
 47
0.0
 47
0.0
 47
0.0
 47
0.0
 47
0.0008202099737533
 47
0.0
 47
0.0
 47
0.0
 47
0.0
 47
1.0
 47
0.0
 47
0.0
 47
0.0
 47
0.0
 47
1.0
171
     0
 49
0.0008202099737533
 49
0.0
 49
0.0
 49
0.0
 49
0.0
 49
0.0008202099737533
 49
0.0
 49
0.0
 49
0.0
 49
0.0
 49
1.0
 49
0.0
 49
0.0
 49
0.0
 49
0.0
 49
1.0
175
     0
142
0.0008202099737533
142
0.0
142
0.0
142
0.0
142
0.0
142
0.0008202099737533
142
0.0
142
0.0
142
0.0
142
0.0
142
1.0
142
0.0
142
0.0
142
0.0
142
0.0
142
1.0
179
     0
144
0.0008202099737533
144
0.0
144
0.0
144
0.0
144
0.0
144
0.0008202099737533
144
0.0
144
0.0
144
0.0
144
0.0
144
1.0
144
0.0
144
0.0
144
0.0
144
0.0
144
1.0
147
0.0008202099737533
147
0.0
147
0.0
147
0.0
147
0.0
147
0.0008202099737533
147
0.0
147
0.0
147
0.0
147
0.0
147
1.0
147
0.0
147
0.0
147
0.0
147
0.0
147
1.0
  0
MLEADERSTYLE
  5
31C
102
{ACAD_REACTORS
330
31B
102
}
330
31B
100
AcDbMLeaderStyle
179
     2
170
     2
171
     1
172
     0
 90
        2
 40
0.0
 41
0.0
173
     1
 91
-1056964608
340
14
 92
       -2
290
     1
 42
2.0
291
     1
 43
0.36
  3
Standard
 44
4.0
300

342
11
174
     1
178
     6
175
     1
176
     0
 93
-1056964608
 45
4.0
292
     0
297
     0
 46
4.0
 94
-1056964608
 47
1.0
 49
1.0
140
1.0
293
     1
141
0.0
294
     1
177
     0
142
1.0
295
     1
296
     0
143
0.125
271
     0
272
     9
273
     9
  0
MLINESTYLE
  5
18
102
{ACAD_REACTORS
330
17
102
}
330
17
100
AcDbMlineStyle
  2
STANDARD
 70
     0
  3

 62
   256
 51
90.0
 52
90.0
 71
     2
 49
0.5
 62
   256
  6
BYLAYER
 49
-0.5
 62
   256
  6
BYLAYER
  0
ACDBPLACEHOLDER
  5
F
102
{ACAD_REACTORS
330
E
102
}
330
E
  0
SCALE
  5
30A
102
{ACAD_REACTORS
330
309
102
}
330
309
100
AcDbScale
 70
     0
300
1:1
140
1.0
141
1.0
290
     1
  0
SCALE
  5
30B
102
{ACAD_REACTORS
330
309
102
}
330
309
100
AcDbScale
 70
     0
300
1:2
140
1.0
141
2.0
290
     0
  0
SCALE
  5
30C
102
{ACAD_REACTORS
330
309
102
}
330
309
100
AcDbScale
 70
     0
300
1:4
140
1.0
141
4.0
290
     0
  0
SCALE
  5
30D
102
{ACAD_REACTORS
330
309
102
}
330
309
100
AcDbScale
 70
     0
300
1:5
140
1.0
141
5.0
290
     0
  0
SCALE
  5
30E
102
{ACAD_REACTORS
330
309
102
}
330
309
100
AcDbScale
 70
     0
300
1:8
140
1.0
141
8.0
290
     0
  0
SCALE
  5
30F
102
{ACAD_REACTORS
330
309
102
}
330
309
100
AcDbScale
 70
     0
300
1:10
140
1.0
141
10.0
290
     0
  0
SCALE
  5
310
102
{ACAD_REACTORS
330
309
102
}
330
309
100
AcDbScale
 70
     0
300
1:16
140
1.0
141
16.0
290
     0
  0
SCALE
  5
311
102
{ACAD_REACTORS
330
309
102
}
330
309
100
AcDbScale
 70
     0
300
1:20
140
1.0
141
20.0
290
     0
  0
SCALE
  5
312
102
{ACAD_REACTORS
330
309
102
}
330
309
100
AcDbScale
 70
     0
300
1:30
140
1.0
141
30.0
290
     0
  0
SCALE
  5
313
102
{ACAD_REACTORS
330
309
102
}
330
309
100
AcDbScale
 70
     0
300
1:40
140
1.0
141
40.0
290
     0
  0
SCALE
  5
314
102
{ACAD_REACTORS
330
309
102
}
330
309
100
AcDbScale
 70
     0
300
1:50
140
1.0
141
50.0
290
     0
  0
SCALE
  5
315
102
{ACAD_REACTORS
330
309
102
}
330
309
100
AcDbScale
 70
     0
300
1:100
140
1.0
141
100.0
290
     0
  0
SCALE
  5
316
102
{ACAD_REACTORS
330
309
102
}
330
309
100
AcDbScale
 70
     0
300
2:1
140
2.0
141
1.0
290
     0
  0
SCALE
  5
317
102
{ACAD_REACTORS
330
309
102
}
330
309
100
AcDbScale
 70
     0
300
4:1
140
4.0
141
1.0
290
     0
  0
SCALE
  5
318
102
{ACAD_REACTORS
330
309
102
}
330
309
100
AcDbScale
 70
     0
300
8:1
140
8.0
141
1.0
290
     0
  0
SCALE
  5
319
102
{ACAD_REACTORS
330
309
102
}
330
309
100
AcDbScale
 70
     0
300
10:1
140
10.0
141
1.0
290
     0
  0
SCALE
  5
31A
102
{ACAD_REACTORS
330
309
102
}
330
309
100
AcDbScale
 70
     0
300
100:1
140
100.0
141
1.0
290
     0
  0
TABLESTYLE
  5
308
102
{ACAD_XDICTIONARY
360
328
102
}
102
{ACAD_REACTORS
330
307
102
}
330
307
100
AcDbTableStyle
280
     0
  3
Standard
 70
     0
 71
     0
 40
1.5
 41
1.5
280
     0
281
     0
  7
Standard
140
4.5
170
     2
 62
     0
 63
     7
283
     0
 90
      512
 91
        0
  1

274
    -2
284
     1
 64
     0
275
    -2
285
     1
 65
     0
276
    -2
286
     1
 66
     0
277
    -2
287
     1
 67
     0
278
    -2
288
     1
 68
     0
279
    -2
289
     1
 69
     0
  7
Standard
140
6.0
170
     5
 62
     0
 63
     7
283
     0
 90
      512
 91
        0
  1

274
    -2
284
     1
 64
     0
275
    -2
285
     1
 65
     0
276
    -2
286
     1
 66
     0
277
    -2
287
     1
 67
     0
278
    -2
288
     1
 68
     0
279
    -2
289
     1
 69
     0
  7
Standard
140
4.5
170
     5
 62
     0
 63
     7
283
     0
 90
      512
 91
        0
  1

274
    -2
284
     1
 64
     0
275
    -2
285
     1
 65
     0
276
    -2
286
     1
 66
     0
277
    -2
287
     1
 67
     0
278
    -2
288
     1
 68
     0
279
    -2
289
     1
 69
     0
  0
VISUALSTYLE
  5
2F8
102
{ACAD_REACTORS
330
2F2
102
}
330
2F2
100
AcDbVisualStyle
  2
2dWireframe
 70
     4
177
     2
291
     0
 71
     0
176
     1
 72
     2
176
     1
 73
     0
176
     1
 90
        0
176
     1
 40
0.6
176
     1
 41
30.0
176
     1
 63
     7
421
 16777215
176
     1
 74
     1
176
     1
 91
        4
176
     1
 64
     7
176
     1
 65
   257
176
     1
 75
     1
176
     1
175
     1
176
     1
 42
1.0
176
     1
 92
        0
176
     1
 66
   257
176
     1
 43
1.0
176
     1
 76
     1
176
     1
 77
     6
176
     1
 78
     2
176
     1
 67
     7
176
     1
 79
     5
176
     1
170
     0
176
     1
171
     0
176
     1
290
     0
176
     1
 93
        1
176
     1
 44
0.0
176
     1
173
     0
176
     1
  0
VISUALSTYLE
  5
2FA
102
{ACAD_REACTORS
330
2F2
102
}
330
2F2
100
AcDbVisualStyle
  2
3D Hidden
 70
     6
177
     2
291
     0
 71
     1
176
     1
 72
     2
176
     1
 73
     2
176
     1
 90
        0
176
     1
 40
0.6
176
     1
 41
30.0
176
     1
 63
     7
421
 16777215
176
     1
 74
     2
176
     1
 91
        2
176
     1
 64
     7
176
     1
 65
   257
176
     1
 75
     2
176
     1
175
     1
176
     1
 42
179.0
176
     1
 92
        0
176
     1
 66
   257
176
     1
 43
1.0
176
     1
 76
     1
176
     1
 77
     6
176
     1
 78
     2
176
     1
 67
     7
176
     1
 79
     3
176
     1
170
     0
176
     1
171
     0
176
     1
290
     0
176
     1
 93
        1
176
     1
 44
0.0
176
     1
173
     0
176
     1
  0
VISUALSTYLE
  5
2F9
102
{ACAD_REACTORS
330
2F2
102
}
330
2F2
100
AcDbVisualStyle
  2
3dWireframe
 70
     5
177
     2
291
     0
 71
     0
176
     1
 72
     2
176
     1
 73
     0
176
     1
 90
        0
176
     1
 40
0.6
176
     1
 41
30.0
176
     1
 63
     7
421
 16777215
176
     1
 74
     1
176
     1
 91
        4
176
     1
 64
     7
176
     1
 65
   257
176
     1
 75
     1
176
     1
175
     1
176
     1
 42
1.0
176
     1
 92
        0
176
     1
 66
   257
176
     1
 43
1.0
176
     1
 76
     1
176
     1
 77
     6
176
     1
 78
     2
176
     1
 67
     7
176
     1
 79
     5
176
     1
170
     0
176
     1
171
     0
176
     1
290
     0
176
     1
 93
        1
176
     1
 44
0.0
176
     1
173
     0
176
     1
  0
VISUALSTYLE
  5
2F7
102
{ACAD_REACTORS
330
2F2
102
}
330
2F2
100
AcDbVisualStyle
  2
Basic
 70
     7
177
     2
291
     1
 71
     1
176
     1
 72
     0
176
     1
 73
     1
176
     1
 90
        0
176
     1
 40
0.6
176
     1
 41
30.0
176
     1
 63
     7
421
 16777215
176
     1
 74
     0
176
     1
 91
        4
176
     1
 64
     7
176
     1
 65
   257
176
     1
 75
     1
176
     1
175
     1
176
     1
 42
1.0
176
     1
 92
        8
176
     1
 66
     7
176
     1
 43
1.0
176
     1
 76
     1
176
     1
 77
     6
176
     1
 78
     2
176
     1
 67
     7
176
     1
 79
     5
176
     1
170
     0
176
     1
171
     0
176
     1
290
     0
176
     1
 93
        1
176
     1
 44
0.0
176
     1
173
     0
176
     1
  0
VISUALSTYLE
  5
2FE
102
{ACAD_REACTORS
330
2F2
102
}
330
2F2
100
AcDbVisualStyle
  2
Brighten
 70
    12
177
     2
291
     1
 71
     2
176
     1
 72
     2
176
     1
 73
     0
176
     1
 90
        0
176
     1
 40
0.6
176
     1
 41
30.0
176
     1
 63
     7
421
 16777215
176
     1
 74
     1
176
     1
 91
        4
176
     1
 64
     7
176
     1
 65
   257
176
     1
 75
     1
176
     1
175
     1
176
     1
 42
1.0
176
     1
 92
        8
176
     1
 66
     7
176
     1
 43
1.0
176
     1
 76
     1
176
     1
 77
     6
176
     1
 78
     2
176
     1
 67
     7
176
     1
 79
     5
176
     1
170
     0
176
     1
171
     0
176
     1
290
     0
176
     1
 93
        1
176
     1
 44
50.0
176
     1
173
     0
176
     1
  0
VISUALSTYLE
  5
302
102
{ACAD_REACTORS
330
2F2
102
}
330
2F2
100
AcDbVisualStyle
  2
ColorChange
 70
    16
177
     2
291
     1
 71
     2
176
     1
 72
     2
176
     1
 73
     3
176
     1
 90
        0
176
     1
 40
0.6
176
     1
 41
30.0
176
     1
 63
     8
421
  8421504
176
     1
 74
     1
176
     1
 91
        4
176
     1
 64
     7
176
     1
 65
   257
176
     1
 75
     1
176
     1
175
     1
176
     1
 42
1.0
176
     1
 92
        8
176
     1
 66
     8
424
  8421504
176
     1
 43
1.0
176
     1
 76
     1
176
     1
 77
     6
176
     1
 78
     2
176
     1
 67
     7
176
     1
 79
     5
176
     1
170
     0
176
     1
171
     0
176
     1
290
     0
176
     1
 93
        1
176
     1
 44
0.0
176
     1
173
     0
176
     1
  0
VISUALSTYLE
  5
2FB
102
{ACAD_REACTORS
330
2F2
102
}
330
2F2
100
AcDbVisualStyle
  2
Conceptual
 70
     9
177
     2
291
     0
 71
     3
176
     1
 72
     2
176
     1
 73
     0
176
     1
 90
        0
176
     1
 40
0.6
176
     1
 41
30.0
176
     1
 63
     7
421
 16777215
176
     1
 74
     2
176
     1
 91
        2
176
     1
 64
     7
176
     1
 65
   257
176
     1
 75
     1
176
     1
175
     1
176
     1
 42
179.0
176
     1
 92
        8
176
     1
 66
     7
176
     1
 43
1.0
176
     1
 76
     1
176
     1
 77
     6
176
     1
 78
     2
176
     1
 67
     7
176
     1
 79
     3
176
     1
170
     0
176
     1
171
     0
176
     1
290
     0
176
     1
 93
        1
176
     1
 44
0.0
176
     1
173
     0
176
     1
  0
VISUALSTYLE
  5
2FD
102
{ACAD_REACTORS
330
2F2
102
}
330
2F2
100
AcDbVisualStyle
  2
Dim
 70
    11
177
     2
291
     1
 71
     2
176
     1
 72
     2
176
     1
 73
     0
176
     1
 90
        0
176
     1
 40
0.6
176
     1
 41
30.0
176
     1
 63
     7
421
 16777215
176
     1
 74
     1
176
     1
 91
        4
176
     1
 64
     7
176
     1
 65
   257
176
     1
 75
     1
176
     1
175
     1
176
     1
 42
1.0
176
     1
 92
        8
176
     1
 66
     7
176
     1
 43
1.0
176
     1
 76
     1
176
     1
 77
     6
176
     1
 78
     2
176
     1
 67
     7
176
     1
 79
     5
176
     1
170
     0
176
     1
171
     0
176
     1
290
     0
176
     1
 93
        1
176
     1
 44
-50.0
176
     1
173
     0
176
     1
  0
VISUALSTYLE
  5
305
102
{ACAD_REACTORS
330
2F2
102
}
330
2F2
100
AcDbVisualStyle
  2
EdgeColorOff
 70
    22
177
     2
291
     1
 71
     2
176
     0
 72
     2
176
     0
 73
     0
176
     0
 90
        0
176
     0
 40
0.6
176
     0
 41
30.0
176
     0
 63
     7
421
 16777215
176
     0
 74
     1
176
     0
 91
        4
176
     0
 64
     7
176
     0
 65
   257
176
     0
 75
     1
176
     0
175
     1
176
     0
 42
1.0
176
     0
 92
        8
176
     2
 66
     7
176
     0
 43
1.0
176
     0
 76
     1
176
     0
 77
     6
176
     0
 78
     2
176
     0
 67
     7
176
     0
 79
     5
176
     0
170
     0
176
     0
171
     0
176
     0
290
     0
176
     0
 93
        1
176
     0
 44
0.0
176
     0
173
     0
176
     0
  0
VISUALSTYLE
  5
301
102
{ACAD_REACTORS
330
2F2
102
}
330
2F2
100
AcDbVisualStyle
  2
Facepattern
 70
    15
177
     2
291
     1
 71
     2
176
     1
 72
     2
176
     1
 73
     0
176
     1
 90
        0
176
     1
 40
0.6
176
     1
 41
30.0
176
     1
 63
     7
421
 16777215
176
     1
 74
     1
176
     1
 91
        4
176
     1
 64
     7
176
     1
 65
   257
176
     1
 75
     1
176
     1
175
     1
176
     1
 42
1.0
176
     1
 92
        8
176
     1
 66
     7
176
     1
 43
1.0
176
     1
 76
     1
176
     1
 77
     6
176
     1
 78
     2
176
     1
 67
     7
176
     1
 79
     5
176
     1
170
     0
176
     1
171
     0
176
     1
290
     0
176
     1
 93
        1
176
     1
 44
0.0
176
     1
173
     0
176
     1
  0
VISUALSTYLE
  5
2F3
102
{ACAD_REACTORS
330
2F2
102
}
330
2F2
100
AcDbVisualStyle
  2
Flat
 70
     0
177
     2
291
     1
 71
     2
176
     1
 72
     1
176
     1
 73
     1
176
     1
 90
        2
176
     1
 40
0.6
176
     1
 41
30.0
176
     1
 63
     7
421
 16777215
176
     1
 74
     0
176
     1
 91
        4
176
     1
 64
     7
176
     1
 65
   257
176
     1
 75
     1
176
     1
175
     1
176
     1
 42
1.0
176
     1
 92
        8
176
     1
 66
     7
176
     1
 43
1.0
176
     1
 76
     1
176
     1
 77
     6
176
     1
 78
     2
176
     1
 67
     7
176
     1
 79
     5
176
     1
170
     0
176
     1
171
     0
176
     1
290
     0
176
     1
 93
       13
176
     1
 44
0.0
176
     1
173
     0
176
     1
  0
VISUALSTYLE
  5
2F4
102
{ACAD_REACTORS
330
2F2
102
}
330
2F2
100
AcDbVisualStyle
  2
FlatWithEdges
 70
     1
177
     2
291
     1
 71
     2
176
     1
 72
     1
176
     1
 73
     1
176
     1
 90
        2
176
     1
 40
0.6
176
     1
 41
30.0
176
     1
 63
     7
421
 16777215
176
     1
 74
     1
176
     1
 91
        4
176
     1
 64
     7
176
     1
 65
   257
176
     1
 75
     1
176
     1
175
     1
176
     1
 42
1.0
176
     1
 92
        0
176
     1
 66
   257
176
     1
 43
1.0
176
     1
 76
     1
176
     1
 77
     6
176
     1
 78
     2
176
     1
 67
     7
176
     1
 79
     5
176
     1
170
     0
176
     1
171
     0
176
     1
290
     0
176
     1
 93
       13
176
     1
 44
0.0
176
     1
173
     0
176
     1
  0
VISUALSTYLE
  5
2F5
102
{ACAD_REACTORS
330
2F2
102
}
330
2F2
100
AcDbVisualStyle
  2
Gouraud
 70
     2
177
     2
291
     1
 71
     2
176
     1
 72
     2
176
     1
 73
     1
176
     1
 90
        2
176
     1
 40
0.6
176
     1
 41
30.0
176
     1
 63
     7
421
 16777215
176
     1
 74
     0
176
     1
 91
        4
176
     1
 64
     7
176
     1
 65
   257
176
     1
 75
     1
176
     1
175
     1
176
     1
 42
1.0
176
     1
 92
        0
176
     1
 66
     7
176
     1
 43
1.0
176
     1
 76
     1
176
     1
 77
     6
176
     1
 78
     2
176
     1
 67
     7
176
     1
 79
     5
176
     1
170
     0
176
     1
171
     0
176
     1
290
     0
176
     1
 93
       13
176
     1
 44
0.0
176
     1
173
     0
176
     1
  0
VISUALSTYLE
  5
2F6
102
{ACAD_REACTORS
330
2F2
102
}
330
2F2
100
AcDbVisualStyle
  2
GouraudWithEdges
 70
     3
177
     2
291
     1
 71
     2
176
     1
 72
     2
176
     1
 73
     1
176
     1
 90
        2
176
     1
 40
0.6
176
     1
 41
30.0
176
     1
 63
     7
421
 16777215
176
     1
 74
     1
176
     1
 91
        4
176
     1
 64
     7
176
     1
 65
   257
176
     1
 75
     1
176
     1
175
     1
176
     1
 42
1.0
176
     1
 92
        0
176
     1
 66
   257
176
     1
 43
1.0
176
     1
 76
     1
176
     1
 77
     6
176
     1
 78
     2
176
     1
 67
     7
176
     1
 79
     5
176
     1
170
     0
176
     1
171
     0
176
     1
290
     0
176
     1
 93
       13
176
     1
 44
0.0
176
     1
173
     0
176
     1
  0
VISUALSTYLE
  5
303
102
{ACAD_REACTORS
330
2F2
102
}
330
2F2
100
AcDbVisualStyle
  2
JitterOff
 70
    20
177
     2
291
     1
 71
     2
176
     0
 72
     2
176
     0
 73
     0
176
     0
 90
        0
176
     0
 40
0.6
176
     0
 41
30.0
176
     0
 63
     7
421
 16777215
176
     0
 74
     1
176
     0
 91
        4
176
     0
 64
     7
176
     0
 65
   257
176
     0
 75
     1
176
     0
175
     1
176
     0
 42
1.0
176
     0
 92
       10
176
     2
 66
     7
176
     0
 43
1.0
176
     0
 76
     1
176
     0
 77
     6
176
     0
 78
     2
176
     0
 67
     7
176
     0
 79
     5
176
     0
170
     0
176
     0
171
     0
176
     0
290
     0
176
     0
 93
        1
176
     0
 44
0.0
176
     0
173
     0
176
     0
  0
VISUALSTYLE
  5
300
102
{ACAD_REACTORS
330
2F2
102
}
330
2F2
100
AcDbVisualStyle
  2
Linepattern
 70
    14
177
     2
291
     1
 71
     2
176
     1
 72
     2
176
     1
 73
     0
176
     1
 90
        0
176
     1
 40
0.6
176
     1
 41
30.0
176
     1
 63
     7
421
 16777215
176
     1
 74
     1
176
     1
 91
        4
176
     1
 64
     7
176
     1
 65
   257
176
     1
 75
     7
176
     1
175
     7
176
     1
 42
1.0
176
     1
 92
        8
176
     1
 66
     7
176
     1
 43
1.0
176
     1
 76
     1
176
     1
 77
     6
176
     1
 78
     2
176
     1
 67
     7
176
     1
 79
     5
176
     1
170
     0
176
     1
171
     0
176
     1
290
     0
176
     1
 93
        1
176
     1
 44
0.0
176
     1
173
     0
176
     1
  0
VISUALSTYLE
  5
304
102
{ACAD_REACTORS
330
2F2
102
}
330
2F2
100
AcDbVisualStyle
  2
OverhangOff
 70
    21
177
     2
291
     1
 71
     2
176
     0
 72
     2
176
     0
 73
     0
176
     0
 90
        0
176
     0
 40
0.6
176
     0
 41
30.0
176
     0
 63
     7
421
 16777215
176
     0
 74
     1
176
     0
 91
        4
176
     0
 64
     7
176
     0
 65
   257
176
     0
 75
     1
176
     0
175
     1
176
     0
 42
1.0
176
     0
 92
        9
176
     2
 66
     7
176
     0
 43
1.0
176
     0
 76
     1
176
     0
 77
     6
176
     0
 78
     2
176
     0
 67
     7
176
     0
 79
     5
176
     0
170
     0
176
     0
171
     0
176
     0
290
     0
176
     0
 93
        1
176
     0
 44
0.0
176
     0
173
     0
176
     0
  0
VISUALSTYLE
  5
2FC
102
{ACAD_REACTORS
330
2F2
102
}
330
2F2
100
AcDbVisualStyle
  2
Realistic
 70
     8
177
     2
291
     0
 71
     2
176
     1
 72
     2
176
     1
 73
     0
176
     1
 90
        0
176
     1
 40
0.6
176
     1
 41
30.0
176
     1
 63
     7
421
 16777215
176
     1
 74
     1
176
     1
 91
        0
176
     1
 64
     7
176
     1
 65
   257
176
     1
 75
     1
176
     1
175
     1
176
     1
 42
1.0
176
     1
 92
        8
176
     1
 66
     8
424
  7895160
176
     1
 43
1.0
176
     1
 76
     1
176
     1
 77
     6
176
     1
 78
     2
176
     1
 67
     7
176
     1
 79
     5
176
     1
170
     0
176
     1
171
     0
176
     1
290
     0
176
     1
 93
       13
176
     1
 44
0.0
176
     1
173
     0
176
     1
  0
VISUALSTYLE
  5
2FF
102
{ACAD_REACTORS
330
2F2
102
}
330
2F2
100
AcDbVisualStyle
  2
Thicken
 70
    13
177
     2
291
     1
 71
     2
176
     1
 72
     2
176
     1
 73
     0
176
     1
 90
        0
176
     1
 40
0.6
176
     1
 41
30.0
176
     1
 63
     7
421
 16777215
176
     1
 74
     1
176
     1
 91
        4
176
     1
 64
     7
176
     1
 65
   257
176
     1
 75
     1
176
     1
175
     1
176
     1
 42
1.0
176
     1
 92
       12
176
     1
 66
     7
176
     1
 43
1.0
176
     1
 76
     1
176
     1
 77
     6
176
     1
 78
     2
176
     1
 67
     7
176
     1
 79
     5
176
     1
170
     0
176
     1
171
     0
176
     1
290
     0
176
     1
 93
        1
176
     1
 44
0.0
176
     1
173
     0
176
     1
  0
DICTIONARYVAR
  5
324
102
{ACAD_REACTORS
330
5E
102
}
330
5E
100
DictionaryVariables
280
     0
  1
1:1
  0
DICTIONARYVAR
  5
322
102
{ACAD_REACTORS
330
5E
102
}
330
5E
100
DictionaryVariables
280
     0
  1
STANDARD
  0
DICTIONARYVAR
  5
321
102
{ACAD_REACTORS
330
5E
102
}
330
5E
100
DictionaryVariables
280
     0
  1
STANDARD
  0
DICTIONARYVAR
  5
5F
102
{ACAD_REACTORS
330
5E
102
}
330
5E
100
DictionaryVariables
280
     0
  1
2
  0
DICTIONARYVAR
  5
63
102
{ACAD_REACTORS
330
5E
102
}
330
5E
100
DictionaryVariables
280
     0
  1
1
  0
DICTIONARYVAR
  5
326
102
{ACAD_REACTORS
330
5E
102
}
330
5E
100
DictionaryVariables
280
     0
  1
1
  0
DICTIONARYVAR
  5
327
102
{ACAD_REACTORS
330
5E
102
}
330
5E
100
DictionaryVariables
280
     0
  1
15
  0
DICTIONARYVAR
  5
325
102
{ACAD_REACTORS
330
5E
102
}
330
5E
100
DictionaryVariables
280
     0
  1
0
  0
DICTIONARYVAR
  5
323
102
{ACAD_REACTORS
330
5E
102
}
330
5E
100
DictionaryVariables
280
     0
  1
0
  0
DICTIONARY
  5
2E3
330
2E2
100
AcDbDictionary
280
     1
281
     1
  3
BUMPTILE
360
2E5
  3
DIFFUSETILE
360
2E4
  3
OPACITYTILE
360
2E8
  3
REFLECTIONTILE
360
2E7
  3
REFRACTIONTILE
360
2E9
  3
SPECULARTILE
360
2E6
  0
DICTIONARY
  5
2DB
330
2DA
100
AcDbDictionary
280
     1
281
     1
  3
BUMPTILE
360
2DD
  3
DIFFUSETILE
360
2DC
  3
OPACITYTILE
360
2E0
  3
REFLECTIONTILE
360
2DF
  3
REFRACTIONTILE
360
2E1
  3
SPECULARTILE
360
2DE
  0
DICTIONARY
  5
2EB
330
2EA
100
AcDbDictionary
280
     1
281
     1
  3
BUMPTILE
360
2ED
  3
DIFFUSETILE
360
2EC
  3
OPACITYTILE
360
2F0
  3
REFLECTIONTILE
360
2EF
  3
REFRACTIONTILE
360
2F1
  3
SPECULARTILE
360
2EE
  0
DICTIONARY
  5
328
330
308
100
AcDbDictionary
280
     1
281
     1
  3
ACAD_ROUNDTRIP_2008_TABLESTYLE_CELLSTYLEMAP
360
329
  0
XRECORD
  5
2E5
102
{ACAD_REACTORS
330
2E3
102
}
330
2E3
100
AcDbXrecord
280
     1
270
     1
271
     1
  0
XRECORD
  5
2E4
102
{ACAD_REACTORS
330
2E3
102
}
330
2E3
100
AcDbXrecord
280
     1
270
     1
271
     1
  0
XRECORD
  5
2E8
102
{ACAD_REACTORS
330
2E3
102
}
330
2E3
100
AcDbXrecord
280
     1
270
     1
271
     1
  0
XRECORD
  5
2E7
102
{ACAD_REACTORS
330
2E3
102
}
330
2E3
100
AcDbXrecord
280
     1
270
     1
271
     1
  0
XRECORD
  5
2E9
102
{ACAD_REACTORS
330
2E3
102
}
330
2E3
100
AcDbXrecord
280
     1
270
     1
271
     1
  0
XRECORD
  5
2E6
102
{ACAD_REACTORS
330
2E3
102
}
330
2E3
100
AcDbXrecord
280
     1
270
     1
271
     1
  0
XRECORD
  5
2DD
102
{ACAD_REACTORS
330
2DB
102
}
330
2DB
100
AcDbXrecord
280
     1
270
     1
271
     1
  0
XRECORD
  5
2DC
102
{ACAD_REACTORS
330
2DB
102
}
330
2DB
100
AcDbXrecord
280
     1
270
     1
271
     1
  0
XRECORD
  5
2E0
102
{ACAD_REACTORS
330
2DB
102
}
330
2DB
100
AcDbXrecord
280
     1
270
     1
271
     1
  0
XRECORD
  5
2DF
102
{ACAD_REACTORS
330
2DB
102
}
330
2DB
100
AcDbXrecord
280
     1
270
     1
271
     1
  0
XRECORD
  5
2E1
102
{ACAD_REACTORS
330
2DB
102
}
330
2DB
100
AcDbXrecord
280
     1
270
     1
271
     1
  0
XRECORD
  5
2DE
102
{ACAD_REACTORS
330
2DB
102
}
330
2DB
100
AcDbXrecord
280
     1
270
     1
271
     1
  0
XRECORD
  5
2ED
102
{ACAD_REACTORS
330
2EB
102
}
330
2EB
100
AcDbXrecord
280
     1
270
     1
271
     1
  0
XRECORD
  5
2EC
102
{ACAD_REACTORS
330
2EB
102
}
330
2EB
100
AcDbXrecord
280
     1
270
     1
271
     1
  0
XRECORD
  5
2F0
102
{ACAD_REACTORS
330
2EB
102
}
330
2EB
100
AcDbXrecord
280
     1
270
     1
271
     1
  0
XRECORD
  5
2EF
102
{ACAD_REACTORS
330
2EB
102
}
330
2EB
100
AcDbXrecord
280
     1
270
     1
271
     1
  0
XRECORD
  5
2F1
102
{ACAD_REACTORS
330
2EB
102
}
330
2EB
100
AcDbXrecord
280
     1
270
     1
271
     1
  0
XRECORD
  5
2EE
102
{ACAD_REACTORS
330
2EB
102
}
330
2EB
100
AcDbXrecord
280
     1
270
     1
271
     1
  0
CELLSTYLEMAP
  5
329
102
{ACAD_REACTORS
330
328
102
}
330
328
100
AcDbCellStyleMap
 90
        3
300
CELLSTYLE
  1
TABLEFORMAT_BEGIN
 90
        5
170
     1
 91
        0
 92
    32768
 62
   257
 93
        1
300
CONTENTFORMAT
  1
CONTENTFORMAT_BEGIN
 90
        0
 91
        0
 92
      512
 93
        0
300

 40
0.0
140
1.0
 94
        5
 62
     0
340
11
144
6.0
309
CONTENTFORMAT_END
171
     1
301
MARGIN
  1
CELLMARGIN_BEGIN
 40
1.5
 40
1.5
 40
1.5
 40
1.5
 40
4.5
 40
4.5
309
CELLMARGIN_END
 94
        6
 95
        1
302
GRIDFORMAT
  1
GRIDFORMAT_BEGIN
 90
        0
 91
        1
 62
     0
 92
       -2
340
0
 93
        0
 40
1.125
309
GRIDFORMAT_END
 95
        2
302
GRIDFORMAT
  1
GRIDFORMAT_BEGIN
 90
        0
 91
        1
 62
     0
 92
       -2
340
0
 93
        0
 40
1.125
309
GRIDFORMAT_END
 95
        4
302
GRIDFORMAT
  1
GRIDFORMAT_BEGIN
 90
        0
 91
        1
 62
     0
 92
       -2
340
0
 93
        0
 40
1.125
309
GRIDFORMAT_END
 95
        8
302
GRIDFORMAT
  1
GRIDFORMAT_BEGIN
 90
        0
 91
        1
 62
     0
 92
       -2
340
0
 93
        0
 40
1.125
309
GRIDFORMAT_END
 95
       16
302
GRIDFORMAT
  1
GRIDFORMAT_BEGIN
 90
        0
 91
        1
 62
     0
 92
       -2
340
0
 93
        0
 40
1.125
309
GRIDFORMAT_END
 95
       32
302
GRIDFORMAT
  1
GRIDFORMAT_BEGIN
 90
        0
 91
        1
 62
     0
 92
       -2
340
0
 93
        0
 40
1.125
309
GRIDFORMAT_END
309
TABLEFORMAT_END
  1
CELLSTYLE_BEGIN
 90
        1
 91
        1
300
_TITLE
309
CELLSTYLE_END
300
CELLSTYLE
  1
TABLEFORMAT_BEGIN
 90
        5
170
     1
 91
        0
 92
        0
 62
   257
 93
        1
300
CONTENTFORMAT
  1
CONTENTFORMAT_BEGIN
 90
        0
 91
        0
 92
      512
 93
        0
300

 40
0.0
140
1.0
 94
        5
 62
     0
340
11
144
4.5
309
CONTENTFORMAT_END
171
     1
301
MARGIN
  1
CELLMARGIN_BEGIN
 40
1.5
 40
1.5
 40
1.5
 40
1.5
 40
4.5
 40
4.5
309
CELLMARGIN_END
 94
        6
 95
        1
302
GRIDFORMAT
  1
GRIDFORMAT_BEGIN
 90
        0
 91
        1
 62
     0
 92
       -2
340
0
 93
        0
 40
1.125
309
GRIDFORMAT_END
 95
        2
302
GRIDFORMAT
  1
GRIDFORMAT_BEGIN
 90
        0
 91
        1
 62
     0
 92
       -2
340
0
 93
        0
 40
1.125
309
GRIDFORMAT_END
 95
        4
302
GRIDFORMAT
  1
GRIDFORMAT_BEGIN
 90
        0
 91
        1
 62
     0
 92
       -2
340
0
 93
        0
 40
1.125
309
GRIDFORMAT_END
 95
        8
302
GRIDFORMAT
  1
GRIDFORMAT_BEGIN
 90
        0
 91
        1
 62
     0
 92
       -2
340
0
 93
        0
 40
1.125
309
GRIDFORMAT_END
 95
       16
302
GRIDFORMAT
  1
GRIDFORMAT_BEGIN
 90
        0
 91
        1
 62
     0
 92
       -2
340
0
 93
        0
 40
1.125
309
GRIDFORMAT_END
 95
       32
302
GRIDFORMAT
  1
GRIDFORMAT_BEGIN
 90
        0
 91
        1
 62
     0
 92
       -2
340
0
 93
        0
 40
1.125
309
GRIDFORMAT_END
309
TABLEFORMAT_END
  1
CELLSTYLE_BEGIN
 90
        2
 91
        1
300
_HEADER
309
CELLSTYLE_END
300
CELLSTYLE
  1
TABLEFORMAT_BEGIN
 90
        5
170
     1
 91
        0
 92
        0
 62
   257
 93
        1
300
CONTENTFORMAT
  1
CONTENTFORMAT_BEGIN
 90
        0
 91
        0
 92
      512
 93
        0
300

 40
0.0
140
1.0
 94
        2
 62
     0
340
11
144
4.5
309
CONTENTFORMAT_END
171
     1
301
MARGIN
  1
CELLMARGIN_BEGIN
 40
1.5
 40
1.5
 40
1.5
 40
1.5
 40
4.5
 40
4.5
309
CELLMARGIN_END
 94
        6
 95
        1
302
GRIDFORMAT
  1
GRIDFORMAT_BEGIN
 90
        0
 91
        1
 62
     0
 92
       -2
340
0
 93
        0
 40
1.125
309
GRIDFORMAT_END
 95
        2
302
GRIDFORMAT
  1
GRIDFORMAT_BEGIN
 90
        0
 91
        1
 62
     0
 92
       -2
340
0
 93
        0
 40
1.125
309
GRIDFORMAT_END
 95
        4
302
GRIDFORMAT
  1
GRIDFORMAT_BEGIN
 90
        0
 91
        1
 62
     0
 92
       -2
340
0
 93
        0
 40
1.125
309
GRIDFORMAT_END
 95
        8
302
GRIDFORMAT
  1
GRIDFORMAT_BEGIN
 90
        0
 91
        1
 62
     0
 92
       -2
340
0
 93
        0
 40
1.125
309
GRIDFORMAT_END
 95
       16
302
GRIDFORMAT
  1
GRIDFORMAT_BEGIN
 90
        0
 91
        1
 62
     0
 92
       -2
340
0
 93
        0
 40
1.125
309
GRIDFORMAT_END
 95
       32
302
GRIDFORMAT
  1
GRIDFORMAT_BEGIN
 90
        0
 91
        1
 62
     0
 92
       -2
340
0
 93
        0
 40
1.125
309
GRIDFORMAT_END
309
TABLEFORMAT_END
  1
CELLSTYLE_BEGIN
 90
        3
 91
        2
300
_DATA
309
CELLSTYLE_END
  0
ENDSEC
  0
EOF
