  0
SECTION
  2
HEADER
  9
$ACADVER
  1
AC1018
  9
$ACADMAINTVER
 70
   104
  9
$DWGCODEPAGE
  3
ANSI_932
  9
$LASTSAVEDBY
  1
kanatani
  9
$INSBASE
 10
0.0
 20
0.0
 30
0.0
  9
$EXTMIN
 10
-325.0
 20
-77.18878992372265
 30
0.0
  9
$EXTMAX
 10
359.173190623158
 20
689.166666666667
 30
0.0
  9
$LIMMIN
 10
-2550.0
 20
0.0
  9
$LIMMAX
 10
0.0
 20
1800.0
  9
$ORTHOMODE
 70
     0
  9
$REGENMODE
 70
     1
  9
$FILLMODE
 70
     1
  9
$QTEXTMODE
 70
     0
  9
$MIRRTEXT
 70
     0
  9
$LTSCALE
 40
1.0
  9
$ATTMODE
 70
     1
  9
$TEXTSIZE
 40
0.2
  9
$TRACEWID
 40
0.05
  9
$TEXTSTYLE
  7
STANDARD
  9
$CLAYER
  8
0
  9
$CELTYPE
  6
CONTINUOUS
  9
$CECOLOR
 62
   256
  9
$CELTSCALE
 40
1.0
  9
$DISPSILH
 70
     0
  9
$DIMSCALE
 40
1.0
  9
$DIMASZ
 40
0.18
  9
$DIMEXO
 40
0.0625
  9
$DIMDLI
 40
0.38
  9
$DIMRND
 40
0.0
  9
$DIMDLE
 40
0.0
  9
$DIMEXE
 40
0.18
  9
$DIMTP
 40
0.0
  9
$DIMTM
 40
0.0
  9
$DIMTXT
 40
0.18
  9
$DIMCEN
 40
0.09
  9
$DIMTSZ
 40
0.0
  9
$DIMTOL
 70
     0
  9
$DIMLIM
 70
     0
  9
$DIMTIH
 70
     1
  9
$DIMTOH
 70
     1
  9
$DIMSE1
 70
     0
  9
$DIMSE2
 70
     0
  9
$DIMTAD
 70
     0
  9
$DIMZIN
 70
     0
  9
$DIMBLK
  1

  9
$DIMASO
 70
     1
  9
$DIMSHO
 70
     0
  9
$DIMPOST
  1

  9
$DIMAPOST
  1

  9
$DIMALT
 70
     0
  9
$DIMALTD
 70
     2
  9
$DIMALTF
 40
25.4
  9
$DIMLFAC
 40
1.0
  9
$DIMTOFL
 70
     0
  9
$DIMTVP
 40
0.0
  9
$DIMTIX
 70
     0
  9
$DIMSOXD
 70
     0
  9
$DIMSAH
 70
     0
  9
$DIMBLK1
  1

  9
$DIMBLK2
  1

  9
$DIMSTYLE
  2
Standard
  9
$DIMCLRD
 70
     0
  9
$DIMCLRE
 70
     0
  9
$DIMCLRT
 70
     0
  9
$DIMTFAC
 40
1.0
  9
$DIMGAP
 40
0.09
  9
$DIMJUST
 70
     0
  9
$DIMSD1
 70
     0
  9
$DIMSD2
 70
     0
  9
$DIMTOLJ
 70
     1
  9
$DIMTZIN
 70
     0
  9
$DIMALTZ
 70
     0
  9
$DIMALTTZ
 70
     0
  9
$DIMUPT
 70
     0
  9
$DIMDEC
 70
     4
  9
$DIMTDEC
 70
     4
  9
$DIMALTU
 70
     2
  9
$DIMALTTD
 70
     2
  9
$DIMTXSTY
  7
STANDARD
  9
$DIMAUNIT
 70
     0
  9
$DIMADEC
 70
     0
  9
$DIMALTRND
 40
0.0
  9
$DIMAZIN
 70
     0
  9
$DIMDSEP
 70
    46
  9
$DIMATFIT
 70
     3
  9
$DIMFRAC
 70
     0
  9
$DIMLDRBLK
  1

  9
$DIMLUNIT
 70
     2
  9
$DIMLWD
 70
    -2
  9
$DIMLWE
 70
    -2
  9
$DIMTMOVE
 70
     0
  9
$LUNITS
 70
     2
  9
$LUPREC
 70
     8
  9
$SKETCHINC
 40
0.1
  9
$FILLETRAD
 40
0.0
  9
$AUNITS
 70
     0
  9
$AUPREC
 70
     0
  9
$MENU
  1
.
  9
$ELEVATION
 40
0.0
  9
$PELEVATION
 40
0.0
  9
$THICKNESS
 40
0.0
  9
$LIMCHECK
 70
     0
  9
$CHAMFERA
 40
0.0
  9
$CHAMFERB
 40
0.0
  9
$CHAMFERC
 40
0.0
  9
$CHAMFERD
 40
0.0
  9
$SKPOLY
 70
     0
  9
$TDCREATE
 40
2456143.785712246
  9
$TDUCREATE
 40
2456143.410712245
  9
$TDUPDATE
 40
2456169.622153681
  9
$TDUUPDATE
 40
2456169.247153681
  9
$TDINDWG
 40
0.0352688426
  9
$TDUSRTIMER
 40
0.0352688426
  9
$USRTIMER
 70
     1
  9
$ANGBASE
 50
0.0
  9
$ANGDIR
 70
     0
  9
$PDMODE
 70
     0
  9
$PDSIZE
 40
0.0
  9
$PLINEWID
 40
0.0
  9
$SPLFRAME
 70
     0
  9
$SPLINETYPE
 70
     6
  9
$SPLINESEGS
 70
     8
  9
$HANDSEED
  5
344E
  9
$SURFTAB1
 70
     6
  9
$SURFTAB2
 70
     6
  9
$SURFTYPE
 70
     6
  9
$SURFU
 70
     6
  9
$SURFV
 70
     6
  9
$UCSBASE
  2

  9
$UCSNAME
  2

  9
$UCSORG
 10
0.0
 20
0.0
 30
0.0
  9
$UCSXDIR
 10
1.0
 20
0.0
 30
0.0
  9
$UCSYDIR
 10
0.0
 20
1.0
 30
0.0
  9
$UCSORTHOREF
  2

  9
$UCSORTHOVIEW
 70
     0
  9
$UCSORGTOP
 10
0.0
 20
0.0
 30
0.0
  9
$UCSORGBOTTOM
 10
0.0
 20
0.0
 30
0.0
  9
$UCSORGLEFT
 10
0.0
 20
0.0
 30
0.0
  9
$UCSORGRIGHT
 10
0.0
 20
0.0
 30
0.0
  9
$UCSORGFRONT
 10
0.0
 20
0.0
 30
0.0
  9
$UCSORGBACK
 10
0.0
 20
0.0
 30
0.0
  9
$PUCSBASE
  2

  9
$PUCSNAME
  2

  9
$PUCSORG
 10
0.0
 20
0.0
 30
0.0
  9
$PUCSXDIR
 10
1.0
 20
0.0
 30
0.0
  9
$PUCSYDIR
 10
0.0
 20
1.0
 30
0.0
  9
$PUCSORTHOREF
  2

  9
$PUCSORTHOVIEW
 70
     0
  9
$PUCSORGTOP
 10
0.0
 20
0.0
 30
0.0
  9
$PUCSORGBOTTOM
 10
0.0
 20
0.0
 30
0.0
  9
$PUCSORGLEFT
 10
0.0
 20
0.0
 30
0.0
  9
$PUCSORGRIGHT
 10
0.0
 20
0.0
 30
0.0
  9
$PUCSORGFRONT
 10
0.0
 20
0.0
 30
0.0
  9
$PUCSORGBACK
 10
0.0
 20
0.0
 30
0.0
  9
$USERI1
 70
     0
  9
$USERI2
 70
     0
  9
$USERI3
 70
     0
  9
$USERI4
 70
     0
  9
$USERI5
 70
     0
  9
$USERR1
 40
0.0
  9
$USERR2
 40
0.0
  9
$USERR3
 40
0.0
  9
$USERR4
 40
0.0
  9
$USERR5
 40
0.0
  9
$WORLDVIEW
 70
     1
  9
$SHADEDGE
 70
     3
  9
$SHADEDIF
 70
    70
  9
$TILEMODE
 70
     1
  9
$MAXACTVP
 70
    64
  9
$PINSBASE
 10
0.0
 20
0.0
 30
0.0
  9
$PLIMCHECK
 70
     0
  9
$PEXTMIN
 10
-2550.0
 20
0.0
 30
0.0
  9
$PEXTMAX
 10
0.0
 20
1800.0
 30
0.0
  9
$PLIMMIN
 10
-2550.0
 20
0.0
  9
$PLIMMAX
 10
0.0
 20
1800.0
  9
$UNITMODE
 70
     0
  9
$VISRETAIN
 70
     1
  9
$PLINEGEN
 70
     0
  9
$PSLTSCALE
 70
     1
  9
$TREEDEPTH
 70
  3020
  9
$CMLSTYLE
  2
STANDARD
  9
$CMLJUST
 70
     0
  9
$CMLSCALE
 40
1.0
  9
$PROXYGRAPHICS
 70
     1
  9
$MEASUREMENT
 70
     1
  9
$CELWEIGHT
370
    -1
  9
$ENDCAPS
280
     0
  9
$JOINSTYLE
280
     0
  9
$LWDISPLAY
290
     0
  9
$INSUNITS
 70
     0
  9
$HYPERLINKBASE
  1

  9
$STYLESHEET
  1

  9
$XEDIT
290
     1
  9
$CEPSNTYPE
380
     0
  9
$PSTYLEMODE
290
     1
  9
$FINGERPRINTGUID
  2
{4953702F-6C12-4A29-9AD0-1EBE85BC20CB}
  9
$VERSIONGUID
  2
{3349D38E-CC4B-4E43-B4B4-2A263525A7AD}
  9
$EXTNAMES
290
     1
  9
$PSVPSCALE
 40
0.0
  9
$OLESTARTUP
290
     0
  9
$SORTENTS
280
   127
  9
$INDEXCTL
280
     0
  9
$HIDETEXT
280
     0
  9
$XCLIPFRAME
290
     0
  9
$HALOGAP
280
     0
  9
$OBSCOLOR
 70
   257
  9
$OBSLTYPE
280
     0
  9
$INTERSECTIONDISPLAY
280
     0
  9
$INTERSECTIONCOLOR
 70
   257
  9
$DIMASSOC
280
     1
  9
$PROJECTNAME
  1

  0
ENDSEC
  0
SECTION
  2
CLASSES
  0
CLASS
  1
ACDBDICTIONARYWDFLT
  2
AcDbDictionaryWithDefault
  3
ObjectDBX Classes
 90
        0
 91
        1
280
     0
281
     0
  0
CLASS
  1
MATERIAL
  2
AcDbMaterial
  3
ObjectDBX Classes
 90
     1153
 91
        3
280
     0
281
     0
  0
CLASS
  1
VISUALSTYLE
  2
AcDbVisualStyle
  3
ObjectDBX Classes
 90
     4095
 91
       26
280
     0
281
     0
  0
CLASS
  1
TABLESTYLE
  2
AcDbTableStyle
  3
ObjectDBX Classes
 90
     4095
 91
        1
280
     0
281
     0
  0
CLASS
  1
SCALE
  2
AcDbScale
  3
ObjectDBX Classes
 90
     1153
 91
       17
280
     0
281
     0
  0
CLASS
  1
MLEADERSTYLE
  2
AcDbMLeaderStyle
  3
ACDB_MLEADERSTYLE_CLASS
 90
     4095
 91
        1
280
     0
281
     0
  0
CLASS
  1
ACMESCOPE
  2
AcMeScope
  3
AcMeServices
 90
     1024
 91
        0
280
     0
281
     0
  0
CLASS
  1
ACMECOMMANDHISTORY
  2
AcMeCommandHistory
  3
AcMeServices
 90
     1024
 91
        0
280
     0
281
     0
  0
CLASS
  1
ACIMSYSVARMAN
  2
AcImSysVarManager
  3
AcMeServices
 90
     1024
 91
        0
280
     0
281
     0
  0
CLASS
  1
ACIMINTSYSVAR
  2
AcImIntSysVar
  3
AcMeServices
 90
     1024
 91
        0
280
     0
281
     0
  0
CLASS
  1
ACMESTATEMGR
  2
AcMeStateMgr
  3
AcMeServices
 90
     1024
 91
        0
280
     0
281
     0
  0
CLASS
  1
AMGSETTINGSOBJ
  2
AmgSettingsObj
  3
"AcadM|Product Description: AutoCAD Mechanical|Company: Autodesk, Inc."
 90
     1024
 91
        0
280
     0
281
     0
  0
CLASS
  1
ACGREFMASTER
  2
AcGrefMaster
  3
AcAttribServices
 90
     1024
 91
        0
280
     0
281
     0
  0
CLASS
  1
AMGOBJPROPCFG
  2
AmgObjPropCfg
  3
"AmgLay|Product Description: AutoCAD Mechanical|Company: Autodesk, Inc."
 90
     1025
 91
        0
280
     0
281
     0
  0
CLASS
  1
ACME_DOCUMENT
  2
AcMeDbDoc
  3
AcMeServices
 90
     1024
 91
        0
280
     0
281
     0
  0
CLASS
  1
ACDBENTITYCACHE
  2
AcMeEntityCache
  3
AcMeServices
 90
     1024
 91
        0
280
     0
281
     0
  0
CLASS
  1
ACME_DATABASE
  2
AcMeDbDatabase
  3
AcMeServices
 90
     1024
 91
        0
280
     0
281
     0
  0
CLASS
  1
ACRFINSADJUSTERMGR
  2
AcRfInsAdjusterMgr
  3
AcMeServices
 90
     1024
 91
        0
280
     0
281
     0
  0
CLASS
  1
ACGREFACADMASTER
  2
AcGrefacadMaster
  3
AcGrefServices
 90
     1024
 91
        0
280
     0
281
     0
  0
CLASS
  1
AMDTMENUSTATEMGR
  2
AmdtMenuStateMgr
  3
McadcomServices
 90
     1024
 91
        0
280
     0
281
     0
  0
CLASS
  1
AMDTMCOMMENUSTATE
  2
AmdtMcomMenuState
  3
McadcomServices
 90
     1024
 91
        0
280
     0
281
     0
  0
CLASS
  1
AMIMASTER
  2
AmiMaster
  3
AmiServices
 90
     1024
 91
        0
280
     0
281
     0
  0
CLASS
  1
MAPIAMMOUDLE
  2
MApiAmModule
  3
MApiAmServices
 90
     1024
 91
        0
280
     0
281
     0
  0
CLASS
  1
ACMSTANDARDISO
  2
AcmStandardISO
  3
"Amdt_StdImp|Product Description: AutoCAD Mechanical|Company: Autodesk, Inc."
 90
     1024
 91
        0
280
     0
281
     0
  0
CLASS
  1
AMDTEDGESTANDARDISO
  2
AmdtEdgeStdISO
  3
"Amdt_StdImp|Product Description: AutoCAD Mechanical|Company: Autodesk, Inc."
 90
     1024
 91
        0
280
     0
281
     0
  0
CLASS
  1
ACMSURFSTANDARDISO
  2
AcmSurfTextStdISO
  3
"Amdt_StdImp|Product Description: AutoCAD Mechanical|Company: Autodesk, Inc."
 90
     1024
 91
        0
280
     0
281
     0
  0
CLASS
  1
ACMFCFSTANDARDISO
  2
AcmFCFStdISO
  3
"Amdt_StdImp|Product Description: AutoCAD Mechanical|Company: Autodesk, Inc."
 90
     1024
 91
        0
280
     0
281
     0
  0
CLASS
  1
ACMWELDSTANDARDISO
  2
AcmWeldingStdISO
  3
"Amdt_StdImp|Product Description: AutoCAD Mechanical|Company: Autodesk, Inc."
 90
     1024
 91
        0
280
     0
281
     0
  0
CLASS
  1
ACMIDSTANDARDISO
  2
AcmIdStdISO
  3
"Amdt_StdImp|Product Description: AutoCAD Mechanical|Company: Autodesk, Inc."
 90
     1024
 91
        0
280
     0
281
     0
  0
CLASS
  1
ACMDATUMSTANDARDISO
  2
AcmDatumStdISO
  3
"Amdt_StdImp|Product Description: AutoCAD Mechanical|Company: Autodesk, Inc."
 90
     1024
 91
        0
280
     0
281
     0
  0
CLASS
  1
ACMBOMSTANDARDISO
  2
AcmBOMStdISO
  3
"Amdt_StdImp|Product Description: AutoCAD Mechanical|Company: Autodesk, Inc."
 90
     1024
 91
        0
280
     0
281
     0
  0
CLASS
  1
ACMDETAILSTANDARDISO
  2
AmdtDetailSymStdISO
  3
"Amdt_StdImp|Product Description: AutoCAD Mechanical|Company: Autodesk, Inc."
 90
     1024
 91
        0
280
     0
281
     0
  0
CLASS
  1
ACMSECTIONSTANDARDISO
  2
AmdtSectionSymStdISO
  3
"Amdt_StdImp|Product Description: AutoCAD Mechanical|Company: Autodesk, Inc."
 90
     1024
 91
        0
280
     0
281
     0
  0
CLASS
  1
ACMCENTERLINESTANDARDISO
  2
AmdtCenterLineStdISO
  3
"Amdt_StdImp|Product Description: AutoCAD Mechanical|Company: Autodesk, Inc."
 90
     1024
 91
        0
280
     0
281
     0
  0
CLASS
  1
ACMNOTESTANDARDISO
  2
AmdtNoteStdISO
  3
"Amdt_StdImp|Product Description: AutoCAD Mechanical|Company: Autodesk, Inc."
 90
     1024
 91
        0
280
     0
281
     0
  0
CLASS
  1
AMDTNOTETEMPLATEDB
  2
AmdtNoteTemplateDB
  3
AcmSymBB|Product Description: AutoCAD Mechanical|Company: Autodesk, Inc.
 90
     1024
 91
        0
280
     0
281
     0
  0
CLASS
  1
ACAMGLAYSTD
  2
AcAmgLayStd
  3
"AmgLay|Product Description: AutoCAD Mechanical|Company: Autodesk, Inc."
 90
     1024
 91
        0
280
     0
281
     0
  0
CLASS
  1
ACAMGDIMSTD
  2
AcAmgDimStd
  3
"AmgDim|Product Description: AutoCAD Mechanical|Company: Autodesk, Inc."
 90
     1024
 91
        0
280
     0
281
     0
  0
CLASS
  1
ACAMGHOLECHARTSTDISO
  2
AcAmgHoleChartStdISO
  3
AmgDim|Product Description: AutoCAD Mechanical|Company: Autodesk, Inc.
 90
     1024
 91
        0
280
     0
281
     0
  0
CLASS
  1
ACAMGTITLESTD
  2
AcAmgTitleStd
  3
"AmgTitle|Product Description: AutoCAD Mechanical|Company: Autodesk, Inc."
 90
     4095
 91
        0
280
     0
281
     0
  0
CLASS
  1
ACMTHREADLINESTANDARDISO
  2
AmdtThreadLineStdISO
  3
"Amdt_StdImp|Product Description: AutoCAD Mechanical|Company: Autodesk, Inc."
 90
     1024
 91
        0
280
     0
281
     0
  0
CLASS
  1
ACMTAPERSTANDARDISO
  2
AcmTaperStdISO
  3
"Amdt_StdImp|Product Description: AutoCAD Mechanical|Company: Autodesk, Inc."
 90
     1024
 91
        0
280
     0
281
     0
  0
CLASS
  1
ACMANOOTATIONVIEWSTANDARDISO
  2
AmdtAnViewStdISO
  3
"Amdt_StdImp|Product Description: AutoCAD Mechanical|Company: Autodesk, Inc."
 90
     1024
 91
        0
280
     0
281
     0
  0
CLASS
  1
ACMSTANDARDJIS
  2
AcmStandardJIS
  3
"Amdt_StdImp|Product Description: AutoCAD Mechanical|Company: Autodesk, Inc."
 90
     1024
 91
        0
280
     0
281
     0
  0
CLASS
  1
ACMSURFSTANDARDJIS
  2
AcmSurfTextStdJIS
  3
"Amdt_StdImp|Product Description: AutoCAD Mechanical|Company: Autodesk, Inc."
 90
     1024
 91
        0
280
     0
281
     0
  0
CLASS
  1
ACMFCFSTANDARDJIS
  2
AcmFCFStdJIS
  3
"Amdt_StdImp|Product Description: AutoCAD Mechanical|Company: Autodesk, Inc."
 90
     1024
 91
        0
280
     0
281
     0
  0
CLASS
  1
ACMWELDSTANDARDJIS
  2
AcmWeldingStdJIS
  3
"Amdt_StdImp|Product Description: AutoCAD Mechanical|Company: Autodesk, Inc."
 90
     1024
 91
        0
280
     0
281
     0
  0
CLASS
  1
ACMIDSTANDARDJIS
  2
AcmIdStdJIS
  3
"Amdt_StdImp|Product Description: AutoCAD Mechanical|Company: Autodesk, Inc."
 90
     1024
 91
        0
280
     0
281
     0
  0
CLASS
  1
ACMDATUMSTANDARDJIS
  2
AcmDatumStdJIS
  3
"Amdt_StdImp|Product Description: AutoCAD Mechanical|Company: Autodesk, Inc."
 90
     1024
 91
        0
280
     0
281
     0
  0
CLASS
  1
ACMBOMSTANDARDJIS
  2
AcmBOMStdJIS
  3
"Amdt_StdImp|Product Description: AutoCAD Mechanical|Company: Autodesk, Inc."
 90
     1024
 91
        0
280
     0
281
     0
  0
CLASS
  1
ACMDETAILSTANDARDJIS
  2
AmdtDetailSymStdJIS
  3
"Amdt_StdImp|Product Description: AutoCAD Mechanical|Company: Autodesk, Inc."
 90
     1024
 91
        0
280
     0
281
     0
  0
CLASS
  1
ACMSECTIONSTANDARDJIS
  2
AmdtSectionSymStdJIS
  3
"Amdt_StdImp|Product Description: AutoCAD Mechanical|Company: Autodesk, Inc."
 90
     1024
 91
        0
280
     0
281
     0
  0
CLASS
  1
ACMCENTERLINESTANDARDJIS
  2
AmdtCenterLineStdJIS
  3
"Amdt_StdImp|Product Description: AutoCAD Mechanical|Company: Autodesk, Inc."
 90
     1024
 91
        0
280
     0
281
     0
  0
CLASS
  1
ACMTHREADLINESTANDARDJIS
  2
AmdtThreadLineStdJIS
  3
"Amdt_StdImp|Product Description: AutoCAD Mechanical|Company: Autodesk, Inc."
 90
     1024
 91
        0
280
     0
281
     0
  0
CLASS
  1
ACMNOTESTANDARDJIS
  2
AmdtNoteStdJIS
  3
"Amdt_StdImp|Product Description: AutoCAD Mechanical|Company: Autodesk, Inc."
 90
     1024
 91
        0
280
     0
281
     0
  0
CLASS
  1
ACAMGHOLECHARTSTDJIS
  2
AcAmgHoleChartStdJIS
  3
AmgDim|Product Description: AutoCAD Mechanical|Company: Autodesk, Inc.
 90
     1024
 91
        0
280
     0
281
     0
  0
CLASS
  1
ACMTAPERSTANDARDJIS
  2
AcmTaperStdJIS
  3
"Amdt_StdImp|Product Description: AutoCAD Mechanical|Company: Autodesk, Inc."
 90
     1024
 91
        0
280
     0
281
     0
  0
CLASS
  1
ACMANOOTATIONVIEWSTANDARDJIS
  2
AmdtAnViewStdJIS
  3
"Amdt_StdImp|Product Description: AutoCAD Mechanical|Company: Autodesk, Inc."
 90
     1024
 91
        0
280
     0
281
     0
  0
CLASS
  1
AMDTEDGESTANDARDJIS
  2
AmdtEdgeStdJIS
  3
"Amdt_StdImp|Product Description: AutoCAD Mechanical|Company: Autodesk, Inc."
 90
     1024
 91
        0
280
     0
281
     0
  0
CLASS
  1
ACMFCFSTANDARDJIS98
  2
AcmFCFStdJIS98
  3
"Amdt_StdImp|Product Description: AutoCAD Mechanical|Company: Autodesk, Inc."
 90
     1024
 91
        0
280
     0
281
     0
  0
CLASS
  1
ACIMSTRSYSVAR
  2
AcImStrSysVar
  3
AcMeServices
 90
     1024
 91
        0
280
     0
281
     0
  0
CLASS
  1
AMDTAMMENUSTATE
  2
AmdtAmMenuState
  3
DesignerAssemblies
 90
     1024
 91
        0
280
     0
281
     0
  0
CLASS
  1
ACAMPROJECT
  2
AcAmProject
  3
DesignerAssemblies
 90
     1024
 91
        0
280
     0
281
     0
  0
CLASS
  1
ACAMGRCOMPDEF
  2
AcAmGrCompDef
  3
DesignerAssemblies
 90
     1024
 91
        0
280
     0
281
     0
  0
CLASS
  1
ACAMCOMPDEF
  2
AcAmCompDef
  3
DesignerAssemblies
 90
     1024
 91
        0
280
     0
281
     0
  0
CLASS
  1
ACAMCOMPDEFMGR
  2
AcAmCompDefMgr
  3
DesignerAssemblies
 90
     1024
 91
        0
280
     0
281
     0
  0
CLASS
  1
AMCONTEXTMGR
  2
AcAmContextMgr
  3
DesignerAssemblies
 90
     1024
 91
        0
280
     0
281
     0
  0
CLASS
  1
ACAMCONTEXTMODELER
  2
AcAmContextModeler
  3
DesignerAssemblies
 90
     1024
 91
        0
280
     0
281
     0
  0
CLASS
  1
ACMDATADICTIONARY
  2
AcmDataDictionary
  3
"AcmSymBB|Product Description: AutoCAD Mechanical|Company: Autodesk, Inc."
 90
     1024
 91
        0
280
     0
281
     0
  0
CLASS
  1
ACAMGRCOMPDEFSET
  2
AcAmGrCompDefSet
  3
DesignerAssemblies
 90
     1024
 91
        0
280
     0
281
     0
  0
CLASS
  1
AMDTBROWSERDBTAB
  2
AmdtBrowserDbTab
  3
McadcomServices
 90
     1024
 91
        0
280
     0
281
     0
  0
CLASS
  1
CBROWSERAPPOBJECT
  2
CBrowserAppObject
  3
McadcomServices
 90
     1024
 91
        0
280
     0
281
     0
  0
CLASS
  1
DM_PLACEHOLDER
  2
AcDmSelsetPlaceholder
  3
McadcomServices
 90
     1024
 91
        0
280
     0
281
     0
  0
CLASS
  1
EXACXREFPANELOBJECT
  2
ExAcXREFPanelObject
  3
EXAC_ESW
 90
     1025
 91
        0
280
     0
281
     0
  0
CLASS
  1
NPOCOLLECTION
  2
AcDbImpNonPersistentObjectsCollection
  3
ObjectDBX Classes
 90
     1153
 91
        0
280
     0
281
     0
  0
CLASS
  1
ACAMGFILTERDAT
  2
AcAmgFilterDat
  3
"AcadM|Product Description: AutoCAD Mechanical|Company: Autodesk, Inc."
 90
     1024
 91
        0
280
     0
281
     0
  0
CLASS
  1
CAMSSTRUCTBTNSTATE
  2
StructBtnState
  3
DesignerAssemblies
 90
     1024
 91
        0
280
     0
281
     0
  0
CLASS
  1
DICTIONARYVAR
  2
AcDbDictionaryVar
  3
ObjectDBX Classes
 90
        0
 91
       10
280
     0
281
     0
  0
CLASS
  1
CELLSTYLEMAP
  2
AcDbCellStyleMap
  3
ObjectDBX Classes
 90
     1152
 91
        2
280
     0
281
     0
  0
CLASS
  1
ACDBPLACEHOLDER
  2
AcDbPlaceHolder
  3
ObjectDBX Classes
 90
        0
 91
        1
280
     0
281
     0
  0
CLASS
  1
LAYOUT
  2
AcDbLayout
  3
ObjectDBX Classes
 90
        0
 91
        2
280
     0
281
     0
  0
CLASS
  1
SORTENTSTABLE
  2
AcDbSortentsTable
  3
ObjectDBX Classes
 90
        0
 91
        1
280
     0
281
     0
  0
CLASS
  1
DIMASSOC
  2
AcDbDimAssoc
  3
"AcDbDimAssoc|Product Desc:     AcDim ARX App For Dimension|Company:          Autodesk, Inc.|WEB Address:      www.autodesk.com"
 90
        0
 91
        0
280
     0
281
     0
  0
CLASS
  1
ACDBSECTIONVIEWSTYLE
  2
AcDbSectionViewStyle
  3
ObjectDBX Classes
 90
     1025
 91
        1
280
     0
281
     0
  0
CLASS
  1
ACDBDETAILVIEWSTYLE
  2
AcDbDetailViewStyle
  3
ObjectDBX Classes
 90
     1025
 91
        1
280
     0
281
     0
  0
ENDSEC
  0
SECTION
  2
TABLES
  0
TABLE
  2
VPORT
  5
E2
102
{ACAD_XDICTIONARY
360
1991
102
}
330
0
100
AcDbSymbolTable
 70
     1
  0
VPORT
  5
1855
330
E2
100
AcDbSymbolTableRecord
100
AcDbViewportTableRecord
  2
*Active
 70
     0
 10
0.0
 20
0.0
 11
1.0
 21
1.0
 12
17.0820845668776
 22
395.6230646469554
 13
0.0
 23
0.0
 14
1.0
 24
1.0
 15
0.0
 25
0.0
 16
0.0
 26
0.0
 36
1.0
 17
0.0
 27
0.0
 37
0.0
 40
950.6227219704586
 41
1.234567901234567
 42
50.0
 43
0.0
 44
0.0
 50
0.0
 51
0.0
 71
     0
 72
  1000
 73
     1
 74
     3
 75
     0
 76
     0
 77
     0
 78
     0
281
     0
 65
     1
110
0.0
120
0.0
130
0.0
111
1.0
121
0.0
131
0.0
112
0.0
122
1.0
132
0.0
 79
     0
146
0.0
1001
ACAD_NAV_VCDISPLAY
1070
     1
  0
ENDTAB
  0
TABLE
  2
LTYPE
  5
25
330
0
100
AcDbSymbolTable
 70
     2
  0
LTYPE
  5
26
330
25
100
AcDbSymbolTableRecord
100
AcDbLinetypeTableRecord
  2
BYBLOCK
 70
     0
  3

 72
    65
 73
     0
 40
0.0
  0
LTYPE
  5
27
330
25
100
AcDbSymbolTableRecord
100
AcDbLinetypeTableRecord
  2
BYLAYER
 70
     0
  3

 72
    65
 73
     0
 40
0.0
  0
LTYPE
  5
28
330
25
100
AcDbSymbolTableRecord
100
AcDbLinetypeTableRecord
  2
CONTINUOUS
 70
     0
  3
Solid line
 72
    65
 73
     0
 40
0.0
  0
LTYPE
  5
2A
330
25
100
AcDbSymbolTableRecord
100
AcDbLinetypeTableRecord
  2
CENTER
 70
     0
  3
__ . __
 72
    65
 73
     4
 40
7.0
 49
4.0
 74
     0
 49
-1.0
 74
     0
 49
1.0
 74
     0
 49
-1.0
 74
     0
  0
ENDTAB
  0
TABLE
  2
LAYER
  5
C8
102
{ACAD_XDICTIONARY
360
2008
102
}
330
0
100
AcDbSymbolTable
 70
     1
  0
LAYER
  5
C9
102
{ACAD_XDICTIONARY
360
1963
102
}
330
C8
100
AcDbSymbolTableRecord
100
AcDbLayerTableRecord
  2
0
 70
     0
 62
     7
  6
CONTINUOUS
370
    -3
390
1801
  0
ENDTAB
  0
TABLE
  2
STYLE
  5
CA
330
0
100
AcDbSymbolTable
 70
     1
  0
STYLE
  5
23
330
CA
100
AcDbSymbolTableRecord
100
AcDbTextStyleTableRecord
  2
STANDARD
 70
     0
 40
0.0
 41
1.0
 50
0.0
 71
     0
 42
0.2
  3
txt.shx
  4

  0
ENDTAB
  0
TABLE
  2
VIEW
  5
CE
330
0
100
AcDbSymbolTable
 70
     0
  0
ENDTAB
  0
TABLE
  2
UCS
  5
CF
330
0
100
AcDbSymbolTable
 70
     0
  0
ENDTAB
  0
TABLE
  2
APPID
  5
CC
330
0
100
AcDbSymbolTable
 70
    85
  0
APPID
  5
CD
330
CC
100
AcDbSymbolTableRecord
100
AcDbRegAppTableRecord
  2
ACAD
 70
     0
  0
APPID
  5
1854
330
CC
100
AcDbSymbolTableRecord
100
AcDbRegAppTableRecord
  2
ACAD_NAV_VCDISPLAY
 70
     0
  0
APPID
  5
185B
330
CC
100
AcDbSymbolTableRecord
100
AcDbRegAppTableRecord
  2
MCAD_NO_VIS
 70
     0
  0
APPID
  5
185C
330
CC
100
AcDbSymbolTableRecord
100
AcDbRegAppTableRecord
  2
ACAD_TEMP_GRAPHIC
 70
     0
  0
APPID
  5
1862
330
CC
100
AcDbSymbolTableRecord
100
AcDbRegAppTableRecord
  2
ACATTRIBSERVICES
 70
     0
  0
APPID
  5
1863
330
CC
100
AcDbSymbolTableRecord
100
AcDbRegAppTableRecord
  2
AD_DRAW
 70
     0
  0
APPID
  5
1864
330
CC
100
AcDbSymbolTableRecord
100
AcDbRegAppTableRecord
  2
DESIGNERASSEMBLIES
 70
     0
  0
APPID
  5
1865
330
CC
100
AcDbSymbolTableRecord
100
AcDbRegAppTableRecord
  2
ASURF_PCURVE_APPNAME
 70
     0
  0
APPID
  5
1866
330
CC
100
AcDbSymbolTableRecord
100
AcDbRegAppTableRecord
  2
ACADM_DIM_EDIT
 70
     0
  0
APPID
  5
1867
330
CC
100
AcDbSymbolTableRecord
100
AcDbRegAppTableRecord
  2
GENIUS_GENDIM_13
 70
     0
  0
APPID
  5
1868
330
CC
100
AcDbSymbolTableRecord
100
AcDbRegAppTableRecord
  2
GENIUS_GENDTOL_13
 70
     0
  0
APPID
  5
1869
330
CC
100
AcDbSymbolTableRecord
100
AcDbRegAppTableRecord
  2
GENIUS_GE3DTOL_13
 70
     0
  0
APPID
  5
186A
330
CC
100
AcDbSymbolTableRecord
100
AcDbRegAppTableRecord
  2
AMG_3D2D_5.0
 70
     0
  0
APPID
  5
186B
330
CC
100
AcDbSymbolTableRecord
100
AcDbRegAppTableRecord
  2
AMDT_DM_ADJ
 70
     0
  0
APPID
  5
186C
330
CC
100
AcDbSymbolTableRecord
100
AcDbRegAppTableRecord
  2
CK_MATE-SERIES
 70
     0
  0
APPID
  5
186D
330
CC
100
AcDbSymbolTableRecord
100
AcDbRegAppTableRecord
  2
GEVID1042077799
 70
     0
  0
APPID
  5
186E
330
CC
100
AcDbSymbolTableRecord
100
AcDbRegAppTableRecord
  2
GEVMK
 70
     0
  0
APPID
  5
186F
330
CC
100
AcDbSymbolTableRecord
100
AcDbRegAppTableRecord
  2
GEVDC
 70
     0
  0
APPID
  5
1870
330
CC
100
AcDbSymbolTableRecord
100
AcDbRegAppTableRecord
  2
GENIUS_GENBH_13
 70
     0
  0
APPID
  5
1871
330
CC
100
AcDbSymbolTableRecord
100
AcDbRegAppTableRecord
  2
GENIUS_GENOLIS_13
 70
     0
  0
APPID
  5
1872
330
CC
100
AcDbSymbolTableRecord
100
AcDbRegAppTableRecord
  2
GENIUS_GENOENT_13
 70
     0
  0
APPID
  5
1873
330
CC
100
AcDbSymbolTableRecord
100
AcDbRegAppTableRecord
  2
GENIUS_GENODEF_13
 70
     0
  0
APPID
  5
1874
330
CC
100
AcDbSymbolTableRecord
100
AcDbRegAppTableRecord
  2
GENIUS_GENOBJ-NBEHI-BHF_13
 70
     0
  0
APPID
  5
1875
330
CC
100
AcDbSymbolTableRecord
100
AcDbRegAppTableRecord
  2
GENIUS_GENOREF_13
 70
     0
  0
APPID
  5
1876
330
CC
100
AcDbSymbolTableRecord
100
AcDbRegAppTableRecord
  2
GENIUS_GENOBJ-NBEHI-BHB_13
 70
     0
  0
APPID
  5
1877
330
CC
100
AcDbSymbolTableRecord
100
AcDbRegAppTableRecord
  2
GEVID1042183772
 70
     0
  0
APPID
  5
1878
330
CC
100
AcDbSymbolTableRecord
100
AcDbRegAppTableRecord
  2
GEVID1042183773
 70
     0
  0
APPID
  5
1879
330
CC
100
AcDbSymbolTableRecord
100
AcDbRegAppTableRecord
  2
GEVID1042183774
 70
     0
  0
APPID
  5
187A
330
CC
100
AcDbSymbolTableRecord
100
AcDbRegAppTableRecord
  2
DCO15
 70
     0
  0
APPID
  5
187B
330
CC
100
AcDbSymbolTableRecord
100
AcDbRegAppTableRecord
  2
ACAD_DSTYLE_DIMARC_LENGTH_SYMBOL
 70
     0
  0
APPID
  5
187C
330
CC
100
AcDbSymbolTableRecord
100
AcDbRegAppTableRecord
  2
ACAD_DSTYLE_DIMJOGGED_JOGANGLE_SYMBOL
 70
     0
  0
APPID
  5
187D
330
CC
100
AcDbSymbolTableRecord
100
AcDbRegAppTableRecord
  2
ACAD_MLEADERVER
 70
     0
  0
APPID
  5
187E
330
CC
100
AcDbSymbolTableRecord
100
AcDbRegAppTableRecord
  2
GENIUS_GENOBJ-N-FIL_13
 70
     0
  0
APPID
  5
187F
330
CC
100
AcDbSymbolTableRecord
100
AcDbRegAppTableRecord
  2
AcadAnnoPO
 70
     0
  0
APPID
  5
1880
330
CC
100
AcDbSymbolTableRecord
100
AcDbRegAppTableRecord
  2
GENIUS_GENOBJ-N-TIT_13
 70
     0
  0
APPID
  5
1881
330
CC
100
AcDbSymbolTableRecord
100
AcDbRegAppTableRecord
  2
GENIUS_GENTITLE_13
 70
     0
  0
APPID
  5
1882
330
CC
100
AcDbSymbolTableRecord
100
AcDbRegAppTableRecord
  2
GENIUS_GENSCREG_15
 70
     0
  0
APPID
  5
1883
330
CC
100
AcDbSymbolTableRecord
100
AcDbRegAppTableRecord
  2
GENIUS_GENOBJ-N-SDF_13
 70
     0
  0
APPID
  5
1884
330
CC
100
AcDbSymbolTableRecord
100
AcDbRegAppTableRecord
  2
ACAD_PSEXT
 70
     0
  0
APPID
  5
1885
330
CC
100
AcDbSymbolTableRecord
100
AcDbRegAppTableRecord
  2
AcAecLayerStandard
 70
     0
  0
APPID
  5
1886
330
CC
100
AcDbSymbolTableRecord
100
AcDbRegAppTableRecord
  2
ACAD_EXEMPT_FROM_CAD_STANDARDS
 70
     0
  0
APPID
  5
1887
330
CC
100
AcDbSymbolTableRecord
100
AcDbRegAppTableRecord
  2
ACAD_DSTYLE_DIMINSPECT
 70
     0
  0
APPID
  5
1888
330
CC
100
AcDbSymbolTableRecord
100
AcDbRegAppTableRecord
  2
GENIUS_GENDIMSH_14
 70
     0
  0
APPID
  5
1889
330
CC
100
AcDbSymbolTableRecord
100
AcDbRegAppTableRecord
  2
GENIUS_GENOBJ-N-CEN_13
 70
     0
  0
APPID
  5
188A
330
CC
100
AcDbSymbolTableRecord
100
AcDbRegAppTableRecord
  2
GENIUS_GENCEN_19
 70
     0
  0
APPID
  5
188B
330
CC
100
AcDbSymbolTableRecord
100
AcDbRegAppTableRecord
  2
ACAD_DSTYLE_DIMJAG
 70
     0
  0
APPID
  5
188C
330
CC
100
AcDbSymbolTableRecord
100
AcDbRegAppTableRecord
  2
ACAD_DSTYLE_DIMTALN
 70
     0
  0
APPID
  5
188D
330
CC
100
AcDbSymbolTableRecord
100
AcDbRegAppTableRecord
  2
GENIUS_GENREC_14
 70
     0
  0
APPID
  5
188E
330
CC
100
AcDbSymbolTableRecord
100
AcDbRegAppTableRecord
  2
GENIUS_GENOBJ-N-REC_13
 70
     0
  0
APPID
  5
188F
330
CC
100
AcDbSymbolTableRecord
100
AcDbRegAppTableRecord
  2
ACAD_DIMASSOC_CALC_DIMLFAC
 70
     0
  0
APPID
  5
1890
330
CC
100
AcDbSymbolTableRecord
100
AcDbRegAppTableRecord
  2
ACAD_DIMASSOC_DIMLFAC
 70
     0
  0
APPID
  5
1891
330
CC
100
AcDbSymbolTableRecord
100
AcDbRegAppTableRecord
  2
ACAD_DIMASSOC_OVERRIDDEN_DIMLFAC
 70
     0
  0
APPID
  5
1892
330
CC
100
AcDbSymbolTableRecord
100
AcDbRegAppTableRecord
  2
AcadAnnotative
 70
     0
  0
APPID
  5
1893
330
CC
100
AcDbSymbolTableRecord
100
AcDbRegAppTableRecord
  2
ACAD_DSTYLE_DIMEXT_LENGTH
 70
     0
  0
APPID
  5
1894
330
CC
100
AcDbSymbolTableRecord
100
AcDbRegAppTableRecord
  2
ACAD_DSTYLE_DIMEXT_ENABLED
 70
     0
  0
APPID
  5
1895
330
CC
100
AcDbSymbolTableRecord
100
AcDbRegAppTableRecord
  2
ACAD_DSTYLE_DIMBREAK
 70
     0
  0
APPID
  5
1896
330
CC
100
AcDbSymbolTableRecord
100
AcDbRegAppTableRecord
  2
ACAD_DSTYLE_DIMANGULAR_EXTENSION
 70
     0
  0
APPID
  5
1897
330
CC
100
AcDbSymbolTableRecord
100
AcDbRegAppTableRecord
  2
ACCMTRANSPARENCY
 70
     0
  0
APPID
  5
1898
330
CC
100
AcDbSymbolTableRecord
100
AcDbRegAppTableRecord
  2
GENIUS_GENBLLY_14
 70
     0
  0
APPID
  5
1899
330
CC
100
AcDbSymbolTableRecord
100
AcDbRegAppTableRecord
  2
GENIUS_GENTRA_14
 70
     0
  0
APPID
  5
189A
330
CC
100
AcDbSymbolTableRecord
100
AcDbRegAppTableRecord
  2
GENIUS_GENOBJ-N-REV_13
 70
     0
  0
APPID
  5
189B
330
CC
100
AcDbSymbolTableRecord
100
AcDbRegAppTableRecord
  2
GENIUS_GENOBJ-N-RSSYM_13
 70
     0
  0
APPID
  5
189C
330
CC
100
AcDbSymbolTableRecord
100
AcDbRegAppTableRecord
  2
GENIUS_GENSYMENT_13
 70
     0
  0
APPID
  5
189D
330
CC
100
AcDbSymbolTableRecord
100
AcDbRegAppTableRecord
  2
GENIUS_GENSCSYM_13
 70
     0
  0
APPID
  5
189E
330
CC
100
AcDbSymbolTableRecord
100
AcDbRegAppTableRecord
  2
AcDbBlockRepBTag
 70
     0
  0
APPID
  5
189F
330
CC
100
AcDbSymbolTableRecord
100
AcDbRegAppTableRecord
  2
ACAUTHENVIRON
 70
     0
  0
APPID
  5
18A0
330
CC
100
AcDbSymbolTableRecord
100
AcDbRegAppTableRecord
  2
AcDbDynamicBlockTrueName
 70
     0
  0
APPID
  5
18A1
330
CC
100
AcDbSymbolTableRecord
100
AcDbRegAppTableRecord
  2
AcDbDynamicBlockGUID
 70
     0
  0
APPID
  5
18A2
330
CC
100
AcDbSymbolTableRecord
100
AcDbRegAppTableRecord
  2
AcDbBlockRepETag
 70
     0
  0
APPID
  5
18A3
330
CC
100
AcDbSymbolTableRecord
100
AcDbRegAppTableRecord
  2
GENIUS_GENOBJ-N-HTC_13
 70
     0
  0
APPID
  5
18A4
330
CC
100
AcDbSymbolTableRecord
100
AcDbRegAppTableRecord
  2
GENIUS_GENHATCH_13
 70
     0
  0
APPID
  5
18A5
330
CC
100
AcDbSymbolTableRecord
100
AcDbRegAppTableRecord
  2
GRADIENTCOLOR1ACI
 70
     0
  0
APPID
  5
18A6
330
CC
100
AcDbSymbolTableRecord
100
AcDbRegAppTableRecord
  2
GRADIENTCOLOR2ACI
 70
     0
  0
APPID
  5
18A7
330
CC
100
AcDbSymbolTableRecord
100
AcDbRegAppTableRecord
  2
GENIUS_GENFIL_13
 70
     0
  0
APPID
  5
18A8
330
CC
100
AcDbSymbolTableRecord
100
AcDbRegAppTableRecord
  2
GENIUS_GENOBJ-N-CHA_13
 70
     0
  0
APPID
  5
18A9
330
CC
100
AcDbSymbolTableRecord
100
AcDbRegAppTableRecord
  2
ACAD_DSTYLE_DIM_LINETYPE
 70
     0
  0
APPID
  5
18AA
330
CC
100
AcDbSymbolTableRecord
100
AcDbRegAppTableRecord
  2
ACAD_DSTYLE_DIM_EXT1_LINETYPE
 70
     0
  0
APPID
  5
18AB
330
CC
100
AcDbSymbolTableRecord
100
AcDbRegAppTableRecord
  2
ACAD_DSTYLE_DIM_EXT2_LINETYPE
 70
     0
  0
APPID
  5
18AC
330
CC
100
AcDbSymbolTableRecord
100
AcDbRegAppTableRecord
  2
AcDbAttr
 70
     0
  0
APPID
  5
18AD
330
CC
100
AcDbSymbolTableRecord
100
AcDbRegAppTableRecord
  2
ACAD_DSTYLE_DIMRADIAL_EXTENSION
 70
     0
  0
APPID
  5
18AE
330
CC
100
AcDbSymbolTableRecord
100
AcDbRegAppTableRecord
  2
ACADANNOAV
 70
     0
  0
APPID
  5
18AF
330
CC
100
AcDbSymbolTableRecord
100
AcDbRegAppTableRecord
  2
ACAD_DSTYLE_DIMTEXT_FILL
 70
     0
  0
APPID
  5
18B0
330
CC
100
AcDbSymbolTableRecord
100
AcDbRegAppTableRecord
  2
ACAD_DSTYLE_DIMFLIPARROW_WHICH_SYMBOL
 70
     0
  0
APPID
  5
18B1
330
CC
100
AcDbSymbolTableRecord
100
AcDbRegAppTableRecord
  2
ACADBPTGRAPHNODEID
 70
     0
  0
APPID
  5
18B2
330
CC
100
AcDbSymbolTableRecord
100
AcDbRegAppTableRecord
  2
PE_URL
 70
     0
  0
ENDTAB
  0
TABLE
  2
DIMSTYLE
  5
CB
330
0
100
AcDbSymbolTable
 70
     1
100
AcDbDimStyleTable
 71
     0
  0
DIMSTYLE
105
184B
330
CB
100
AcDbSymbolTableRecord
100
AcDbDimStyleTableRecord
  2
Standard
 70
     0
340
23
  0
ENDTAB
  0
TABLE
  2
BLOCK_RECORD
  5
D0
330
0
100
AcDbSymbolTable
 70
     0
  0
BLOCK_RECORD
  5
D1
102
{ACAD_XDICTIONARY
360
1C1A
102
}
330
D0
100
AcDbSymbolTableRecord
100
AcDbBlockTableRecord
  2
*MODEL_SPACE
340
184E
  0
BLOCK_RECORD
  5
D2
330
D0
100
AcDbSymbolTableRecord
100
AcDbBlockTableRecord
  2
*PAPER_SPACE
340
184F
  0
ENDTAB
  0
ENDSEC
  0
SECTION
  2
BLOCKS
  0
BLOCK
  5
E3
330
D1
100
AcDbEntity
  8
0
100
AcDbBlockBegin
  2
*MODEL_SPACE
 70
     0
 10
0.0
 20
0.0
 30
0.0
  3
*MODEL_SPACE
  1

  0
ENDBLK
  5
E4
330
D1
100
AcDbEntity
  8
0
100
AcDbBlockEnd
  0
BLOCK
  5
E5
330
D2
100
AcDbEntity
 67
     1
  8
0
100
AcDbBlockBegin
  2
*PAPER_SPACE
 70
     0
 10
0.0
 20
0.0
 30
0.0
  3
*PAPER_SPACE
  1

  0
ENDBLK
  5
E6
330
D2
100
AcDbEntity
 67
     1
  8
0
100
AcDbBlockEnd
  0
ENDSEC
  0
SECTION
  2
ENTITIES
  0
POINT
  5
1A85
330
D1
100
AcDbEntity
  8
0
  6
Continuous
100
AcDbPoint
 10
300.0
 20
0.0
 30
0.0
  0
LINE
  5
1A86
330
D1
100
AcDbEntity
  8
0
  6
Continuous
100
AcDbLine
 10
315.5
 20
74.50001500000002
 30
0.0
 11
315.5
 21
72.50001500000002
 31
0.0
  0
LINE
  5
1A87
330
D1
100
AcDbEntity
  8
0
  6
Continuous
100
AcDbLine
 10
284.5
 20
74.50001500000002
 30
0.0
 11
284.5
 21
72.50001500000002
 31
0.0
  0
LINE
  5
1A8E
330
D1
100
AcDbEntity
  8
0
  6
Continuous
100
AcDbLine
 10
285.25
 20
104.50002
 30
0.0
 11
285.25
 21
76.50001500000001
 31
0.0
  0
LINE
  5
1A8F
330
D1
100
AcDbEntity
  8
0
  6
Continuous
100
AcDbLine
 10
314.75
 20
104.50002
 30
0.0
 11
314.75
 21
76.50001500000001
 31
0.0
  0
LINE
  5
1A90
330
D1
100
AcDbEntity
  8
0
  6
Continuous
100
AcDbLine
 10
267.5
 20
106.50002
 30
0.0
 11
332.5
 21
106.50002
 31
0.0
  0
LINE
  5
1A93
330
D1
100
AcDbEntity
  8
0
  6
Continuous
100
AcDbLine
 10
316.0883290000001
 20
104.50002
 30
0.0
 11
316.0883290000001
 21
106.50002
 31
0.0
  0
LINE
  5
1A94
330
D1
100
AcDbEntity
  8
0
  6
Continuous
100
AcDbLine
 10
331.488331
 20
104.50002
 30
0.0
 11
331.488331
 21
106.50002
 31
0.0
  0
LINE
  5
1A97
330
D1
100
AcDbEntity
  8
0
  6
Continuous
100
AcDbLine
 10
268.5117909999999
 20
104.50002
 30
0.0
 11
268.5117909999999
 21
106.50002
 31
0.0
  0
LINE
  5
1A98
330
D1
100
AcDbEntity
  8
0
  6
Continuous
100
AcDbLine
 10
316.0883290000001
 20
104.50002
 30
0.0
 11
331.488331
 21
104.50002
 31
0.0
  0
LINE
  5
1A99
330
D1
100
AcDbEntity
  8
0
  6
Continuous
100
AcDbLine
 10
318.154356
 20
96.50001500000001
 30
0.0
 11
329.4223040000002
 21
96.50001500000001
 31
0.0
  0
LINE
  5
1A9A
330
D1
100
AcDbEntity
  8
0
  6
Continuous
100
AcDbLine
 10
317.2883299999999
 20
97.00001500000002
 30
0.0
 11
317.2883299999999
 21
104.50002
 31
0.0
  0
LINE
  5
1A9B
330
D1
100
AcDbEntity
  8
0
  6
Continuous
100
AcDbLine
 10
330.2883299999999
 20
97.00001500000002
 30
0.0
 11
330.2883299999999
 21
104.50002
 31
0.0
  0
LINE
  5
1A9C
330
D1
100
AcDbEntity
  8
0
  6
Continuous
100
AcDbLine
 10
317.2883299999999
 20
103.25002
 30
0.0
 11
330.2883299999999
 21
103.25002
 31
0.0
  0
LINE
  5
1A9D
330
D1
100
AcDbEntity
  8
0
  6
Continuous
100
AcDbLine
 10
317.2883299999999
 20
97.00001500000002
 30
0.0
 11
330.2883299999999
 21
97.00001500000002
 31
0.0
  0
LINE
  5
1A9E
330
D1
100
AcDbEntity
  8
0
  6
Continuous
100
AcDbLine
 10
318.1543539999998
 20
96.50001500000001
 30
0.0
 11
317.2883280000001
 21
97.00001500000002
 31
0.0
  0
LINE
  5
1A9F
330
D1
100
AcDbEntity
  8
0
  6
Continuous
100
AcDbLine
 10
329.4223080000002
 20
96.500023
 30
0.0
 11
330.2883339999998
 21
97.00002300000001
 31
0.0
  0
LINE
  5
1AAB
330
D1
100
AcDbEntity
  8
0
  6
Continuous
100
AcDbLine
 10
281.8457659999999
 20
96.50001500000001
 30
0.0
 11
282.711792
 21
97.00001500000002
 31
0.0
  0
LINE
  5
1AAC
330
D1
100
AcDbEntity
  8
0
  6
Continuous
100
AcDbLine
 10
270.5778140000002
 20
96.50001500000001
 30
0.0
 11
269.7117899999998
 21
97.00001500000002
 31
0.0
  0
LINE
  5
1AAD
330
D1
100
AcDbEntity
  8
0
  6
Continuous
100
AcDbLine
 10
269.7117920000001
 20
97.00001500000002
 30
0.0
 11
282.711792
 21
97.00001500000002
 31
0.0
  0
LINE
  5
1AAE
330
D1
100
AcDbEntity
  8
0
  6
Continuous
100
AcDbLine
 10
269.7117920000001
 20
103.25002
 30
0.0
 11
282.711792
 21
103.25002
 31
0.0
  0
LINE
  5
1AB4
330
D1
100
AcDbEntity
  8
0
  6
Continuous
100
AcDbLine
 10
284.3875050000002
 20
71.50001500000001
 30
0.0
 11
284.3875050000002
 21
65.93831599999998
 31
0.0
  0
LINE
  5
1ABB
330
D1
100
AcDbEntity
  8
0
  6
Continuous
100
AcDbLine
 10
282.711792
 20
97.00001500000002
 30
0.0
 11
282.711792
 21
104.50002
 31
0.0
  0
LINE
  5
1ABC
330
D1
100
AcDbEntity
  8
0
  6
Continuous
100
AcDbLine
 10
269.7117920000001
 20
97.00001500000002
 30
0.0
 11
269.7117920000001
 21
104.50002
 31
0.0
  0
LINE
  5
1ABD
330
D1
100
AcDbEntity
  8
0
  6
Continuous
100
AcDbLine
 10
270.5778180000002
 20
96.50001500000001
 30
0.0
 11
281.8457659999999
 21
96.50001500000001
 31
0.0
  0
LINE
  5
1ABE
330
D1
100
AcDbEntity
  8
0
  6
Continuous
100
AcDbLine
 10
318.708286
 20
96.50001500000001
 30
0.0
 11
318.708286
 21
72.90001699999999
 31
0.0
  0
LINE
  5
1AC0
330
D1
100
AcDbEntity
  8
0
  6
Continuous
100
AcDbLine
 10
285.690916
 20
72.50001500000002
 30
0.0
 11
284.387506
 21
71.50001500000001
 31
0.0
  0
LINE
  5
1AC3
330
D1
100
AcDbEntity
  8
0
  6
Continuous
100
AcDbLine
 10
272.5
 20
96.50001500000001
 30
0.0
 11
272.5
 21
77.43667600000003
 31
0.0
  0
LINE
  5
1AC5
330
D1
100
AcDbEntity
  8
0
  6
Continuous
100
AcDbLine
 10
315.6124949999999
 20
71.50001500000001
 30
0.0
 11
315.6124949999999
 21
65.93831599999998
 31
0.0
  0
LINE
  5
1AC7
330
D1
100
AcDbEntity
  8
0
  6
Continuous
100
AcDbLine
 10
314.309084
 20
72.50001500000002
 30
0.0
 11
315.612494
 21
71.50001500000001
 31
0.0
  0
LINE
  5
1AC8
330
D1
100
AcDbEntity
  8
0
  6
Continuous
100
AcDbLine
 10
273.1021399999999
 20
74.20002
 30
0.0
 11
274.8356439999998
 21
74.20002
 31
0.0
  0
LINE
  5
1ACB
330
D1
100
AcDbEntity
  8
0
  6
Continuous
100
AcDbLine
 10
278.3286090000002
 20
70.06430799999998
 30
0.0
 11
280.0
 21
68.99469799999997
 31
0.0
  0
LINE
  5
1ACD
330
D1
100
AcDbEntity
  8
0
  6
Continuous
100
AcDbLine
 10
285.0
 20
76.50001500000001
 30
0.0
 11
315.0
 21
76.50001500000001
 31
0.0
  0
LINE
  5
1ACE
330
D1
100
AcDbEntity
  8
0
  6
Continuous
100
AcDbLine
 10
274.0
 20
73.45002
 30
0.0
 11
275.1979270000002
 21
73.45002
 31
0.0
  0
LINE
  5
1ACF
330
D1
100
AcDbEntity
  8
0
  6
Continuous
100
AcDbLine
 10
278.7000010000002
 20
69.826637
 30
0.0
 11
278.7000010000002
 21
64.60001399999999
 31
0.0
  0
LINE
  5
1AD0
330
D1
100
AcDbEntity
  8
0
  6
Continuous
100
AcDbLine
 10
273.7000010000002
 20
72.930405
 30
0.0
 11
273.7000010000002
 21
65.46963499999998
 31
0.0
  0
LINE
  5
1AD1
330
D1
100
AcDbEntity
  8
0
  6
Continuous
100
AcDbLine
 10
274.0
 20
64.95001999999999
 30
0.0
 11
278.7000010000002
 21
64.95001999999999
 31
0.0
  0
LINE
  5
1AD2
330
D1
100
AcDbEntity
  8
0
  6
Continuous
100
AcDbLine
 10
278.7000010000002
 20
64.60001399999999
 30
0.0
 11
280.0
 21
64.60001399999999
 31
0.0
  0
LINE
  5
1AD3
330
D1
100
AcDbEntity
  8
0
  6
Continuous
100
AcDbLine
 10
278.0
 20
70.28420299999999
 30
0.0
 11
278.0
 21
64.95001999999999
 31
0.0
  0
LINE
  5
1AD4
330
D1
100
AcDbEntity
  8
0
  6
Continuous
100
AcDbLine
 10
274.0
 20
73.45002
 30
0.0
 11
274.0
 21
64.95001999999999
 31
0.0
  0
LINE
  5
1AD5
330
D1
100
AcDbEntity
  8
0
  6
Continuous
100
AcDbLine
 10
273.9999979999998
 20
64.95001999999999
 30
0.0
 11
273.6999989999999
 21
65.46963499999998
 31
0.0
  0
LINE
  5
1AD7
330
D1
100
AcDbEntity
  8
0
  6
Continuous
100
AcDbLine
 10
273.7000010000002
 20
72.93039699999997
 30
0.0
 11
274.0
 21
73.45001200000002
 31
0.0
  0
LINE
  5
1AE1
330
D1
100
AcDbEntity
  8
0
  6
Continuous
100
AcDbLine
 10
280.0
 20
68.99469799999997
 30
0.0
 11
280.0
 21
61.50001500000001
 31
0.0
  0
LINE
  5
1AE2
330
D1
100
AcDbEntity
  8
0
  6
Continuous
100
AcDbLine
 10
281.7747420000001
 20
72.50001500000002
 30
0.0
 11
318.225258
 21
72.50001500000002
 31
0.0
  0
LINE
  5
1AE3
330
D1
100
AcDbEntity
  8
0
  6
Continuous
100
AcDbLine
 10
320.0
 20
65.93831599999998
 30
0.0
 11
320.0
 21
61.50001500000001
 31
0.0
  0
LINE
  5
1AE4
330
D1
100
AcDbEntity
  8
0
  6
Continuous
100
AcDbLine
 10
332.5
 20
110.50002
 30
0.0
 11
332.5
 21
106.50002
 31
0.0
  0
LINE
  5
1AE5
330
D1
100
AcDbEntity
  8
0
  6
Continuous
100
AcDbLine
 10
267.5
 20
110.50002
 30
0.0
 11
267.5
 21
106.50002
 31
0.0
  0
LINE
  5
1AE8
330
D1
100
AcDbEntity
  8
0
  6
Continuous
100
AcDbLine
 10
268.5117909999999
 20
104.50002
 30
0.0
 11
283.9117930000002
 21
104.50002
 31
0.0
  0
LINE
  5
1AE9
330
D1
100
AcDbEntity
  8
0
  6
Continuous
100
AcDbLine
 10
283.9117930000002
 20
104.50002
 30
0.0
 11
283.9117930000002
 21
106.50002
 31
0.0
  0
LINE
  5
1AEB
330
D1
100
AcDbEntity
  8
0
  6
Continuous
100
AcDbLine
 10
284.5
 20
74.50001500000002
 30
0.0
 11
315.5
 21
74.50001500000002
 31
0.0
  0
LINE
  5
1AED
330
D1
100
AcDbEntity
  8
0
  6
Continuous
100
AcDbLine
 10
281.291714
 20
96.50001500000001
 30
0.0
 11
281.291714
 21
72.90001699999999
 31
0.0
  0
LINE
  5
1AEE
330
D1
100
AcDbEntity
  8
0
  6
Continuous
100
AcDbLine
 10
327.5
 20
96.50001500000001
 30
0.0
 11
327.5
 21
77.43667600000003
 31
0.0
  0
LINE
  5
1AF2
330
D1
100
AcDbEntity
  8
0
  6
Continuous
100
AcDbLine
 10
321.27927
 20
68.39576699999998
 30
0.0
 11
323.662186
 21
70.06430799999998
 31
0.0
  0
LINE
  5
1AF5
330
D1
100
AcDbEntity
  8
0
  6
Continuous
100
AcDbLine
 10
315.0
 20
76.50001500000001
 30
0.0
 11
315.0
 21
74.50001500000002
 31
0.0
  0
LINE
  5
1AF6
330
D1
100
AcDbEntity
  8
0
  6
Continuous
100
AcDbLine
 10
285.0
 20
76.50001500000001
 30
0.0
 11
285.0
 21
74.50001500000002
 31
0.0
  0
LINE
  5
1AF7
330
D1
100
AcDbEntity
  8
0
  6
Continuous
100
AcDbLine
 10
319.0
 20
60.50001500000002
 30
0.0
 11
319.9999979999998
 21
61.50001500000001
 31
0.0
  0
LINE
  5
1AF8
330
D1
100
AcDbEntity
  8
0
  6
Continuous
100
AcDbLine
 10
280.0
 20
61.50001500000001
 30
0.0
 11
320.0
 21
61.50001500000001
 31
0.0
  0
LINE
  5
1AF9
330
D1
100
AcDbEntity
  8
0
  6
Continuous
100
AcDbLine
 10
280.0000020000002
 20
61.50001500000001
 30
0.0
 11
281.0
 21
60.50001500000002
 31
0.0
  0
LINE
  5
1AFA
330
D1
100
AcDbEntity
  8
0
  6
Continuous
100
AcDbLine
 10
281.000031
 20
60.50001500000002
 30
0.0
 11
318.999969
 21
60.50001500000002
 31
0.0
  0
LINE
  5
1AFC
330
D1
100
AcDbEntity
  8
0
  6
Continuous
100
AcDbLine
 10
303.0
 20
39.88734399999998
 30
0.0
 11
303.0
 21
37.00001500000002
 31
0.0
  0
LINE
  5
1AFD
330
D1
100
AcDbEntity
  8
0
  6
Continuous
100
AcDbLine
 10
319.0
 20
60.50001500000002
 30
0.0
 11
319.0
 21
59.33268700000002
 31
0.0
  0
LINE
  5
1AFF
330
D1
100
AcDbEntity
  8
0
  6
Continuous
100
AcDbLine
 10
308.8881836
 20
39.00001500000002
 30
0.0
 11
343.5
 21
39.00001500000002
 31
0.0
  0
LINE
  5
1B00
330
D1
100
AcDbEntity
  8
0
  6
Continuous
100
AcDbLine
 10
311.5
 20
-47.25532499999999
 30
0.0
 11
311.5
 21
-49.36525
 31
0.0
  0
LINE
  5
1B01
330
D1
100
AcDbEntity
  8
0
  6
Continuous
100
AcDbLine
 10
312.3786890000001
 20
-45.13402899999999
 30
0.0
 11
315.664378
 21
-41.848339
 31
0.0
  0
LINE
  5
1B02
330
D1
100
AcDbEntity
  8
0
  6
Continuous
100
AcDbLine
 10
336.0434460000001
 20
-17.345573
 30
0.0
 11
333.542946
 21
-15.90190799999999
 31
0.0
  0
LINE
  5
1B03
330
D1
100
AcDbEntity
  8
0
  6
Continuous
100
AcDbLine
 10
317.680973
 20
-40.971451
 30
0.0
 11
343.56979
 21
-40.067394
 31
0.0
  0
LINE
  5
1B04
330
D1
100
AcDbEntity
  8
0
  6
Continuous
100
AcDbLine
 10
333.0434460000001
 20
-22.54172499999999
 30
0.0
 11
330.5429439999998
 21
-21.098061
 31
0.0
  0
LINE
  5
1B05
330
D1
100
AcDbEntity
  8
0
  6
Continuous
100
AcDbLine
 10
333.542946
 20
-15.90190799999999
 30
0.0
 11
330.5429439999998
 21
-21.098061
 31
0.0
  0
LINE
  5
1B06
330
D1
100
AcDbEntity
  8
0
  6
Continuous
100
AcDbLine
 10
345.5
 20
37.00001499999996
 30
0.0
 11
345.5
 21
-38.068604
 31
0.0
  0
LINE
  5
1B07
330
D1
100
AcDbEntity
  8
0
  6
Continuous
100
AcDbLine
 10
245.5
 20
-21.09806800000001
 30
0.0
 11
227.5
 21
-21.09806800000001
 31
0.0
  0
LINE
  5
1B08
330
D1
100
AcDbEntity
  8
0
  6
Continuous
100
AcDbLine
 10
245.5
 20
-22.54174800000001
 30
0.0
 11
227.5
 21
-22.54174800000001
 31
0.0
  0
LINE
  5
1B09
330
D1
100
AcDbEntity
  8
0
  6
Continuous
100
AcDbLine
 10
245.5
 20
-17.345596
 30
0.0
 11
227.5
 21
-17.345596
 31
0.0
  0
LINE
  5
1B0A
330
D1
100
AcDbEntity
  8
0
  6
Continuous
100
AcDbLine
 10
202.849976
 20
24.723602
 30
0.0
 11
202.849976
 21
-24.19480899999999
 31
0.0
  0
LINE
  5
1B0B
330
D1
100
AcDbEntity
  8
0
  6
Continuous
100
AcDbLine
 10
207.417786
 20
-12.69999699999999
 30
0.0
 11
207.417786
 21
12.69999699999999
 31
0.0
  0
LINE
  5
1B0C
330
D1
100
AcDbEntity
  8
0
  6
Continuous
100
AcDbLine
 10
303.0
 20
37.00001500000002
 30
0.0
 11
297.0
 21
37.00001500000002
 31
0.0
  0
LINE
  5
1B0D
330
D1
100
AcDbEntity
  8
0
  6
Continuous
100
AcDbLine
 10
297.0
 20
39.88734399999998
 30
0.0
 11
297.0
 21
37.00001500000002
 31
0.0
  0
LINE
  5
1B0E
330
D1
100
AcDbEntity
  8
0
  6
Continuous
100
AcDbLine
 10
280.9999389999998
 20
60.50001500000002
 30
0.0
 11
280.9999389999998
 21
59.33268700000002
 31
0.0
  0
LINE
  5
1B10
330
D1
100
AcDbEntity
  8
0
  6
Continuous
100
AcDbLine
 10
291.1118163999999
 20
39.00001500000002
 30
0.0
 11
256.5
 21
39.00001500000002
 31
0.0
  0
LINE
  5
1B11
330
D1
100
AcDbEntity
  8
0
  6
Continuous
100
AcDbLine
 10
288.4999389999998
 20
-47.25532499999999
 30
0.0
 11
288.4999389999998
 21
-49.36525
 31
0.0
  0
LINE
  5
1B14
330
D1
100
AcDbEntity
  8
0
  6
Continuous
100
AcDbLine
 10
290.5
 20
-66.99998499999998
 30
0.0
 11
309.5
 21
-66.99998499999998
 31
0.0
  0
LINE
  5
1B15
330
D1
100
AcDbEntity
  8
0
  6
Continuous
100
AcDbLine
 10
287.6212999999998
 20
-45.134007
 30
0.0
 11
284.3356090000002
 21
-41.84831600000001
 31
0.0
  0
LINE
  5
1B16
330
D1
100
AcDbEntity
  8
0
  6
Continuous
100
AcDbLine
 10
263.9565539999999
 20
-17.34557899999998
 30
0.0
 11
266.457054
 21
-15.901915
 31
0.0
  0
LINE
  5
1B17
330
D1
100
AcDbEntity
  8
0
  6
Continuous
100
AcDbLine
 10
282.3190100000001
 20
-40.97145799999998
 30
0.0
 11
256.4301799999999
 21
-40.067398
 31
0.0
  0
LINE
  5
1B18
330
D1
100
AcDbEntity
  8
0
  6
Continuous
100
AcDbLine
 10
266.9565539999999
 20
-22.541731
 30
0.0
 11
269.457054
 21
-21.09806599999999
 31
0.0
  0
LINE
  5
1B19
330
D1
100
AcDbEntity
  8
0
  6
Continuous
100
AcDbLine
 10
266.457054
 20
-15.901915
 30
0.0
 11
269.457054
 21
-21.09806599999999
 31
0.0
  0
LINE
  5
1B1A
330
D1
100
AcDbEntity
  8
0
  6
Continuous
100
AcDbLine
 10
285.4999389999998
 20
-49.99998499999998
 30
0.0
 11
314.5
 21
-49.99998499999998
 31
0.0
  0
LINE
  5
1B1B
330
D1
100
AcDbEntity
  8
0
  6
Continuous
100
AcDbLine
 10
315.6643749999998
 20
-41.012695
 30
0.0
 11
283.5
 21
-41.012695
 31
0.0
  0
LINE
  5
1B1C
330
D1
100
AcDbEntity
  8
0
  6
Continuous
100
AcDbLine
 10
300.0
 20
-39.99998499999998
 30
0.0
 11
258.9663089999999
 21
-39.99998499999998
 31
0.0
  0
LINE
  5
1B1D
330
D1
100
AcDbEntity
  8
0
  6
Continuous
100
AcDbLine
 10
254.5
 20
37.00001500000002
 30
0.0
 11
254.5
 21
-38.068604
 31
0.0
  0
LINE
  5
1B1E
330
D1
100
AcDbEntity
  8
0
  6
Continuous
100
AcDbLine
 10
245.5
 20
40.00001500000002
 30
0.0
 11
245.5
 21
-39.99998499999998
 31
0.0
  0
LINE
  5
1B1F
330
D1
100
AcDbEntity
  8
0
  6
Continuous
100
AcDbLine
 10
227.5
 20
40.00001500000002
 30
0.0
 11
227.5
 21
-39.99998499999998
 31
0.0
  0
LINE
  5
1B20
330
D1
100
AcDbEntity
  8
0
  6
Continuous
100
AcDbLine
 10
203.0415119999998
 20
-24.72358900000001
 30
0.0
 11
206.9387820000002
 21
-14.015918
 31
0.0
  0
LINE
  5
1B21
330
D1
100
AcDbEntity
  8
0
  6
Continuous
100
AcDbLine
 10
203.041534
 20
24.72360800000001
 30
0.0
 11
206.9388049999998
 21
14.015949
 31
0.0
  0
LINE
  5
1B22
330
D1
100
AcDbEntity
  8
0
  6
Continuous
100
AcDbLine
 10
200.0
 20
25.25
 30
0.0
 11
200.0
 21
-25.25
 31
0.0
  0
LINE
  5
1B23
330
D1
100
AcDbEntity
  8
0
  6
Continuous
100
AcDbLine
 10
200.0
 20
25.25
 30
0.0
 11
202.2897950000001
 21
25.25
 31
0.0
  0
LINE
  5
1B24
330
D1
100
AcDbEntity
  8
0
  6
Continuous
100
AcDbLine
 10
208.818237
 20
12.69999699999999
 30
0.0
 11
227.5
 21
12.69999699999999
 31
0.0
  0
LINE
  5
1B25
330
D1
100
AcDbEntity
  8
0
  6
Continuous
100
AcDbLine
 10
227.5
 20
40.00001500000002
 30
0.0
 11
245.5
 21
40.00001500000002
 31
0.0
  0
LINE
  5
1B26
330
D1
100
AcDbEntity
  8
0
  6
Continuous
100
AcDbLine
 10
200.0
 20
-25.25
 30
0.0
 11
202.2897950000001
 21
-25.25
 31
0.0
  0
LINE
  5
1B27
330
D1
100
AcDbEntity
  8
0
  6
Continuous
100
AcDbLine
 10
208.818237
 20
-12.69999699999999
 30
0.0
 11
227.5
 21
-12.69999699999999
 31
0.0
  0
LINE
  5
1B28
330
D1
100
AcDbEntity
  8
0
  6
Continuous
100
AcDbLine
 10
245.5
 20
30.50001499999999
 30
0.0
 11
254.5
 21
30.50001499999999
 31
0.0
  0
LINE
  5
1B29
330
D1
100
AcDbEntity
  8
0
  6
Continuous
100
AcDbLine
 10
245.5
 20
-30.49998500000001
 30
0.0
 11
254.5
 21
-30.49998500000001
 31
0.0
  0
LINE
  5
1B2A
330
D1
100
AcDbEntity
  8
0
  6
Continuous
100
AcDbLine
 10
227.5
 20
-39.99998499999998
 30
0.0
 11
245.5
 21
-39.99998499999998
 31
0.0
  0
LINE
  5
1B2D
330
D1
100
AcDbEntity
  8
0
  6
Continuous
100
AcDbLine
 10
301.8609848000001
 20
-52.99998499999998
 30
0.0
 11
301.8609848000001
 21
-58.99998499999998
 31
0.0
  0
LINE
  5
1B2E
330
D1
100
AcDbEntity
  8
0
  6
Continuous
100
AcDbLine
 10
298.1390151999999
 20
-52.99998499999998
 30
0.0
 11
298.1390151999999
 21
-58.99998499999998
 31
0.0
  0
LINE
  5
1B2F
330
D1
100
AcDbEntity
  8
0
  6
Continuous
100
AcDbLine
 10
314.1390080000001
 20
-52.99998499999998
 30
0.0
 11
314.1390080000001
 21
-58.99998499999998
 31
0.0
  0
LINE
  5
1B32
330
D1
100
AcDbEntity
  8
0
  6
Continuous
100
AcDbLine
 10
316.0
 20
-50.40190899999998
 30
0.0
 11
316.0
 21
-63.66367299999999
 31
0.0
  0
LINE
  5
1B33
330
D1
100
AcDbEntity
  8
0
  6
Continuous
100
AcDbLine
 10
283.999992
 20
-50.401913
 30
0.0
 11
283.999992
 21
-63.663666
 31
0.0
  0
LINE
  5
1B34
330
D1
100
AcDbEntity
  8
0
  6
Continuous
100
AcDbLine
 10
285.8609919999999
 20
-52.99998499999998
 30
0.0
 11
285.8609919999999
 21
-58.99998499999998
 31
0.0
  0
LINE
  5
1B35
330
D1
100
AcDbEntity
  8
0
  6
Continuous
100
AcDbLine
 10
259.0
 20
41.26176500000002
 30
0.0
 11
259.0
 21
39.00001500000002
 31
0.0
  0
LINE
  5
1B36
330
D1
100
AcDbEntity
  8
0
  6
Continuous
100
AcDbLine
 10
353.5
 20
58.76176500000003
 30
0.0
 11
353.5
 21
41.26176500000002
 31
0.0
  0
LINE
  5
1B66
330
D1
100
AcDbEntity
  8
0
  6
Continuous
100
AcDbLine
 10
353.5
 20
41.26176500000002
 30
0.0
 11
246.5
 21
41.26176500000002
 31
0.0
  0
LINE
  5
1B67
330
D1
100
AcDbEntity
  8
0
  6
Continuous
100
AcDbLine
 10
353.5
 20
58.76176500000003
 30
0.0
 11
246.5
 21
58.76176500000003
 31
0.0
  0
ARC
  5
1BA5
330
D1
100
AcDbEntity
  8
0
  6
Continuous
100
AcDbCircle
 10
312.75
 20
104.50002
 30
0.0
 40
2.0
100
AcDbArc
 50
0.0
 51
90.0
  0
ARC
  5
1BA7
330
D1
100
AcDbEntity
  8
0
  6
Continuous
100
AcDbCircle
 10
287.25
 20
104.50002
 30
0.0
 40
2.0
100
AcDbArc
 50
90.0
 51
180.0
  0
ARC
  5
1BA9
330
D1
100
AcDbEntity
  8
0
  6
Continuous
100
AcDbCircle
 10
281.5
 20
77.43667600000003
 30
0.0
 40
9.0
100
AcDbArc
 50
180.0
 51
201.0774300000064
  0
ARC
  5
1BAE
330
D1
100
AcDbEntity
  8
0
  6
Continuous
100
AcDbCircle
 10
323.0
 20
65.93831599999998
 30
0.0
 40
3.0
100
AcDbArc
 50
124.9999799999948
 51
180.0
  0
ARC
  5
1BAF
330
D1
100
AcDbEntity
  8
0
  6
Continuous
100
AcDbCircle
 10
318.5
 20
77.43667600000003
 30
0.0
 40
9.0
100
AcDbArc
 50
305.0000000000119
 51
0.0
  0
ARC
  5
1BB2
330
D1
100
AcDbEntity
  8
0
  6
Continuous
100
AcDbCircle
 10
321.0
 20
59.33268700000002
 30
0.0
 40
2.0
100
AcDbArc
 50
180.0
 51
196.5864300000029
  0
ARC
  5
1BB4
330
D1
100
AcDbEntity
  8
0
  6
Continuous
100
AcDbCircle
 10
312.5
 20
-49.36525
 30
0.0
 40
1.0
100
AcDbArc
 50
180.0
 51
219.4009200000095
  0
ARC
  5
1BB5
330
D1
100
AcDbEntity
  8
0
  6
Continuous
100
AcDbCircle
 10
317.7857060000001
 20
-43.96961999999999
 30
0.0
 40
3.0
100
AcDbArc
 50
91.99999400000095
 51
135.0000299999885
  0
ARC
  5
1BB6
330
D1
100
AcDbEntity
  8
0
  6
Continuous
100
AcDbCircle
 10
343.5
 20
-38.068604
 30
0.0
 40
2.0
100
AcDbArc
 50
271.9999599999947
 51
0.0
  0
ARC
  5
1BB7
330
D1
100
AcDbEntity
  8
0
  6
Continuous
100
AcDbCircle
 10
314.5
 20
-47.25532499999999
 30
0.0
 40
3.0
100
AcDbArc
 50
135.0000299999885
 51
180.0
  0
ARC
  5
1BB8
330
D1
100
AcDbEntity
  8
0
  6
Continuous
100
AcDbCircle
 10
300.0
 20
0.0
 30
0.0
 40
40.0
100
AcDbArc
 50
334.3012200000032
 51
85.69877999999546
  0
CIRCLE
  5
1BB9
330
D1
100
AcDbEntity
  8
0
  6
Continuous
100
AcDbCircle
 10
300.0
 20
0.0
 30
0.0
 40
28.000013
  0
CIRCLE
  5
1BBB
330
D1
100
AcDbEntity
  8
0
  6
Continuous
100
AcDbCircle
 10
300.0
 20
0.0
 30
0.0
 40
11.500007
  0
ARC
  5
1BBC
330
D1
100
AcDbEntity
  8
0
  6
Continuous
100
AcDbCircle
 10
279.0
 20
59.33268700000002
 30
0.0
 40
2.0
100
AcDbArc
 50
343.413569999997
 51
0.0
  0
ARC
  5
1BBF
330
D1
100
AcDbEntity
  8
0
  6
Continuous
100
AcDbCircle
 10
287.5
 20
-49.36525
 30
0.0
 40
1.0
100
AcDbArc
 50
320.5990799999905
 51
0.0
  0
ARC
  5
1BC0
330
D1
100
AcDbEntity
  8
0
  6
Continuous
100
AcDbCircle
 10
282.2142939999999
 20
-43.96961999999999
 30
0.0
 40
3.0
100
AcDbArc
 50
44.99997399999712
 51
88.00000599999904
  0
ARC
  5
1BC1
330
D1
100
AcDbEntity
  8
0
  6
Continuous
100
AcDbCircle
 10
256.5
 20
-38.068604
 30
0.0
 40
2.0
100
AcDbArc
 50
180.0
 51
268.0000400000052
  0
ARC
  5
1BC3
330
D1
100
AcDbEntity
  8
0
  6
Continuous
100
AcDbCircle
 10
300.0
 20
0.0
 30
0.0
 40
40.0
100
AcDbArc
 50
214.3012200000016
 51
325.6987999999935
  0
ARC
  5
1BC4
330
D1
100
AcDbEntity
  8
0
  6
Continuous
100
AcDbCircle
 10
285.4999389999998
 20
-47.25532499999999
 30
0.0
 40
3.0
100
AcDbArc
 50
0.0
 51
44.99997399999712
  0
ARC
  5
1BC5
330
D1
100
AcDbEntity
  8
0
  6
Continuous
100
AcDbCircle
 10
300.0
 20
0.0
 30
0.0
 40
40.0
100
AcDbArc
 50
94.30121900000715
 51
205.6987799999967
  0
CIRCLE
  5
1BC6
330
D1
100
AcDbEntity
  8
0
  6
Continuous
100
AcDbCircle
 10
300.0
 20
0.0
 30
0.0
 40
25.250002
  0
ARC
  5
1BC9
330
D1
100
AcDbEntity
  8
0
  6
Continuous
100
AcDbCircle
 10
208.818237
 20
-14.69999699999999
 30
0.0
 40
2.0
100
AcDbArc
 50
90.0
 51
160.0000200000063
  0
ARC
  5
1BCA
330
D1
100
AcDbEntity
  8
0
  6
Continuous
100
AcDbCircle
 10
208.818237
 20
14.69999699999999
 30
0.0
 40
2.0
100
AcDbArc
 50
199.9999799999936
 51
270.0
  0
ARC
  5
1BCF
330
D1
100
AcDbEntity
  8
0
  6
Continuous
100
AcDbCircle
 10
202.2897950000001
 20
-24.449997
 30
0.0
 40
0.8000000099999999
100
AcDbArc
 50
270.0
 51
339.9999700000074
  0
ARC
  5
1BD4
330
D1
100
AcDbEntity
  8
0
  6
Continuous
100
AcDbCircle
 10
202.2897950000001
 20
24.449997
 30
0.0
 40
0.8000000099999999
100
AcDbArc
 50
20.00002900000653
 51
90.0
  0
ARC
  5
1BD5
330
D1
100
AcDbEntity
  8
0
  6
Continuous
100
AcDbCircle
 10
314.5
 20
-52.99998499999998
 30
0.0
 40
3.0
100
AcDbArc
 50
59.99999699999109
 51
90.0
  0
ARC
  5
1BD6
330
D1
100
AcDbEntity
  8
0
  6
Continuous
100
AcDbCircle
 10
290.5
 20
-58.99998499999998
 30
0.0
 40
8.0
100
AcDbArc
 50
215.6589800000005
 51
270.000010000001
  0
ARC
  5
1BD7
330
D1
100
AcDbEntity
  8
0
  6
Continuous
100
AcDbCircle
 10
309.5
 20
-58.99998499999998
 30
0.0
 40
8.0
100
AcDbArc
 50
270.0
 51
324.3409200000085
  0
ARC
  5
1BD8
330
D1
100
AcDbEntity
  8
0
  6
Continuous
100
AcDbCircle
 10
285.5
 20
-52.99998499999998
 30
0.0
 40
3.0
100
AcDbArc
 50
90.0
 51
120.0001699999885
  0
ELLIPSE
  5
1C0B
330
D1
100
AcDbEntity
  8
0
  6
Continuous
100
AcDbEllipse
 10
318.225258
 20
72.90001699999999
 30
0.0
 11
-0.48302394
 21
-0.0023656286
 31
0.0
210
0.0
220
0.0
230
1.0
 40
0.82810641
 41
1.566740699999999
 42
3.135678599999999
  0
ELLIPSE
  5
1C0C
330
D1
100
AcDbEntity
  8
0
  6
Continuous
100
AcDbEllipse
 10
315.2970580000001
 20
102.50002
 30
0.0
 11
0.0
 21
3.999999899999999
 31
0.0
210
0.0
220
0.0
230
1.0
 40
0.8528071
 41
6.049092199999999
 42
6.283185307179586
  0
SPLINE
  5
1C0D
330
D1
100
AcDbEntity
  8
0
  6
Continuous
100
AcDbSpline
210
0.0
220
0.0
230
1.0
 70
     8
 71
     3
 72
    13
 73
     9
 74
     7
 42
0.0000000001
 43
0.0000000001
 44
0.00001
 12
0.3961836001156706
 22
-0.918171310268071
 32
0.0
 13
0.8422435502752508
 23
-0.5390972101761805
 33
0.0
 40
0.0
 40
0.0
 40
0.0
 40
0.0
 40
0.9157023021772284
 40
1.831688223122883
 40
2.747949869911925
 40
3.664041467104706
 40
4.580439679686608
 40
5.493995753725494
 40
5.493995753725494
 40
5.493995753725494
 40
5.493995753725494
 10
274.8356439999998
 20
74.20002
 30
0.0
 10
274.9565727449034
 20
73.91976280579815
 30
0.0
 10
275.2248581509623
 20
73.37012409829025
 30
0.0
 10
275.7031667353033
 20
72.58738802744608
 30
0.0
 10
276.2555120306235
 20
71.85457729481438
 30
0.0
 10
276.880873554015
 20
71.18252616762025
 30
0.0
 10
277.5734231658729
 20
70.58159276533094
 30
0.0
 10
278.0721300962755
 20
70.22847317695127
 30
0.0
 10
278.3286090000002
 20
70.06430799999998
 30
0.0
 11
274.8356439999998
 21
74.20002
 31
0.0
 11
275.237439
 21
73.37717499999996
 31
0.0
 11
275.7154350000001
 21
72.595798
 31
0.0
 11
276.267695
 21
71.86467199999999
 31
0.0
 11
276.892104
 21
71.194345
 31
0.0
 11
277.5834599999998
 21
70.59283600000004
 31
0.0
 11
278.3286090000002
 21
70.06430799999998
 31
0.0
  0
ELLIPSE
  5
1C0E
330
D1
100
AcDbEntity
  8
0
  6
Continuous
100
AcDbEllipse
 10
281.7747420000001
 20
72.90001699999999
 30
0.0
 11
0.48302394
 21
-0.0023656286
 31
0.0
210
0.0
220
0.0
230
1.0
 40
0.82810641
 41
3.1475067
 42
4.716444599999999
  0
ELLIPSE
  5
1C0F
330
D1
100
AcDbEntity
  8
0
  6
Continuous
100
AcDbEllipse
 10
284.7029419999999
 20
102.50002
 30
0.0
 11
0.0
 21
3.999999899999999
 31
0.0
210
0.0
220
0.0
230
1.0
 40
0.8528071
 41
6.283185299999999
 42
6.517241637179585
  0
ELLIPSE
  5
1C10
330
D1
100
AcDbEntity
  8
0
  6
Continuous
100
AcDbEllipse
 10
292.0
 20
-58.99998499999998
 30
0.0
 11
-6.139007
 21
-0.0089439388
 31
0.0
210
0.0
220
0.0
230
1.0
 40
0.75967888
 41
6.2812675
 42
9.422860207179585
  0
ELLIPSE
  5
1C11
330
D1
100
AcDbEntity
  8
0
  6
Continuous
100
AcDbEllipse
 10
308.0
 20
-58.99998499999998
 30
0.0
 11
6.139007
 21
-0.0089439388
 31
0.0
210
0.0
220
0.0
230
1.0
 40
0.75967888
 41
3.143510399999999
 42
6.285103092979586
  0
ELLIPSE
  5
1C12
330
D1
100
AcDbEntity
  8
0
  6
Continuous
100
AcDbEllipse
 10
308.0
 20
-52.99998499999998
 30
0.0
 11
6.139013499999999
 21
0.0000000000000071
 31
0.0
210
0.0
220
0.0
230
1.0
 40
0.4232067299999999
 41
6.283185299999999
 42
9.424778007179586
  0
ELLIPSE
  5
1C13
330
D1
100
AcDbEntity
  8
0
  6
Continuous
100
AcDbEllipse
 10
292.0
 20
-52.99998499999998
 30
0.0
 11
-6.139013499999999
 21
0.0000000000000071
 31
0.0
210
0.0
220
0.0
230
1.0
 40
0.4232067299999999
 41
3.1415927
 42
6.28318530717959
  0
POINT
  5
1C1C
330
D1
100
AcDbEntity
  8
0
  6
Continuous
100
AcDbPoint
 10
0.0
 20
0.0
 30
0.0
  0
LINE
  5
1C1D
330
D1
100
AcDbEntity
  8
0
  6
Continuous
100
AcDbLine
 10
-31.4882090000001
 20
104.5000199999999
 30
0.0
 11
-16.08820699999978
 21
104.5000199999999
 31
0.0
  0
LINE
  5
1C1E
330
D1
100
AcDbEntity
  8
0
  6
Continuous
100
AcDbLine
 10
-29.4221819999998
 20
96.50001499999996
 30
0.0
 11
-18.15423400000009
 21
96.50001499999996
 31
0.0
  0
LINE
  5
1C1F
330
D1
100
AcDbEntity
  8
0
  6
Continuous
100
AcDbLine
 10
-30.28820799999994
 20
97.00001499999997
 30
0.0
 11
-30.28820799999994
 21
104.5000199999999
 31
0.0
  0
LINE
  5
1C20
330
D1
100
AcDbEntity
  8
0
  6
Continuous
100
AcDbLine
 10
-17.28820799999994
 20
97.00001499999997
 30
0.0
 11
-17.28820799999994
 21
104.5000199999999
 31
0.0
  0
LINE
  5
1C24
330
D1
100
AcDbEntity
  8
0
  6
Continuous
100
AcDbLine
 10
41.0
 20
74.50001499999996
 30
0.0
 11
41.0
 21
72.50001499999996
 31
0.0
  0
LINE
  5
1C26
330
D1
100
AcDbEntity
  8
0
  6
Continuous
100
AcDbLine
 10
-15.37867899999992
 20
74.50001499999996
 30
0.0
 11
-15.37867899999992
 21
72.50001499999996
 31
0.0
  0
LINE
  5
1C27
330
D1
100
AcDbEntity
  8
0
  6
Continuous
100
AcDbLine
 10
-17.5
 20
74.50001499999996
 30
0.0
 11
-17.5
 21
72.50001499999996
 31
0.0
  0
LINE
  5
1C32
330
D1
100
AcDbEntity
  8
0
  6
Continuous
100
AcDbLine
 10
-30.28820799999994
 20
103.2500199999999
 30
0.0
 11
-17.28820799999994
 21
103.2500199999999
 31
0.0
  0
LINE
  5
1C33
330
D1
100
AcDbEntity
  8
0
  6
Continuous
100
AcDbLine
 10
-30.28820799999994
 20
97.00001499999997
 30
0.0
 11
-17.28820799999994
 21
97.00001499999997
 31
0.0
  0
LINE
  5
1C34
330
D1
100
AcDbEntity
  8
0
  6
Continuous
100
AcDbLine
 10
-29.42218599999979
 20
96.50001499999996
 30
0.0
 11
-30.28821000000017
 21
97.00001499999997
 31
0.0
  0
LINE
  5
1C35
330
D1
100
AcDbEntity
  8
0
  6
Continuous
100
AcDbLine
 10
-18.15423400000009
 20
96.50001499999996
 30
0.0
 11
-17.28820799999994
 21
97.00001499999997
 31
0.0
  0
LINE
  5
1C41
330
D1
100
AcDbEntity
  8
0
  6
Continuous
100
AcDbLine
 10
29.42230800000016
 20
96.50002300000005
 30
0.0
 11
30.28833399999985
 21
97.00002300000006
 31
0.0
  0
LINE
  5
1C42
330
D1
100
AcDbEntity
  8
0
  6
Continuous
100
AcDbLine
 10
18.15435399999978
 20
96.50001499999996
 30
0.0
 11
17.28832800000009
 21
97.00001499999997
 31
0.0
  0
LINE
  5
1C43
330
D1
100
AcDbEntity
  8
0
  6
Continuous
100
AcDbLine
 10
17.28832999999986
 20
97.00001499999997
 30
0.0
 11
30.28832999999986
 21
97.00001499999997
 31
0.0
  0
LINE
  5
1C44
330
D1
100
AcDbEntity
  8
0
  6
Continuous
100
AcDbLine
 10
17.28832999999986
 20
103.2500199999999
 30
0.0
 11
30.28832999999986
 21
103.2500199999999
 31
0.0
  0
LINE
  5
1C45
330
D1
100
AcDbEntity
  8
0
  6
Continuous
100
AcDbLine
 10
16.08832900000016
 20
104.5000199999999
 30
0.0
 11
31.48833100000002
 21
104.5000199999999
 31
0.0
  0
LINE
  5
1C46
330
D1
100
AcDbEntity
  8
0
  6
Continuous
100
AcDbLine
 10
-31.4882090000001
 20
104.5000199999999
 30
0.0
 11
-31.4882090000001
 21
106.5000199999999
 31
0.0
  0
LINE
  5
1C47
330
D1
100
AcDbEntity
  8
0
  6
Continuous
100
AcDbLine
 10
-12.5
 20
102.5000199999999
 30
0.0
 11
-12.5
 21
67.50001499999996
 31
0.0
  0
LINE
  5
1C49
330
D1
100
AcDbEntity
  8
0
  6
Continuous
100
AcDbLine
 10
-19.99999799999978
 20
61.50001499999996
 30
0.0
 11
-19.0
 21
60.50001499999996
 31
0.0
  0
LINE
  5
1C4B
330
D1
100
AcDbEntity
  8
0
  6
Continuous
100
AcDbLine
 10
-15.0
 20
76.50001499999996
 30
0.0
 11
-15.0
 21
74.50001499999996
 31
0.0
  0
LINE
  5
1C4C
330
D1
100
AcDbEntity
  8
0
  6
Continuous
100
AcDbLine
 10
-17.5
 20
74.50001499999996
 30
0.0
 11
-12.5
 21
74.50001499999996
 31
0.0
  0
LINE
  5
1C4D
330
D1
100
AcDbEntity
  8
0
  6
Continuous
100
AcDbLine
 10
-15.0
 20
76.50001499999996
 30
0.0
 11
-12.5
 21
76.50001499999996
 31
0.0
  0
LINE
  5
1C4E
330
D1
100
AcDbEntity
  8
0
  6
Continuous
100
AcDbLine
 10
12.5
 20
74.50001499999996
 30
0.0
 11
41.0
 21
74.50001499999996
 31
0.0
  0
LINE
  5
1C4F
330
D1
100
AcDbEntity
  8
0
  6
Continuous
100
AcDbLine
 10
15.0
 20
76.50001499999996
 30
0.0
 11
15.0
 21
74.50001499999996
 31
0.0
  0
LINE
  5
1C50
330
D1
100
AcDbEntity
  8
0
  6
Continuous
100
AcDbLine
 10
12.5
 20
76.50001499999996
 30
0.0
 11
15.0
 21
76.50001499999996
 31
0.0
  0
LINE
  5
1C52
330
D1
100
AcDbEntity
  8
0
  6
Continuous
100
AcDbLine
 10
31.48833100000002
 20
104.5000199999999
 30
0.0
 11
31.48833100000002
 21
106.5000199999999
 31
0.0
  0
LINE
  5
1C55
330
D1
100
AcDbEntity
  8
0
  6
Continuous
100
AcDbLine
 10
18.154356
 20
96.50001499999996
 30
0.0
 11
29.42230400000017
 21
96.50001499999996
 31
0.0
  0
LINE
  5
1C56
330
D1
100
AcDbEntity
  8
0
  6
Continuous
100
AcDbLine
 10
30.28832999999986
 20
97.00001499999997
 30
0.0
 11
30.28832999999986
 21
104.5000199999999
 31
0.0
  0
LINE
  5
1C57
330
D1
100
AcDbEntity
  8
0
  6
Continuous
100
AcDbLine
 10
19.0
 20
60.50001499999996
 30
0.0
 11
19.99999799999978
 21
61.50001499999996
 31
0.0
  0
LINE
  5
1C5E
330
D1
100
AcDbEntity
  8
0
  6
Continuous
100
AcDbLine
 10
5.654700300000058
 20
67.20002
 30
0.0
 11
3.345299499999782
 21
67.20002
 31
0.0
  0
LINE
  5
1C5F
330
D1
100
AcDbEntity
  8
0
  6
Continuous
100
AcDbLine
 10
6.809398700000201
 20
69.20001200000001
 30
0.0
 11
5.654699300000174
 21
67.20001200000002
 31
0.0
  0
LINE
  5
1C60
330
D1
100
AcDbEntity
  8
0
  6
Continuous
100
AcDbLine
 10
2.190601799999967
 20
69.20001200000001
 30
0.0
 11
3.345301199999994
 21
67.20001200000002
 31
0.0
  0
LINE
  5
1C61
330
D1
100
AcDbEntity
  8
0
  6
Continuous
100
AcDbLine
 10
-0.5
 20
69.20002
 30
0.0
 11
-0.5
 21
67.50001499999996
 31
0.0
  0
LINE
  5
1C62
330
D1
100
AcDbEntity
  8
0
  6
Continuous
100
AcDbLine
 10
9.5
 20
69.20002
 30
0.0
 11
9.5
 21
67.50001499999996
 31
0.0
  0
LINE
  5
1C63
330
D1
100
AcDbEntity
  8
0
  6
Continuous
100
AcDbLine
 10
3.345295699999951
 20
71.20001200000001
 30
0.0
 11
2.190596299999924
 21
69.20001200000001
 31
0.0
  0
LINE
  5
1C64
330
D1
100
AcDbEntity
  8
0
  6
Continuous
100
AcDbLine
 10
5.654703600000175
 20
71.20001200000001
 30
0.0
 11
6.809402899999895
 21
69.20001200000001
 31
0.0
  0
LINE
  5
1C66
330
D1
100
AcDbEntity
  8
0
  6
Continuous
100
AcDbLine
 10
3.345299499999782
 20
71.20001999999999
 30
0.0
 11
5.654700300000058
 21
71.20001999999999
 31
0.0
  0
LINE
  5
1C67
330
D1
100
AcDbEntity
  8
0
  6
Continuous
100
AcDbLine
 10
-18.99999799999978
 20
72.50001499999996
 30
0.0
 11
-20.0
 21
71.50001499999996
 31
0.0
  0
LINE
  5
1C68
330
D1
100
AcDbEntity
  8
0
  6
Continuous
100
AcDbLine
 10
-12.5
 20
72.50001499999996
 30
0.0
 11
-19.0
 21
72.50001499999996
 31
0.0
  0
LINE
  5
1C69
330
D1
100
AcDbEntity
  8
0
  6
Continuous
100
AcDbLine
 10
18.99999799999978
 20
72.50001499999996
 30
0.0
 11
20.0
 21
71.50001499999996
 31
0.0
  0
LINE
  5
1C6B
330
D1
100
AcDbEntity
  8
0
  6
Continuous
100
AcDbLine
 10
-32.5
 20
106.5000199999999
 30
0.0
 11
32.5
 21
106.5000199999999
 31
0.0
  0
LINE
  5
1C6C
330
D1
100
AcDbEntity
  8
0
  6
Continuous
100
AcDbLine
 10
41.0
 20
72.50001499999996
 30
0.0
 11
12.5
 21
72.50001499999996
 31
0.0
  0
LINE
  5
1C6D
330
D1
100
AcDbEntity
  8
0
  6
Continuous
100
AcDbLine
 10
12.5
 20
102.5000199999999
 30
0.0
 11
12.5
 21
67.50001499999996
 31
0.0
  0
LINE
  5
1C6F
330
D1
100
AcDbEntity
  8
0
  6
Continuous
100
AcDbLine
 10
-20.0
 20
71.50001499999996
 30
0.0
 11
-20.0
 21
61.50001499999996
 31
0.0
  0
LINE
  5
1C71
330
D1
100
AcDbEntity
  8
0
  6
Continuous
100
AcDbLine
 10
16.08832900000016
 20
104.5000199999999
 30
0.0
 11
16.08832900000016
 21
106.5000199999999
 31
0.0
  0
LINE
  5
1C72
330
D1
100
AcDbEntity
  8
0
  6
Continuous
100
AcDbLine
 10
20.0
 20
71.50001499999996
 30
0.0
 11
20.0
 21
61.50001499999996
 31
0.0
  0
LINE
  5
1C73
330
D1
100
AcDbEntity
  8
0
  6
Continuous
100
AcDbLine
 10
-32.5
 20
110.5000199999999
 30
0.0
 11
-32.5
 21
106.5000199999999
 31
0.0
  0
LINE
  5
1C75
330
D1
100
AcDbEntity
  8
0
  6
Continuous
100
AcDbLine
 10
32.5
 20
110.5000199999999
 30
0.0
 11
32.5
 21
106.5000199999999
 31
0.0
  0
LINE
  5
1C77
330
D1
100
AcDbEntity
  8
0
  6
Continuous
100
AcDbLine
 10
17.28832999999986
 20
97.00001499999997
 30
0.0
 11
17.28832999999986
 21
104.5000199999999
 31
0.0
  0
LINE
  5
1C78
330
D1
100
AcDbEntity
  8
0
  6
Continuous
100
AcDbLine
 10
-16.08820699999978
 20
104.5000199999999
 30
0.0
 11
-16.08820699999978
 21
106.5000199999999
 31
0.0
  0
LINE
  5
1C79
330
D1
100
AcDbEntity
  8
0
  6
Continuous
100
AcDbLine
 10
-14.75
 20
104.5000199999999
 30
0.0
 11
-14.75
 21
76.50001499999996
 31
0.0
  0
LINE
  5
1C7A
330
D1
100
AcDbEntity
  8
0
  6
Continuous
100
AcDbLine
 10
14.75
 20
104.5000199999999
 30
0.0
 11
14.75
 21
76.50001499999996
 31
0.0
  0
LINE
  5
1C7B
330
D1
100
AcDbEntity
  8
0
  6
Continuous
100
AcDbLine
 10
54.50003100000003
 20
-21.09806800000001
 30
0.0
 11
72.50003100000004
 21
-21.09806800000001
 31
0.0
  0
LINE
  5
1C7C
330
D1
100
AcDbEntity
  8
0
  6
Continuous
100
AcDbLine
 10
54.50003100000003
 20
-22.54174799999999
 30
0.0
 11
72.50003100000004
 21
-22.54174799999999
 31
0.0
  0
LINE
  5
1C7D
330
D1
100
AcDbEntity
  8
0
  6
Continuous
100
AcDbLine
 10
54.50003100000003
 20
-17.345596
 30
0.0
 11
72.50003100000004
 21
-17.345596
 31
0.0
  0
LINE
  5
1C7E
330
D1
100
AcDbEntity
  8
0
  6
Continuous
100
AcDbLine
 10
96.95843500000002
 20
24.723614
 30
0.0
 11
93.06116500000007
 21
14.01595599999996
 31
0.0
  0
LINE
  5
1C7F
330
D1
100
AcDbEntity
  8
0
  6
Continuous
100
AcDbLine
 10
100.0
 20
25.25
 30
0.0
 11
97.71020500000009
 21
25.25
 31
0.0
  0
LINE
  5
1C80
330
D1
100
AcDbEntity
  8
0
  6
Continuous
100
AcDbLine
 10
91.18176300000005
 20
12.69999700000005
 30
0.0
 11
72.50003100000004
 21
12.69999700000005
 31
0.0
  0
LINE
  5
1C81
330
D1
100
AcDbEntity
  8
0
  6
Continuous
100
AcDbLine
 10
92.58221400000001
 20
12.69999700000005
 30
0.0
 11
92.58221400000001
 21
-12.69999700000005
 31
0.0
  0
LINE
  5
1C82
330
D1
100
AcDbEntity
  8
0
  6
Continuous
100
AcDbLine
 10
97.15002400000003
 20
-24.72359099999994
 30
0.0
 11
97.15002400000003
 21
24.19480899999996
 31
0.0
  0
LINE
  5
1C83
330
D1
100
AcDbEntity
  8
0
  6
Continuous
100
AcDbLine
 10
100.0
 20
25.25
 30
0.0
 11
100.0
 21
-25.25
 31
0.0
  0
LINE
  5
1C84
330
D1
100
AcDbEntity
  8
0
  6
Continuous
100
AcDbLine
 10
91.18176300000005
 20
-12.69999700000005
 30
0.0
 11
72.50003100000004
 21
-12.69999700000005
 31
0.0
  0
LINE
  5
1C85
330
D1
100
AcDbEntity
  8
0
  6
Continuous
100
AcDbLine
 10
100.0
 20
-25.25
 30
0.0
 11
97.71020500000009
 21
-25.25
 31
0.0
  0
LINE
  5
1C86
330
D1
100
AcDbEntity
  8
0
  6
Continuous
100
AcDbLine
 10
96.95844299999999
 20
-24.72359800000004
 30
0.0
 11
93.06117999999992
 21
-14.01595499999996
 31
0.0
  0
LINE
  5
1C88
330
D1
100
AcDbEntity
  8
0
  6
Continuous
100
AcDbLine
 10
-17.40075699999988
 20
-52.99998500000004
 30
0.0
 11
-17.40075699999988
 21
-58.99998500000004
 31
0.0
  0
LINE
  5
1C89
330
D1
100
AcDbEntity
  8
0
  6
Continuous
100
AcDbLine
 10
-10.31204200000002
 20
-52.99998500000004
 30
0.0
 11
-10.31204200000002
 21
-58.99998500000004
 31
0.0
  0
LINE
  5
1C8A
330
D1
100
AcDbEntity
  8
0
  6
Continuous
100
AcDbLine
 10
-7.088714600000002
 20
-52.99998500000004
 30
0.0
 11
-7.088714600000002
 21
-58.99998500000004
 31
0.0
  0
LINE
  5
1C8B
330
D1
100
AcDbEntity
  8
0
  6
Continuous
100
AcDbLine
 10
18.99996899999996
 20
60.50001499999996
 30
0.0
 11
18.99996899999996
 21
59.33268699999996
 31
0.0
  0
LINE
  5
1C8C
330
D1
100
AcDbEntity
  8
0
  6
Continuous
100
AcDbLine
 10
18.99996899999996
 20
60.50001499999996
 30
0.0
 11
-18.99996899999996
 21
60.50001499999996
 31
0.0
  0
LINE
  5
1C8D
330
D1
100
AcDbEntity
  8
0
  6
Continuous
100
AcDbLine
 10
-3.0
 20
37.00001499999996
 30
0.0
 11
3.0
 21
37.00001499999996
 31
0.0
  0
LINE
  5
1C8E
330
D1
100
AcDbEntity
  8
0
  6
Continuous
100
AcDbLine
 10
3.0
 20
39.88734399999998
 30
0.0
 11
3.0
 21
37.00001499999996
 31
0.0
  0
LINE
  5
1C8F
330
D1
100
AcDbEntity
  8
0
  6
Continuous
100
AcDbLine
 10
41.00003100000003
 20
41.25001499999996
 30
0.0
 11
41.00003100000003
 21
39.00001499999997
 31
0.0
  0
LINE
  5
1C91
330
D1
100
AcDbEntity
  8
0
  6
Continuous
100
AcDbLine
 10
54.50003100000003
 20
30.50001499999996
 30
0.0
 11
45.50003100000003
 21
30.50001499999996
 31
0.0
  0
LINE
  5
1C92
330
D1
100
AcDbEntity
  8
0
  6
Continuous
100
AcDbLine
 10
54.50003100000003
 20
40.00001499999996
 30
0.0
 11
54.50003100000003
 21
-39.99998500000004
 31
0.0
  0
LINE
  5
1C93
330
D1
100
AcDbEntity
  8
0
  6
Continuous
100
AcDbLine
 10
72.50003100000004
 20
40.00001499999996
 30
0.0
 11
72.50003100000004
 21
-39.99998500000004
 31
0.0
  0
LINE
  5
1C94
330
D1
100
AcDbEntity
  8
0
  6
Continuous
100
AcDbLine
 10
72.50003100000004
 20
40.00001499999996
 30
0.0
 11
54.50003100000003
 21
40.00001499999996
 31
0.0
  0
LINE
  5
1C95
330
D1
100
AcDbEntity
  8
0
  6
Continuous
100
AcDbLine
 10
8.888183600000047
 20
39.00001499999996
 30
0.0
 11
43.5
 21
39.00001499999996
 31
0.0
  0
LINE
  5
1C97
330
D1
100
AcDbEntity
  8
0
  6
Continuous
100
AcDbLine
 10
-45.50003100000004
 20
37.00001499999996
 30
0.0
 11
-45.50003100000004
 21
-38.06860400000005
 31
0.0
  0
LINE
  5
1C98
330
D1
100
AcDbEntity
  8
0
  6
Continuous
100
AcDbLine
 10
-72.50003100000004
 20
-39.99998500000004
 30
0.0
 11
-54.50003100000003
 21
-39.99998500000004
 31
0.0
  0
LINE
  5
1C99
330
D1
100
AcDbEntity
  8
0
  6
Continuous
100
AcDbLine
 10
-33.54293800000005
 20
-15.90191700000002
 30
0.0
 11
-30.54293999999982
 21
-21.09806800000001
 31
0.0
  0
LINE
  5
1C9A
330
D1
100
AcDbEntity
  8
0
  6
Continuous
100
AcDbLine
 10
-33.0434650000002
 20
-22.54174999999998
 30
0.0
 11
-30.54293999999982
 21
-21.09806800000001
 31
0.0
  0
LINE
  5
1C9B
330
D1
100
AcDbEntity
  8
0
  6
Continuous
100
AcDbLine
 10
-17.68098400000008
 20
-40.971451
 30
0.0
 11
-43.56983899999977
 21
-40.06739000000004
 31
0.0
  0
LINE
  5
1C9C
330
D1
100
AcDbEntity
  8
0
  6
Continuous
100
AcDbLine
 10
-54.50003100000003
 20
-30.49998500000004
 30
0.0
 11
-45.50003100000003
 21
-30.49998500000004
 31
0.0
  0
LINE
  5
1C9D
330
D1
100
AcDbEntity
  8
0
  6
Continuous
100
AcDbLine
 10
-36.0434650000002
 20
-17.345596
 30
0.0
 11
-33.54293800000005
 21
-15.90191700000002
 31
0.0
  0
LINE
  5
1C9E
330
D1
100
AcDbEntity
  8
0
  6
Continuous
100
AcDbLine
 10
-12.37872800000014
 20
-45.13400999999999
 30
0.0
 11
-15.66441799999984
 21
-41.84832400000004
 31
0.0
  0
LINE
  5
1C9F
330
D1
100
AcDbEntity
  8
0
  6
Continuous
100
AcDbLine
 10
-11.50003100000003
 20
-47.25532499999997
 30
0.0
 11
-11.50003100000003
 21
-49.36525000000006
 31
0.0
  0
LINE
  5
1CA1
330
D1
100
AcDbEntity
  8
0
  6
Continuous
100
AcDbLine
 10
-72.50003100000004
 20
40.00001499999996
 30
0.0
 11
-54.50003100000003
 21
40.00001499999996
 31
0.0
  0
LINE
  5
1CA2
330
D1
100
AcDbEntity
  8
0
  6
Continuous
100
AcDbLine
 10
-72.50003100000004
 20
40.00001499999996
 30
0.0
 11
-72.50003100000004
 21
-39.99998500000004
 31
0.0
  0
LINE
  5
1CA3
330
D1
100
AcDbEntity
  8
0
  6
Continuous
100
AcDbLine
 10
-54.50003100000003
 20
40.00001499999996
 30
0.0
 11
-54.50003100000003
 21
-39.99998500000004
 31
0.0
  0
LINE
  5
1CA4
330
D1
100
AcDbEntity
  8
0
  6
Continuous
100
AcDbLine
 10
-54.50003100000003
 20
30.50001499999996
 30
0.0
 11
-45.50003100000003
 21
30.50001499999996
 31
0.0
  0
LINE
  5
1CA6
330
D1
100
AcDbEntity
  8
0
  6
Continuous
100
AcDbLine
 10
-3.0
 20
39.88734399999998
 30
0.0
 11
-3.0
 21
37.00001499999996
 31
0.0
  0
LINE
  5
1CA7
330
D1
100
AcDbEntity
  8
0
  6
Continuous
100
AcDbLine
 10
-18.99996899999996
 20
60.50001499999996
 30
0.0
 11
-18.99996899999996
 21
59.33268699999996
 31
0.0
  0
LINE
  5
1CA8
330
D1
100
AcDbEntity
  8
0
  6
Continuous
100
AcDbLine
 10
-96.95845000000009
 20
-24.72360200000003
 30
0.0
 11
-93.06118000000015
 21
-14.01595799999995
 31
0.0
  0
LINE
  5
1CA9
330
D1
100
AcDbEntity
  8
0
  6
Continuous
100
AcDbLine
 10
-100.0
 20
-25.25
 30
0.0
 11
-97.71020499999986
 21
-25.25
 31
0.0
  0
LINE
  5
1CAA
330
D1
100
AcDbEntity
  8
0
  6
Continuous
100
AcDbLine
 10
-91.18176300000005
 20
-12.69999700000005
 30
0.0
 11
-72.50003100000004
 21
-12.69999700000005
 31
0.0
  0
LINE
  5
1CAB
330
D1
100
AcDbEntity
  8
0
  6
Continuous
100
AcDbLine
 10
-100.0
 20
25.25
 30
0.0
 11
-100.0
 21
-25.25
 31
0.0
  0
LINE
  5
1CAC
330
D1
100
AcDbEntity
  8
0
  6
Continuous
100
AcDbLine
 10
-97.15002400000003
 20
-24.72359099999994
 30
0.0
 11
-97.15002400000003
 21
24.19480899999996
 31
0.0
  0
LINE
  5
1CAD
330
D1
100
AcDbEntity
  8
0
  6
Continuous
100
AcDbLine
 10
11.50003100000003
 20
-47.25532499999997
 30
0.0
 11
11.50003100000003
 21
-49.36525000000006
 31
0.0
  0
LINE
  5
1CAF
330
D1
100
AcDbEntity
  8
0
  6
Continuous
100
AcDbLine
 10
14.50003100000003
 20
-49.99998500000003
 30
0.0
 11
-14.49996899999996
 21
-49.99998500000003
 31
0.0
  0
LINE
  5
1CB0
330
D1
100
AcDbEntity
  8
0
  6
Continuous
100
AcDbLine
 10
-92.58221400000001
 20
12.69999700000005
 30
0.0
 11
-92.58221400000001
 21
-12.69999700000005
 31
0.0
  0
LINE
  5
1CB1
330
D1
100
AcDbEntity
  8
0
  6
Continuous
100
AcDbLine
 10
-91.18176300000005
 20
12.69999700000005
 30
0.0
 11
-72.50003100000004
 21
12.69999700000005
 31
0.0
  0
LINE
  5
1CB2
330
D1
100
AcDbEntity
  8
0
  6
Continuous
100
AcDbLine
 10
-100.0
 20
25.25
 30
0.0
 11
-97.71020499999986
 21
25.25
 31
0.0
  0
LINE
  5
1CB3
330
D1
100
AcDbEntity
  8
0
  6
Continuous
100
AcDbLine
 10
-96.95845000000009
 20
24.72361000000001
 30
0.0
 11
-93.06118000000015
 21
14.01595099999997
 31
0.0
  0
LINE
  5
1CB4
330
D1
100
AcDbEntity
  8
0
  6
Continuous
100
AcDbLine
 10
-54.50003100000003
 20
-17.345596
 30
0.0
 11
-72.50003100000004
 21
-17.345596
 31
0.0
  0
LINE
  5
1CB5
330
D1
100
AcDbEntity
  8
0
  6
Continuous
100
AcDbLine
 10
-54.50003100000003
 20
-22.54174799999999
 30
0.0
 11
-72.50003100000004
 21
-22.54174799999999
 31
0.0
  0
LINE
  5
1CB6
330
D1
100
AcDbEntity
  8
0
  6
Continuous
100
AcDbLine
 10
-54.50003100000003
 20
-21.09806800000001
 30
0.0
 11
-72.50003100000004
 21
-21.09806800000001
 31
0.0
  0
LINE
  5
1CB7
330
D1
100
AcDbEntity
  8
0
  6
Continuous
100
AcDbLine
 10
-17.49996899999996
 20
-58.99998500000004
 30
0.0
 11
-17.49996899999996
 21
-52.99998500000004
 31
0.0
  0
LINE
  5
1CB8
330
D1
100
AcDbEntity
  8
0
  6
Continuous
100
AcDbLine
 10
9.500030499999866
 20
-66.99998500000003
 30
0.0
 11
-9.499969500000133
 21
-66.99998500000003
 31
0.0
  0
LINE
  5
1CB9
330
D1
100
AcDbEntity
  8
0
  6
Continuous
100
AcDbLine
 10
12.37872800000014
 20
-45.13400999999999
 30
0.0
 11
15.66441799999984
 21
-41.84832400000004
 31
0.0
  0
LINE
  5
1CBA
330
D1
100
AcDbEntity
  8
0
  6
Continuous
100
AcDbLine
 10
36.04347599999983
 20
-17.34559799999999
 30
0.0
 11
33.54294600000003
 21
-15.90191800000002
 31
0.0
  0
LINE
  5
1CBB
330
D1
100
AcDbEntity
  8
0
  6
Continuous
100
AcDbLine
 10
54.50003100000003
 20
-30.49998500000004
 30
0.0
 11
45.50003100000003
 21
-30.49998500000004
 31
0.0
  0
LINE
  5
1CBC
330
D1
100
AcDbEntity
  8
0
  6
Continuous
100
AcDbLine
 10
17.68097900000021
 20
-40.97145499999998
 30
0.0
 11
43.56982800000014
 21
-40.06739400000003
 31
0.0
  0
LINE
  5
1CBD
330
D1
100
AcDbEntity
  8
0
  6
Continuous
100
AcDbLine
 10
33.04347599999983
 20
-22.54174999999998
 30
0.0
 11
30.5429479999998
 21
-21.09807000000001
 31
0.0
  0
LINE
  5
1CBE
330
D1
100
AcDbEntity
  8
0
  6
Continuous
100
AcDbLine
 10
33.54294600000003
 20
-15.90191800000002
 30
0.0
 11
30.5429479999998
 21
-21.09807000000001
 31
0.0
  0
LINE
  5
1CBF
330
D1
100
AcDbEntity
  8
0
  6
Continuous
100
AcDbLine
 10
72.50003100000004
 20
-39.99998500000004
 30
0.0
 11
54.50003100000003
 21
-39.99998500000004
 31
0.0
  0
LINE
  5
1CC0
330
D1
100
AcDbEntity
  8
0
  6
Continuous
100
AcDbLine
 10
17.50003100000003
 20
-58.99998500000004
 30
0.0
 11
17.50003100000003
 21
-52.99998500000004
 31
0.0
  0
LINE
  5
1CC2
330
D1
100
AcDbEntity
  8
0
  6
Continuous
100
AcDbLine
 10
-15.66442899999993
 20
-41.012695
 30
0.0
 11
16.5
 21
-41.012695
 31
0.0
  0
LINE
  5
1CC3
330
D1
100
AcDbEntity
  8
0
  6
Continuous
100
AcDbLine
 10
-43.56982400000015
 20
-39.99998500000004
 30
0.0
 11
41.03372200000012
 21
-39.99998500000004
 31
0.0
  0
LINE
  5
1CC4
330
D1
100
AcDbEntity
  8
0
  6
Continuous
100
AcDbLine
 10
45.50003100000004
 20
37.00001499999996
 30
0.0
 11
45.50003100000004
 21
-38.06860400000005
 31
0.0
  0
LINE
  5
1CC7
330
D1
100
AcDbEntity
  8
0
  6
Continuous
100
AcDbLine
 10
7.088714600000002
 20
-52.99998500000004
 30
0.0
 11
7.088714600000002
 21
-58.99998500000004
 31
0.0
  0
LINE
  5
1CC8
330
D1
100
AcDbEntity
  8
0
  6
Continuous
100
AcDbLine
 10
10.31204200000002
 20
-52.99998500000004
 30
0.0
 11
10.31204200000002
 21
-58.99998500000004
 31
0.0
  0
LINE
  5
1CC9
330
D1
100
AcDbEntity
  8
0
  6
Continuous
100
AcDbLine
 10
17.40075699999988
 20
-52.99998500000004
 30
0.0
 11
17.40075699999988
 21
-58.99998500000004
 31
0.0
  0
LINE
  5
1CD4
330
D1
100
AcDbEntity
  8
0
  6
Continuous
100
AcDbLine
 10
53.5
 20
58.75001499999996
 30
0.0
 11
-53.49999999999998
 21
58.75001499999996
 31
0.0
  0
LINE
  5
1CD5
330
D1
100
AcDbEntity
  8
0
  6
Continuous
100
AcDbLine
 10
53.5
 20
41.25001499999996
 30
0.0
 11
-53.50000000000001
 21
41.25001499999996
 31
0.0
  0
LINE
  5
1CD7
330
D1
100
AcDbEntity
  8
0
  6
Continuous
100
AcDbLine
 10
53.5
 20
41.25001499999996
 30
0.0
 11
53.5
 21
58.75001499999996
 31
0.0
  0
LINE
  5
1D0A
330
D1
100
AcDbEntity
  8
0
  6
Continuous
100
AcDbLine
 10
-8.888183600000047
 20
39.00001499999996
 30
0.0
 11
-43.5
 21
39.00001499999996
 31
0.0
  0
LINE
  5
1D0B
330
D1
100
AcDbEntity
  8
0
  6
Continuous
100
AcDbLine
 10
-3.0
 20
39.00001499999996
 30
0.0
 11
3.0
 21
39.00001499999996
 31
0.0
  0
ARC
  5
1D80
330
D1
100
AcDbEntity
  8
0
  6
Continuous
100
AcDbCircle
 10
4.5
 20
69.20002
 30
0.0
 40
5.0
100
AcDbArc
 50
0.0
 51
180.0
  0
CIRCLE
  5
1D81
330
D1
100
AcDbEntity
  8
0
  6
Continuous
100
AcDbCircle
 10
4.5
 20
69.20002
 30
0.0
 40
3.730384799999999
  0
CIRCLE
  5
1D82
330
D1
100
AcDbEntity
  8
0
  6
Continuous
100
AcDbCircle
 10
4.5
 20
69.20002
 30
0.0
 40
4.25
  0
ARC
  5
1D83
330
D1
100
AcDbEntity
  8
0
  6
Continuous
100
AcDbCircle
 10
-16.5
 20
102.5000199999999
 30
0.0
 40
4.0
100
AcDbArc
 50
0.0
 51
90.0
  0
ARC
  5
1D84
330
D1
100
AcDbEntity
  8
0
  6
Continuous
100
AcDbCircle
 10
16.5
 20
102.5000199999999
 30
0.0
 40
4.0
100
AcDbArc
 50
90.0
 51
180.0
  0
ARC
  5
1D85
330
D1
100
AcDbEntity
  8
0
  6
Continuous
100
AcDbCircle
 10
12.75
 20
104.5000199999999
 30
0.0
 40
2.0
100
AcDbArc
 50
0.0
 51
41.03483799999838
  0
ARC
  5
1D87
330
D1
100
AcDbEntity
  8
0
  6
Continuous
100
AcDbCircle
 10
-12.75
 20
104.5000199999999
 30
0.0
 40
2.0
100
AcDbArc
 50
138.9651599999877
 51
180.0
  0
CIRCLE
  5
1D89
330
D1
100
AcDbEntity
  8
0
  6
Continuous
100
AcDbCircle
 10
0.0
 20
0.0
 30
0.0
 40
28.000013
  0
CIRCLE
  5
1D8B
330
D1
100
AcDbEntity
  8
0
  6
Continuous
100
AcDbCircle
 10
0.0
 20
0.0
 30
0.0
 40
11.500007
  0
ARC
  5
1D8C
330
D1
100
AcDbEntity
  8
0
  6
Continuous
100
AcDbCircle
 10
97.71020500000009
 20
24.44999700000006
 30
0.0
 40
0.8000000099999999
100
AcDbArc
 50
90.0
 51
159.9999700000075
  0
ARC
  5
1D8D
330
D1
100
AcDbEntity
  8
0
  6
Continuous
100
AcDbCircle
 10
91.18176300000005
 20
14.69999700000005
 30
0.0
 40
2.0
100
AcDbArc
 50
270.0
 51
340.0000200000048
  0
ARC
  5
1D90
330
D1
100
AcDbEntity
  8
0
  6
Continuous
100
AcDbCircle
 10
91.18176300000005
 20
-14.69999700000005
 30
0.0
 40
2.0
100
AcDbArc
 50
19.99997800000481
 51
90.0
  0
ARC
  5
1D91
330
D1
100
AcDbEntity
  8
0
  6
Continuous
100
AcDbCircle
 10
97.71020500000009
 20
-24.44999700000006
 30
0.0
 40
0.8000000099999999
100
AcDbArc
 50
200.0000299999925
 51
270.0
  0
ARC
  5
1D92
330
D1
100
AcDbEntity
  8
0
  6
Continuous
100
AcDbCircle
 10
21.0
 20
59.33268699999996
 30
0.0
 40
2.0
100
AcDbArc
 50
180.0
 51
196.9379500000012
  0
ARC
  5
1D93
330
D1
100
AcDbEntity
  8
0
  6
Continuous
100
AcDbCircle
 10
43.5
 20
37.00001499999996
 30
0.0
 40
2.0
100
AcDbArc
 50
0.0
 51
90.0
  0
ARC
  5
1D99
330
D1
100
AcDbEntity
  8
0
  6
Continuous
100
AcDbCircle
 10
12.50003100000003
 20
-49.36525000000006
 30
0.0
 40
1.0
100
AcDbArc
 50
180.0
 51
219.4009200000083
  0
ARC
  5
1D9A
330
D1
100
AcDbEntity
  8
0
  6
Continuous
100
AcDbCircle
 10
-9.499969500000133
 20
-58.99998500000004
 30
0.0
 40
8.0
100
AcDbArc
 50
180.0
 51
270.000010000001
  0
ARC
  5
1D9B
330
D1
100
AcDbEntity
  8
0
  6
Continuous
100
AcDbCircle
 10
-14.49996899999996
 20
-52.99998500000004
 30
0.0
 40
3.0
100
AcDbArc
 50
90.0
 51
180.0
  0
ARC
  5
1D9C
330
D1
100
AcDbEntity
  8
0
  6
Continuous
100
AcDbCircle
 10
17.78573599999981
 20
-43.96961999999996
 30
0.0
 40
3.0
100
AcDbArc
 50
91.99999400000095
 51
135.0000299999895
  0
ARC
  5
1D9D
330
D1
100
AcDbEntity
  8
0
  6
Continuous
100
AcDbCircle
 10
43.5
 20
-38.06860400000005
 30
0.0
 40
2.0
100
AcDbArc
 50
271.9999599999947
 51
0.0
  0
ARC
  5
1DA2
330
D1
100
AcDbEntity
  8
0
  6
Continuous
100
AcDbCircle
 10
14.50003100000003
 20
-52.99998500000004
 30
0.0
 40
3.0
100
AcDbArc
 50
0.0
 51
90.0
  0
ARC
  5
1DA3
330
D1
100
AcDbEntity
  8
0
  6
Continuous
100
AcDbCircle
 10
0.0
 20
0.0
 30
0.0
 40
40.0
100
AcDbArc
 50
214.3012100000007
 51
325.698779999997
  0
ARC
  5
1DA4
330
D1
100
AcDbEntity
  8
0
  6
Continuous
100
AcDbCircle
 10
9.500030499999866
 20
-58.99998500000004
 30
0.0
 40
8.0
100
AcDbArc
 50
270.0
 51
0.0
  0
ARC
  5
1DA5
330
D1
100
AcDbEntity
  8
0
  6
Continuous
100
AcDbCircle
 10
14.50003100000003
 20
-47.25532499999997
 30
0.0
 40
3.0
100
AcDbArc
 50
135.0000299999895
 51
180.0
  0
ARC
  5
1DA6
330
D1
100
AcDbEntity
  8
0
  6
Continuous
100
AcDbCircle
 10
0.0
 20
0.0
 30
0.0
 40
40.0
100
AcDbArc
 50
334.3012200000034
 51
85.69877999999549
  0
CIRCLE
  5
1DA7
330
D1
100
AcDbEntity
  8
0
  6
Continuous
100
AcDbCircle
 10
0.0
 20
0.0
 30
0.0
 40
25.250002
  0
ARC
  5
1DAA
330
D1
100
AcDbEntity
  8
0
  6
Continuous
100
AcDbCircle
 10
0.0
 20
0.0
 30
0.0
 40
40.0
100
AcDbArc
 50
94.30121900000711
 51
205.6987799999967
  0
ARC
  5
1DAB
330
D1
100
AcDbEntity
  8
0
  6
Continuous
100
AcDbCircle
 10
-14.50003100000003
 20
-47.25532499999997
 30
0.0
 40
3.0
100
AcDbArc
 50
0.0
 51
44.99997399999799
  0
ARC
  5
1DB0
330
D1
100
AcDbEntity
  8
0
  6
Continuous
100
AcDbCircle
 10
-43.5
 20
-38.06860400000005
 30
0.0
 40
2.0
100
AcDbArc
 50
180.0
 51
268.0000400000052
  0
ARC
  5
1DB1
330
D1
100
AcDbEntity
  8
0
  6
Continuous
100
AcDbCircle
 10
-17.78573599999981
 20
-43.96961999999996
 30
0.0
 40
3.0
100
AcDbArc
 50
44.99997399999799
 51
88.00000599999904
  0
ARC
  5
1DB2
330
D1
100
AcDbEntity
  8
0
  6
Continuous
100
AcDbCircle
 10
-12.50003100000003
 20
-49.36525000000006
 30
0.0
 40
1.0
100
AcDbArc
 50
320.5990799999867
 51
0.0
  0
ARC
  5
1DB7
330
D1
100
AcDbEntity
  8
0
  6
Continuous
100
AcDbCircle
 10
-43.5
 20
37.00001499999996
 30
0.0
 40
2.0
100
AcDbArc
 50
90.0
 51
180.0
  0
ARC
  5
1DB8
330
D1
100
AcDbEntity
  8
0
  6
Continuous
100
AcDbCircle
 10
-21.0
 20
59.33268699999996
 30
0.0
 40
2.0
100
AcDbArc
 50
343.0620499999988
 51
0.0
  0
ARC
  5
1DB9
330
D1
100
AcDbEntity
  8
0
  6
Continuous
100
AcDbCircle
 10
-97.71020499999986
 20
-24.44999700000006
 30
0.0
 40
0.8000000099999999
100
AcDbArc
 50
270.0
 51
339.9999700000074
  0
ARC
  5
1DBA
330
D1
100
AcDbEntity
  8
0
  6
Continuous
100
AcDbCircle
 10
-91.18176300000005
 20
-14.69999700000005
 30
0.0
 40
2.0
100
AcDbArc
 50
90.0
 51
160.0000200000048
  0
ARC
  5
1DBD
330
D1
100
AcDbEntity
  8
0
  6
Continuous
100
AcDbCircle
 10
-91.18176300000005
 20
14.69999700000005
 30
0.0
 40
2.0
100
AcDbArc
 50
199.9999799999952
 51
270.0
  0
ARC
  5
1DBE
330
D1
100
AcDbEntity
  8
0
  6
Continuous
100
AcDbCircle
 10
-97.71020499999986
 20
24.44999700000006
 30
0.0
 40
0.8000000099999999
100
AcDbArc
 50
20.00002900000181
 51
90.0
  0
ELLIPSE
  5
1E03
330
D1
100
AcDbEntity
  8
0
  6
Continuous
100
AcDbEllipse
 10
-13.85641500000019
 20
-52.99998500000004
 30
0.0
 11
-3.544361799999999
 21
0.0
 31
0.0
210
0.0
220
0.0
230
1.0
 40
0.7330163200000001
 41
3.1415927
 42
6.283185299999999
  0
ELLIPSE
  5
1E04
330
D1
100
AcDbEntity
  8
0
  6
Continuous
100
AcDbEllipse
 10
-13.85641500000019
 20
-58.99998500000004
 30
0.0
 11
0.0
 21
-4.663686999999999
 31
0.0
210
0.0
220
0.0
230
1.0
 40
0.75999135
 41
4.712388999999999
 42
7.853981607179585
  0
ELLIPSE
  5
1E05
330
D1
100
AcDbEntity
  8
0
  6
Continuous
100
AcDbEllipse
 10
13.85641500000019
 20
-58.99998500000004
 30
0.0
 11
0.0
 21
-4.663686999999999
 31
0.0
210
0.0
220
0.0
230
1.0
 40
0.75999135
 41
4.712388999999999
 42
7.853981607179585
  0
ELLIPSE
  5
1E06
330
D1
100
AcDbEntity
  8
0
  6
Continuous
100
AcDbEllipse
 10
13.85641500000019
 20
-52.99998500000004
 30
0.0
 11
3.544361799999999
 21
-0.0000000000000071
 31
0.0
210
0.0
220
0.0
230
1.0
 40
0.7330163200000001
 41
0.0
 42
3.1415927
  0
ELLIPSE
  5
1E07
330
D1
100
AcDbEntity
  8
0
  6
Continuous
100
AcDbEllipse
 10
0.0
 20
-52.99998500000004
 30
0.0
 11
7.088723599999998
 21
0.0
 31
0.0
210
0.0
220
0.0
230
1.0
 40
0.36650816
 41
0.0
 42
3.143189
  0
ELLIPSE
  5
1E08
330
D1
100
AcDbEntity
  8
0
  6
Continuous
100
AcDbEllipse
 10
0.0
 20
-58.99998500000004
 30
0.0
 11
7.088716699999999
 21
0.0098859596
 31
0.0
210
0.0
220
0.0
230
1.0
 40
0.6579022200000001
 41
3.139472899999999
 42
6.281065499999999
  0
LINE
  5
1E31
330
D1
100
AcDbEntity
  8
0
  6
Continuous
100
AcDbLine
 10
24.72363251757787
 20
393.0415499999999
 30
0.0
 11
14.01598851757779
 21
396.9388199999999
 31
0.0
  0
LINE
  5
1E32
330
D1
100
AcDbEntity
  8
0
  6
Continuous
100
AcDbLine
 10
25.25003051757784
 20
390.0
 30
0.0
 11
25.25003051757784
 21
392.2897950000002
 31
0.0
  0
LINE
  5
1E33
330
D1
100
AcDbEntity
  8
0
  6
Continuous
100
AcDbLine
 10
12.70004251757785
 20
398.818237
 30
0.0
 11
12.70004251757785
 21
417.499969
 31
0.0
  0
LINE
  5
1E34
330
D1
100
AcDbEntity
  8
0
  6
Continuous
100
AcDbLine
 10
12.70004251757785
 20
397.417786
 30
0.0
 11
-12.69998148242217
 21
397.417786
 31
0.0
  0
LINE
  5
1E35
330
D1
100
AcDbEntity
  8
0
  6
Continuous
100
AcDbLine
 10
25.25003051757784
 20
390.0
 30
0.0
 11
-25.24996948242216
 21
390.0
 31
0.0
  0
LINE
  5
1E36
330
D1
100
AcDbEntity
  8
0
  6
Continuous
100
AcDbLine
 10
-12.69998148242217
 20
398.818237
 30
0.0
 11
-12.69998148242212
 21
417.499969
 31
0.0
  0
LINE
  5
1E37
330
D1
100
AcDbEntity
  8
0
  6
Continuous
100
AcDbLine
 10
-25.24996948242216
 20
390.0
 30
0.0
 11
-25.24996948242216
 21
392.2897950000002
 31
0.0
  0
LINE
  5
1E38
330
D1
100
AcDbEntity
  8
0
  6
Continuous
100
AcDbLine
 10
-24.72355248242212
 20
393.041557
 30
0.0
 11
-14.01591048242227
 21
396.9388199999999
 31
0.0
  0
LINE
  5
1E46
330
D1
100
AcDbEntity
  8
0
  6
Continuous
100
AcDbLine
 10
-54.50003051757795
 20
459.4999999999999
 30
0.0
 11
-43.95455951757805
 21
459.4999999999999
 31
0.0
  0
LINE
  5
1E47
330
D1
100
AcDbEntity
  8
0
  6
Continuous
100
AcDbLine
 10
39.99999999999995
 20
435.4999694824221
 30
0.0
 11
4.999969482421705
 21
435.4999694824221
 31
0.0
  0
LINE
  5
1E48
330
D1
100
AcDbEntity
  8
0
  6
Continuous
100
AcDbLine
 10
39.99999999999995
 20
417.499969482422
 30
0.0
 11
-40.00000000000006
 21
417.499969482422
 31
0.0
  0
LINE
  5
1E49
330
D1
100
AcDbEntity
  8
0
  6
Continuous
100
AcDbLine
 10
39.99999999999995
 20
417.499969482422
 30
0.0
 11
39.99999999999995
 21
435.4999694824221
 31
0.0
  0
LINE
  5
1E4B
330
D1
100
AcDbEntity
  8
0
  6
Continuous
100
AcDbLine
 10
-40.00000000000006
 20
417.499969482422
 30
0.0
 11
-40.00000000000006
 21
435.4999694824221
 31
0.0
  0
LINE
  5
1E63
330
D1
100
AcDbEntity
  8
0
  6
Continuous
100
AcDbLine
 10
-72.50003051757795
 20
493.0
 30
0.0
 11
-54.50003051757795
 21
493.0
 31
0.0
  0
LINE
  5
1E64
330
D1
100
AcDbEntity
  8
0
  6
Continuous
100
AcDbLine
 10
-72.50003051757795
 20
487.0
 30
0.0
 11
-54.50003051757795
 21
487.0
 31
0.0
  0
LINE
  5
1E65
330
D1
100
AcDbEntity
  8
0
  6
Continuous
100
AcDbLine
 10
-24.72355248242212
 20
392.849976
 30
0.0
 11
24.19485451757777
 21
392.849976
 31
0.0
  0
ARC
  5
1ED1
330
D1
100
AcDbEntity
  8
0
  6
Continuous
100
AcDbCircle
 10
24.45004251757786
 20
392.2897950000002
 30
0.0
 40
0.8000000099999999
100
AcDbArc
 50
0.0
 51
69.99997000000718
  0
ARC
  5
1ED2
330
D1
100
AcDbEntity
  8
0
  6
Continuous
100
AcDbCircle
 10
14.70004251757785
 20
398.818237
 30
0.0
 40
2.0
100
AcDbArc
 50
180.0
 51
250.0000200000057
  0
ARC
  5
1ED4
330
D1
100
AcDbEntity
  8
0
  6
Continuous
100
AcDbCircle
 10
-14.69998148242217
 20
398.818237
 30
0.0
 40
2.0
100
AcDbArc
 50
289.9999799999942
 51
0.0
  0
ARC
  5
1ED5
330
D1
100
AcDbEntity
  8
0
  6
Continuous
100
AcDbCircle
 10
-24.44998148242218
 20
392.2897950000002
 30
0.0
 40
0.8000000099999999
100
AcDbArc
 50
110.0000290000089
 51
180.0
  0
LINE
  5
2018
330
D1
100
AcDbEntity
  8
0
  6
CENTER
100
AcDbLine
 10
300.0
 20
-76.05968243619509
 30
0.0
 11
300.0
 21
341.1612877682701
 31
0.0
  0
LINE
  5
2019
330
D1
100
AcDbEntity
  8
0
  6
CENTER
100
AcDbLine
 10
182.5036420172473
 20
0.0
 30
0.0
 11
359.173190623158
 21
0.0
 31
0.0
  0
LINE
  5
201A
330
D1
100
AcDbEntity
  8
0
  6
CENTER
100
AcDbLine
 10
0.0
 20
-77.18878992372265
 30
0.0
 11
0.0
 21
341.1612877682701
 31
0.0
  0
LINE
  5
201B
330
D1
100
AcDbEntity
  8
0
  6
CENTER
100
AcDbLine
 10
-116.4493420413009
 20
0.0
 30
0.0
 11
116.4493420413009
 21
0.0
 31
0.0
  0
LINE
  5
201C
330
D1
100
AcDbEntity
  8
0
  6
CENTER
100
AcDbLine
 10
-0.0000000000000568
 20
367.431470272395
 30
0.0
 11
-0.0000000000000568
 21
554.4194731151983
 31
0.0
  0
LINE
  5
201D
330
D1
100
AcDbEntity
  8
0
  6
CENTER
100
AcDbLine
 10
-123.3147050076741
 20
490.0
 30
0.0
 11
123.314705007674
 21
490.0
 31
0.0
  0
TEXT
  5
201E
330
D1
100
AcDbEntity
  8
0
100
AcDbText
 10
-325.0
 20
639.1666666666666
 30
0.0
 40
50.0
  1
3BC__V08000 1S
 72
     4
 11
-0.0000000000000568
 21
660.0
 31
0.0
100
AcDbText
  0
LINE
  5
2114
330
D1
100
AcDbEntity
  8
0
  6
Continuous
100
AcDbLine
 10
-53.5
 20
41.25001499999996
 30
0.0
 11
-53.5
 21
58.75001499999996
 31
0.0
  0
LINE
  5
2116
330
D1
100
AcDbEntity
  8
0
  6
Continuous
100
AcDbLine
 10
-41.00003100000003
 20
41.25001499999996
 30
0.0
 11
-41.00003100000003
 21
39.00001499999997
 31
0.0
  0
LINE
  5
2117
330
D1
100
AcDbEntity
  8
0
  6
Continuous
100
AcDbLine
 10
246.5
 20
58.76176500000003
 30
0.0
 11
246.5
 21
41.26176500000002
 31
0.0
  0
ARC
  5
2118
330
D1
100
AcDbEntity
  8
0
  6
Continuous
100
AcDbCircle
 10
343.5
 20
37.00001499999996
 30
0.0
 40
2.0
100
AcDbArc
 50
0.0
 51
90.0
  0
ARC
  5
2119
330
D1
100
AcDbEntity
  8
0
  6
Continuous
100
AcDbCircle
 10
256.5
 20
37.00001499999996
 30
0.0
 40
2.0
100
AcDbArc
 50
90.0
 51
180.0
  0
LINE
  5
211A
330
D1
100
AcDbEntity
  8
0
  6
Continuous
100
AcDbLine
 10
341.0
 20
41.26176500000002
 30
0.0
 11
341.0
 21
39.00001500000002
 31
0.0
  0
LINE
  5
2123
330
D1
100
AcDbEntity
  8
0
  6
Continuous
100
AcDbLine
 10
-72.50003100000004
 20
450.0000149999999
 30
0.0
 11
-54.50003100000003
 21
450.0000149999999
 31
0.0
  0
LINE
  5
2124
330
D1
100
AcDbEntity
  8
0
  6
Continuous
100
AcDbLine
 10
-72.50003100000004
 20
530.000015
 30
0.0
 11
-54.50003100000003
 21
530.000015
 31
0.0
  0
LINE
  5
2125
330
D1
100
AcDbEntity
  8
0
  6
Continuous
100
AcDbLine
 10
-72.50003100000004
 20
530.000015
 30
0.0
 11
-72.50003100000004
 21
450.0000149999999
 31
0.0
  0
LINE
  5
2126
330
D1
100
AcDbEntity
  8
0
  6
Continuous
100
AcDbLine
 10
-54.50003100000003
 20
530.000015
 30
0.0
 11
-54.50003100000003
 21
450.0000149999999
 31
0.0
  0
LINE
  5
212C
330
D1
100
AcDbEntity
  8
0
  6
Continuous
100
AcDbLine
 10
-54.50003051757795
 20
520.5
 30
0.0
 11
-43.95455951757805
 21
520.5
 31
0.0
  0
LINE
  5
29D4
330
D1
100
AcDbEntity
  8
0
100
AcDbLine
 10
44.54998779296852
 20
154.1544084277338
 30
0.0
 11
-44.54998779296897
 21
154.1544084277337
 31
0.0
  0
LINE
  5
29D5
330
D1
100
AcDbEntity
  8
0
100
AcDbLine
 10
44.60003662109374
 20
110.5000199999999
 30
0.0
 11
-44.60003662109374
 21
110.50002
 31
0.0
  0
LINE
  5
29D6
330
D1
100
AcDbEntity
  8
0
100
AcDbLine
 10
44.54998779296874
 20
299.4995539999999
 30
0.0
 11
44.54998779296874
 21
154.1544084277343
 31
0.0
  0
LINE
  5
29D7
330
D1
100
AcDbEntity
  8
0
100
AcDbLine
 10
45.60003662109375
 20
111.5000199999999
 30
0.0
 11
45.60003662109375
 21
142.1528520312499
 31
0.0
  0
LINE
  5
29DB
330
D1
100
AcDbEntity
  8
0
100
AcDbLine
 10
-43.54998779296898
 20
300.4995539999993
 30
0.0
 11
43.54998779296852
 21
300.4995539999994
 31
0.0
  0
LINE
  5
29DC
330
D1
100
AcDbEntity
  8
0
100
AcDbLine
 10
-44.54998779296874
 20
299.4995539999999
 30
0.0
 11
-44.54998779296874
 21
154.1544084277343
 31
0.0
  0
LINE
  5
29DD
330
D1
100
AcDbEntity
  8
0
100
AcDbLine
 10
-44.54996785383719
 20
154.1543959615855
 30
0.0
 11
-45.59996740550537
 21
142.1528461331034
 31
0.0
  0
LINE
  5
29DE
330
D1
100
AcDbEntity
  8
0
100
AcDbLine
 10
-45.60003662109375
 20
111.50002
 30
0.0
 11
-45.60003662109375
 21
142.1528520312499
 31
0.0
  0
LINE
  5
29E0
330
D1
100
AcDbEntity
  8
0
100
AcDbLine
 10
-45.60003662109375
 20
142.1528520312499
 30
0.0
 11
45.60003662109375
 21
142.1528520312499
 31
0.0
  0
LINE
  5
29E1
330
D1
100
AcDbEntity
  8
0
100
AcDbLine
 10
44.54996467142336
 20
154.1544018738253
 30
0.0
 11
45.59996555298278
 21
142.1528368446184
 31
0.0
  0
ARC
  5
29E7
330
D1
100
AcDbEntity
  8
0
100
AcDbCircle
 10
43.54998779296875
 20
299.4995539999999
 30
0.0
 40
1.0
100
AcDbArc
 50
0.0
 51
90.0000025044752
  0
ARC
  5
29E8
330
D1
100
AcDbEntity
  8
0
100
AcDbCircle
 10
44.60003662109374
 20
111.5000199999999
 30
0.0
 40
1.000000119209289
100
AcDbArc
 50
269.9999974955182
 51
0.0
  0
ARC
  5
29E9
330
D1
100
AcDbEntity
  8
0
100
AcDbCircle
 10
-43.54998779296875
 20
299.4995539999999
 30
0.0
 40
1.0
100
AcDbArc
 50
90.0000025044752
 51
180.0000050089569
  0
ARC
  5
29EA
330
D1
100
AcDbEntity
  8
0
100
AcDbCircle
 10
-44.60003662109374
 20
111.50002
 30
0.0
 40
1.000000119209289
100
AcDbArc
 50
179.9999913485786
 51
270.000000683243
  0
LINE
  5
29FC
330
D1
100
AcDbEntity
  8
0
  6
Continuous
100
AcDbLine
 10
267.5
 20
110.5000199999999
 30
0.0
 11
332.5
 21
110.5000199999999
 31
0.0
  0
LINE
  5
29FD
330
D1
100
AcDbEntity
  8
0
100
AcDbLine
 10
255.450012207031
 20
299.4995539999997
 30
0.0
 11
255.450012207031
 21
154.154393168945
 31
0.0
  0
LINE
  5
29FE
330
D1
100
AcDbEntity
  8
0
100
AcDbLine
 10
255.4500148119748
 20
154.1543959976538
 30
0.0
 11
254.4000139304156
 21
142.152830968447
 31
0.0
  0
LINE
  5
29FF
330
D1
100
AcDbEntity
  8
0
100
AcDbLine
 10
344.6000366210938
 20
110.5000199999999
 30
0.0
 11
255.3999633789063
 21
110.5000199999999
 31
0.0
  0
LINE
  5
2A00
330
D1
100
AcDbEntity
  8
0
100
AcDbLine
 10
254.3999633789062
 20
111.5000199999999
 30
0.0
 11
254.3999633789063
 21
142.1528367724609
 31
0.0
  0
LINE
  5
2A01
330
D1
100
AcDbEntity
  8
0
100
AcDbLine
 10
28.59997558593761
 20
308.4995845175777
 30
0.0
 11
24.39996337890637
 21
308.4995845175777
 31
0.0
  0
LINE
  5
2A02
330
D1
100
AcDbEntity
  8
0
100
AcDbLine
 10
-31.11883544921864
 20
305.1351741171871
 30
0.0
 11
-31.11883544921864
 21
301.4995845175777
 31
0.0
  0
LINE
  5
2A03
330
D1
100
AcDbEntity
  8
0
100
AcDbLine
 10
-24.19064331054676
 20
305.1351741171871
 30
0.0
 11
-24.19064331054676
 21
301.4995845175777
 31
0.0
  0
LINE
  5
2A04
330
D1
100
AcDbEntity
  8
0
100
AcDbLine
 10
21.49996948242199
 20
301.4995845175777
 30
0.0
 11
21.49996948242199
 21
300.4995845175777
 31
0.0
  0
LINE
  5
2A05
330
D1
100
AcDbEntity
  8
0
100
AcDbLine
 10
31.49996948242199
 20
300.4995845175777
 30
0.0
 11
31.49996948242199
 21
301.4995845175777
 31
0.0
  0
LINE
  5
2A06
330
D1
100
AcDbEntity
  8
0
100
AcDbLine
 10
31.49996948242199
 20
301.4995845175777
 30
0.0
 11
21.49996948242199
 21
301.4995845175777
 31
0.0
  0
LINE
  5
2A07
330
D1
100
AcDbEntity
  8
0
100
AcDbLine
 10
-24.00003051757801
 20
308.0995906210933
 30
0.0
 11
-24.00003051757801
 21
305.4995845175777
 31
0.0
  0
LINE
  5
2A08
330
D1
100
AcDbEntity
  8
0
100
AcDbLine
 10
256.4500122070309
 20
300.4995539999996
 30
0.0
 11
343.5500488281247
 21
300.4995539999996
 31
0.0
  0
LINE
  5
2A09
330
D1
100
AcDbEntity
  8
0
100
AcDbLine
 10
-24.40001900972482
 20
308.4995576809162
 30
0.0
 11
-24.0000272099179
 21
308.0995658811093
 31
0.0
  0
LINE
  5
2A0A
330
D1
100
AcDbEntity
  8
0
100
AcDbLine
 10
-29.00003051757801
 20
308.0995906210933
 30
0.0
 11
-29.00003051757801
 21
305.4995845175777
 31
0.0
  0
LINE
  5
2A0B
330
D1
100
AcDbEntity
  8
0
100
AcDbLine
 10
-28.60001922444337
 20
308.4995576809162
 30
0.0
 11
-29.00001641904692
 21
308.0995604863127
 31
0.0
  0
LINE
  5
2A0C
330
D1
100
AcDbEntity
  8
0
100
AcDbLine
 10
-21.88122558593739
 20
305.1351741171871
 30
0.0
 11
-21.88122558593739
 21
301.4995845175777
 31
0.0
  0
LINE
  5
2A0D
330
D1
100
AcDbEntity
  8
0
100
AcDbLine
 10
21.88116455078136
 20
305.1351741171871
 30
0.0
 11
21.88116455078136
 21
301.4995845175777
 31
0.0
  0
LINE
  5
2A0E
330
D1
100
AcDbEntity
  8
0
100
AcDbLine
 10
28.8093719482423
 20
305.1351741171871
 30
0.0
 11
28.8093719482423
 21
301.4995845175777
 31
0.0
  0
LINE
  5
2A0F
330
D1
100
AcDbEntity
  8
0
100
AcDbLine
 10
23.99996948242199
 20
308.0995906210933
 30
0.0
 11
23.99996948242199
 21
305.4995845175777
 31
0.0
  0
LINE
  5
2A10
330
D1
100
AcDbEntity
  8
0
100
AcDbLine
 10
28.59996263442361
 20
308.4995900496959
 30
0.0
 11
28.99997601341704
 21
308.0995766707026
 31
0.0
  0
LINE
  5
2A11
330
D1
100
AcDbEntity
  8
0
100
AcDbLine
 10
24.39996241970505
 20
308.4995900496959
 30
0.0
 11
23.99995983030487
 21
308.0995874602957
 31
0.0
  0
LINE
  5
2A12
330
D1
100
AcDbEntity
  8
0
100
AcDbLine
 10
-31.50003051757801
 20
300.4995845175777
 30
0.0
 11
-31.50003051757801
 21
301.4995845175777
 31
0.0
  0
LINE
  5
2A13
330
D1
100
AcDbEntity
  8
0
100
AcDbLine
 10
-31.50003051757801
 20
301.4995845175777
 30
0.0
 11
-21.50003051757801
 21
301.4995845175777
 31
0.0
  0
LINE
  5
2A14
330
D1
100
AcDbEntity
  8
0
100
AcDbLine
 10
-21.50003051757801
 20
301.4995845175777
 30
0.0
 11
-21.50003051757801
 21
300.4995845175777
 31
0.0
  0
LINE
  5
2A15
330
D1
100
AcDbEntity
  8
0
100
AcDbLine
 10
31.11877441406261
 20
305.1351741171871
 30
0.0
 11
31.11877441406261
 21
301.4995845175777
 31
0.0
  0
LINE
  5
2A16
330
D1
100
AcDbEntity
  8
0
100
AcDbLine
 10
254.3999633789063
 20
142.1528367724609
 30
0.0
 11
345.6000366210937
 21
142.1528367724609
 31
0.0
  0
LINE
  5
2A17
330
D1
100
AcDbEntity
  8
0
100
AcDbLine
 10
344.5500488281248
 20
154.154393168945
 30
0.0
 11
255.450012207031
 21
154.1543931689449
 31
0.0
  0
LINE
  5
2A18
330
D1
100
AcDbEntity
  8
0
100
AcDbLine
 10
28.99996948242199
 20
308.0995906210933
 30
0.0
 11
28.99996948242199
 21
305.4995845175777
 31
0.0
  0
LINE
  5
2A19
330
D1
100
AcDbEntity
  8
0
100
AcDbLine
 10
-24.40002441406239
 20
308.4995845175777
 30
0.0
 11
-28.60003662109363
 21
308.4995845175777
 31
0.0
  0
LINE
  5
2A1A
330
D1
100
AcDbEntity
  8
0
100
AcDbLine
 10
-29.96414184570301
 20
305.4995845175777
 30
0.0
 11
-23.03591918945301
 21
305.4995845175777
 31
0.0
  0
LINE
  5
2A1B
330
D1
100
AcDbEntity
  8
0
100
AcDbLine
 10
-28.80941772460926
 20
305.1351741171871
 30
0.0
 11
-28.80941772460926
 21
301.4995845175777
 31
0.0
  0
LINE
  5
2A1C
330
D1
100
AcDbEntity
  8
0
100
AcDbLine
 10
344.5500246707503
 20
154.1543932864878
 30
0.0
 11
345.6000255523097
 21
142.1528282572808
 31
0.0
  0
LINE
  5
2A1D
330
D1
100
AcDbEntity
  8
0
100
AcDbLine
 10
344.5500488281252
 20
299.4995540000001
 30
0.0
 11
344.5500488281252
 21
154.1543931689455
 31
0.0
  0
LINE
  5
2A1E
330
D1
100
AcDbEntity
  8
0
100
AcDbLine
 10
345.6000366210937
 20
111.5000199999999
 30
0.0
 11
345.6000366210937
 21
142.1528367724609
 31
0.0
  0
LINE
  5
2A1F
330
D1
100
AcDbEntity
  8
0
100
AcDbLine
 10
-12.00003051757801
 20
323.9995845175777
 30
0.0
 11
-12.00003051757801
 21
303.4995845175777
 31
0.0
  0
LINE
  5
2A20
330
D1
100
AcDbEntity
  8
0
100
AcDbLine
 10
-11.00003051757801
 20
302.4995845175777
 30
0.0
 11
10.99996948242199
 21
302.4995845175777
 31
0.0
  0
LINE
  5
2A21
330
D1
100
AcDbEntity
  8
0
100
AcDbLine
 10
-11.00003051757801
 20
324.9995845175777
 30
0.0
 11
10.99996948242199
 21
324.9995845175777
 31
0.0
  0
LINE
  5
2A22
330
D1
100
AcDbEntity
  8
0
100
AcDbLine
 10
24.19056701660168
 20
305.1351741171871
 30
0.0
 11
24.19056701660168
 21
301.4995845175777
 31
0.0
  0
LINE
  5
2A23
330
D1
100
AcDbEntity
  8
0
100
AcDbLine
 10
-7.000030517578011
 20
300.4995845175777
 30
0.0
 11
-7.000030517578011
 21
302.4995845175777
 31
0.0
  0
LINE
  5
2A24
330
D1
100
AcDbEntity
  8
0
100
AcDbLine
 10
6.999969482421988
 20
302.4995845175777
 30
0.0
 11
6.999969482421988
 21
300.4995845175777
 31
0.0
  0
LINE
  5
2A25
330
D1
100
AcDbEntity
  8
0
100
AcDbLine
 10
23.03587341308605
 20
305.4995845175777
 30
0.0
 11
29.96406555175793
 21
305.4995845175777
 31
0.0
  0
LINE
  5
2A26
330
D1
100
AcDbEntity
  8
0
100
AcDbLine
 10
11.99996948242199
 20
323.9995845175777
 30
0.0
 11
11.99996948242199
 21
303.4995845175777
 31
0.0
  0
ARC
  5
2A27
330
D1
100
AcDbEntity
  8
0
100
AcDbCircle
 10
-29.96414184570301
 20
303.4879268027339
 30
0.0
 40
2.011653184890747
100
AcDbArc
 50
54.96996349691123
 51
125.0300415120504
  0
ARC
  5
2A28
330
D1
100
AcDbEntity
  8
0
100
AcDbCircle
 10
26.49996948242199
 20
297.9995845175777
 30
0.0
 40
7.5
100
AcDbArc
 50
72.06606359323529
 51
107.9339345855324
  0
ARC
  5
2A29
330
D1
100
AcDbEntity
  8
0
100
AcDbCircle
 10
29.96406555175793
 20
303.4879268027339
 30
0.0
 40
2.011653184890747
100
AcDbArc
 50
54.96996349691123
 51
125.0300415120504
  0
ARC
  5
2A2A
330
D1
100
AcDbEntity
  8
0
100
AcDbCircle
 10
23.03587341308605
 20
303.4879268027339
 30
0.0
 40
2.011653184890747
100
AcDbArc
 50
54.96996349691123
 51
125.0300415120504
  0
ARC
  5
2A2B
330
D1
100
AcDbEntity
  8
0
100
AcDbCircle
 10
-23.03591918945301
 20
303.4879268027339
 30
0.0
 40
2.011653184890747
100
AcDbArc
 50
54.96996349691123
 51
125.0300415120504
  0
ARC
  5
2A2C
330
D1
100
AcDbEntity
  8
0
100
AcDbCircle
 10
256.4500122070313
 20
299.4995539999999
 30
0.0
 40
1.0
100
AcDbArc
 50
90.0000025044752
 51
180.0000050089569
  0
ARC
  5
2A2D
330
D1
100
AcDbEntity
  8
0
100
AcDbCircle
 10
255.3999633789063
 20
111.5000199999999
 30
0.0
 40
1.000000119209289
100
AcDbArc
 50
179.9999913485786
 51
270.000000683243
  0
ARC
  5
2A2E
330
D1
100
AcDbEntity
  8
0
100
AcDbCircle
 10
344.6000366210938
 20
111.5000199999999
 30
0.0
 40
1.000000119209289
100
AcDbArc
 50
269.9999974955182
 51
0.0
  0
ARC
  5
2A2F
330
D1
100
AcDbEntity
  8
0
100
AcDbCircle
 10
343.550048828125
 20
299.4995539999999
 30
0.0
 40
1.0
100
AcDbArc
 50
0.0
 51
90.0000025044752
  0
CIRCLE
  5
2A30
330
D1
100
AcDbEntity
  8
0
100
AcDbCircle
 10
-0.0000305175780113
 20
293.4995539999996
 30
0.0
 40
4.158030033111572
  0
CIRCLE
  5
2A31
330
D1
100
AcDbEntity
  8
0
100
AcDbCircle
 10
-0.0000305175780113
 20
293.4995539999996
 30
0.0
 40
4.738999843597412
  0
ARC
  5
2A32
330
D1
100
AcDbEntity
  8
0
100
AcDbCircle
 10
10.99996948242199
 20
303.4995845175777
 30
0.0
 40
1.0
100
AcDbArc
 50
269.9999974955182
 51
0.0
  0
ARC
  5
2A33
330
D1
100
AcDbEntity
  8
0
100
AcDbCircle
 10
-11.00003051757801
 20
303.4995845175777
 30
0.0
 40
1.0
100
AcDbArc
 50
179.999994991043
 51
269.9999974955182
  0
ARC
  5
2A34
330
D1
100
AcDbEntity
  8
0
100
AcDbCircle
 10
-11.00003051757801
 20
323.9995845175777
 30
0.0
 40
1.0
100
AcDbArc
 50
90.0000025044752
 51
180.0000050089569
  0
ARC
  5
2A35
330
D1
100
AcDbEntity
  8
0
100
AcDbCircle
 10
10.99996948242199
 20
323.9995845175777
 30
0.0
 40
1.0
100
AcDbArc
 50
0.0
 51
90.0000025044752
  0
ARC
  5
2A36
330
D1
100
AcDbEntity
  8
0
100
AcDbCircle
 10
-26.50003051757801
 20
297.9995845175777
 30
0.0
 40
7.5
100
AcDbArc
 50
72.06606359323529
 51
107.9339345855324
  0
ARC
  5
2A39
330
D1
100
AcDbEntity
  8
0
  6
Continuous
100
AcDbCircle
 10
-0.0000305175779545
 20
490.0
 30
0.0
 40
53.5
100
AcDbArc
 50
275.3625716179807
 51
264.6374447952425
  0
LINE
  5
2A3C
330
D1
100
AcDbEntity
  8
0
100
AcDbLine
 10
-31.11879720274231
 20
489.9999016429145
 30
0.0
 11
-28.80937944704539
 21
485.9998728259392
 31
0.0
  0
LINE
  5
2A3D
330
D1
100
AcDbEntity
  8
0
100
AcDbLine
 10
28.80941772460932
 20
493.9999389648437
 30
0.0
 11
24.19058227539057
 21
493.9999389648437
 31
0.0
  0
LINE
  5
2A3E
330
D1
100
AcDbEntity
  8
0
100
AcDbLine
 10
-24.19061986062337
 20
485.9998626985145
 30
0.0
 11
-21.88120210492645
 21
489.9998915154896
 31
0.0
  0
LINE
  5
2A3F
330
D1
100
AcDbEntity
  8
0
100
AcDbLine
 10
-28.80941772460943
 20
485.9998779296875
 30
0.0
 11
-24.19058227539068
 21
485.9998779296875
 31
0.0
  0
LINE
  5
2A40
330
D1
100
AcDbEntity
  8
0
100
AcDbLine
 10
28.80941772460932
 20
485.9998779296875
 30
0.0
 11
24.19058227539057
 21
485.9998779296875
 31
0.0
  0
LINE
  5
2A41
330
D1
100
AcDbEntity
  8
0
100
AcDbLine
 10
31.11878507160935
 20
489.9998632685502
 30
0.0
 11
28.80936731591254
 21
485.9998344515751
 31
0.0
  0
LINE
  5
2A42
330
D1
100
AcDbEntity
  8
0
100
AcDbLine
 10
21.88116081309948
 20
489.9998364127684
 30
0.0
 11
24.1905785687963
 21
493.9998652297435
 31
0.0
  0
LINE
  5
2A43
330
D1
100
AcDbEntity
  8
0
100
AcDbLine
 10
-31.11882305981163
 20
489.9998627523593
 30
0.0
 11
-28.80940530411482
 21
493.9998915693344
 31
0.0
  0
LINE
  5
2A44
330
D1
100
AcDbEntity
  8
0
100
AcDbLine
 10
31.11881981740765
 20
489.9999238779655
 30
0.0
 11
28.80940206171084
 21
493.9999526949407
 31
0.0
  0
LINE
  5
2A45
330
D1
100
AcDbEntity
  8
0
100
AcDbLine
 10
-21.88128196384838
 20
489.9998118446268
 30
0.0
 11
-24.19069971954519
 21
493.999840661602
 31
0.0
  0
LINE
  5
2A46
330
D1
100
AcDbEntity
  8
0
100
AcDbLine
 10
-28.80941772460943
 20
493.9999389648438
 30
0.0
 11
-24.19058227539068
 21
493.9999389648437
 31
0.0
  0
LINE
  5
2A47
330
D1
100
AcDbEntity
  8
0
100
AcDbLine
 10
24.19056376022382
 20
485.9998933065424
 30
0.0
 11
21.8811460045269
 21
489.9999221235175
 31
0.0
  0
CIRCLE
  5
2A48
330
D1
100
AcDbEntity
  8
0
100
AcDbCircle
 10
-0.0000000000000568
 20
490.0
 30
0.0
 40
45.5999755859375
  0
CIRCLE
  5
2A49
330
D1
100
AcDbEntity
  8
0
100
AcDbCircle
 10
-0.0000000000000568
 20
490.0
 30
0.0
 40
44.54998779296874
  0
CIRCLE
  5
2A4A
330
D1
100
AcDbEntity
  8
0
100
AcDbCircle
 10
-0.0000000000000568
 20
490.0
 30
0.0
 40
12.0
  0
CIRCLE
  5
2A4B
330
D1
100
AcDbEntity
  8
0
100
AcDbCircle
 10
-0.0000000000000568
 20
490.0
 30
0.0
 40
7.75
  0
CIRCLE
  5
2A4C
330
D1
100
AcDbEntity
  8
0
100
AcDbCircle
 10
21.21318054199213
 20
511.2132263183593
 30
0.0
 40
3.0
  0
CIRCLE
  5
2A4D
330
D1
100
AcDbEntity
  8
0
100
AcDbCircle
 10
-21.21318817138678
 20
511.2132263183593
 30
0.0
 40
3.0
  0
CIRCLE
  5
2A4E
330
D1
100
AcDbEntity
  8
0
100
AcDbCircle
 10
21.21318054199213
 20
468.7867736816406
 30
0.0
 40
3.0
  0
CIRCLE
  5
2A4F
330
D1
100
AcDbEntity
  8
0
100
AcDbCircle
 10
-21.21318817138678
 20
511.2132263183593
 30
0.0
 40
2.599999904632568
  0
CIRCLE
  5
2A50
330
D1
100
AcDbEntity
  8
0
100
AcDbCircle
 10
21.21318054199213
 20
511.2132263183593
 30
0.0
 40
2.599999904632568
  0
CIRCLE
  5
2A51
330
D1
100
AcDbEntity
  8
0
100
AcDbCircle
 10
-21.21318817138678
 20
468.7868041992187
 30
0.0
 40
3.0
  0
CIRCLE
  5
2A52
330
D1
100
AcDbEntity
  8
0
100
AcDbCircle
 10
-21.21318817138678
 20
468.7868041992187
 30
0.0
 40
2.599999904632568
  0
CIRCLE
  5
2A53
330
D1
100
AcDbEntity
  8
0
100
AcDbCircle
 10
21.21318054199213
 20
468.7867736816406
 30
0.0
 40
2.599999904632568
  0
CIRCLE
  5
2A54
330
D1
100
AcDbEntity
  8
0
100
AcDbCircle
 10
26.49999999999995
 20
490.0
 30
0.0
 40
4.0
  0
CIRCLE
  5
2A55
330
D1
100
AcDbEntity
  8
0
100
AcDbCircle
 10
-26.50000000000006
 20
490.0
 30
0.0
 40
4.0
  0
CIRCLE
  5
2A56
330
D1
100
AcDbEntity
  8
0
100
AcDbCircle
 10
26.49999999999995
 20
490.0
 30
0.0
 40
2.0
  0
CIRCLE
  5
2A57
330
D1
100
AcDbEntity
  8
0
100
AcDbCircle
 10
-26.50000000000006
 20
490.0
 30
0.0
 40
2.0
  0
CIRCLE
  5
2A58
330
D1
100
AcDbEntity
  8
0
100
AcDbCircle
 10
-26.50000000000006
 20
490.0
 30
0.0
 40
2.5
  0
CIRCLE
  5
2A59
330
D1
100
AcDbEntity
  8
0
100
AcDbCircle
 10
26.49999999999995
 20
490.0
 30
0.0
 40
2.5
  0
CIRCLE
  5
2A5A
330
D1
100
AcDbEntity
  8
0
100
AcDbCircle
 10
-26.50000000000006
 20
490.0
 30
0.0
 40
5.0
  0
CIRCLE
  5
2A5B
330
D1
100
AcDbEntity
  8
0
100
AcDbCircle
 10
26.49999999999995
 20
490.0
 30
0.0
 40
5.0
  0
LINE
  5
2AB7
330
D1
100
AcDbEntity
  8
0
  6
Continuous
100
AcDbLine
 10
-96.95845000000014
 20
465.276367482422
 30
0.0
 11
-93.0611800000002
 21
475.9840114824221
 31
0.0
  0
LINE
  5
2AB8
330
D1
100
AcDbEntity
  8
0
  6
Continuous
100
AcDbLine
 10
-100.0
 20
464.7499694824221
 30
0.0
 11
-97.71020499999991
 21
464.7499694824221
 31
0.0
  0
LINE
  5
2AB9
330
D1
100
AcDbEntity
  8
0
  6
Continuous
100
AcDbLine
 10
-91.1817630000001
 20
477.299957482422
 30
0.0
 11
-72.50003100000004
 21
477.299957482422
 31
0.0
  0
LINE
  5
2ABA
330
D1
100
AcDbEntity
  8
0
  6
Continuous
100
AcDbLine
 10
-92.58221400000008
 20
477.299957482422
 30
0.0
 11
-92.58221400000008
 21
502.6999814824221
 31
0.0
  0
LINE
  5
2ABB
330
D1
100
AcDbEntity
  8
0
  6
Continuous
100
AcDbLine
 10
-100.0
 20
464.7499694824221
 30
0.0
 11
-100.0
 21
515.249969482422
 31
0.0
  0
LINE
  5
2ABC
330
D1
100
AcDbEntity
  8
0
  6
Continuous
100
AcDbLine
 10
-91.1817630000001
 20
502.6999814824221
 30
0.0
 11
-72.50003100000002
 21
502.699981482422
 31
0.0
  0
LINE
  5
2ABD
330
D1
100
AcDbEntity
  8
0
  6
Continuous
100
AcDbLine
 10
-100.0
 20
515.249969482422
 30
0.0
 11
-97.71020499999991
 21
515.249969482422
 31
0.0
  0
LINE
  5
2ABE
330
D1
100
AcDbEntity
  8
0
  6
Continuous
100
AcDbLine
 10
-96.95844300000004
 20
514.723552482422
 30
0.0
 11
-93.0611800000002
 21
504.0159104824222
 31
0.0
  0
LINE
  5
2ABF
330
D1
100
AcDbEntity
  8
0
  6
Continuous
100
AcDbLine
 10
-97.1500240000001
 20
514.723552482422
 30
0.0
 11
-97.1500240000001
 21
465.8051454824222
 31
0.0
  0
ARC
  5
2AC0
330
D1
100
AcDbEntity
  8
0
  6
Continuous
100
AcDbCircle
 10
-97.71020499999991
 20
465.549957482422
 30
0.0
 40
0.8000000099999999
100
AcDbArc
 50
270.0
 51
339.9999700000072
  0
ARC
  5
2AC1
330
D1
100
AcDbEntity
  8
0
  6
Continuous
100
AcDbCircle
 10
-91.1817630000001
 20
475.2999574824221
 30
0.0
 40
2.0
100
AcDbArc
 50
90.0
 51
160.0000200000041
  0
ARC
  5
2AC2
330
D1
100
AcDbEntity
  8
0
  6
Continuous
100
AcDbCircle
 10
-91.1817630000001
 20
504.699981482422
 30
0.0
 40
2.0
100
AcDbArc
 50
199.9999799999958
 51
270.0
  0
ARC
  5
2AC3
330
D1
100
AcDbEntity
  8
0
  6
Continuous
100
AcDbCircle
 10
-97.71020499999991
 20
514.4499814824221
 30
0.0
 40
0.8000000099999999
100
AcDbArc
 50
20.0000290000072
 51
90.0
  0
LINE
  5
2AE6
330
D1
100
AcDbEntity
  8
0
  6
Continuous
100
AcDbLine
 10
30.49999999999994
 20
435.4999694824221
 30
0.0
 11
30.49999999999994
 21
446.0454404824219
 31
0.0
  0
LINE
  5
2AE7
330
D1
100
AcDbEntity
  8
0
  6
Continuous
100
AcDbLine
 10
-3.000000000000056
 20
417.499969482422
 30
0.0
 11
-3.000000000000056
 21
426.8360900878906
 31
0.0
  0
LINE
  5
2AE8
330
D1
100
AcDbEntity
  8
0
  6
Continuous
100
AcDbLine
 10
2.999999999999943
 20
417.499969482422
 30
0.0
 11
2.999999999999943
 21
426.8360900878906
 31
0.0
  0
LINE
  5
2AE9
330
D1
100
AcDbEntity
  8
0
  6
Continuous
100
AcDbLine
 10
-30.50000000000006
 20
435.4999694824221
 30
0.0
 11
-30.50000000000006
 21
446.0454404824219
 31
0.0
  0
LINE
  5
2AEA
330
D1
100
AcDbEntity
  8
0
  6
Continuous
100
AcDbLine
 10
54.50003051757784
 20
459.4999999999999
 30
0.0
 11
43.95455951757793
 21
459.4999999999999
 31
0.0
  0
LINE
  5
2AEB
330
D1
100
AcDbEntity
  8
0
  6
Continuous
100
AcDbLine
 10
72.50003051757784
 20
493.0
 30
0.0
 11
54.50003099999991
 21
492.9999999999999
 31
0.0
  0
LINE
  5
2AEC
330
D1
100
AcDbEntity
  8
0
  6
Continuous
100
AcDbLine
 10
72.50003051757784
 20
487.0
 30
0.0
 11
54.50003099999991
 21
487.0
 31
0.0
  0
LINE
  5
2AED
330
D1
100
AcDbEntity
  8
0
  6
Continuous
100
AcDbLine
 10
72.50003099999992
 20
450.0000149999999
 30
0.0
 11
54.50003099999992
 21
450.0000149999999
 31
0.0
  0
LINE
  5
2AEE
330
D1
100
AcDbEntity
  8
0
  6
Continuous
100
AcDbLine
 10
72.50003099999992
 20
530.000015
 30
0.0
 11
54.50003099999992
 21
530.000015
 31
0.0
  0
LINE
  5
2AEF
330
D1
100
AcDbEntity
  8
0
  6
Continuous
100
AcDbLine
 10
72.50003099999992
 20
530.000015
 30
0.0
 11
72.50003099999992
 21
450.0000149999999
 31
0.0
  0
LINE
  5
2AF0
330
D1
100
AcDbEntity
  8
0
  6
Continuous
100
AcDbLine
 10
54.50003099999992
 20
530.000015
 30
0.0
 11
54.50003099999992
 21
450.0000149999999
 31
0.0
  0
LINE
  5
2AF1
330
D1
100
AcDbEntity
  8
0
  6
Continuous
100
AcDbLine
 10
54.50003051757784
 20
520.5
 30
0.0
 11
43.95455951757793
 21
520.5
 31
0.0
  0
LINE
  5
2AF2
330
D1
100
AcDbEntity
  8
0
  6
Continuous
100
AcDbLine
 10
96.95845000000003
 20
465.276367482422
 30
0.0
 11
93.0611800000001
 21
475.9840114824221
 31
0.0
  0
LINE
  5
2AF3
330
D1
100
AcDbEntity
  8
0
  6
Continuous
100
AcDbLine
 10
99.99999999999994
 20
464.7499694824221
 30
0.0
 11
97.71020499999981
 21
464.7499694824221
 31
0.0
  0
LINE
  5
2AF4
330
D1
100
AcDbEntity
  8
0
  6
Continuous
100
AcDbLine
 10
91.181763
 20
477.299957482422
 30
0.0
 11
72.50003099999992
 21
477.299957482422
 31
0.0
  0
LINE
  5
2AF5
330
D1
100
AcDbEntity
  8
0
  6
Continuous
100
AcDbLine
 10
92.58221399999996
 20
477.299957482422
 30
0.0
 11
92.58221399999996
 21
502.6999814824221
 31
0.0
  0
LINE
  5
2AF6
330
D1
100
AcDbEntity
  8
0
  6
Continuous
100
AcDbLine
 10
99.99999999999994
 20
464.7499694824221
 30
0.0
 11
99.99999999999994
 21
515.249969482422
 31
0.0
  0
LINE
  5
2AF7
330
D1
100
AcDbEntity
  8
0
  6
Continuous
100
AcDbLine
 10
91.181763
 20
502.6999814824221
 30
0.0
 11
72.5000309999999
 21
502.699981482422
 31
0.0
  0
LINE
  5
2AF8
330
D1
100
AcDbEntity
  8
0
  6
Continuous
100
AcDbLine
 10
99.99999999999994
 20
515.249969482422
 30
0.0
 11
97.71020499999981
 21
515.249969482422
 31
0.0
  0
LINE
  5
2AF9
330
D1
100
AcDbEntity
  8
0
  6
Continuous
100
AcDbLine
 10
96.95844299999993
 20
514.723552482422
 30
0.0
 11
93.0611800000001
 21
504.0159104824222
 31
0.0
  0
LINE
  5
2AFA
330
D1
100
AcDbEntity
  8
0
  6
Continuous
100
AcDbLine
 10
97.15002399999997
 20
514.723552482422
 30
0.0
 11
97.15002399999997
 21
465.8051454824222
 31
0.0
  0
ARC
  5
2AFB
330
D1
100
AcDbEntity
  8
0
  6
Continuous
100
AcDbCircle
 10
97.71020499999981
 20
465.549957482422
 30
0.0
 40
0.8000000099999999
100
AcDbArc
 50
200.0000299999928
 51
270.0
  0
ARC
  5
2AFC
330
D1
100
AcDbEntity
  8
0
  6
Continuous
100
AcDbCircle
 10
91.181763
 20
475.2999574824221
 30
0.0
 40
2.0
100
AcDbArc
 50
19.99997999999587
 51
90.0
  0
ARC
  5
2AFD
330
D1
100
AcDbEntity
  8
0
  6
Continuous
100
AcDbCircle
 10
91.181763
 20
504.699981482422
 30
0.0
 40
2.0
100
AcDbArc
 50
270.0
 51
340.0000200000041
  0
ARC
  5
2AFE
330
D1
100
AcDbEntity
  8
0
  6
Continuous
100
AcDbCircle
 10
97.71020499999981
 20
514.4499814824221
 30
0.0
 40
0.8000000099999999
100
AcDbArc
 50
90.0
 51
159.9999709999928
  0
LINE
  5
2B01
330
D1
100
AcDbEntity
  8
0
  6
Continuous
100
AcDbLine
 10
321.2999989999998
 20
68.41028164776297
 30
0.0
 11
321.2999989999998
 21
64.60001399999999
 31
0.0
  0
LINE
  5
2B02
330
D1
100
AcDbEntity
  8
0
  6
Continuous
100
AcDbLine
 10
326.2999989999999
 20
72.930405
 30
0.0
 11
326.2999989999999
 21
65.46963499999998
 31
0.0
  0
LINE
  5
2B03
330
D1
100
AcDbEntity
  8
0
  6
Continuous
100
AcDbLine
 10
326.0
 20
64.95001999999999
 30
0.0
 11
321.2999989999998
 21
64.95001999999999
 31
0.0
  0
LINE
  5
2B04
330
D1
100
AcDbEntity
  8
0
  6
Continuous
100
AcDbLine
 10
321.2999989999998
 20
64.60001399999999
 30
0.0
 11
320.0
 21
64.60001399999999
 31
0.0
  0
LINE
  5
2B05
330
D1
100
AcDbEntity
  8
0
  6
Continuous
100
AcDbLine
 10
322.0
 20
68.90042916808733
 30
0.0
 11
322.0
 21
64.95001999999999
 31
0.0
  0
LINE
  5
2B06
330
D1
100
AcDbEntity
  8
0
  6
Continuous
100
AcDbLine
 10
326.0
 20
72.46173881446694
 30
0.0
 11
326.0
 21
64.95001999999999
 31
0.0
  0
LINE
  5
2B07
330
D1
100
AcDbEntity
  8
0
  6
Continuous
100
AcDbLine
 10
326.0000020000002
 20
64.95001999999999
 30
0.0
 11
326.3000010000001
 21
65.46963499999998
 31
0.0
  0
LINE
  5
2B08
330
D1
100
AcDbEntity
  8
0
  6
Continuous
100
AcDbLine
 10
326.2999989999999
 20
72.93039699999997
 30
0.0
 11
326.2953010849691
 21
72.93853405085255
 31
0.0
  0
CIRCLE
  5
303C
330
D1
100
AcDbEntity
  8
0
  6
Continuous
100
AcDbCircle
 10
-0.0000305175780113
 20
132.0000123706051
 30
0.0
 40
4.99999237060544
  0
LINE
  5
303D
330
D1
100
AcDbEntity
  8
0
100
AcDbLine
 10
4.999969482421704
 20
439.3360595703125
 30
0.0
 11
-5.000015258789233
 21
439.3360595703125
 31
0.0
  0
LINE
  5
303E
330
D1
100
AcDbEntity
  8
0
100
AcDbLine
 10
4.749984741210766
 20
439.3360595703125
 30
0.0
 11
4.749984741210766
 21
441.3360595703125
 31
0.0
  0
LINE
  5
303F
330
D1
100
AcDbEntity
  8
0
100
AcDbLine
 10
-4.750034111733327
 20
441.3346501864451
 30
0.0
 11
-4.644133094129472
 21
444.7234835581209
 31
0.0
  0
LINE
  5
3040
330
D1
100
AcDbEntity
  8
0
100
AcDbLine
 10
-4.750030517578295
 20
439.3360595703125
 30
0.0
 11
-4.750030517578295
 21
441.3360595703125
 31
0.0
  0
LINE
  5
3041
330
D1
100
AcDbEntity
  8
0
100
AcDbLine
 10
-5.000015258789233
 20
426.8360900878905
 30
0.0
 11
-5.000015258789233
 21
439.3360595703125
 31
0.0
  0
LINE
  5
3042
330
D1
100
AcDbEntity
  8
0
100
AcDbLine
 10
4.999969482421704
 20
426.8360900878905
 30
0.0
 11
-5.000015258789233
 21
426.8360900878905
 31
0.0
  0
LINE
  5
3043
330
D1
100
AcDbEntity
  8
0
100
AcDbLine
 10
4.749973898314294
 20
441.3361022448914
 30
0.0
 11
4.644118158127014
 21
444.7234867388934
 31
0.0
  0
LINE
  5
3044
330
D1
100
AcDbEntity
  8
0
100
AcDbLine
 10
4.999969482421704
 20
426.8360900878905
 30
0.0
 11
4.999969482421704
 21
439.3360595703125
 31
0.0
  0
LINE
  5
3045
330
D1
100
AcDbEntity
  8
0
100
AcDbLine
 10
4.716796874999829
 20
442.4000244140625
 30
0.0
 11
-4.716751098632983
 21
442.4000244140625
 31
0.0
  0
LINE
  5
313B
330
D1
100
AcDbEntity
  8
0
  6
Continuous
100
AcDbLine
 10
-5.000015258789233
 20
435.4999694824221
 30
0.0
 11
-40.00000000000004
 21
435.4999694824221
 31
0.0
  0
LINE
  5
3159
330
D1
100
AcDbEntity
  8
0
100
AcDbLine
 10
288.000091552734
 20
323.9995540000002
 30
0.0
 11
288.000091552734
 21
303.4995540000001
 31
0.0
  0
LINE
  5
315A
330
D1
100
AcDbEntity
  8
0
100
AcDbLine
 10
297.500091552734
 20
308.0995601035158
 30
0.0
 11
297.500091552734
 21
305.4995540000001
 31
0.0
  0
LINE
  5
315B
330
D1
100
AcDbEntity
  8
0
100
AcDbLine
 10
305.000091552734
 20
301.4995540000001
 30
0.0
 11
305.000091552734
 21
300.4995540000002
 31
0.0
  0
LINE
  5
315C
330
D1
100
AcDbEntity
  8
0
100
AcDbLine
 10
312.000091552734
 20
323.9995540000002
 30
0.0
 11
312.000091552734
 21
303.4995540000001
 31
0.0
  0
LINE
  5
315D
330
D1
100
AcDbEntity
  8
0
100
AcDbLine
 10
297.9000910216509
 20
308.4995711679083
 30
0.0
 11
297.500091129649
 21
308.0995712759064
 31
0.0
  0
LINE
  5
315E
330
D1
100
AcDbEntity
  8
0
100
AcDbLine
 10
289.000091552734
 20
324.9995540000002
 30
0.0
 11
311.000091552734
 21
324.9995540000002
 31
0.0
  0
LINE
  5
315F
330
D1
100
AcDbEntity
  8
0
100
AcDbLine
 10
304.6188964843747
 20
302.4995540000002
 30
0.0
 11
311.000091552734
 21
302.4995540000002
 31
0.0
  0
LINE
  5
3160
330
D1
100
AcDbEntity
  8
0
100
AcDbLine
 10
289.000091552734
 20
302.4995540000002
 30
0.0
 11
295.3812866210934
 21
302.4995540000002
 31
0.0
  0
LINE
  5
3161
330
D1
100
AcDbEntity
  8
0
100
AcDbLine
 10
302.500091552734
 20
308.0995601035158
 30
0.0
 11
302.500091552734
 21
305.4995540000001
 31
0.0
  0
LINE
  5
3162
330
D1
100
AcDbEntity
  8
0
100
AcDbLine
 10
295.000091552734
 20
301.4995540000001
 30
0.0
 11
305.000091552734
 21
301.4995540000001
 31
0.0
  0
LINE
  5
3163
330
D1
100
AcDbEntity
  8
0
100
AcDbLine
 10
302.1000912363696
 20
308.4995711679083
 30
0.0
 11
302.5000830361765
 21
308.0995793681013
 31
0.0
  0
LINE
  5
3164
330
D1
100
AcDbEntity
  8
0
100
AcDbLine
 10
302.1000976562496
 20
308.4995540000002
 30
0.0
 11
297.9000854492184
 21
308.4995540000002
 31
0.0
  0
LINE
  5
3165
330
D1
100
AcDbEntity
  8
0
100
AcDbLine
 10
295.000091552734
 20
300.4995540000002
 30
0.0
 11
295.000091552734
 21
301.4995540000001
 31
0.0
  0
LINE
  5
3166
330
D1
100
AcDbEntity
  8
0
100
AcDbLine
 10
307.000091552734
 20
302.4995540000002
 30
0.0
 11
307.000091552734
 21
300.4995540000002
 31
0.0
  0
LINE
  5
3167
330
D1
100
AcDbEntity
  8
0
100
AcDbLine
 10
293.000091552734
 20
300.4995540000002
 30
0.0
 11
293.000091552734
 21
302.4995540000002
 31
0.0
  0
ARC
  5
3168
330
D1
100
AcDbEntity
  8
0
100
AcDbCircle
 10
289.000091552734
 20
303.4995540000001
 30
0.0
 40
1.0
100
AcDbArc
 50
179.999994991043
 51
269.9999974955182
  0
ARC
  5
3169
330
D1
100
AcDbEntity
  8
0
100
AcDbCircle
 10
311.000091552734
 20
303.4995540000001
 30
0.0
 40
1.0
100
AcDbArc
 50
269.9999974955182
 51
0.0
  0
ARC
  5
316A
330
D1
100
AcDbEntity
  8
0
100
AcDbCircle
 10
289.000091552734
 20
323.9995540000002
 30
0.0
 40
1.0
100
AcDbArc
 50
90.0000025044752
 51
180.0000050089569
  0
ARC
  5
316B
330
D1
100
AcDbEntity
  8
0
100
AcDbCircle
 10
311.000091552734
 20
323.9995540000002
 30
0.0
 40
1.0
100
AcDbArc
 50
0.0
 51
90.0000025044752
  0
ARC
  5
316C
330
D1
100
AcDbEntity
  8
0
100
AcDbCircle
 10
298.00009500101
 20
299.6650401111005
 30
0.0
 40
5.776760101318358
100
AcDbArc
 50
69.74444580078149
 51
110.2555541992185
  0
LINE
  5
316D
330
D1
100
AcDbEntity
  8
0
100
AcDbLine
 10
304.00009500101
 20
305.4995352124188
 30
0.0
 11
296.00009500101
 21
305.4995352124188
 31
0.0
  0
LINE
  5
316E
330
D1
100
AcDbEntity
  8
0
100
AcDbLine
 10
296.00009500101
 20
301.4995352124188
 30
0.0
 11
296.00009500101
 21
305.4995352124188
 31
0.0
  0
LINE
  5
316F
330
D1
100
AcDbEntity
  8
0
100
AcDbLine
 10
300.00009500101
 20
301.4995352124188
 30
0.0
 11
300.00009500101
 21
305.0845360324188
 31
0.0
  0
ARC
  5
3170
330
D1
100
AcDbEntity
  8
0
100
AcDbCircle
 10
302.00009500101
 20
299.6650401111004
 30
0.0
 40
5.776760101318358
100
AcDbArc
 50
69.74444580078149
 51
110.2555541992185
  0
LINE
  5
3171
330
D1
100
AcDbEntity
  8
0
100
AcDbLine
 10
304.00009500101
 20
301.4995352124188
 30
0.0
 11
304.00009500101
 21
305.4995352124188
 31
0.0
  0
LINE
  5
3172
330
D1
100
AcDbEntity
  8
0
100
AcDbLine
 10
249.3359985351562
 20
127.2500047412108
 30
0.0
 11
251.3359985351562
 21
127.2500047412108
 31
0.0
  0
LINE
  5
3173
330
D1
100
AcDbEntity
  8
0
100
AcDbLine
 10
236.8360290527344
 20
137.0000047412108
 30
0.0
 11
249.3359985351562
 21
137.0000047412108
 31
0.0
  0
LINE
  5
3174
330
D1
100
AcDbEntity
  8
0
100
AcDbLine
 10
251.3346172941394
 20
127.2499998497894
 30
0.0
 11
254.399954409547
 21
127.3457916117962
 31
0.0
  0
LINE
  5
3175
330
D1
100
AcDbEntity
  8
0
100
AcDbLine
 10
236.8360290527344
 20
127.0000199999999
 30
0.0
 11
249.3359985351562
 21
127.0000199999999
 31
0.0
  0
LINE
  5
3176
330
D1
100
AcDbEntity
  8
0
100
AcDbLine
 10
252.3999633789062
 20
136.7168321337889
 30
0.0
 11
252.3999633789062
 21
127.2832841601561
 31
0.0
  0
LINE
  5
3177
330
D1
100
AcDbEntity
  8
0
100
AcDbLine
 10
249.3359985351562
 20
136.7500199999999
 30
0.0
 11
251.3359985351562
 21
136.7500199999999
 31
0.0
  0
LINE
  5
3178
330
D1
100
AcDbEntity
  8
0
100
AcDbLine
 10
249.3359985351562
 20
137.0000047412108
 30
0.0
 11
249.3359985351562
 21
127.0000199999999
 31
0.0
  0
LINE
  5
3179
330
D1
100
AcDbEntity
  8
0
100
AcDbLine
 10
251.3360527524183
 20
136.7500070032998
 30
0.0
 11
254.3999562414954
 21
136.6542600421051
 31
0.0
  0
LINE
  5
317A
330
D1
100
AcDbEntity
  8
0
100
AcDbLine
 10
236.8360290527344
 20
137.0000047412108
 30
0.0
 11
236.8360290527344
 21
127.0000199999999
 31
0.0
  0
ENDSEC
  0
SECTION
  2
OBJECTS
  0
DICTIONARY
  5
17FA
330
0
100
AcDbDictionary
281
     1
  3
ACAD_2007HEADERVARS_RT
350
3440
  3
ACAD_CIP_PREVIOUS_PRODUCT_INFO
350
1856
  3
ACAD_COLOR
350
1834
  3
ACAD_DETAILVIEWSTYLE
350
33F3
  3
ACAD_GROUP
350
17FB
  3
ACAD_LAYOUT
350
184C
  3
ACAD_MATERIAL
350
1802
  3
ACAD_MLEADERSTYLE
350
1849
  3
ACAD_MLINESTYLE
350
17FC
  3
ACAD_PLOTSETTINGS
350
184D
  3
ACAD_PLOTSTYLENAME
350
1800
  3
ACAD_SCALELIST
350
1837
  3
ACAD_SECTIONVIEWSTYLE
350
33F1
  3
ACAD_TABLESTYLE
350
1835
  3
ACAD_VISUALSTYLE
350
181B
  3
ACDB_RECOMPOSE_DATA
350
343F
  3
AcDbVariableDictionary
350
19CB
  3
AcmDictionary
350
18C9
  3
AEC_PROPERTY_SET_DEFS
350
2016
  3
AMG
350
1858
  3
AMGSNAPSETTINGS
350
195B
  0
DICTIONARY
  5
1991
330
E2
100
AcDbDictionary
280
     1
281
     1
  0
DICTIONARY
  5
2008
330
C8
100
AcDbDictionary
280
     1
281
     1
  3
ACAD_LAYERSTATES
360
2009
  0
DICTIONARY
  5
1963
330
C9
100
AcDbDictionary
280
     1
281
     1
  3
ADSK_XREC_LAYER_RECONCILED
360
1964
  0
DICTIONARY
  5
1C1A
330
D1
100
AcDbDictionary
280
     1
281
     1
  3
ACAD_SORTENTS
360
1C1B
  0
DICTIONARY
  5
3440
102
{ACAD_REACTORS
330
17FA
102
}
330
17FA
100
AcDbDictionary
281
     1
  3
DIMARCSYM
350
3441
  3
DIMLTEX1
350
3444
  3
DIMLTEX2
350
3445
  3
DIMLTYPE
350
3443
  3
DIMTFILL
350
3442
  0
XRECORD
  5
1856
102
{ACAD_REACTORS
330
17FA
102
}
330
17FA
100
AcDbXrecord
280
     1
300
AMECH_PP
300
2012
300
PDSU_F_S
  0
DICTIONARY
  5
1834
102
{ACAD_REACTORS
330
17FA
102
}
330
17FA
100
AcDbDictionary
281
     1
  0
DICTIONARY
  5
33F3
102
{ACAD_REACTORS
330
17FA
102
}
330
17FA
100
AcDbDictionary
281
     1
  3
Metric50
350
33F4
  0
DICTIONARY
  5
17FB
102
{ACAD_REACTORS
330
17FA
102
}
330
17FA
100
AcDbDictionary
281
     1
  0
DICTIONARY
  5
184C
102
{ACAD_REACTORS
330
17FA
102
}
330
17FA
100
AcDbDictionary
281
     1
  3
Model
350
184E
  3
レイアウト1
350
184F
  0
DICTIONARY
  5
1802
102
{ACAD_REACTORS
330
17FA
102
}
330
17FA
100
AcDbDictionary
281
     1
  3
ByBlock
350
180B
  3
ByLayer
350
1803
  3
Global
350
1813
  0
DICTIONARY
  5
1849
102
{ACAD_REACTORS
330
17FA
102
}
330
17FA
100
AcDbDictionary
281
     1
  3
Standard
350
184A
  0
DICTIONARY
  5
17FC
102
{ACAD_REACTORS
330
17FA
102
}
330
17FA
100
AcDbDictionary
281
     1
  3
STANDARD
350
17FD
  0
DICTIONARY
  5
184D
102
{ACAD_REACTORS
330
17FA
102
}
330
17FA
100
AcDbDictionary
281
     1
  0
ACDBDICTIONARYWDFLT
  5
1800
102
{ACAD_REACTORS
330
17FA
102
}
330
17FA
100
AcDbDictionary
281
     1
  3
Normal
350
1801
100
AcDbDictionaryWithDefault
340
1801
  0
DICTIONARY
  5
1837
102
{ACAD_REACTORS
330
17FA
102
}
330
17FA
100
AcDbDictionary
281
     1
  3
A0
350
1838
  3
A1
350
1839
  3
A2
350
183A
  3
A3
350
183B
  3
A4
350
183C
  3
A5
350
183D
  3
A6
350
183E
  3
A7
350
183F
  3
A8
350
1840
  3
A9
350
1841
  3
B0
350
1842
  3
B1
350
1843
  3
B2
350
1844
  3
B3
350
1845
  3
B4
350
1846
  3
B5
350
1847
  3
B6
350
1848
  0
DICTIONARY
  5
33F1
102
{ACAD_REACTORS
330
17FA
102
}
330
17FA
100
AcDbDictionary
281
     1
  3
Metric50
350
33F2
  0
DICTIONARY
  5
1835
102
{ACAD_REACTORS
330
17FA
102
}
330
17FA
100
AcDbDictionary
281
     1
  3
Standard
350
1836
  0
DICTIONARY
  5
181B
102
{ACAD_REACTORS
330
17FA
102
}
330
17FA
100
AcDbDictionary
281
     1
  3
2dWireframe
350
1821
  3
3D Hidden
350
3439
  3
3dWireframe
350
3438
  3
Basic
350
1820
  3
Brighten
350
1827
  3
ColorChange
350
182B
  3
Conceptual
350
1824
  3
Dim
350
1826
  3
EdgeColorOff
350
1833
  3
Facepattern
350
182A
  3
Flat
350
181C
  3
FlatWithEdges
350
181D
  3
Gouraud
350
181E
  3
GouraudWithEdges
350
181F
  3
Hidden
350
1823
  3
JitterOff
350
1831
  3
Linepattern
350
1829
  3
OverhangOff
350
1832
  3
Realistic
350
1825
  3
Shaded
350
1830
  3
Shaded with edges
350
182F
  3
Shades of Gray
350
182C
  3
Sketchy
350
182D
  3
Thicken
350
1828
  3
Wireframe
350
1822
  3
X-Ray
350
182E
  0
XRECORD
  5
343F
102
{ACAD_REACTORS
330
17FA
102
}
330
17FA
100
AcDbXrecord
280
     1
 90
        1
330
1836
  0
DICTIONARY
  5
19CB
102
{ACAD_REACTORS
330
17FA
102
}
330
17FA
100
AcDbDictionary
281
     1
  3
CANNOSCALE
350
19CE
  3
CMLEADERSTYLE
350
19CD
  3
CTABLESTYLE
350
19CC
  3
CVIEWDETAILSTYLE
350
3434
  3
CVIEWSECTIONSTYLE
350
3435
  3
DIMASSOC
350
19D1
  3
INDEXCTL
350
19D0
  3
SORTENTS
350
19CF
  3
XCLIPFRAME
350
343D
  0
DICTIONARY
  5
18C9
102
{ACAD_REACTORS
330
17FA
102
}
330
17FA
100
AcDbDictionary
281
     1
  3
AcmStdDictionary
350
18CA
  0
DICTIONARY
  5
2016
102
{ACAD_REACTORS
330
17FA
102
}
330
17FA
100
AcDbDictionary
281
     1
  0
DICTIONARY
  5
1858
102
{ACAD_REACTORS
330
17FA
102
}
330
17FA
100
AcDbDictionary
281
     1
  0
DICTIONARY
  5
195B
102
{ACAD_REACTORS
330
17FA
102
}
330
17FA
100
AcDbDictionary
281
     1
  0
DICTIONARY
  5
2009
102
{ACAD_REACTORS
330
2008
102
}
330
2008
100
AcDbDictionary
281
     1
  0
XRECORD
  5
1964
102
{ACAD_REACTORS
330
1963
102
}
330
1963
100
AcDbXrecord
280
     1
290
     1
  0
SORTENTSTABLE
  5
1C1B
102
{ACAD_REACTORS
330
1C1A
102
}
330
1C1A
100
AcDbSortentsTable
330
D1
331
2124
  5
212C
331
2A46
  5
2A47
331
2A07
  5
2A0B
331
2A42
  5
2A43
331
2A03
  5
2A07
331
2A3E
  5
2A3F
331
3044
  5
3046
331
1A8E
  5
1D8D
331
2118
  5
2122
331
3040
  5
3042
331
1B14
  5
1E11
331
1A86
  5
1D89
331
1ACD
  5
1DCA
331
1C12
  5
201B
331
1B10
  5
1E0F
331
1BAF
  5
1EAD
331
1C0E
  5
1F0B
331
1B0C
  5
1E0A
331
1C9C
  5
1BEF
331
1B08
  5
1E05
331
1C98
  5
1BEA
331
1DB2
  5
1D0D
331
1CD7
  5
1C5E
331
1C94
  5
1BE7
331
1DAA
  5
1D07
331
1E49
  5
1AA3
331
29FF
  5
2A03
331
2114
  5
2119
331
2A36
  5
2A3C
331
303C
  5
303E
331
2A32
  5
2A36
331
2AC1
  5
2AC2
331
201C
  5
2116
331
2A2E
  5
2A32
331
2ABD
  5
2ABE
331
2018
  5
201D
331
1AC5
  5
1DC6
331
2A2A
  5
2A2E
331
2AB9
  5
2ABA
331
1BA7
  5
1EA8
331
2B08
  5
3034
331
1C55
  5
1BAD
331
1B04
  5
1E01
331
1ABD
  5
1DBE
331
1B00
  5
1DFD
331
1B67
  5
1EA1
331
1BD6
  5
1F05
331
1C4D
  5
1BA0
331
1AFC
  5
1DFA
331
1C8C
  5
1BDF
331
1DA6
  5
1D01
331
1C49
  5
1B9C
331
1AF8
  5
1DF6
331
1C88
  5
1BDA
331
1DA2
  5
1CF7
331
1CC7
  5
1C25
331
1C84
  5
1BD7
331
1CC3
  5
1C17
331
1C80
  5
1BD2
331
1D9A
  5
1CF3
331
29E7
  5
29EB
331
2A26
  5
2A2A
331
2B04
  5
2B06
331
2A22
  5
2A26
331
29DB
  5
29DF
331
2A1E
  5
2A22
331
2AFC
  5
2AFE
331
2A1A
  5
2A1E
331
2A59
  5
2A5A
331
2AF8
  5
2AFA
331
1C45
  5
1B99
331
1B33
  5
1E5F
331
1AAD
  5
1DB5
331
1BCA
  5
1ECF
331
1C41
  5
1B93
331
1B2F
  5
1E2E
331
1CBF
  5
1C12
331
1C35
  5
1B92
331
1BC6
  5
1ECD
331
1C7C
  5
1BCE
331
1E35
  5
1A8D
331
1CBB
  5
1C0D
331
1AE8
  5
1DE7
331
1C78
  5
1BCA
331
1D92
  5
1CEC
331
1E31
  5
1A89
331
1CB7
  5
1C09
331
1CB3
  5
1C05
331
29D7
  5
29DB
331
1ED4
  5
1B39
331
2A16
  5
2A1A
331
2A55
  5
2A56
331
2AF4
  5
2AF6
331
2A12
  5
2A16
331
2A51
  5
2A52
331
1E64
  5
1ABD
331
2AF0
  5
2AF1
331
2A0E
  5
2A12
331
2A4D
  5
2A4E
331
2AEC
  5
2AED
331
1A9D
  5
1DA5
331
2A0A
  5
2A0E
331
2A49
  5
2A4A
331
1B27
  5
1E26
331
2AE8
  5
2AE9
331
1A99
  5
1D96
331
1B23
  5
1E20
331
1AE4
  5
1DE4
331
1B1F
  5
1E1C
331
1CAF
  5
1C01
331
1B1B
  5
1E18
331
1C1D
  5
1B72
331
1BB6
  5
1EB4
331
1AD4
  5
1DDA
331
1CAB
  5
1BFE
331
1E05
  5
1D7E
331
1C6C
  5
1BC0
331
1BB2
  5
1EB0
331
1AD0
  5
1DCD
331
1CA7
  5
1BF9
331
1D82
  5
1CD6
331
1C68
  5
1BBB
331
1CA3
  5
1BF6
331
1C64
  5
1BB7
331
1DBD
  5
1D32
331
1C60
  5
1BB2
331
1D0A
  5
1C5F
331
1DB9
  5
1D30
331
2123
  5
212B
331
2A45
  5
2A46
331
2A06
  5
2A0A
331
313B
  5
1AA0
331
2A41
  5
2A42
331
2A02
  5
2A06
331
2A3D
  5
2A3E
331
3043
  5
3045
331
2A39
  5
1B6D
331
1B17
  5
1E14
331
1A85
  5
1D88
331
1C11
  5
201A
331
1BAE
  5
1EAB
331
1C9F
  5
1BF2
331
1AC8
  5
1DC8
331
1C0D
  5
1F0A
331
1B0B
  5
1E09
331
1C9B
  5
1BED
331
1DB1
  5
1D0A
331
1C97
  5
1BE9
331
1C93
  5
1BE6
331
1E48
  5
1AA1
331
29FE
  5
2A02
331
2117
  5
2121
331
303F
  5
3041
331
2A35
  5
2A39
331
2A31
  5
2A35
331
2AC0
  5
2AC1
331
29EA
  5
29EE
331
201B
  5
2115
331
2A2D
  5
2A31
331
2ABC
  5
2ABD
331
2A29
  5
2A2D
331
2AB8
  5
2AB9
331
1B07
  5
1E04
331
1AC0
  5
1DC1
331
1B03
  5
1E00
331
1ABC
  5
1DBC
331
1C50
  5
1BA5
331
1AFF
  5
1DFC
331
1B66
  5
1EA0
331
1C8F
  5
1BE2
331
1BD5
  5
1F04
331
1C4C
  5
1B9E
331
1C8B
  5
1BDD
331
1DA5
  5
1D00
331
1C83
  5
1BD6
331
1D9D
  5
1CF6
331
1CC2
  5
1C16
331
1D99
  5
1CF2
331
1E38
  5
1A90
331
2B07
  5
2E1D
331
2A25
  5
2A29
331
29DE
  5
29E2
331
2B03
  5
2B05
331
2A21
  5
2A25
331
2A1D
  5
2A21
331
2AFB
  5
2AFD
331
1AB4
  5
1DB7
331
2A19
  5
2A1D
331
2A58
  5
2A59
331
1AF7
  5
1DF5
331
1B36
  5
1E9F
331
1C44
  5
1B97
331
1B32
  5
1E2F
331
1AAC
  5
1DB4
331
1BC9
  5
1ECE
331
1B2E
  5
1E2D
331
1C7F
  5
1BD1
331
1CBE
  5
1C11
331
1B2A
  5
1E2B
331
1C34
  5
1B91
331
1BC5
  5
1EC8
331
1AEB
  5
1DEE
331
1CBA
  5
1C0C
331
1C7B
  5
1BCD
331
1E34
  5
1A8C
331
1BC1
  5
1EBF
331
1CB6
  5
1C08
331
1D91
  5
1CEB
331
1C77
  5
1BC9
331
1CB2
  5
1C04
331
1D8D
  5
1CE3
331
1C73
  5
1BC7
331
1D89
  5
1CE0
331
1E08
  5
1D87
331
29D6
  5
29DA
331
2AF7
  5
2AF9
331
2A15
  5
2A19
331
2A54
  5
2A55
331
2AF3
  5
2AF5
331
2A11
  5
2A15
331
2A50
  5
2A51
331
2A4C
  5
2A4D
331
2AEF
  5
2AF0
331
2A0D
  5
2A11
331
1E63
  5
1ABC
331
2A48
  5
2A49
331
2AEB
  5
2AEC
331
1A9C
  5
1DA4
331
2A09
  5
2A0D
331
1B26
  5
1E23
331
1A98
  5
1D95
331
1B22
  5
1E1F
331
1C24
  5
1B81
331
1AE3
  5
1DE2
331
1A94
  5
1D93
331
1B1E
  5
1E1B
331
1C20
  5
1B80
331
1BB9
  5
1EB9
331
1AD7
  5
1DDC
331
1C6F
  5
1BC3
331
1A90
  5
1D91
331
1B1A
  5
1E17
331
1C1C
  5
1B6E
331
1BB5
  5
1EB2
331
1AD3
  5
1DD9
331
1CAA
  5
1BFD
331
1E04
  5
1D7D
331
1D85
  5
1CD9
331
1C6B
  5
1BBF
331
1CA6
  5
1BF8
331
1D81
  5
1CD5
331
1C67
  5
1BBA
331
1CA2
  5
1BF5
331
1C63
  5
1BB6
331
1DB8
  5
1D16
331
2126
  5
27FE
331
2A44
  5
2A45
331
2A40
  5
2A41
331
2AE7
  5
2AE8
331
2A05
  5
2A09
331
2A01
  5
2A05
331
2A3C
  5
2A3D
331
211A
  5
2129
331
1B16
  5
1E13
331
3042
  5
3044
331
1ACF
  5
1DCC
331
1ACB
  5
1DC9
331
1C10
  5
2019
331
1C5F
  5
1BB1
331
1B0E
  5
1E0E
331
1C9E
  5
1BF1
331
1C0C
  5
1F09
331
1B0A
  5
1E07
331
1BA9
  5
1EAA
331
1C9A
  5
1BEC
331
1DB0
  5
1D09
331
1CD5
  5
1C5D
331
1C92
  5
1BE5
331
1E4B
  5
1ABB
331
29FD
  5
2A01
331
2116
  5
211A
331
2A34
  5
2A38
331
2AC3
  5
2AE6
331
303E
  5
3040
331
2A30
  5
2A34
331
2ABF
  5
2AC0
331
201E
  5
2118
331
29E9
  5
29ED
331
1AC7
  5
1DC7
331
2A2C
  5
2A30
331
2ABB
  5
2ABC
331
201A
  5
2114
331
1AC3
  5
1DC4
331
2A28
  5
2A2C
331
1C57
  5
1BAF
331
1B06
  5
1E03
331
1BA5
  5
1EA2
331
1B02
  5
1DFF
331
1ABB
  5
1DB9
331
1BD8
  5
1F07
331
1C4F
  5
1BA4
331
1C8E
  5
1BE1
331
1E47
  5
1A9F
331
1BD4
  5
1ED1
331
1C4B
  5
1B9D
331
1AFA
  5
1DF9
331
1C8A
  5
1BDC
331
1DA4
  5
1CFB
331
1CC9
  5
1C5A
331
1C86
  5
1BD9
331
1C82
  5
1BD4
331
1D9C
  5
1CF5
331
2AB7
  5
2AB8
331
2A24
  5
2A28
331
29E1
  5
29E5
331
2B06
  5
2B08
331
2A20
  5
2A24
331
29DD
  5
29E1
331
2B02
  5
2B04
331
2A1C
  5
2A20
331
2A5B
  5
2AB7
331
2AFE
  5
2B02
331
2A18
  5
2A1C
331
1C47
  5
1B9B
331
1AF6
  5
1DF3
331
1B35
  5
1E9E
331
2AFA
  5
2AFC
331
1C43
  5
1B95
331
1AF2
  5
1DF1
331
1AAB
  5
1DAD
331
1B2D
  5
1E2C
331
1AEE
  5
1DF0
331
1C7E
  5
1BD0
331
1E37
  5
1A8F
331
1CBD
  5
1C10
331
1C33
  5
1B90
331
1BC4
  5
1EC3
331
1B29
  5
1E28
331
1C7A
  5
1BCC
331
1E33
  5
1A8B
331
1CB9
  5
1C0B
331
1BC0
  5
1EBE
331
1D90
  5
1CEA
331
1CB5
  5
1C07
331
1CB1
  5
1C03
331
1D8C
  5
1CE2
331
1C72
  5
1BC6
331
2A57
  5
2A58
331
29D5
  5
29D9
331
2A14
  5
2A18
331
2A53
  5
2A54
331
1ED2
  5
1B2D
331
2AF6
  5
2AF8
331
2A10
  5
2A14
331
2A4F
  5
2A50
331
2AF2
  5
2AF4
331
2A4B
  5
2A4C
331
2A0C
  5
2A10
331
1A9F
  5
1DA7
331
2AEE
  5
2AEF
331
2A08
  5
2A0C
331
1A9B
  5
1D98
331
1C27
  5
1B83
331
1B25
  5
1E22
331
2AEA
  5
2AEB
331
1A97
  5
1D94
331
1B21
  5
1E1E
331
1BBC
  5
1EBC
331
1AE2
  5
1DE1
331
1A93
  5
1D92
331
1C1F
  5
1B75
331
1BB8
  5
1EB8
331
1B1D
  5
1E1A
331
1CAD
  5
1C00
331
1E07
  5
1D80
331
1B19
  5
1E16
331
1BB4
  5
1EB1
331
1AD2
  5
1DD0
331
1CA9
  5
1BFB
331
1E03
  5
1D58
331
1D84
  5
1CD8
331
1D80
  5
1CD4
331
1C66
  5
1BB9
331
1CA1
  5
1BF4
331
1C62
  5
1BB5
331
2A47
  5
2A48
331
2125
  5
27FC
331
2A43
  5
2A44
331
2A3F
  5
2A40
331
2AE6
  5
2AE7
331
2A04
  5
2A08
331
2A00
  5
2A04
331
2119
  5
2124
331
1A8F
  5
1D90
331
3045
  5
313B
331
1B15
  5
1E12
331
3041
  5
3043
331
1A87
  5
1D8C
331
1ACE
  5
1DCB
331
1C13
  5
201C
331
1B11
  5
1E10
331
1C0F
  5
1F0C
331
1C5E
  5
1BB0
331
1B0D
  5
1E0D
331
1C9D
  5
1BF0
331
1DB7
  5
1D0E
331
1C0B
  5
1F08
331
1B09
  5
1E06
331
1C99
  5
1BEB
331
1C95
  5
1BE8
331
1CD4
  5
1C5B
331
1C91
  5
1BE3
331
1DAB
  5
1D08
331
29FC
  5
2A00
331
2A33
  5
2A37
331
2AC2
  5
2AC3
331
303D
  5
303F
331
2A2F
  5
2A33
331
2ABE
  5
2ABF
331
201D
  5
2117
331
29E8
  5
29EC
331
2A2B
  5
2A2F
331
2ABA
  5
2ABB
331
2019
  5
201E
331
1C56
  5
1BAE
331
1B05
  5
1E02
331
1ABE
  5
1DC0
331
1C52
  5
1BAC
331
1B01
  5
1DFE
331
1BD7
  5
1F06
331
1C4E
  5
1BA3
331
1AFD
  5
1DFB
331
1C8D
  5
1BE0
331
1DA7
  5
1D02
331
1E46
  5
1A9E
331
1AF9
  5
1DF8
331
1C89
  5
1BDB
331
1DA3
  5
1CFA
331
1CC8
  5
1C27
331
1C85
  5
1BD8
331
1CC4
  5
1C24
331
1C81
  5
1BD3
331
1D9B
  5
1CF4
331
1CC0
  5
1C15
331
2A27
  5
2A2B
331
2A23
  5
2A27
331
29E0
  5
29E4
331
2B05
  5
2B07
331
2A1F
  5
2A23
331
29DC
  5
29E0
331
2B01
  5
2B03
331
2A1B
  5
2A1F
331
2A5A
  5
2A5B
331
2AFD
  5
2B01
331
1BCF
  5
1ED0
331
1C46
  5
1B9A
331
1AF5
  5
1DF2
331
1B34
  5
1E60
331
2AF9
  5
2AFB
331
1AAE
  5
1DB6
331
1C42
  5
1B94
331
1AED
  5
1DEF
331
1C7D
  5
1BCF
331
1E36
  5
1A8E
331
1CBC
  5
1C0E
331
1B28
  5
1E27
331
1C32
  5
1B8F
331
1BC3
  5
1EC2
331
1AE9
  5
1DEB
331
1C79
  5
1BCB
331
1E32
  5
1A8A
331
1D93
  5
1CED
331
1CB8
  5
1C0A
331
1CB4
  5
1C06
331
1C75
  5
1BC8
331
1CB0
  5
1C02
331
1C71
  5
1BC5
331
1D8B
  5
1CE1
331
1ED5
  5
1B45
331
2A17
  5
2A1B
331
2A56
  5
2A57
331
29D4
  5
29D8
331
1ED1
  5
1B2C
331
2A13
  5
2A17
331
2A52
  5
2A53
331
2AF5
  5
2AF7
331
212C
  5
29CF
331
1E65
  5
1B2A
331
2A0F
  5
2A13
331
2A4E
  5
2A4F
331
2AF1
  5
2AF3
331
2A0B
  5
2A0F
331
2A4A
  5
2A4B
331
1A9E
  5
1DA6
331
2AED
  5
2AEE
331
1A9A
  5
1D97
331
1B24
  5
1E21
331
1C26
  5
1B82
331
1BBF
  5
1EBD
331
1AE5
  5
1DE6
331
2AE9
  5
2AEA
331
1B20
  5
1E1D
331
1BBB
  5
1EBA
331
1AE1
  5
1DDE
331
1B1C
  5
1E19
331
1C1E
  5
1B74
331
1BB7
  5
1EB5
331
1AD5
  5
1DDB
331
1CAC
  5
1BFF
331
1E06
  5
1D7F
331
1D87
  5
1CDC
331
1C6D
  5
1BC1
331
1B18
  5
1E15
331
1AD1
  5
1DCE
331
1CA8
  5
1BFA
331
1D83
  5
1CD7
331
1C69
  5
1BBD
331
1CA4
  5
1BF7
331
1DBE
  5
1D57
331
1C61
  5
1BB4
331
1D0B
  5
1CD1
331
1DBA
  5
1D31
  0
XRECORD
  5
3441
102
{ACAD_REACTORS
330
3440
102
}
330
3440
100
AcDbXrecord
280
     1
 70
     1
  0
XRECORD
  5
3444
102
{ACAD_REACTORS
330
3440
102
}
330
3440
100
AcDbXrecord
280
     1
340
28
  0
XRECORD
  5
3445
102
{ACAD_REACTORS
330
3440
102
}
330
3440
100
AcDbXrecord
280
     1
340
28
  0
XRECORD
  5
3443
102
{ACAD_REACTORS
330
3440
102
}
330
3440
100
AcDbXrecord
280
     1
340
28
  0
XRECORD
  5
3442
102
{ACAD_REACTORS
330
3440
102
}
330
3440
100
AcDbXrecord
280
     1
 70
     1
  0
ACAD_PROXY_OBJECT
  5
33F4
102
{ACAD_REACTORS
330
33F3
102
}
330
33F3
100
AcDbProxyObject
 90
      499
 91
      584
 95
  6815769
 70
     0
 93
     1145
310
9094D6574726963353000481C000000600000000000000002881403000000180000000000000000A2023300000018001000000180000000000000000A20400000000000017202029C129E2E20B1AB30B9102B34B2BBA232BA30B4B624B21F129014129E2E20B1AB30B9102B34B2BBA9B1B0B632902E33101112B9B7111F129
310
480233000000180008CC0000006000004C
340
23
340
0
340
28
340
23
340
28
340
28
 94
        0
  0
LAYOUT
  5
184E
102
{ACAD_REACTORS
330
184C
102
}
330
184C
100
AcDbPlotSettings
  1

  2
iR C4580
  4

  6

 40
0.0
 41
0.0
 42
0.0
 43
0.0
 44
0.0
 45
0.0
 46
0.0
 47
0.0
 48
0.0
 49
0.0
140
0.0
141
0.0
142
1.0
143
1.0
 70
  1712
 72
     0
 73
     0
 74
     0
  7

 75
     0
147
1.0
 76
     0
 77
     2
 78
   300
148
0.0
149
0.0
100
AcDbLayout
  1
Model
 70
     1
 71
     0
 10
0.0
 20
0.0
 11
12.0
 21
9.0
 12
0.0
 22
0.0
 32
0.0
 14
0.0
 24
0.0
 34
0.0
 15
0.0
 25
0.0
 35
0.0
146
0.0
 13
0.0
 23
0.0
 33
0.0
 16
1.0
 26
0.0
 36
0.0
 17
0.0
 27
1.0
 37
0.0
 76
     0
330
D1
331
1855
  0
LAYOUT
  5
184F
102
{ACAD_REACTORS
330
184C
102
}
330
184C
100
AcDbPlotSettings
  1

  2
iR C4580
  4

  6

 40
0.0
 41
0.0
 42
0.0
 43
0.0
 44
0.0
 45
0.0
 46
0.0
 47
0.0
 48
0.0
 49
0.0
140
0.0
141
0.0
142
1.0
143
1.0
 70
   688
 72
     0
 73
     0
 74
     5
  7

 75
    16
147
1.0
 76
     0
 77
     2
 78
   300
148
0.0
149
0.0
100
AcDbLayout
  1
レイアウト1
 70
     1
 71
     1
 10
-2550.0
 20
0.0
 11
0.0
 21
1800.0
 12
0.0
 22
0.0
 32
0.0
 14
-2550.0
 24
0.0
 34
0.0
 15
0.0
 25
1800.0
 35
0.0
146
0.0
 13
0.0
 23
0.0
 33
0.0
 16
1.0
 26
0.0
 36
0.0
 17
0.0
 27
1.0
 37
0.0
 76
     0
330
D2
  0
MATERIAL
  5
180B
102
{ACAD_XDICTIONARY
360
180C
102
}
102
{ACAD_REACTORS
330
1802
102
}
330
1802
100
AcDbMaterial
  1
ByBlock
 72
     0
 43
0.0208333333333333
 43
0.0
 43
0.0
 43
0.0
 43
0.0
 43
0.0208333333333333
 43
0.0
 43
0.0
 43
0.0
 43
0.0
 43
1.0
 43
0.0
 43
0.0
 43
0.0
 43
0.0
 43
1.0
 77
     0
 47
0.0208333333333333
 47
0.0
 47
0.0
 47
0.0
 47
0.0
 47
0.0208333333333333
 47
0.0
 47
0.0
 47
0.0
 47
0.0
 47
1.0
 47
0.0
 47
0.0
 47
0.0
 47
0.0
 47
1.0
171
     0
 49
0.0208333333333333
 49
0.0
 49
0.0
 49
0.0
 49
0.0
 49
0.0208333333333333
 49
0.0
 49
0.0
 49
0.0
 49
0.0
 49
1.0
 49
0.0
 49
0.0
 49
0.0
 49
0.0
 49
1.0
175
     0
142
0.0208333333333333
142
0.0
142
0.0
142
0.0
142
0.0
142
0.0208333333333333
142
0.0
142
0.0
142
0.0
142
0.0
142
1.0
142
0.0
142
0.0
142
0.0
142
0.0
142
1.0
179
     0
144
0.0208333333333333
144
0.0
144
0.0
144
0.0
144
0.0
144
0.0208333333333333
144
0.0
144
0.0
144
0.0
144
0.0
144
1.0
144
0.0
144
0.0
144
0.0
144
0.0
144
1.0
147
0.0208333333333333
147
0.0
147
0.0
147
0.0
147
0.0
147
0.0208333333333333
147
0.0
147
0.0
147
0.0
147
0.0
147
1.0
147
0.0
147
0.0
147
0.0
147
0.0
147
1.0
  0
MATERIAL
  5
1803
102
{ACAD_XDICTIONARY
360
1804
102
}
102
{ACAD_REACTORS
330
1802
102
}
330
1802
100
AcDbMaterial
  1
ByLayer
 72
     0
 43
0.0208333333333333
 43
0.0
 43
0.0
 43
0.0
 43
0.0
 43
0.0208333333333333
 43
0.0
 43
0.0
 43
0.0
 43
0.0
 43
1.0
 43
0.0
 43
0.0
 43
0.0
 43
0.0
 43
1.0
 77
     0
 47
0.0208333333333333
 47
0.0
 47
0.0
 47
0.0
 47
0.0
 47
0.0208333333333333
 47
0.0
 47
0.0
 47
0.0
 47
0.0
 47
1.0
 47
0.0
 47
0.0
 47
0.0
 47
0.0
 47
1.0
171
     0
 49
0.0208333333333333
 49
0.0
 49
0.0
 49
0.0
 49
0.0
 49
0.0208333333333333
 49
0.0
 49
0.0
 49
0.0
 49
0.0
 49
1.0
 49
0.0
 49
0.0
 49
0.0
 49
0.0
 49
1.0
175
     0
142
0.0208333333333333
142
0.0
142
0.0
142
0.0
142
0.0
142
0.0208333333333333
142
0.0
142
0.0
142
0.0
142
0.0
142
1.0
142
0.0
142
0.0
142
0.0
142
0.0
142
1.0
179
     0
144
0.0208333333333333
144
0.0
144
0.0
144
0.0
144
0.0
144
0.0208333333333333
144
0.0
144
0.0
144
0.0
144
0.0
144
1.0
144
0.0
144
0.0
144
0.0
144
0.0
144
1.0
147
0.0208333333333333
147
0.0
147
0.0
147
0.0
147
0.0
147
0.0208333333333333
147
0.0
147
0.0
147
0.0
147
0.0
147
1.0
147
0.0
147
0.0
147
0.0
147
0.0
147
1.0
  0
MATERIAL
  5
1813
102
{ACAD_XDICTIONARY
360
1814
102
}
102
{ACAD_REACTORS
330
1802
102
}
330
1802
100
AcDbMaterial
  1
Global
 72
     0
 43
0.0208333333333333
 43
0.0
 43
0.0
 43
0.0
 43
0.0
 43
0.0208333333333333
 43
0.0
 43
0.0
 43
0.0
 43
0.0
 43
1.0
 43
0.0
 43
0.0
 43
0.0
 43
0.0
 43
1.0
 77
     0
 47
0.0208333333333333
 47
0.0
 47
0.0
 47
0.0
 47
0.0
 47
0.0208333333333333
 47
0.0
 47
0.0
 47
0.0
 47
0.0
 47
1.0
 47
0.0
 47
0.0
 47
0.0
 47
0.0
 47
1.0
171
     0
 49
0.0208333333333333
 49
0.0
 49
0.0
 49
0.0
 49
0.0
 49
0.0208333333333333
 49
0.0
 49
0.0
 49
0.0
 49
0.0
 49
1.0
 49
0.0
 49
0.0
 49
0.0
 49
0.0
 49
1.0
175
     0
142
0.0208333333333333
142
0.0
142
0.0
142
0.0
142
0.0
142
0.0208333333333333
142
0.0
142
0.0
142
0.0
142
0.0
142
1.0
142
0.0
142
0.0
142
0.0
142
0.0
142
1.0
179
     0
144
0.0208333333333333
144
0.0
144
0.0
144
0.0
144
0.0
144
0.0208333333333333
144
0.0
144
0.0
144
0.0
144
0.0
144
1.0
144
0.0
144
0.0
144
0.0
144
0.0
144
1.0
147
0.0208333333333333
147
0.0
147
0.0
147
0.0
147
0.0
147
0.0208333333333333
147
0.0
147
0.0
147
0.0
147
0.0
147
1.0
147
0.0
147
0.0
147
0.0
147
0.0
147
1.0
  0
MLEADERSTYLE
  5
184A
102
{ACAD_XDICTIONARY
360
3432
102
}
102
{ACAD_REACTORS
330
1849
102
}
330
1849
100
AcDbMLeaderStyle
170
     2
171
     1
172
     0
 90
        2
 40
0.0
 41
0.0
173
     1
 91
-1056964608
340
26
 92
       -2
290
     1
 42
2.0
291
     1
 43
0.36
  3
Standard
 44
4.0
300

342
23
174
     1
178
     6
175
     1
176
     0
 93
-1056964608
 45
4.0
292
     0
297
     0
 46
4.0
 94
-1056964608
 47
1.0
 49
1.0
140
1.0
293
     1
141
0.0
294
     1
177
     0
142
1.0
295
     0
296
     0
143
0.125
1001
ACAD_MLEADERVER
1070
     2
  0
MLINESTYLE
  5
17FD
102
{ACAD_REACTORS
330
17FC
102
}
330
17FC
100
AcDbMlineStyle
  2
STANDARD
 70
     0
  3

 62
     0
 51
90.0
 52
90.0
 71
     2
 49
0.5
 62
   256
  6
BYLAYER
 49
-0.5
 62
   256
  6
BYLAYER
  0
ACDBPLACEHOLDER
  5
1801
102
{ACAD_REACTORS
330
1800
102
}
330
1800
  0
SCALE
  5
1838
102
{ACAD_REACTORS
330
1837
102
}
330
1837
100
AcDbScale
 70
     0
300
1:1
140
1.0
141
1.0
290
     1
  0
SCALE
  5
1839
102
{ACAD_REACTORS
330
1837
102
}
330
1837
100
AcDbScale
 70
     0
300
1:2
140
1.0
141
2.0
290
     0
  0
SCALE
  5
183A
102
{ACAD_REACTORS
330
1837
102
}
330
1837
100
AcDbScale
 70
     0
300
1:4
140
1.0
141
4.0
290
     0
  0
SCALE
  5
183B
102
{ACAD_REACTORS
330
1837
102
}
330
1837
100
AcDbScale
 70
     0
300
1:5
140
1.0
141
5.0
290
     0
  0
SCALE
  5
183C
102
{ACAD_REACTORS
330
1837
102
}
330
1837
100
AcDbScale
 70
     0
300
1:8
140
1.0
141
8.0
290
     0
  0
SCALE
  5
183D
102
{ACAD_REACTORS
330
1837
102
}
330
1837
100
AcDbScale
 70
     0
300
1:10
140
1.0
141
10.0
290
     0
  0
SCALE
  5
183E
102
{ACAD_REACTORS
330
1837
102
}
330
1837
100
AcDbScale
 70
     0
300
1:16
140
1.0
141
16.0
290
     0
  0
SCALE
  5
183F
102
{ACAD_REACTORS
330
1837
102
}
330
1837
100
AcDbScale
 70
     0
300
1:20
140
1.0
141
20.0
290
     0
  0
SCALE
  5
1840
102
{ACAD_REACTORS
330
1837
102
}
330
1837
100
AcDbScale
 70
     0
300
1:30
140
1.0
141
30.0
290
     0
  0
SCALE
  5
1841
102
{ACAD_REACTORS
330
1837
102
}
330
1837
100
AcDbScale
 70
     0
300
1:40
140
1.0
141
40.0
290
     0
  0
SCALE
  5
1842
102
{ACAD_REACTORS
330
1837
102
}
330
1837
100
AcDbScale
 70
     0
300
1:50
140
1.0
141
50.0
290
     0
  0
SCALE
  5
1843
102
{ACAD_REACTORS
330
1837
102
}
330
1837
100
AcDbScale
 70
     0
300
1:100
140
1.0
141
100.0
290
     0
  0
SCALE
  5
1844
102
{ACAD_REACTORS
330
1837
102
}
330
1837
100
AcDbScale
 70
     0
300
2:1
140
2.0
141
1.0
290
     0
  0
SCALE
  5
1845
102
{ACAD_REACTORS
330
1837
102
}
330
1837
100
AcDbScale
 70
     0
300
4:1
140
4.0
141
1.0
290
     0
  0
SCALE
  5
1846
102
{ACAD_REACTORS
330
1837
102
}
330
1837
100
AcDbScale
 70
     0
300
8:1
140
8.0
141
1.0
290
     0
  0
SCALE
  5
1847
102
{ACAD_REACTORS
330
1837
102
}
330
1837
100
AcDbScale
 70
     0
300
10:1
140
10.0
141
1.0
290
     0
  0
SCALE
  5
1848
102
{ACAD_REACTORS
330
1837
102
}
330
1837
100
AcDbScale
 70
     0
300
100:1
140
100.0
141
1.0
290
     0
  0
ACAD_PROXY_OBJECT
  5
33F2
102
{ACAD_REACTORS
330
33F1
102
}
330
33F1
100
AcDbProxyObject
 90
      499
 91
      583
 95
  6815769
 70
     0
 93
     2325
310
9094D65747269633530004B34000000600000000000000002881000000180000000000000000A202229258409E5840A25840A65840B05840B4000000000000001220233000000180009940000006000000000000000028800000000000000A20400000060000000000000000288100000000000005C8080AB44A78B882C6AC
310
C2E440ACD2CAEEA6CAC6E8D2DEDCA6E8C2E4E892C87C4A5A4A78B882C6ACC2E440ACD2CAEEA6CAC6E8D2DEDC8ADCC892C87C4A40504A78B882C6ACC2E440ACD2CAEEA6C6C2D8CA40B8CC40444AE6DC447C4A5201000000180010000001900083A0A729A49998803100000000000000881000000000000008808340C16A22A7
310
D90FC9F8CAE65A70A583A07E1FE81C635378FA1F8CAE65A70A583A17E7944A7F127A97E9FC
340
23
340
0
340
0
340
28
340
28
340
23
 94
        0
  0
TABLESTYLE
  5
1836
102
{ACAD_XDICTIONARY
360
198D
102
}
102
{ACAD_REACTORS
330
1835
102
}
330
1835
100
AcDbTableStyle
  3
Standard
 70
     0
 71
     0
 40
1.5
 41
1.5
280
     0
281
     0
  7
STANDARD
140
4.5
170
     2
 62
     0
 63
     7
283
     0
274
    -2
284
     1
 64
     0
275
    -2
285
     1
 65
     0
276
    -2
286
     1
 66
     0
277
    -2
287
     1
 67
     0
278
    -2
288
     1
 68
     0
279
    -2
289
     1
 69
     0
  7
STANDARD
140
6.0
170
     5
 62
     0
 63
     7
283
     0
274
    -2
284
     1
 64
     0
275
    -2
285
     1
 65
     0
276
    -2
286
     1
 66
     0
277
    -2
287
     1
 67
     0
278
    -2
288
     1
 68
     0
279
    -2
289
     1
 69
     0
  7
STANDARD
140
4.5
170
     5
 62
     0
 63
     7
283
     0
274
    -2
284
     1
 64
     0
275
    -2
285
     1
 65
     0
276
    -2
286
     1
 66
     0
277
    -2
287
     1
 67
     0
278
    -2
288
     1
 68
     0
279
    -2
289
     1
 69
     0
  0
VISUALSTYLE
  5
1821
102
{ACAD_XDICTIONARY
360
340B
102
}
102
{ACAD_REACTORS
330
181B
102
}
330
181B
100
AcDbVisualStyle
  2
2dWireframe
 70
     4
 71
     0
 72
     2
 73
     0
 90
        0
 40
-0.6
 41
-30.0
 62
     5
 63
     7
 74
     1
 91
        4
 64
     7
 65
   257
 75
     1
175
     1
 42
1.0
 92
        0
 66
   257
 43
1.0
 76
     1
 77
     6
 78
     2
 67
     7
 79
     5
170
     0
171
     0
290
     0
174
     0
 93
        1
 44
0.0
173
     0
291
     0
 45
0.0
1001
ACAD
1000
AcDbSavedByObjectVersion
1070
     0
  0
VISUALSTYLE
  5
3439
102
{ACAD_XDICTIONARY
360
344C
102
}
102
{ACAD_REACTORS
330
181B
102
}
330
181B
100
AcDbVisualStyle
  2
3D Hidden
 70
     6
 71
     1
 72
     2
 73
     2
 90
        0
 40
-0.6
 41
-30.0
 62
     5
 63
     7
421
 16777215
 74
     2
 91
        2
 64
     7
 65
   257
 75
     2
175
     1
 42
179.0
 92
        0
 66
   257
 43
1.0
 76
     1
 77
     6
 78
     2
 67
     7
 79
     3
170
     0
171
     0
290
     0
174
     0
 93
        1
 44
0.0
173
     0
291
     0
 45
0.0
1001
ACAD
1000
AcDbSavedByObjectVersion
1070
     0
  0
VISUALSTYLE
  5
3438
102
{ACAD_XDICTIONARY
360
344A
102
}
102
{ACAD_REACTORS
330
181B
102
}
330
181B
100
AcDbVisualStyle
  2
3dWireframe
 70
     5
 71
     0
 72
     2
 73
     0
 90
        0
 40
-0.6
 41
-30.0
 62
     5
 63
     7
421
 16777215
 74
     1
 91
        4
 64
     7
 65
   257
 75
     1
175
     1
 42
1.0
 92
        0
 66
   257
 43
1.0
 76
     1
 77
     6
 78
     2
 67
     7
 79
     5
170
     0
171
     0
290
     0
174
     0
 93
        1
 44
0.0
173
     0
291
     0
 45
0.0
1001
ACAD
1000
AcDbSavedByObjectVersion
1070
     0
  0
VISUALSTYLE
  5
1820
102
{ACAD_XDICTIONARY
360
3409
102
}
102
{ACAD_REACTORS
330
181B
102
}
330
181B
100
AcDbVisualStyle
  2
Basic
 70
     7
 71
     1
 72
     0
 73
     1
 90
        0
 40
-0.6
 41
-30.0
 62
     5
 63
     7
 74
     0
 91
        4
 64
     7
 65
   257
 75
     1
175
     1
 42
1.0
 92
        8
 66
     7
 43
1.0
 76
     1
 77
     6
 78
     2
 67
     7
 79
     5
170
     0
171
     0
290
     0
174
     0
 93
        1
 44
0.0
173
     0
291
     1
 45
0.0
1001
ACAD
1000
AcDbSavedByObjectVersion
1070
     0
  0
VISUALSTYLE
  5
1827
102
{ACAD_XDICTIONARY
360
3417
102
}
102
{ACAD_REACTORS
330
181B
102
}
330
181B
100
AcDbVisualStyle
  2
Brighten
 70
    12
 71
     2
 72
     2
 73
     0
 90
        0
 40
-0.6
 41
-30.0
 62
     5
 63
     7
 74
     1
 91
        4
 64
     7
 65
   257
 75
     1
175
     1
 42
1.0
 92
        8
 66
     7
 43
1.0
 76
     1
 77
     6
 78
     2
 67
     7
 79
     5
170
     0
171
     0
290
     0
174
     0
 93
        1
 44
50.0
173
     0
291
     1
 45
0.0
1001
ACAD
1000
AcDbSavedByObjectVersion
1070
     0
  0
VISUALSTYLE
  5
182B
102
{ACAD_XDICTIONARY
360
341F
102
}
102
{ACAD_REACTORS
330
181B
102
}
330
181B
100
AcDbVisualStyle
  2
ColorChange
 70
    16
 71
     2
 72
     2
 73
     3
 90
        0
 40
-0.6
 41
-30.0
 62
     5
 63
     8
 74
     1
 91
        4
 64
     7
 65
   257
 75
     1
175
     1
 42
1.0
 92
        8
 66
     8
 43
1.0
 76
     1
 77
     6
 78
     2
 67
     7
 79
     5
170
     0
171
     0
290
     0
174
     0
 93
        1
 44
0.0
173
     0
291
     1
 45
0.0
1001
ACAD
1000
AcDbSavedByObjectVersion
1070
     0
  0
VISUALSTYLE
  5
1824
102
{ACAD_XDICTIONARY
360
3411
102
}
102
{ACAD_REACTORS
330
181B
102
}
330
181B
100
AcDbVisualStyle
  2
Conceptual
 70
     9
 71
     3
 72
     2
 73
     0
 90
        0
 40
-0.6
 41
-30.0
 62
     5
 63
     7
 74
     2
 91
        2
 64
     7
 65
   257
 75
     1
175
     1
 42
179.0
 92
        8
 66
     7
 43
1.0
 76
     1
 77
     6
 78
     2
 67
     7
 79
     3
170
     0
171
     0
290
     0
174
     0
 93
        1
 44
0.0
173
     0
291
     0
 45
0.0
1001
ACAD
1000
AcDbSavedByObjectVersion
1070
     0
  0
VISUALSTYLE
  5
1826
102
{ACAD_XDICTIONARY
360
3415
102
}
102
{ACAD_REACTORS
330
181B
102
}
330
181B
100
AcDbVisualStyle
  2
Dim
 70
    11
 71
     2
 72
     2
 73
     0
 90
        0
 40
-0.6
 41
-30.0
 62
     5
 63
     7
 74
     1
 91
        4
 64
     7
 65
   257
 75
     1
175
     1
 42
1.0
 92
        8
 66
     7
 43
1.0
 76
     1
 77
     6
 78
     2
 67
     7
 79
     5
170
     0
171
     0
290
     0
174
     0
 93
        1
 44
-50.0
173
     0
291
     1
 45
0.0
1001
ACAD
1000
AcDbSavedByObjectVersion
1070
     0
  0
VISUALSTYLE
  5
1833
102
{ACAD_XDICTIONARY
360
342F
102
}
102
{ACAD_REACTORS
330
181B
102
}
330
181B
100
AcDbVisualStyle
  2
EdgeColorOff
 70
    22
 71
     2
 72
     2
 73
     0
 90
        0
 40
-0.6
 41
-30.0
 62
     5
 63
     7
 74
     1
 91
        4
 64
     7
 65
   257
 75
     1
175
     1
 42
1.0
 92
        8
 66
     7
 43
1.0
 76
     1
 77
     6
 78
     2
 67
     7
 79
     5
170
     0
171
     0
290
     0
174
     0
 93
        1
 44
0.0
173
     0
291
     1
 45
0.0
1001
ACAD
1000
AcDbSavedByObjectVersion
1070
     0
  0
VISUALSTYLE
  5
182A
102
{ACAD_XDICTIONARY
360
341D
102
}
102
{ACAD_REACTORS
330
181B
102
}
330
181B
100
AcDbVisualStyle
  2
Facepattern
 70
    15
 71
     2
 72
     2
 73
     0
 90
        0
 40
-0.6
 41
-30.0
 62
     5
 63
     7
 74
     1
 91
        4
 64
     7
 65
   257
 75
     1
175
     1
 42
1.0
 92
        8
 66
     7
 43
1.0
 76
     1
 77
     6
 78
     2
 67
     7
 79
     5
170
     0
171
     0
290
     0
174
     0
 93
        1
 44
0.0
173
     0
291
     1
 45
0.0
1001
ACAD
1000
AcDbSavedByObjectVersion
1070
     0
  0
VISUALSTYLE
  5
181C
102
{ACAD_XDICTIONARY
360
3401
102
}
102
{ACAD_REACTORS
330
181B
102
}
330
181B
100
AcDbVisualStyle
  2
Flat
 70
     0
 71
     2
 72
     1
 73
     1
 90
        2
 40
-0.6
 41
30.0
 62
     5
 63
     7
 74
     0
 91
        0
 64
     7
 65
   257
 75
     1
175
     1
 42
1.0
 92
        8
 66
     7
 43
1.0
 76
     1
 77
     6
 78
     2
 67
     7
 79
     5
170
     0
171
     0
290
     0
174
     0
 93
       13
 44
0.0
173
     0
291
     1
 45
0.0
1001
ACAD
1000
AcDbSavedByObjectVersion
1070
     0
  0
VISUALSTYLE
  5
181D
102
{ACAD_XDICTIONARY
360
3403
102
}
102
{ACAD_REACTORS
330
181B
102
}
330
181B
100
AcDbVisualStyle
  2
FlatWithEdges
 70
     1
 71
     2
 72
     1
 73
     1
 90
        2
 40
-0.6
 41
30.0
 62
     5
 63
     7
 74
     1
 91
        0
 64
     7
 65
   257
 75
     1
175
     1
 42
1.0
 92
        0
 66
   257
 43
1.0
 76
     1
 77
     6
 78
     2
 67
     7
 79
     5
170
     0
171
     0
290
     0
174
     0
 93
       13
 44
0.0
173
     0
291
     1
 45
0.0
1001
ACAD
1000
AcDbSavedByObjectVersion
1070
     0
  0
VISUALSTYLE
  5
181E
102
{ACAD_XDICTIONARY
360
3405
102
}
102
{ACAD_REACTORS
330
181B
102
}
330
181B
100
AcDbVisualStyle
  2
Gouraud
 70
     2
 71
     2
 72
     2
 73
     1
 90
        2
 40
-0.6
 41
30.0
 62
     5
 63
     7
 74
     0
 91
        0
 64
     7
 65
   257
 75
     1
175
     1
 42
1.0
 92
        0
 66
     7
 43
1.0
 76
     1
 77
     6
 78
     2
 67
     7
 79
     5
170
     0
171
     0
290
     0
174
     0
 93
       13
 44
0.0
173
     0
291
     1
 45
0.0
1001
ACAD
1000
AcDbSavedByObjectVersion
1070
     0
  0
VISUALSTYLE
  5
181F
102
{ACAD_XDICTIONARY
360
3407
102
}
102
{ACAD_REACTORS
330
181B
102
}
330
181B
100
AcDbVisualStyle
  2
GouraudWithEdges
 70
     3
 71
     2
 72
     2
 73
     1
 90
        2
 40
-0.6
 41
30.0
 62
     5
 63
     7
 74
     1
 91
        0
 64
     7
 65
   257
 75
     1
175
     1
 42
1.0
 92
        0
 66
   257
 43
1.0
 76
     1
 77
     6
 78
     2
 67
     7
 79
     5
170
     0
171
     0
290
     0
174
     0
 93
       13
 44
0.0
173
     0
291
     1
 45
0.0
1001
ACAD
1000
AcDbSavedByObjectVersion
1070
     0
  0
VISUALSTYLE
  5
1823
102
{ACAD_XDICTIONARY
360
340F
102
}
102
{ACAD_REACTORS
330
181B
102
}
330
181B
100
AcDbVisualStyle
  2
Hidden
 70
     6
 71
     1
 72
     2
 73
     2
 90
        0
 40
-0.6
 41
-30.0
 62
     5
 63
     7
 74
     2
 91
        2
 64
     7
 65
   257
 75
     2
175
     1
 42
40.0
 92
        0
 66
   257
 43
1.0
 76
     1
 77
     6
 78
     2
 67
     7
 79
     3
170
     0
171
     0
290
     0
174
     0
 93
        1
 44
0.0
173
     0
291
     0
 45
0.0
1001
ACAD
1000
AcDbSavedByObjectVersion
1070
     0
  0
VISUALSTYLE
  5
1831
102
{ACAD_XDICTIONARY
360
342B
102
}
102
{ACAD_REACTORS
330
181B
102
}
330
181B
100
AcDbVisualStyle
  2
JitterOff
 70
    20
 71
     2
 72
     2
 73
     0
 90
        0
 40
-0.6
 41
-30.0
 62
     5
 63
     7
 74
     1
 91
        4
 64
     7
 65
   257
 75
     1
175
     1
 42
1.0
 92
       10
 66
     7
 43
1.0
 76
     1
 77
     6
 78
     2
 67
     7
 79
     5
170
     0
171
     0
290
     0
174
     0
 93
        1
 44
0.0
173
     0
291
     1
 45
0.0
1001
ACAD
1000
AcDbSavedByObjectVersion
1070
     0
  0
VISUALSTYLE
  5
1829
102
{ACAD_XDICTIONARY
360
341B
102
}
102
{ACAD_REACTORS
330
181B
102
}
330
181B
100
AcDbVisualStyle
  2
Linepattern
 70
    14
 71
     2
 72
     2
 73
     0
 90
        0
 40
-0.6
 41
-30.0
 62
     5
 63
     7
 74
     1
 91
        4
 64
     7
 65
   257
 75
     7
175
     7
 42
1.0
 92
        8
 66
     7
 43
1.0
 76
     1
 77
     6
 78
     2
 67
     7
 79
     5
170
     0
171
     0
290
     0
174
     0
 93
        1
 44
0.0
173
     0
291
     1
 45
0.0
1001
ACAD
1000
AcDbSavedByObjectVersion
1070
     0
  0
VISUALSTYLE
  5
1832
102
{ACAD_XDICTIONARY
360
342D
102
}
102
{ACAD_REACTORS
330
181B
102
}
330
181B
100
AcDbVisualStyle
  2
OverhangOff
 70
    21
 71
     2
 72
     2
 73
     0
 90
        0
 40
-0.6
 41
-30.0
 62
     5
 63
     7
 74
     1
 91
        4
 64
     7
 65
   257
 75
     1
175
     1
 42
1.0
 92
        9
 66
     7
 43
1.0
 76
     1
 77
     6
 78
     2
 67
     7
 79
     5
170
     0
171
     0
290
     0
174
     0
 93
        1
 44
0.0
173
     0
291
     1
 45
0.0
1001
ACAD
1000
AcDbSavedByObjectVersion
1070
     0
  0
VISUALSTYLE
  5
1825
102
{ACAD_XDICTIONARY
360
3413
102
}
102
{ACAD_REACTORS
330
181B
102
}
330
181B
100
AcDbVisualStyle
  2
Realistic
 70
     8
 71
     2
 72
     2
 73
     0
 90
        2
 40
-0.6
 41
30.0
 62
     5
 63
     7
 74
     0
 91
        0
 64
     7
 65
   257
 75
     1
175
     1
 42
1.0
 92
        8
 66
   257
 43
1.0
 76
     1
 77
     6
 78
     2
 67
     7
 79
     3
170
     0
171
     0
290
     0
174
     0
 93
       13
 44
0.0
173
     0
291
     0
 45
0.0
1001
ACAD
1000
AcDbSavedByObjectVersion
1070
     0
  0
VISUALSTYLE
  5
1830
102
{ACAD_XDICTIONARY
360
3429
102
}
102
{ACAD_REACTORS
330
181B
102
}
330
181B
100
AcDbVisualStyle
  2
Shaded
 70
    27
 71
     2
 72
     2
 73
     1
 90
        2
 40
-0.6
 41
30.0
 62
     5
 63
     7
 74
     0
 91
        4
 64
     7
 65
   257
 75
     1
175
     1
 42
1.0
 92
        8
 66
   257
 43
1.0
 76
     1
 77
     6
 78
     2
 67
     8
 79
     3
170
     0
171
     0
290
     0
174
     0
 93
        5
 44
0.0
173
     0
291
     0
 45
0.0
1001
ACAD
1000
AcDbSavedByObjectVersion
1070
     0
  0
VISUALSTYLE
  5
182F
102
{ACAD_XDICTIONARY
360
3427
102
}
102
{ACAD_REACTORS
330
181B
102
}
330
181B
100
AcDbVisualStyle
  2
Shaded with edges
 70
    26
 71
     2
 72
     2
 73
     1
 90
        2
 40
-0.6
 41
30.0
 62
     5
 63
     7
 74
     1
 91
       10
 64
     7
 65
   257
 75
     2
175
     1
 42
1.0
 92
        8
 66
   257
 43
1.0
 76
     1
 77
     6
 78
     2
 67
     7
 79
     3
170
     0
171
     0
290
     0
174
     0
 93
        5
 44
0.0
173
     0
291
     0
 45
0.0
1001
ACAD
1000
AcDbSavedByObjectVersion
1070
     0
  0
VISUALSTYLE
  5
182C
102
{ACAD_XDICTIONARY
360
3421
102
}
102
{ACAD_REACTORS
330
181B
102
}
330
181B
100
AcDbVisualStyle
  2
Shades of Gray
 70
    23
 71
     2
 72
     2
 73
     3
 90
        0
 40
-0.6
 41
-30.0
 62
     5
 63
     7
 74
     2
 91
        2
 64
     7
 65
     7
 75
     1
175
     1
 42
40.0
 92
        8
 66
     7
 43
1.0
 76
     1
 77
     6
 78
     2
 67
     7
 79
     3
170
     0
171
     0
290
     0
174
     0
 93
        1
 44
0.0
173
     0
291
     0
 45
0.0
1001
ACAD
1000
AcDbSavedByObjectVersion
1070
     0
  0
VISUALSTYLE
  5
182D
102
{ACAD_XDICTIONARY
360
3423
102
}
102
{ACAD_REACTORS
330
181B
102
}
330
181B
100
AcDbVisualStyle
  2
Sketchy
 70
    24
 71
     1
 72
     2
 73
     2
 90
        0
 40
-0.6
 41
-30.0
 62
     5
 63
     7
 74
     2
 91
        2
 64
     7
 65
     7
 75
     1
175
     1
 42
40.0
 92
       11
 66
     7
 43
1.0
 76
     1
 77
     6
 78
     2
 67
     7
 79
     6
170
     0
171
     0
290
     0
174
     0
 93
        1
 44
0.0
173
     0
291
     0
 45
0.0
1001
ACAD
1000
AcDbSavedByObjectVersion
1070
     0
  0
VISUALSTYLE
  5
1828
102
{ACAD_XDICTIONARY
360
3419
102
}
102
{ACAD_REACTORS
330
181B
102
}
330
181B
100
AcDbVisualStyle
  2
Thicken
 70
    13
 71
     2
 72
     2
 73
     0
 90
        0
 40
-0.6
 41
-30.0
 62
     5
 63
     7
 74
     1
 91
        4
 64
     7
 65
   257
 75
     1
175
     1
 42
1.0
 92
       12
 66
     7
 43
1.0
 76
     1
 77
     6
 78
     2
 67
     7
 79
     5
170
     0
171
     0
290
     0
174
     0
 93
        1
 44
0.0
173
     0
291
     1
 45
0.0
1001
ACAD
1000
AcDbSavedByObjectVersion
1070
     0
  0
VISUALSTYLE
  5
1822
102
{ACAD_XDICTIONARY
360
340D
102
}
102
{ACAD_REACTORS
330
181B
102
}
330
181B
100
AcDbVisualStyle
  2
Wireframe
 70
     5
 71
     0
 72
     2
 73
     0
 90
        0
 40
-0.6
 41
-30.0
 62
     5
 63
     7
 74
     1
 91
        4
 64
     7
 65
   257
 75
     1
175
     1
 42
1.0
 92
        0
 66
   257
 43
1.0
 76
     1
 77
     6
 78
     2
 67
     7
 79
     3
170
     0
171
     0
290
     0
174
     0
 93
        1
 44
0.0
173
     0
291
     0
 45
0.0
1001
ACAD
1000
AcDbSavedByObjectVersion
1070
     0
  0
VISUALSTYLE
  5
182E
102
{ACAD_XDICTIONARY
360
3425
102
}
102
{ACAD_REACTORS
330
181B
102
}
330
181B
100
AcDbVisualStyle
  2
X-Ray
 70
    25
 71
     2
 72
     2
 73
     1
 90
        1
 40
0.5
 41
-30.0
 62
     5
 63
     7
 74
     1
 91
        0
 64
     7
 65
   257
 75
     1
175
     1
 42
1.0
 92
        8
 66
     7
 43
1.0
 76
     1
 77
     6
 78
     2
 67
     7
 79
     3
170
     0
171
     0
290
     0
174
     0
 93
       13
 44
0.0
173
     0
291
     0
 45
0.0
1001
ACAD
1000
AcDbSavedByObjectVersion
1070
     0
  0
DICTIONARYVAR
  5
19CE
102
{ACAD_REACTORS
330
19CB
102
}
330
19CB
100
DictionaryVariables
280
     0
  1
1:1
  0
DICTIONARYVAR
  5
19CD
102
{ACAD_REACTORS
330
19CB
102
}
330
19CB
100
DictionaryVariables
280
     0
  1
STANDARD
  0
DICTIONARYVAR
  5
19CC
102
{ACAD_REACTORS
330
19CB
102
}
330
19CB
100
DictionaryVariables
280
     0
  1
STANDARD
  0
DICTIONARYVAR
  5
3434
102
{ACAD_REACTORS
330
19CB
102
}
330
19CB
100
DictionaryVariables
280
     0
  1
Metric50
  0
DICTIONARYVAR
  5
3435
102
{ACAD_REACTORS
330
19CB
102
}
330
19CB
100
DictionaryVariables
280
     0
  1
Metric50
  0
DICTIONARYVAR
  5
19D1
102
{ACAD_REACTORS
330
19CB
102
}
330
19CB
100
DictionaryVariables
280
     0
  1
1
  0
DICTIONARYVAR
  5
19D0
102
{ACAD_REACTORS
330
19CB
102
}
330
19CB
100
DictionaryVariables
280
     0
  1
0
  0
DICTIONARYVAR
  5
19CF
102
{ACAD_REACTORS
330
19CB
102
}
330
19CB
100
DictionaryVariables
280
     0
  1
127
  0
DICTIONARYVAR
  5
343D
102
{ACAD_REACTORS
330
19CB
102
}
330
19CB
100
DictionaryVariables
280
     0
  1
2
  0
DICTIONARY
  5
18CA
102
{ACAD_REACTORS
330
18C9
102
}
330
18C9
100
AcDbDictionary
281
     1
  0
DICTIONARY
  5
180C
330
180B
100
AcDbDictionary
280
     1
281
     1
  3
ACAD_XREC_ROUNDTRIP
360
3447
  3
BUMPTILE
360
180E
  3
DIFFUSETILE
360
180D
  3
OPACITYTILE
360
1811
  3
REFLECTIONTILE
360
1810
  3
REFRACTIONTILE
360
1812
  3
SPECULARTILE
360
180F
  0
DICTIONARY
  5
1804
330
1803
100
AcDbDictionary
280
     1
281
     1
  3
ACAD_XREC_ROUNDTRIP
360
3446
  3
BUMPTILE
360
1806
  3
DIFFUSETILE
360
1805
  3
OPACITYTILE
360
1809
  3
REFLECTIONTILE
360
1808
  3
REFRACTIONTILE
360
180A
  3
SPECULARTILE
360
1807
  0
DICTIONARY
  5
1814
330
1813
100
AcDbDictionary
280
     1
281
     1
  3
ACAD_XREC_ROUNDTRIP
360
3448
  3
BUMPTILE
360
1816
  3
DIFFUSETILE
360
1815
  3
OPACITYTILE
360
1819
  3
REFLECTIONTILE
360
1818
  3
REFRACTIONTILE
360
181A
  3
SPECULARTILE
360
1817
  0
DICTIONARY
  5
3432
330
184A
100
AcDbDictionary
280
     1
281
     1
  3
ACAD_XREC_ROUNDTRIP
360
3433
  0
DICTIONARY
  5
198D
330
1836
100
AcDbDictionary
280
     1
281
     1
  3
ACAD_ROUNDTRIP_2008_TABLESTYLE_CELLSTYLEMAP
360
343E
  3
ACAD_XREC_ROUNDTRIP
360
3449
  0
DICTIONARY
  5
340B
330
1821
100
AcDbDictionary
280
     1
281
     1
  3
ACAD_XREC_ROUNDTRIP
360
340C
  0
DICTIONARY
  5
344C
330
3439
100
AcDbDictionary
280
     1
281
     1
  3
ACAD_XREC_ROUNDTRIP
360
344D
  0
DICTIONARY
  5
344A
330
3438
100
AcDbDictionary
280
     1
281
     1
  3
ACAD_XREC_ROUNDTRIP
360
344B
  0
DICTIONARY
  5
3409
330
1820
100
AcDbDictionary
280
     1
281
     1
  3
ACAD_XREC_ROUNDTRIP
360
340A
  0
DICTIONARY
  5
3417
330
1827
100
AcDbDictionary
280
     1
281
     1
  3
ACAD_XREC_ROUNDTRIP
360
3418
  0
DICTIONARY
  5
341F
330
182B
100
AcDbDictionary
280
     1
281
     1
  3
ACAD_XREC_ROUNDTRIP
360
3420
  0
DICTIONARY
  5
3411
330
1824
100
AcDbDictionary
280
     1
281
     1
  3
ACAD_XREC_ROUNDTRIP
360
3412
  0
DICTIONARY
  5
3415
330
1826
100
AcDbDictionary
280
     1
281
     1
  3
ACAD_XREC_ROUNDTRIP
360
3416
  0
DICTIONARY
  5
342F
330
1833
100
AcDbDictionary
280
     1
281
     1
  3
ACAD_XREC_ROUNDTRIP
360
3430
  0
DICTIONARY
  5
341D
330
182A
100
AcDbDictionary
280
     1
281
     1
  3
ACAD_XREC_ROUNDTRIP
360
341E
  0
DICTIONARY
  5
3401
330
181C
100
AcDbDictionary
280
     1
281
     1
  3
ACAD_XREC_ROUNDTRIP
360
3402
  0
DICTIONARY
  5
3403
330
181D
100
AcDbDictionary
280
     1
281
     1
  3
ACAD_XREC_ROUNDTRIP
360
3404
  0
DICTIONARY
  5
3405
330
181E
100
AcDbDictionary
280
     1
281
     1
  3
ACAD_XREC_ROUNDTRIP
360
3406
  0
DICTIONARY
  5
3407
330
181F
100
AcDbDictionary
280
     1
281
     1
  3
ACAD_XREC_ROUNDTRIP
360
3408
  0
DICTIONARY
  5
340F
330
1823
100
AcDbDictionary
280
     1
281
     1
  3
ACAD_XREC_ROUNDTRIP
360
3410
  0
DICTIONARY
  5
342B
330
1831
100
AcDbDictionary
280
     1
281
     1
  3
ACAD_XREC_ROUNDTRIP
360
342C
  0
DICTIONARY
  5
341B
330
1829
100
AcDbDictionary
280
     1
281
     1
  3
ACAD_XREC_ROUNDTRIP
360
341C
  0
DICTIONARY
  5
342D
330
1832
100
AcDbDictionary
280
     1
281
     1
  3
ACAD_XREC_ROUNDTRIP
360
342E
  0
DICTIONARY
  5
3413
330
1825
100
AcDbDictionary
280
     1
281
     1
  3
ACAD_XREC_ROUNDTRIP
360
3414
  0
DICTIONARY
  5
3429
330
1830
100
AcDbDictionary
280
     1
281
     1
  3
ACAD_XREC_ROUNDTRIP
360
342A
  0
DICTIONARY
  5
3427
330
182F
100
AcDbDictionary
280
     1
281
     1
  3
ACAD_XREC_ROUNDTRIP
360
3428
  0
DICTIONARY
  5
3421
330
182C
100
AcDbDictionary
280
     1
281
     1
  3
ACAD_XREC_ROUNDTRIP
360
3422
  0
DICTIONARY
  5
3423
330
182D
100
AcDbDictionary
280
     1
281
     1
  3
ACAD_XREC_ROUNDTRIP
360
3424
  0
DICTIONARY
  5
3419
330
1828
100
AcDbDictionary
280
     1
281
     1
  3
ACAD_XREC_ROUNDTRIP
360
341A
  0
DICTIONARY
  5
340D
330
1822
100
AcDbDictionary
280
     1
281
     1
  3
ACAD_XREC_ROUNDTRIP
360
340E
  0
DICTIONARY
  5
3425
330
182E
100
AcDbDictionary
280
     1
281
     1
  3
ACAD_XREC_ROUNDTRIP
360
3426
  0
XRECORD
  5
3447
102
{ACAD_REACTORS
330
180C
102
}
330
180C
100
AcDbXrecord
280
     1
102
MATERIAL
148
0.0
149
0.0
149
0.0
 93
        0
 94
      127
282
     0
 72
     0
 77
     0
171
     0
175
     0
179
     0
273
     0
  0
XRECORD
  5
180E
102
{ACAD_REACTORS
330
180C
102
}
330
180C
100
AcDbXrecord
280
     1
270
     1
271
     1
  0
XRECORD
  5
180D
102
{ACAD_REACTORS
330
180C
102
}
330
180C
100
AcDbXrecord
280
     1
270
     1
271
     1
  0
XRECORD
  5
1811
102
{ACAD_REACTORS
330
180C
102
}
330
180C
100
AcDbXrecord
280
     1
270
     1
271
     1
  0
XRECORD
  5
1810
102
{ACAD_REACTORS
330
180C
102
}
330
180C
100
AcDbXrecord
280
     1
270
     1
271
     1
  0
XRECORD
  5
1812
102
{ACAD_REACTORS
330
180C
102
}
330
180C
100
AcDbXrecord
280
     1
270
     1
271
     1
  0
XRECORD
  5
180F
102
{ACAD_REACTORS
330
180C
102
}
330
180C
100
AcDbXrecord
280
     1
270
     1
271
     1
  0
XRECORD
  5
3446
102
{ACAD_REACTORS
330
1804
102
}
330
1804
100
AcDbXrecord
280
     1
102
MATERIAL
148
0.0
149
0.0
149
0.0
 93
        0
 94
      127
282
     0
 72
     0
 77
     0
171
     0
175
     0
179
     0
273
     0
  0
XRECORD
  5
1806
102
{ACAD_REACTORS
330
1804
102
}
330
1804
100
AcDbXrecord
280
     1
270
     1
271
     1
  0
XRECORD
  5
1805
102
{ACAD_REACTORS
330
1804
102
}
330
1804
100
AcDbXrecord
280
     1
270
     1
271
     1
  0
XRECORD
  5
1809
102
{ACAD_REACTORS
330
1804
102
}
330
1804
100
AcDbXrecord
280
     1
270
     1
271
     1
  0
XRECORD
  5
1808
102
{ACAD_REACTORS
330
1804
102
}
330
1804
100
AcDbXrecord
280
     1
270
     1
271
     1
  0
XRECORD
  5
180A
102
{ACAD_REACTORS
330
1804
102
}
330
1804
100
AcDbXrecord
280
     1
270
     1
271
     1
  0
XRECORD
  5
1807
102
{ACAD_REACTORS
330
1804
102
}
330
1804
100
AcDbXrecord
280
     1
270
     1
271
     1
  0
XRECORD
  5
3448
102
{ACAD_REACTORS
330
1814
102
}
330
1814
100
AcDbXrecord
280
     1
102
MATERIAL
148
0.0
149
0.0
149
0.0
 93
        0
 94
      127
282
     0
 72
     0
 77
     0
171
     0
175
     0
179
     0
273
     0
  0
XRECORD
  5
1816
102
{ACAD_REACTORS
330
1814
102
}
330
1814
100
AcDbXrecord
280
     1
270
     1
271
     1
  0
XRECORD
  5
1815
102
{ACAD_REACTORS
330
1814
102
}
330
1814
100
AcDbXrecord
280
     1
270
     1
271
     1
  0
XRECORD
  5
1819
102
{ACAD_REACTORS
330
1814
102
}
330
1814
100
AcDbXrecord
280
     1
270
     1
271
     1
  0
XRECORD
  5
1818
102
{ACAD_REACTORS
330
1814
102
}
330
1814
100
AcDbXrecord
280
     1
270
     1
271
     1
  0
XRECORD
  5
181A
102
{ACAD_REACTORS
330
1814
102
}
330
1814
100
AcDbXrecord
280
     1
270
     1
271
     1
  0
XRECORD
  5
1817
102
{ACAD_REACTORS
330
1814
102
}
330
1814
100
AcDbXrecord
280
     1
270
     1
271
     1
  0
XRECORD
  5
3433
102
{ACAD_REACTORS
330
3432
102
}
330
3432
100
AcDbXrecord
280
     1
102
ACAD_ROUNDTRIP_2012_MLEADER_STYLE
298
     1
  0
CELLSTYLEMAP
  5
343E
102
{ACAD_REACTORS
330
198D
102
}
330
198D
100
AcDbCellStyleMap
 90
        3
300
CELLSTYLE
  1
TABLEFORMAT_BEGIN
 90
        5
170
     1
 91
        0
 92
    32768
 62
   257
 93
        1
300
CONTENTFORMAT
  1
CONTENTFORMAT_BEGIN
 90
        0
 91
        0
 92
      512
 93
        0
300

 40
0.0
140
1.0
 94
        5
 62
     0
340
23
144
6.0
309
CONTENTFORMAT_END
171
     1
301
MARGIN
  1
CELLMARGIN_BEGIN
 40
1.5
 40
1.5
 40
1.5
 40
1.5
 40
4.5
 40
4.5
309
CELLMARGIN_END
 94
        6
 95
        1
302
GRIDFORMAT
  1
GRIDFORMAT_BEGIN
 90
        0
 91
        1
 62
     0
 92
       -2
340
0
 93
        0
 40
1.125
309
GRIDFORMAT_END
 95
        2
302
GRIDFORMAT
  1
GRIDFORMAT_BEGIN
 90
        0
 91
        1
 62
     0
 92
       -2
340
0
 93
        0
 40
1.125
309
GRIDFORMAT_END
 95
        4
302
GRIDFORMAT
  1
GRIDFORMAT_BEGIN
 90
        0
 91
        1
 62
     0
 92
       -2
340
0
 93
        0
 40
1.125
309
GRIDFORMAT_END
 95
        8
302
GRIDFORMAT
  1
GRIDFORMAT_BEGIN
 90
        0
 91
        1
 62
     0
 92
       -2
340
0
 93
        0
 40
1.125
309
GRIDFORMAT_END
 95
       16
302
GRIDFORMAT
  1
GRIDFORMAT_BEGIN
 90
        0
 91
        1
 62
     0
 92
       -2
340
0
 93
        0
 40
1.125
309
GRIDFORMAT_END
 95
       32
302
GRIDFORMAT
  1
GRIDFORMAT_BEGIN
 90
        0
 91
        1
 62
     0
 92
       -2
340
0
 93
        0
 40
1.125
309
GRIDFORMAT_END
309
TABLEFORMAT_END
  1
CELLSTYLE_BEGIN
 90
        1
 91
        1
300
_TITLE
309
CELLSTYLE_END
300
CELLSTYLE
  1
TABLEFORMAT_BEGIN
 90
        5
170
     1
 91
        0
 92
        0
 62
   257
 93
        1
300
CONTENTFORMAT
  1
CONTENTFORMAT_BEGIN
 90
        0
 91
        0
 92
      512
 93
        0
300

 40
0.0
140
1.0
 94
        5
 62
     0
340
23
144
4.5
309
CONTENTFORMAT_END
171
     1
301
MARGIN
  1
CELLMARGIN_BEGIN
 40
1.5
 40
1.5
 40
1.5
 40
1.5
 40
4.5
 40
4.5
309
CELLMARGIN_END
 94
        6
 95
        1
302
GRIDFORMAT
  1
GRIDFORMAT_BEGIN
 90
        0
 91
        1
 62
     0
 92
       -2
340
0
 93
        0
 40
1.125
309
GRIDFORMAT_END
 95
        2
302
GRIDFORMAT
  1
GRIDFORMAT_BEGIN
 90
        0
 91
        1
 62
     0
 92
       -2
340
0
 93
        0
 40
1.125
309
GRIDFORMAT_END
 95
        4
302
GRIDFORMAT
  1
GRIDFORMAT_BEGIN
 90
        0
 91
        1
 62
     0
 92
       -2
340
0
 93
        0
 40
1.125
309
GRIDFORMAT_END
 95
        8
302
GRIDFORMAT
  1
GRIDFORMAT_BEGIN
 90
        0
 91
        1
 62
     0
 92
       -2
340
0
 93
        0
 40
1.125
309
GRIDFORMAT_END
 95
       16
302
GRIDFORMAT
  1
GRIDFORMAT_BEGIN
 90
        0
 91
        1
 62
     0
 92
       -2
340
0
 93
        0
 40
1.125
309
GRIDFORMAT_END
 95
       32
302
GRIDFORMAT
  1
GRIDFORMAT_BEGIN
 90
        0
 91
        1
 62
     0
 92
       -2
340
0
 93
        0
 40
1.125
309
GRIDFORMAT_END
309
TABLEFORMAT_END
  1
CELLSTYLE_BEGIN
 90
        2
 91
        1
300
_HEADER
309
CELLSTYLE_END
300
CELLSTYLE
  1
TABLEFORMAT_BEGIN
 90
        5
170
     1
 91
        0
 92
        0
 62
   257
 93
        1
300
CONTENTFORMAT
  1
CONTENTFORMAT_BEGIN
 90
        0
 91
        0
 92
      512
 93
        0
300

 40
0.0
140
1.0
 94
        2
 62
     0
340
23
144
4.5
309
CONTENTFORMAT_END
171
     1
301
MARGIN
  1
CELLMARGIN_BEGIN
 40
1.5
 40
1.5
 40
1.5
 40
1.5
 40
4.5
 40
4.5
309
CELLMARGIN_END
 94
        6
 95
        1
302
GRIDFORMAT
  1
GRIDFORMAT_BEGIN
 90
        0
 91
        1
 62
     0
 92
       -2
340
0
 93
        0
 40
1.125
309
GRIDFORMAT_END
 95
        2
302
GRIDFORMAT
  1
GRIDFORMAT_BEGIN
 90
        0
 91
        1
 62
     0
 92
       -2
340
0
 93
        0
 40
1.125
309
GRIDFORMAT_END
 95
        4
302
GRIDFORMAT
  1
GRIDFORMAT_BEGIN
 90
        0
 91
        1
 62
     0
 92
       -2
340
0
 93
        0
 40
1.125
309
GRIDFORMAT_END
 95
        8
302
GRIDFORMAT
  1
GRIDFORMAT_BEGIN
 90
        0
 91
        1
 62
     0
 92
       -2
340
0
 93
        0
 40
1.125
309
GRIDFORMAT_END
 95
       16
302
GRIDFORMAT
  1
GRIDFORMAT_BEGIN
 90
        0
 91
        1
 62
     0
 92
       -2
340
0
 93
        0
 40
1.125
309
GRIDFORMAT_END
 95
       32
302
GRIDFORMAT
  1
GRIDFORMAT_BEGIN
 90
        0
 91
        1
 62
     0
 92
       -2
340
0
 93
        0
 40
1.125
309
GRIDFORMAT_END
309
TABLEFORMAT_END
  1
CELLSTYLE_BEGIN
 90
        3
 91
        2
300
_DATA
309
CELLSTYLE_END
  0
XRECORD
  5
3449
102
{ACAD_REACTORS
330
198D
102
}
330
198D
100
AcDbXrecord
280
     1
102
ACAD_ROUNDTRIP_PRE2007_TABLESTYLE
 90
      512
 91
        0
  1

 92
      512
 93
        0
  2

 94
      512
 95
        0
  3

  0
XRECORD
  5
340C
102
{ACAD_REACTORS
330
340B
102
}
330
340B
100
AcDbXrecord
280
     1
102
RTVSPost2010Prop28
280
     1
102
RTVSPost2010PropOp28
 70
     1
102
RTVSPost2010Prop29
280
     1
102
RTVSPost2010PropOp29
 70
     1
102
RTVSPost2010Prop30
280
     0
102
RTVSPost2010PropOp30
 70
     1
102
RTVSPost2010Prop31
280
     0
102
RTVSPost2010PropOp31
 70
     1
102
RTVSPost2010Prop32
280
     0
102
RTVSPost2010PropOp32
 70
     1
102
RTVSPost2010Prop33
280
     0
102
RTVSPost2010PropOp33
 70
     1
102
RTVSPost2010Prop34
280
     0
102
RTVSPost2010PropOp34
 70
     1
102
RTVSPost2010Prop35
280
     0
102
RTVSPost2010PropOp35
 70
     1
102
RTVSPost2010Prop36
280
     0
102
RTVSPost2010PropOp36
 70
     1
102
RTVSPost2010Prop37
 90
       50
102
RTVSPost2010PropOp37
 70
     1
102
RTVSPost2010Prop38
140
0.0
102
RTVSPost2010PropOp38
 70
     1
102
RTVSPost2010Prop39
140
1.0
102
RTVSPost2010PropOp39
 70
     1
102
RTVSPost2010Prop40
 90
        0
102
RTVSPost2010PropOp40
 70
     1
102
RTVSPost2010Prop41ColorIndex
 90
       18
102
RTVSPost2010Prop41ColorRGB
 90
        0
102
RTVSPost2010PropOp41
 70
     1
102
RTVSPost2010Prop42
 90
       50
102
RTVSPost2010PropOp42
 70
     1
102
RTVSPost2010Prop43
 90
        3
102
RTVSPost2010PropOp43
 70
     1
102
RTVSPost2010Prop44ColorIndex
 90
        5
102
RTVSPost2010Prop44ColorRGB
 90
      255
102
RTVSPost2010PropOp44
 70
     1
102
RTVSPost2010Prop45
280
     0
102
RTVSPost2010PropOp45
 70
     1
102
RTVSPost2010Prop46
 90
       50
102
RTVSPost2010PropOp46
 70
     1
102
RTVSPost2010Prop47
 90
       50
102
RTVSPost2010PropOp47
 70
     1
102
RTVSPost2010Prop48
 90
       50
102
RTVSPost2010PropOp48
 70
     1
102
RTVSPost2010Prop49
280
     0
102
RTVSPost2010PropOp49
 70
     1
102
RTVSPost2010Prop50
 90
       50
102
RTVSPost2010PropOp50
 70
     1
102
RTVSPost2010Prop51ColorIndex
 90
      256
102
RTVSPost2010Prop51ColorRGB
 90
-16777216
102
RTVSPost2010PropOp51
 70
     0
102
RTVSPost2010Prop52
140
1.0
102
RTVSPost2010PropOp52
 70
     0
102
RTVSPost2010Prop53
 90
        2
102
RTVSPost2010PropOp53
 70
     1
102
RTVSPost2010Prop54
  1
strokes_ogs.tif
102
RTVSPost2010PropOp54
 70
     1
102
RTVSPost2010Prop55
280
     0
102
RTVSPost2010PropOp55
 70
     1
102
RTVSPost2010Prop56
140
1.0
102
RTVSPost2010PropOp56
 70
     1
102
RTVSPost2010Prop57
140
1.0
102
RTVSPost2010PropOp57
 70
     1
102
RTVSPropertyOp28
 70
     1
102
RTVSPropertyOp29
 70
     1
102
RTVSPropertyOp30
 70
     1
102
RTVSPropertyOp31
 70
     1
102
RTVSPropertyOp32
 70
     1
102
RTVSPropertyOp33
 70
     1
102
RTVSPropertyOp34
 70
     1
102
RTVSPropertyOp35
 70
     1
102
RTVSPropertyOp36
 70
     1
102
RTVSPropertyOp37
 70
     1
102
RTVSPropertyOp38
 70
     1
102
RTVSPropertyOp39
 70
     1
102
RTVSPropertyOp40
 70
     1
102
RTVSPropertyOp41
 70
     1
102
RTVSPropertyOp42
 70
     1
102
RTVSPropertyOp43
 70
     1
102
RTVSPropertyOp44
 70
     1
102
RTVSPropertyOp45
 70
     1
102
RTVSPropertyOp46
 70
     1
102
RTVSPropertyOp47
 70
     1
102
RTVSPropertyOp48
 70
     1
102
RTVSPropertyOp49
 70
     1
102
RTVSPropertyOp50
 70
     1
102
RTVSPropertyOp51
 70
     0
102
RTVSPropertyOp52
 70
     0
102
RTVSPropertyOp53
 70
     1
102
RTVSPropertyOp54
 70
     1
102
RTVSPropertyOp55
 70
     1
102
RTVSPropertyOp56
 70
     1
102
RTVSPropertyOp57
 70
     1
102
RTVSPropertyOp58
 70
     1
102
RTVSPropertyOp59
 70
     1
102
RTVSPropertyOp60
 70
     1
102
RTVSPropertyOp61
 70
     1
102
RTVSPropertyOp62
 70
     1
102
RTVSPropertyOp0
 70
     1
102
RTVSPropertyOp1
 70
     1
102
RTVSPropertyOp2
 70
     1
102
RTVSPropertyOp3
 70
     1
102
RTVSPropertyOp4
 70
     1
102
RTVSPropertyOp5
 70
     1
102
RTVSPropertyOp6
 70
     1
102
RTVSPropertyOp7
 70
     1
102
RTVSPropertyOp8
 70
     1
102
RTVSPropertyOp9
 70
     1
102
RTVSPropertyOp10
 70
     1
102
RTVSPropertyOp11
 70
     1
102
RTVSPropertyOp12
 70
     1
102
RTVSPropertyOp13
 70
     1
102
RTVSPropertyOp14
 70
     1
102
RTVSPropertyOp15
 70
     1
102
RTVSPropertyOp16
 70
     1
102
RTVSPropertyOp17
 70
     1
102
RTVSPropertyOp18
 70
     1
102
RTVSPropertyOp19
 70
     1
102
RTVSPropertyOp20
 70
     1
102
RTVSPropertyOp21
 70
     1
102
RTVSPropertyOp22
 70
     1
102
RTVSPropertyOp23
 70
     1
102
RTVSPropertyOp24
 70
     1
102
RTVSPropertyOp25
 70
     1
102
RTVSPropertyOp26
 70
     1
102
RTVSPropertyOp27
 70
     1
  0
XRECORD
  5
344D
102
{ACAD_REACTORS
330
344C
102
}
330
344C
100
AcDbXrecord
280
     1
102
RTVSPropertyOp0
 70
     1
102
RTVSPropertyOp1
 70
     1
102
RTVSPropertyOp2
 70
     1
102
RTVSPropertyOp3
 70
     1
102
RTVSPropertyOp4
 70
     1
102
RTVSPropertyOp5
 70
     1
102
RTVSPropertyOp6
 70
     1
102
RTVSPropertyOp7
 70
     1
102
RTVSPropertyOp8
 70
     1
102
RTVSPropertyOp9
 70
     1
102
RTVSPropertyOp10
 70
     1
102
RTVSPropertyOp11
 70
     1
102
RTVSPropertyOp12
 70
     1
102
RTVSPropertyOp13
 70
     1
102
RTVSPropertyOp14
 70
     1
102
RTVSPropertyOp15
 70
     1
102
RTVSPropertyOp16
 70
     1
102
RTVSPropertyOp17
 70
     1
102
RTVSPropertyOp18
 70
     1
102
RTVSPropertyOp19
 70
     1
102
RTVSPropertyOp20
 70
     1
102
RTVSPropertyOp21
 70
     1
102
RTVSPropertyOp22
 70
     1
102
RTVSPropertyOp23
 70
     1
102
RTVSPropertyOp24
 70
     1
102
RTVSPropertyOp25
 70
     1
102
RTVSPropertyOp26
 70
     1
102
RTVSPropertyOp27
 70
     1
  0
XRECORD
  5
344B
102
{ACAD_REACTORS
330
344A
102
}
330
344A
100
AcDbXrecord
280
     1
102
RTVSPropertyOp0
 70
     1
102
RTVSPropertyOp1
 70
     1
102
RTVSPropertyOp2
 70
     1
102
RTVSPropertyOp3
 70
     1
102
RTVSPropertyOp4
 70
     1
102
RTVSPropertyOp5
 70
     1
102
RTVSPropertyOp6
 70
     1
102
RTVSPropertyOp7
 70
     1
102
RTVSPropertyOp8
 70
     1
102
RTVSPropertyOp9
 70
     1
102
RTVSPropertyOp10
 70
     1
102
RTVSPropertyOp11
 70
     1
102
RTVSPropertyOp12
 70
     1
102
RTVSPropertyOp13
 70
     1
102
RTVSPropertyOp14
 70
     1
102
RTVSPropertyOp15
 70
     1
102
RTVSPropertyOp16
 70
     1
102
RTVSPropertyOp17
 70
     1
102
RTVSPropertyOp18
 70
     1
102
RTVSPropertyOp19
 70
     1
102
RTVSPropertyOp20
 70
     1
102
RTVSPropertyOp21
 70
     1
102
RTVSPropertyOp22
 70
     1
102
RTVSPropertyOp23
 70
     1
102
RTVSPropertyOp24
 70
     1
102
RTVSPropertyOp25
 70
     1
102
RTVSPropertyOp26
 70
     1
102
RTVSPropertyOp27
 70
     1
  0
XRECORD
  5
340A
102
{ACAD_REACTORS
330
3409
102
}
330
3409
100
AcDbXrecord
280
     1
102
RTVSPost2010Prop28
280
     0
102
RTVSPost2010PropOp28
 70
     1
102
RTVSPost2010Prop29
280
     1
102
RTVSPost2010PropOp29
 70
     1
102
RTVSPost2010Prop30
280
     1
102
RTVSPost2010PropOp30
 70
     1
102
RTVSPost2010Prop31
280
     0
102
RTVSPost2010PropOp31
 70
     1
102
RTVSPost2010Prop32
280
     0
102
RTVSPost2010PropOp32
 70
     1
102
RTVSPost2010Prop33
280
     0
102
RTVSPost2010PropOp33
 70
     1
102
RTVSPost2010Prop34
280
     0
102
RTVSPost2010PropOp34
 70
     1
102
RTVSPost2010Prop35
280
     0
102
RTVSPost2010PropOp35
 70
     1
102
RTVSPost2010Prop36
280
     0
102
RTVSPost2010PropOp36
 70
     1
102
RTVSPost2010Prop37
 90
       50
102
RTVSPost2010PropOp37
 70
     1
102
RTVSPost2010Prop38
140
0.0
102
RTVSPost2010PropOp38
 70
     1
102
RTVSPost2010Prop39
140
1.0
102
RTVSPost2010PropOp39
 70
     1
102
RTVSPost2010Prop40
 90
        0
102
RTVSPost2010PropOp40
 70
     1
102
RTVSPost2010Prop41ColorIndex
 90
       18
102
RTVSPost2010Prop41ColorRGB
 90
        0
102
RTVSPost2010PropOp41
 70
     1
102
RTVSPost2010Prop42
 90
       50
102
RTVSPost2010PropOp42
 70
     1
102
RTVSPost2010Prop43
 90
        3
102
RTVSPost2010PropOp43
 70
     1
102
RTVSPost2010Prop44ColorIndex
 90
        5
102
RTVSPost2010Prop44ColorRGB
 90
      255
102
RTVSPost2010PropOp44
 70
     1
102
RTVSPost2010Prop45
280
     0
102
RTVSPost2010PropOp45
 70
     1
102
RTVSPost2010Prop46
 90
       50
102
RTVSPost2010PropOp46
 70
     1
102
RTVSPost2010Prop47
 90
       50
102
RTVSPost2010PropOp47
 70
     1
102
RTVSPost2010Prop48
 90
       50
102
RTVSPost2010PropOp48
 70
     1
102
RTVSPost2010Prop49
280
     0
102
RTVSPost2010PropOp49
 70
     1
102
RTVSPost2010Prop50
 90
       50
102
RTVSPost2010PropOp50
 70
     1
102
RTVSPost2010Prop51ColorIndex
 90
      256
102
RTVSPost2010Prop51ColorRGB
 90
-16777216
102
RTVSPost2010PropOp51
 70
     0
102
RTVSPost2010Prop52
140
1.0
102
RTVSPost2010PropOp52
 70
     0
102
RTVSPost2010Prop53
 90
        2
102
RTVSPost2010PropOp53
 70
     1
102
RTVSPost2010Prop54
  1
strokes_ogs.tif
102
RTVSPost2010PropOp54
 70
     1
102
RTVSPost2010Prop55
280
     0
102
RTVSPost2010PropOp55
 70
     1
102
RTVSPost2010Prop56
140
1.0
102
RTVSPost2010PropOp56
 70
     1
102
RTVSPost2010Prop57
140
1.0
102
RTVSPost2010PropOp57
 70
     1
102
RTVSPropertyOp28
 70
     1
102
RTVSPropertyOp29
 70
     1
102
RTVSPropertyOp30
 70
     1
102
RTVSPropertyOp31
 70
     1
102
RTVSPropertyOp32
 70
     1
102
RTVSPropertyOp33
 70
     1
102
RTVSPropertyOp34
 70
     1
102
RTVSPropertyOp35
 70
     1
102
RTVSPropertyOp36
 70
     1
102
RTVSPropertyOp37
 70
     1
102
RTVSPropertyOp38
 70
     1
102
RTVSPropertyOp39
 70
     1
102
RTVSPropertyOp40
 70
     1
102
RTVSPropertyOp41
 70
     1
102
RTVSPropertyOp42
 70
     1
102
RTVSPropertyOp43
 70
     1
102
RTVSPropertyOp44
 70
     1
102
RTVSPropertyOp45
 70
     1
102
RTVSPropertyOp46
 70
     1
102
RTVSPropertyOp47
 70
     1
102
RTVSPropertyOp48
 70
     1
102
RTVSPropertyOp49
 70
     1
102
RTVSPropertyOp50
 70
     1
102
RTVSPropertyOp51
 70
     0
102
RTVSPropertyOp52
 70
     0
102
RTVSPropertyOp53
 70
     1
102
RTVSPropertyOp54
 70
     1
102
RTVSPropertyOp55
 70
     1
102
RTVSPropertyOp56
 70
     1
102
RTVSPropertyOp57
 70
     1
102
RTVSPropertyOp58
 70
     1
102
RTVSPropertyOp59
 70
     1
102
RTVSPropertyOp60
 70
     1
102
RTVSPropertyOp61
 70
     1
102
RTVSPropertyOp62
 70
     1
102
RTVSPropertyOp0
 70
     1
102
RTVSPropertyOp1
 70
     1
102
RTVSPropertyOp2
 70
     1
102
RTVSPropertyOp3
 70
     1
102
RTVSPropertyOp4
 70
     1
102
RTVSPropertyOp5
 70
     1
102
RTVSPropertyOp6
 70
     1
102
RTVSPropertyOp7
 70
     1
102
RTVSPropertyOp8
 70
     1
102
RTVSPropertyOp9
 70
     1
102
RTVSPropertyOp10
 70
     1
102
RTVSPropertyOp11
 70
     1
102
RTVSPropertyOp12
 70
     1
102
RTVSPropertyOp13
 70
     1
102
RTVSPropertyOp14
 70
     1
102
RTVSPropertyOp15
 70
     1
102
RTVSPropertyOp16
 70
     1
102
RTVSPropertyOp17
 70
     1
102
RTVSPropertyOp18
 70
     1
102
RTVSPropertyOp19
 70
     1
102
RTVSPropertyOp20
 70
     1
102
RTVSPropertyOp21
 70
     1
102
RTVSPropertyOp22
 70
     1
102
RTVSPropertyOp23
 70
     1
102
RTVSPropertyOp24
 70
     1
102
RTVSPropertyOp25
 70
     1
102
RTVSPropertyOp26
 70
     1
102
RTVSPropertyOp27
 70
     1
  0
XRECORD
  5
3418
102
{ACAD_REACTORS
330
3417
102
}
330
3417
100
AcDbXrecord
280
     1
102
RTVSPost2010Prop28
280
     0
102
RTVSPost2010PropOp28
 70
     1
102
RTVSPost2010Prop29
280
     1
102
RTVSPost2010PropOp29
 70
     1
102
RTVSPost2010Prop30
280
     1
102
RTVSPost2010PropOp30
 70
     1
102
RTVSPost2010Prop31
280
     0
102
RTVSPost2010PropOp31
 70
     1
102
RTVSPost2010Prop32
280
     0
102
RTVSPost2010PropOp32
 70
     1
102
RTVSPost2010Prop33
280
     0
102
RTVSPost2010PropOp33
 70
     1
102
RTVSPost2010Prop34
280
     0
102
RTVSPost2010PropOp34
 70
     1
102
RTVSPost2010Prop35
280
     0
102
RTVSPost2010PropOp35
 70
     1
102
RTVSPost2010Prop36
280
     0
102
RTVSPost2010PropOp36
 70
     1
102
RTVSPost2010Prop37
 90
       50
102
RTVSPost2010PropOp37
 70
     1
102
RTVSPost2010Prop38
140
0.0
102
RTVSPost2010PropOp38
 70
     1
102
RTVSPost2010Prop39
140
1.0
102
RTVSPost2010PropOp39
 70
     1
102
RTVSPost2010Prop40
 90
        0
102
RTVSPost2010PropOp40
 70
     1
102
RTVSPost2010Prop41ColorIndex
 90
       18
102
RTVSPost2010Prop41ColorRGB
 90
        0
102
RTVSPost2010PropOp41
 70
     1
102
RTVSPost2010Prop42
 90
       50
102
RTVSPost2010PropOp42
 70
     1
102
RTVSPost2010Prop43
 90
        3
102
RTVSPost2010PropOp43
 70
     1
102
RTVSPost2010Prop44ColorIndex
 90
        5
102
RTVSPost2010Prop44ColorRGB
 90
      255
102
RTVSPost2010PropOp44
 70
     1
102
RTVSPost2010Prop45
280
     0
102
RTVSPost2010PropOp45
 70
     1
102
RTVSPost2010Prop46
 90
       50
102
RTVSPost2010PropOp46
 70
     1
102
RTVSPost2010Prop47
 90
       50
102
RTVSPost2010PropOp47
 70
     1
102
RTVSPost2010Prop48
 90
       50
102
RTVSPost2010PropOp48
 70
     1
102
RTVSPost2010Prop49
280
     0
102
RTVSPost2010PropOp49
 70
     1
102
RTVSPost2010Prop50
 90
       50
102
RTVSPost2010PropOp50
 70
     1
102
RTVSPost2010Prop51ColorIndex
 90
      256
102
RTVSPost2010Prop51ColorRGB
 90
-16777216
102
RTVSPost2010PropOp51
 70
     0
102
RTVSPost2010Prop52
140
1.0
102
RTVSPost2010PropOp52
 70
     0
102
RTVSPost2010Prop53
 90
        2
102
RTVSPost2010PropOp53
 70
     1
102
RTVSPost2010Prop54
  1
strokes_ogs.tif
102
RTVSPost2010PropOp54
 70
     1
102
RTVSPost2010Prop55
280
     0
102
RTVSPost2010PropOp55
 70
     1
102
RTVSPost2010Prop56
140
1.0
102
RTVSPost2010PropOp56
 70
     1
102
RTVSPost2010Prop57
140
1.0
102
RTVSPost2010PropOp57
 70
     1
102
RTVSPropertyOp28
 70
     1
102
RTVSPropertyOp29
 70
     1
102
RTVSPropertyOp30
 70
     1
102
RTVSPropertyOp31
 70
     1
102
RTVSPropertyOp32
 70
     1
102
RTVSPropertyOp33
 70
     1
102
RTVSPropertyOp34
 70
     1
102
RTVSPropertyOp35
 70
     1
102
RTVSPropertyOp36
 70
     1
102
RTVSPropertyOp37
 70
     1
102
RTVSPropertyOp38
 70
     1
102
RTVSPropertyOp39
 70
     1
102
RTVSPropertyOp40
 70
     1
102
RTVSPropertyOp41
 70
     1
102
RTVSPropertyOp42
 70
     1
102
RTVSPropertyOp43
 70
     1
102
RTVSPropertyOp44
 70
     1
102
RTVSPropertyOp45
 70
     1
102
RTVSPropertyOp46
 70
     1
102
RTVSPropertyOp47
 70
     1
102
RTVSPropertyOp48
 70
     1
102
RTVSPropertyOp49
 70
     1
102
RTVSPropertyOp50
 70
     1
102
RTVSPropertyOp51
 70
     0
102
RTVSPropertyOp52
 70
     0
102
RTVSPropertyOp53
 70
     1
102
RTVSPropertyOp54
 70
     1
102
RTVSPropertyOp55
 70
     1
102
RTVSPropertyOp56
 70
     1
102
RTVSPropertyOp57
 70
     1
102
RTVSPropertyOp58
 70
     1
102
RTVSPropertyOp59
 70
     1
102
RTVSPropertyOp60
 70
     1
102
RTVSPropertyOp61
 70
     1
102
RTVSPropertyOp62
 70
     1
102
RTVSPropertyOp0
 70
     1
102
RTVSPropertyOp1
 70
     1
102
RTVSPropertyOp2
 70
     1
102
RTVSPropertyOp3
 70
     1
102
RTVSPropertyOp4
 70
     1
102
RTVSPropertyOp5
 70
     1
102
RTVSPropertyOp6
 70
     1
102
RTVSPropertyOp7
 70
     1
102
RTVSPropertyOp8
 70
     1
102
RTVSPropertyOp9
 70
     1
102
RTVSPropertyOp10
 70
     1
102
RTVSPropertyOp11
 70
     1
102
RTVSPropertyOp12
 70
     1
102
RTVSPropertyOp13
 70
     1
102
RTVSPropertyOp14
 70
     1
102
RTVSPropertyOp15
 70
     1
102
RTVSPropertyOp16
 70
     1
102
RTVSPropertyOp17
 70
     1
102
RTVSPropertyOp18
 70
     1
102
RTVSPropertyOp19
 70
     1
102
RTVSPropertyOp20
 70
     1
102
RTVSPropertyOp21
 70
     1
102
RTVSPropertyOp22
 70
     1
102
RTVSPropertyOp23
 70
     1
102
RTVSPropertyOp24
 70
     1
102
RTVSPropertyOp25
 70
     1
102
RTVSPropertyOp26
 70
     1
102
RTVSPropertyOp27
 70
     1
  0
XRECORD
  5
3420
102
{ACAD_REACTORS
330
341F
102
}
330
341F
100
AcDbXrecord
280
     1
102
RTVSPost2010Prop28
280
     0
102
RTVSPost2010PropOp28
 70
     1
102
RTVSPost2010Prop29
280
     1
102
RTVSPost2010PropOp29
 70
     1
102
RTVSPost2010Prop30
280
     1
102
RTVSPost2010PropOp30
 70
     1
102
RTVSPost2010Prop31
280
     0
102
RTVSPost2010PropOp31
 70
     1
102
RTVSPost2010Prop32
280
     0
102
RTVSPost2010PropOp32
 70
     1
102
RTVSPost2010Prop33
280
     0
102
RTVSPost2010PropOp33
 70
     1
102
RTVSPost2010Prop34
280
     0
102
RTVSPost2010PropOp34
 70
     1
102
RTVSPost2010Prop35
280
     0
102
RTVSPost2010PropOp35
 70
     1
102
RTVSPost2010Prop36
280
     0
102
RTVSPost2010PropOp36
 70
     1
102
RTVSPost2010Prop37
 90
       50
102
RTVSPost2010PropOp37
 70
     1
102
RTVSPost2010Prop38
140
0.0
102
RTVSPost2010PropOp38
 70
     1
102
RTVSPost2010Prop39
140
1.0
102
RTVSPost2010PropOp39
 70
     1
102
RTVSPost2010Prop40
 90
        0
102
RTVSPost2010PropOp40
 70
     1
102
RTVSPost2010Prop41ColorIndex
 90
       18
102
RTVSPost2010Prop41ColorRGB
 90
        0
102
RTVSPost2010PropOp41
 70
     1
102
RTVSPost2010Prop42
 90
       50
102
RTVSPost2010PropOp42
 70
     1
102
RTVSPost2010Prop43
 90
        3
102
RTVSPost2010PropOp43
 70
     1
102
RTVSPost2010Prop44ColorIndex
 90
        5
102
RTVSPost2010Prop44ColorRGB
 90
      255
102
RTVSPost2010PropOp44
 70
     1
102
RTVSPost2010Prop45
280
     0
102
RTVSPost2010PropOp45
 70
     1
102
RTVSPost2010Prop46
 90
       50
102
RTVSPost2010PropOp46
 70
     1
102
RTVSPost2010Prop47
 90
       50
102
RTVSPost2010PropOp47
 70
     1
102
RTVSPost2010Prop48
 90
       50
102
RTVSPost2010PropOp48
 70
     1
102
RTVSPost2010Prop49
280
     0
102
RTVSPost2010PropOp49
 70
     1
102
RTVSPost2010Prop50
 90
       50
102
RTVSPost2010PropOp50
 70
     1
102
RTVSPost2010Prop51ColorIndex
 90
      256
102
RTVSPost2010Prop51ColorRGB
 90
-16777216
102
RTVSPost2010PropOp51
 70
     0
102
RTVSPost2010Prop52
140
1.0
102
RTVSPost2010PropOp52
 70
     0
102
RTVSPost2010Prop53
 90
        2
102
RTVSPost2010PropOp53
 70
     1
102
RTVSPost2010Prop54
  1
strokes_ogs.tif
102
RTVSPost2010PropOp54
 70
     1
102
RTVSPost2010Prop55
280
     0
102
RTVSPost2010PropOp55
 70
     1
102
RTVSPost2010Prop56
140
1.0
102
RTVSPost2010PropOp56
 70
     1
102
RTVSPost2010Prop57
140
1.0
102
RTVSPost2010PropOp57
 70
     1
102
RTVSPropertyOp28
 70
     1
102
RTVSPropertyOp29
 70
     1
102
RTVSPropertyOp30
 70
     1
102
RTVSPropertyOp31
 70
     1
102
RTVSPropertyOp32
 70
     1
102
RTVSPropertyOp33
 70
     1
102
RTVSPropertyOp34
 70
     1
102
RTVSPropertyOp35
 70
     1
102
RTVSPropertyOp36
 70
     1
102
RTVSPropertyOp37
 70
     1
102
RTVSPropertyOp38
 70
     1
102
RTVSPropertyOp39
 70
     1
102
RTVSPropertyOp40
 70
     1
102
RTVSPropertyOp41
 70
     1
102
RTVSPropertyOp42
 70
     1
102
RTVSPropertyOp43
 70
     1
102
RTVSPropertyOp44
 70
     1
102
RTVSPropertyOp45
 70
     1
102
RTVSPropertyOp46
 70
     1
102
RTVSPropertyOp47
 70
     1
102
RTVSPropertyOp48
 70
     1
102
RTVSPropertyOp49
 70
     1
102
RTVSPropertyOp50
 70
     1
102
RTVSPropertyOp51
 70
     0
102
RTVSPropertyOp52
 70
     0
102
RTVSPropertyOp53
 70
     1
102
RTVSPropertyOp54
 70
     1
102
RTVSPropertyOp55
 70
     1
102
RTVSPropertyOp56
 70
     1
102
RTVSPropertyOp57
 70
     1
102
RTVSPropertyOp58
 70
     1
102
RTVSPropertyOp59
 70
     1
102
RTVSPropertyOp60
 70
     1
102
RTVSPropertyOp61
 70
     1
102
RTVSPropertyOp62
 70
     1
102
RTVSPropertyOp0
 70
     1
102
RTVSPropertyOp1
 70
     1
102
RTVSPropertyOp2
 70
     1
102
RTVSPropertyOp3
 70
     1
102
RTVSPropertyOp4
 70
     1
102
RTVSPropertyOp5
 70
     1
102
RTVSPropertyOp6
 70
     1
102
RTVSPropertyOp7
 70
     1
102
RTVSPropertyOp8
 70
     1
102
RTVSPropertyOp9
 70
     1
102
RTVSPropertyOp10
 70
     1
102
RTVSPropertyOp11
 70
     1
102
RTVSPropertyOp12
 70
     1
102
RTVSPropertyOp13
 70
     1
102
RTVSPropertyOp14
 70
     1
102
RTVSPropertyOp15
 70
     1
102
RTVSPropertyOp16
 70
     1
102
RTVSPropertyOp17
 70
     1
102
RTVSPropertyOp18
 70
     1
102
RTVSPropertyOp19
 70
     1
102
RTVSPropertyOp20
 70
     1
102
RTVSPropertyOp21
 70
     1
102
RTVSPropertyOp22
 70
     1
102
RTVSPropertyOp23
 70
     1
102
RTVSPropertyOp24
 70
     1
102
RTVSPropertyOp25
 70
     1
102
RTVSPropertyOp26
 70
     1
102
RTVSPropertyOp27
 70
     1
  0
XRECORD
  5
3412
102
{ACAD_REACTORS
330
3411
102
}
330
3411
100
AcDbXrecord
280
     1
102
RTVSPost2010Prop28
280
     0
102
RTVSPost2010PropOp28
 70
     1
102
RTVSPost2010Prop29
280
     1
102
RTVSPost2010PropOp29
 70
     1
102
RTVSPost2010Prop30
280
     1
102
RTVSPost2010PropOp30
 70
     1
102
RTVSPost2010Prop31
280
     0
102
RTVSPost2010PropOp31
 70
     1
102
RTVSPost2010Prop32
280
     0
102
RTVSPost2010PropOp32
 70
     1
102
RTVSPost2010Prop33
280
     0
102
RTVSPost2010PropOp33
 70
     1
102
RTVSPost2010Prop34
280
     0
102
RTVSPost2010PropOp34
 70
     1
102
RTVSPost2010Prop35
280
     0
102
RTVSPost2010PropOp35
 70
     1
102
RTVSPost2010Prop36
280
     0
102
RTVSPost2010PropOp36
 70
     1
102
RTVSPost2010Prop37
 90
       50
102
RTVSPost2010PropOp37
 70
     1
102
RTVSPost2010Prop38
140
0.0
102
RTVSPost2010PropOp38
 70
     1
102
RTVSPost2010Prop39
140
1.0
102
RTVSPost2010PropOp39
 70
     1
102
RTVSPost2010Prop40
 90
        0
102
RTVSPost2010PropOp40
 70
     1
102
RTVSPost2010Prop41ColorIndex
 90
       18
102
RTVSPost2010Prop41ColorRGB
 90
        0
102
RTVSPost2010PropOp41
 70
     1
102
RTVSPost2010Prop42
 90
       50
102
RTVSPost2010PropOp42
 70
     1
102
RTVSPost2010Prop43
 90
        3
102
RTVSPost2010PropOp43
 70
     1
102
RTVSPost2010Prop44ColorIndex
 90
        5
102
RTVSPost2010Prop44ColorRGB
 90
      255
102
RTVSPost2010PropOp44
 70
     1
102
RTVSPost2010Prop45
280
     0
102
RTVSPost2010PropOp45
 70
     1
102
RTVSPost2010Prop46
 90
       50
102
RTVSPost2010PropOp46
 70
     1
102
RTVSPost2010Prop47
 90
       50
102
RTVSPost2010PropOp47
 70
     1
102
RTVSPost2010Prop48
 90
       50
102
RTVSPost2010PropOp48
 70
     1
102
RTVSPost2010Prop49
280
     0
102
RTVSPost2010PropOp49
 70
     1
102
RTVSPost2010Prop50
 90
       50
102
RTVSPost2010PropOp50
 70
     1
102
RTVSPost2010Prop51ColorIndex
 90
      256
102
RTVSPost2010Prop51ColorRGB
 90
-16777216
102
RTVSPost2010PropOp51
 70
     0
102
RTVSPost2010Prop52
140
1.0
102
RTVSPost2010PropOp52
 70
     0
102
RTVSPost2010Prop53
 90
        2
102
RTVSPost2010PropOp53
 70
     1
102
RTVSPost2010Prop54
  1
strokes_ogs.tif
102
RTVSPost2010PropOp54
 70
     1
102
RTVSPost2010Prop55
280
     0
102
RTVSPost2010PropOp55
 70
     1
102
RTVSPost2010Prop56
140
1.0
102
RTVSPost2010PropOp56
 70
     1
102
RTVSPost2010Prop57
140
1.0
102
RTVSPost2010PropOp57
 70
     1
102
RTVSPropertyOp28
 70
     1
102
RTVSPropertyOp29
 70
     1
102
RTVSPropertyOp30
 70
     1
102
RTVSPropertyOp31
 70
     1
102
RTVSPropertyOp32
 70
     1
102
RTVSPropertyOp33
 70
     1
102
RTVSPropertyOp34
 70
     1
102
RTVSPropertyOp35
 70
     1
102
RTVSPropertyOp36
 70
     1
102
RTVSPropertyOp37
 70
     1
102
RTVSPropertyOp38
 70
     1
102
RTVSPropertyOp39
 70
     1
102
RTVSPropertyOp40
 70
     1
102
RTVSPropertyOp41
 70
     1
102
RTVSPropertyOp42
 70
     1
102
RTVSPropertyOp43
 70
     1
102
RTVSPropertyOp44
 70
     1
102
RTVSPropertyOp45
 70
     1
102
RTVSPropertyOp46
 70
     1
102
RTVSPropertyOp47
 70
     1
102
RTVSPropertyOp48
 70
     1
102
RTVSPropertyOp49
 70
     1
102
RTVSPropertyOp50
 70
     1
102
RTVSPropertyOp51
 70
     0
102
RTVSPropertyOp52
 70
     0
102
RTVSPropertyOp53
 70
     1
102
RTVSPropertyOp54
 70
     1
102
RTVSPropertyOp55
 70
     1
102
RTVSPropertyOp56
 70
     1
102
RTVSPropertyOp57
 70
     1
102
RTVSPropertyOp58
 70
     1
102
RTVSPropertyOp59
 70
     1
102
RTVSPropertyOp60
 70
     1
102
RTVSPropertyOp61
 70
     1
102
RTVSPropertyOp62
 70
     1
102
RTVSPropertyOp0
 70
     1
102
RTVSPropertyOp1
 70
     1
102
RTVSPropertyOp2
 70
     1
102
RTVSPropertyOp3
 70
     1
102
RTVSPropertyOp4
 70
     1
102
RTVSPropertyOp5
 70
     1
102
RTVSPropertyOp6
 70
     1
102
RTVSPropertyOp7
 70
     1
102
RTVSPropertyOp8
 70
     1
102
RTVSPropertyOp9
 70
     1
102
RTVSPropertyOp10
 70
     1
102
RTVSPropertyOp11
 70
     1
102
RTVSPropertyOp12
 70
     1
102
RTVSPropertyOp13
 70
     1
102
RTVSPropertyOp14
 70
     1
102
RTVSPropertyOp15
 70
     1
102
RTVSPropertyOp16
 70
     1
102
RTVSPropertyOp17
 70
     1
102
RTVSPropertyOp18
 70
     1
102
RTVSPropertyOp19
 70
     1
102
RTVSPropertyOp20
 70
     1
102
RTVSPropertyOp21
 70
     1
102
RTVSPropertyOp22
 70
     1
102
RTVSPropertyOp23
 70
     1
102
RTVSPropertyOp24
 70
     1
102
RTVSPropertyOp25
 70
     1
102
RTVSPropertyOp26
 70
     1
102
RTVSPropertyOp27
 70
     1
  0
XRECORD
  5
3416
102
{ACAD_REACTORS
330
3415
102
}
330
3415
100
AcDbXrecord
280
     1
102
RTVSPost2010Prop28
280
     0
102
RTVSPost2010PropOp28
 70
     1
102
RTVSPost2010Prop29
280
     1
102
RTVSPost2010PropOp29
 70
     1
102
RTVSPost2010Prop30
280
     1
102
RTVSPost2010PropOp30
 70
     1
102
RTVSPost2010Prop31
280
     0
102
RTVSPost2010PropOp31
 70
     1
102
RTVSPost2010Prop32
280
     0
102
RTVSPost2010PropOp32
 70
     1
102
RTVSPost2010Prop33
280
     0
102
RTVSPost2010PropOp33
 70
     1
102
RTVSPost2010Prop34
280
     0
102
RTVSPost2010PropOp34
 70
     1
102
RTVSPost2010Prop35
280
     0
102
RTVSPost2010PropOp35
 70
     1
102
RTVSPost2010Prop36
280
     0
102
RTVSPost2010PropOp36
 70
     1
102
RTVSPost2010Prop37
 90
       50
102
RTVSPost2010PropOp37
 70
     1
102
RTVSPost2010Prop38
140
0.0
102
RTVSPost2010PropOp38
 70
     1
102
RTVSPost2010Prop39
140
1.0
102
RTVSPost2010PropOp39
 70
     1
102
RTVSPost2010Prop40
 90
        0
102
RTVSPost2010PropOp40
 70
     1
102
RTVSPost2010Prop41ColorIndex
 90
       18
102
RTVSPost2010Prop41ColorRGB
 90
        0
102
RTVSPost2010PropOp41
 70
     1
102
RTVSPost2010Prop42
 90
       50
102
RTVSPost2010PropOp42
 70
     1
102
RTVSPost2010Prop43
 90
        3
102
RTVSPost2010PropOp43
 70
     1
102
RTVSPost2010Prop44ColorIndex
 90
        5
102
RTVSPost2010Prop44ColorRGB
 90
      255
102
RTVSPost2010PropOp44
 70
     1
102
RTVSPost2010Prop45
280
     0
102
RTVSPost2010PropOp45
 70
     1
102
RTVSPost2010Prop46
 90
       50
102
RTVSPost2010PropOp46
 70
     1
102
RTVSPost2010Prop47
 90
       50
102
RTVSPost2010PropOp47
 70
     1
102
RTVSPost2010Prop48
 90
       50
102
RTVSPost2010PropOp48
 70
     1
102
RTVSPost2010Prop49
280
     0
102
RTVSPost2010PropOp49
 70
     1
102
RTVSPost2010Prop50
 90
       50
102
RTVSPost2010PropOp50
 70
     1
102
RTVSPost2010Prop51ColorIndex
 90
      256
102
RTVSPost2010Prop51ColorRGB
 90
-16777216
102
RTVSPost2010PropOp51
 70
     0
102
RTVSPost2010Prop52
140
1.0
102
RTVSPost2010PropOp52
 70
     0
102
RTVSPost2010Prop53
 90
        2
102
RTVSPost2010PropOp53
 70
     1
102
RTVSPost2010Prop54
  1
strokes_ogs.tif
102
RTVSPost2010PropOp54
 70
     1
102
RTVSPost2010Prop55
280
     0
102
RTVSPost2010PropOp55
 70
     1
102
RTVSPost2010Prop56
140
1.0
102
RTVSPost2010PropOp56
 70
     1
102
RTVSPost2010Prop57
140
1.0
102
RTVSPost2010PropOp57
 70
     1
102
RTVSPropertyOp28
 70
     1
102
RTVSPropertyOp29
 70
     1
102
RTVSPropertyOp30
 70
     1
102
RTVSPropertyOp31
 70
     1
102
RTVSPropertyOp32
 70
     1
102
RTVSPropertyOp33
 70
     1
102
RTVSPropertyOp34
 70
     1
102
RTVSPropertyOp35
 70
     1
102
RTVSPropertyOp36
 70
     1
102
RTVSPropertyOp37
 70
     1
102
RTVSPropertyOp38
 70
     1
102
RTVSPropertyOp39
 70
     1
102
RTVSPropertyOp40
 70
     1
102
RTVSPropertyOp41
 70
     1
102
RTVSPropertyOp42
 70
     1
102
RTVSPropertyOp43
 70
     1
102
RTVSPropertyOp44
 70
     1
102
RTVSPropertyOp45
 70
     1
102
RTVSPropertyOp46
 70
     1
102
RTVSPropertyOp47
 70
     1
102
RTVSPropertyOp48
 70
     1
102
RTVSPropertyOp49
 70
     1
102
RTVSPropertyOp50
 70
     1
102
RTVSPropertyOp51
 70
     0
102
RTVSPropertyOp52
 70
     0
102
RTVSPropertyOp53
 70
     1
102
RTVSPropertyOp54
 70
     1
102
RTVSPropertyOp55
 70
     1
102
RTVSPropertyOp56
 70
     1
102
RTVSPropertyOp57
 70
     1
102
RTVSPropertyOp58
 70
     1
102
RTVSPropertyOp59
 70
     1
102
RTVSPropertyOp60
 70
     1
102
RTVSPropertyOp61
 70
     1
102
RTVSPropertyOp62
 70
     1
102
RTVSPropertyOp0
 70
     1
102
RTVSPropertyOp1
 70
     1
102
RTVSPropertyOp2
 70
     1
102
RTVSPropertyOp3
 70
     1
102
RTVSPropertyOp4
 70
     1
102
RTVSPropertyOp5
 70
     1
102
RTVSPropertyOp6
 70
     1
102
RTVSPropertyOp7
 70
     1
102
RTVSPropertyOp8
 70
     1
102
RTVSPropertyOp9
 70
     1
102
RTVSPropertyOp10
 70
     1
102
RTVSPropertyOp11
 70
     1
102
RTVSPropertyOp12
 70
     1
102
RTVSPropertyOp13
 70
     1
102
RTVSPropertyOp14
 70
     1
102
RTVSPropertyOp15
 70
     1
102
RTVSPropertyOp16
 70
     1
102
RTVSPropertyOp17
 70
     1
102
RTVSPropertyOp18
 70
     1
102
RTVSPropertyOp19
 70
     1
102
RTVSPropertyOp20
 70
     1
102
RTVSPropertyOp21
 70
     1
102
RTVSPropertyOp22
 70
     1
102
RTVSPropertyOp23
 70
     1
102
RTVSPropertyOp24
 70
     1
102
RTVSPropertyOp25
 70
     1
102
RTVSPropertyOp26
 70
     1
102
RTVSPropertyOp27
 70
     1
  0
XRECORD
  5
3430
102
{ACAD_REACTORS
330
342F
102
}
330
342F
100
AcDbXrecord
280
     1
102
RTVSPost2010Prop28
280
     0
102
RTVSPost2010PropOp28
 70
     0
102
RTVSPost2010Prop29
280
     1
102
RTVSPost2010PropOp29
 70
     0
102
RTVSPost2010Prop30
280
     1
102
RTVSPost2010PropOp30
 70
     0
102
RTVSPost2010Prop31
280
     0
102
RTVSPost2010PropOp31
 70
     0
102
RTVSPost2010Prop32
280
     0
102
RTVSPost2010PropOp32
 70
     0
102
RTVSPost2010Prop33
280
     0
102
RTVSPost2010PropOp33
 70
     1
102
RTVSPost2010Prop34
280
     0
102
RTVSPost2010PropOp34
 70
     1
102
RTVSPost2010Prop35
280
     0
102
RTVSPost2010PropOp35
 70
     1
102
RTVSPost2010Prop36
280
     0
102
RTVSPost2010PropOp36
 70
     1
102
RTVSPost2010Prop37
 90
       50
102
RTVSPost2010PropOp37
 70
     1
102
RTVSPost2010Prop38
140
0.0
102
RTVSPost2010PropOp38
 70
     1
102
RTVSPost2010Prop39
140
1.0
102
RTVSPost2010PropOp39
 70
     1
102
RTVSPost2010Prop40
 90
        0
102
RTVSPost2010PropOp40
 70
     1
102
RTVSPost2010Prop41ColorIndex
 90
       18
102
RTVSPost2010Prop41ColorRGB
 90
        0
102
RTVSPost2010PropOp41
 70
     1
102
RTVSPost2010Prop42
 90
       50
102
RTVSPost2010PropOp42
 70
     1
102
RTVSPost2010Prop43
 90
        3
102
RTVSPost2010PropOp43
 70
     1
102
RTVSPost2010Prop44ColorIndex
 90
        5
102
RTVSPost2010Prop44ColorRGB
 90
      255
102
RTVSPost2010PropOp44
 70
     1
102
RTVSPost2010Prop45
280
     0
102
RTVSPost2010PropOp45
 70
     1
102
RTVSPost2010Prop46
 90
       50
102
RTVSPost2010PropOp46
 70
     1
102
RTVSPost2010Prop47
 90
       50
102
RTVSPost2010PropOp47
 70
     1
102
RTVSPost2010Prop48
 90
       50
102
RTVSPost2010PropOp48
 70
     1
102
RTVSPost2010Prop49
280
     0
102
RTVSPost2010PropOp49
 70
     1
102
RTVSPost2010Prop50
 90
       50
102
RTVSPost2010PropOp50
 70
     1
102
RTVSPost2010Prop51ColorIndex
 90
      256
102
RTVSPost2010Prop51ColorRGB
 90
-16777216
102
RTVSPost2010PropOp51
 70
     0
102
RTVSPost2010Prop52
140
1.0
102
RTVSPost2010PropOp52
 70
     0
102
RTVSPost2010Prop53
 90
        2
102
RTVSPost2010PropOp53
 70
     1
102
RTVSPost2010Prop54
  1
strokes_ogs.tif
102
RTVSPost2010PropOp54
 70
     1
102
RTVSPost2010Prop55
280
     0
102
RTVSPost2010PropOp55
 70
     1
102
RTVSPost2010Prop56
140
1.0
102
RTVSPost2010PropOp56
 70
     1
102
RTVSPost2010Prop57
140
1.0
102
RTVSPost2010PropOp57
 70
     1
102
RTVSPropertyOp28
 70
     0
102
RTVSPropertyOp29
 70
     0
102
RTVSPropertyOp30
 70
     0
102
RTVSPropertyOp31
 70
     0
102
RTVSPropertyOp32
 70
     0
102
RTVSPropertyOp33
 70
     1
102
RTVSPropertyOp34
 70
     1
102
RTVSPropertyOp35
 70
     1
102
RTVSPropertyOp36
 70
     1
102
RTVSPropertyOp37
 70
     1
102
RTVSPropertyOp38
 70
     1
102
RTVSPropertyOp39
 70
     1
102
RTVSPropertyOp40
 70
     1
102
RTVSPropertyOp41
 70
     1
102
RTVSPropertyOp42
 70
     1
102
RTVSPropertyOp43
 70
     1
102
RTVSPropertyOp44
 70
     1
102
RTVSPropertyOp45
 70
     1
102
RTVSPropertyOp46
 70
     1
102
RTVSPropertyOp47
 70
     1
102
RTVSPropertyOp48
 70
     1
102
RTVSPropertyOp49
 70
     1
102
RTVSPropertyOp50
 70
     1
102
RTVSPropertyOp51
 70
     0
102
RTVSPropertyOp52
 70
     0
102
RTVSPropertyOp53
 70
     1
102
RTVSPropertyOp54
 70
     1
102
RTVSPropertyOp55
 70
     1
102
RTVSPropertyOp56
 70
     1
102
RTVSPropertyOp57
 70
     1
102
RTVSPropertyOp58
 70
     1
102
RTVSPropertyOp59
 70
     1
102
RTVSPropertyOp60
 70
     1
102
RTVSPropertyOp61
 70
     1
102
RTVSPropertyOp62
 70
     1
102
RTVSPropertyOp0
 70
     0
102
RTVSPropertyOp1
 70
     0
102
RTVSPropertyOp2
 70
     0
102
RTVSPropertyOp3
 70
     0
102
RTVSPropertyOp4
 70
     0
102
RTVSPropertyOp5
 70
     0
102
RTVSPropertyOp6
 70
     0
102
RTVSPropertyOp7
 70
     0
102
RTVSPropertyOp8
 70
     0
102
RTVSPropertyOp9
 70
     0
102
RTVSPropertyOp10
 70
     0
102
RTVSPropertyOp11
 70
     0
102
RTVSPropertyOp12
 70
     0
102
RTVSPropertyOp13
 70
     0
102
RTVSPropertyOp14
 70
     2
102
RTVSPropertyOp15
 70
     0
102
RTVSPropertyOp16
 70
     0
102
RTVSPropertyOp17
 70
     0
102
RTVSPropertyOp18
 70
     0
102
RTVSPropertyOp19
 70
     0
102
RTVSPropertyOp20
 70
     0
102
RTVSPropertyOp21
 70
     0
102
RTVSPropertyOp22
 70
     0
102
RTVSPropertyOp23
 70
     0
102
RTVSPropertyOp24
 70
     0
102
RTVSPropertyOp25
 70
     0
102
RTVSPropertyOp26
 70
     0
102
RTVSPropertyOp27
 70
     0
  0
XRECORD
  5
341E
102
{ACAD_REACTORS
330
341D
102
}
330
341D
100
AcDbXrecord
280
     1
102
RTVSPost2010Prop28
280
     0
102
RTVSPost2010PropOp28
 70
     1
102
RTVSPost2010Prop29
280
     1
102
RTVSPost2010PropOp29
 70
     1
102
RTVSPost2010Prop30
280
     1
102
RTVSPost2010PropOp30
 70
     1
102
RTVSPost2010Prop31
280
     0
102
RTVSPost2010PropOp31
 70
     1
102
RTVSPost2010Prop32
280
     0
102
RTVSPost2010PropOp32
 70
     1
102
RTVSPost2010Prop33
280
     0
102
RTVSPost2010PropOp33
 70
     1
102
RTVSPost2010Prop34
280
     0
102
RTVSPost2010PropOp34
 70
     1
102
RTVSPost2010Prop35
280
     0
102
RTVSPost2010PropOp35
 70
     1
102
RTVSPost2010Prop36
280
     0
102
RTVSPost2010PropOp36
 70
     1
102
RTVSPost2010Prop37
 90
       50
102
RTVSPost2010PropOp37
 70
     1
102
RTVSPost2010Prop38
140
0.0
102
RTVSPost2010PropOp38
 70
     1
102
RTVSPost2010Prop39
140
1.0
102
RTVSPost2010PropOp39
 70
     1
102
RTVSPost2010Prop40
 90
        0
102
RTVSPost2010PropOp40
 70
     1
102
RTVSPost2010Prop41ColorIndex
 90
       18
102
RTVSPost2010Prop41ColorRGB
 90
        0
102
RTVSPost2010PropOp41
 70
     1
102
RTVSPost2010Prop42
 90
       50
102
RTVSPost2010PropOp42
 70
     1
102
RTVSPost2010Prop43
 90
        3
102
RTVSPost2010PropOp43
 70
     1
102
RTVSPost2010Prop44ColorIndex
 90
        5
102
RTVSPost2010Prop44ColorRGB
 90
      255
102
RTVSPost2010PropOp44
 70
     1
102
RTVSPost2010Prop45
280
     0
102
RTVSPost2010PropOp45
 70
     1
102
RTVSPost2010Prop46
 90
       50
102
RTVSPost2010PropOp46
 70
     1
102
RTVSPost2010Prop47
 90
       50
102
RTVSPost2010PropOp47
 70
     1
102
RTVSPost2010Prop48
 90
       50
102
RTVSPost2010PropOp48
 70
     1
102
RTVSPost2010Prop49
280
     0
102
RTVSPost2010PropOp49
 70
     1
102
RTVSPost2010Prop50
 90
       50
102
RTVSPost2010PropOp50
 70
     1
102
RTVSPost2010Prop51ColorIndex
 90
      256
102
RTVSPost2010Prop51ColorRGB
 90
-16777216
102
RTVSPost2010PropOp51
 70
     0
102
RTVSPost2010Prop52
140
1.0
102
RTVSPost2010PropOp52
 70
     0
102
RTVSPost2010Prop53
 90
        2
102
RTVSPost2010PropOp53
 70
     1
102
RTVSPost2010Prop54
  1
strokes_ogs.tif
102
RTVSPost2010PropOp54
 70
     1
102
RTVSPost2010Prop55
280
     0
102
RTVSPost2010PropOp55
 70
     1
102
RTVSPost2010Prop56
140
1.0
102
RTVSPost2010PropOp56
 70
     1
102
RTVSPost2010Prop57
140
1.0
102
RTVSPost2010PropOp57
 70
     1
102
RTVSPropertyOp28
 70
     1
102
RTVSPropertyOp29
 70
     1
102
RTVSPropertyOp30
 70
     1
102
RTVSPropertyOp31
 70
     1
102
RTVSPropertyOp32
 70
     1
102
RTVSPropertyOp33
 70
     1
102
RTVSPropertyOp34
 70
     1
102
RTVSPropertyOp35
 70
     1
102
RTVSPropertyOp36
 70
     1
102
RTVSPropertyOp37
 70
     1
102
RTVSPropertyOp38
 70
     1
102
RTVSPropertyOp39
 70
     1
102
RTVSPropertyOp40
 70
     1
102
RTVSPropertyOp41
 70
     1
102
RTVSPropertyOp42
 70
     1
102
RTVSPropertyOp43
 70
     1
102
RTVSPropertyOp44
 70
     1
102
RTVSPropertyOp45
 70
     1
102
RTVSPropertyOp46
 70
     1
102
RTVSPropertyOp47
 70
     1
102
RTVSPropertyOp48
 70
     1
102
RTVSPropertyOp49
 70
     1
102
RTVSPropertyOp50
 70
     1
102
RTVSPropertyOp51
 70
     0
102
RTVSPropertyOp52
 70
     0
102
RTVSPropertyOp53
 70
     1
102
RTVSPropertyOp54
 70
     1
102
RTVSPropertyOp55
 70
     1
102
RTVSPropertyOp56
 70
     1
102
RTVSPropertyOp57
 70
     1
102
RTVSPropertyOp58
 70
     1
102
RTVSPropertyOp59
 70
     1
102
RTVSPropertyOp60
 70
     1
102
RTVSPropertyOp61
 70
     1
102
RTVSPropertyOp62
 70
     1
102
RTVSPropertyOp0
 70
     1
102
RTVSPropertyOp1
 70
     1
102
RTVSPropertyOp2
 70
     1
102
RTVSPropertyOp3
 70
     1
102
RTVSPropertyOp4
 70
     1
102
RTVSPropertyOp5
 70
     1
102
RTVSPropertyOp6
 70
     1
102
RTVSPropertyOp7
 70
     1
102
RTVSPropertyOp8
 70
     1
102
RTVSPropertyOp9
 70
     1
102
RTVSPropertyOp10
 70
     1
102
RTVSPropertyOp11
 70
     1
102
RTVSPropertyOp12
 70
     1
102
RTVSPropertyOp13
 70
     1
102
RTVSPropertyOp14
 70
     1
102
RTVSPropertyOp15
 70
     1
102
RTVSPropertyOp16
 70
     1
102
RTVSPropertyOp17
 70
     1
102
RTVSPropertyOp18
 70
     1
102
RTVSPropertyOp19
 70
     1
102
RTVSPropertyOp20
 70
     1
102
RTVSPropertyOp21
 70
     1
102
RTVSPropertyOp22
 70
     1
102
RTVSPropertyOp23
 70
     1
102
RTVSPropertyOp24
 70
     1
102
RTVSPropertyOp25
 70
     1
102
RTVSPropertyOp26
 70
     1
102
RTVSPropertyOp27
 70
     1
  0
XRECORD
  5
3402
102
{ACAD_REACTORS
330
3401
102
}
330
3401
100
AcDbXrecord
280
     1
102
RTVSPost2010Prop28
280
     0
102
RTVSPost2010PropOp28
 70
     1
102
RTVSPost2010Prop29
280
     1
102
RTVSPost2010PropOp29
 70
     1
102
RTVSPost2010Prop30
280
     1
102
RTVSPost2010PropOp30
 70
     1
102
RTVSPost2010Prop31
280
     0
102
RTVSPost2010PropOp31
 70
     1
102
RTVSPost2010Prop32
280
     0
102
RTVSPost2010PropOp32
 70
     1
102
RTVSPost2010Prop33
280
     0
102
RTVSPost2010PropOp33
 70
     1
102
RTVSPost2010Prop34
280
     0
102
RTVSPost2010PropOp34
 70
     1
102
RTVSPost2010Prop35
280
     0
102
RTVSPost2010PropOp35
 70
     1
102
RTVSPost2010Prop36
280
     0
102
RTVSPost2010PropOp36
 70
     1
102
RTVSPost2010Prop37
 90
       50
102
RTVSPost2010PropOp37
 70
     1
102
RTVSPost2010Prop38
140
0.0
102
RTVSPost2010PropOp38
 70
     1
102
RTVSPost2010Prop39
140
1.0
102
RTVSPost2010PropOp39
 70
     1
102
RTVSPost2010Prop40
 90
        0
102
RTVSPost2010PropOp40
 70
     1
102
RTVSPost2010Prop41ColorIndex
 90
       18
102
RTVSPost2010Prop41ColorRGB
 90
        0
102
RTVSPost2010PropOp41
 70
     1
102
RTVSPost2010Prop42
 90
       50
102
RTVSPost2010PropOp42
 70
     1
102
RTVSPost2010Prop43
 90
        3
102
RTVSPost2010PropOp43
 70
     1
102
RTVSPost2010Prop44ColorIndex
 90
        5
102
RTVSPost2010Prop44ColorRGB
 90
      255
102
RTVSPost2010PropOp44
 70
     1
102
RTVSPost2010Prop45
280
     0
102
RTVSPost2010PropOp45
 70
     1
102
RTVSPost2010Prop46
 90
       50
102
RTVSPost2010PropOp46
 70
     1
102
RTVSPost2010Prop47
 90
       50
102
RTVSPost2010PropOp47
 70
     1
102
RTVSPost2010Prop48
 90
       50
102
RTVSPost2010PropOp48
 70
     1
102
RTVSPost2010Prop49
280
     0
102
RTVSPost2010PropOp49
 70
     1
102
RTVSPost2010Prop50
 90
       50
102
RTVSPost2010PropOp50
 70
     1
102
RTVSPost2010Prop51ColorIndex
 90
      256
102
RTVSPost2010Prop51ColorRGB
 90
-16777216
102
RTVSPost2010PropOp51
 70
     0
102
RTVSPost2010Prop52
140
1.0
102
RTVSPost2010PropOp52
 70
     0
102
RTVSPost2010Prop53
 90
        2
102
RTVSPost2010PropOp53
 70
     1
102
RTVSPost2010Prop54
  1
strokes_ogs.tif
102
RTVSPost2010PropOp54
 70
     1
102
RTVSPost2010Prop55
280
     0
102
RTVSPost2010PropOp55
 70
     1
102
RTVSPost2010Prop56
140
1.0
102
RTVSPost2010PropOp56
 70
     1
102
RTVSPost2010Prop57
140
1.0
102
RTVSPost2010PropOp57
 70
     1
102
RTVSPropertyOp28
 70
     1
102
RTVSPropertyOp29
 70
     1
102
RTVSPropertyOp30
 70
     1
102
RTVSPropertyOp31
 70
     1
102
RTVSPropertyOp32
 70
     1
102
RTVSPropertyOp33
 70
     1
102
RTVSPropertyOp34
 70
     1
102
RTVSPropertyOp35
 70
     1
102
RTVSPropertyOp36
 70
     1
102
RTVSPropertyOp37
 70
     1
102
RTVSPropertyOp38
 70
     1
102
RTVSPropertyOp39
 70
     1
102
RTVSPropertyOp40
 70
     1
102
RTVSPropertyOp41
 70
     1
102
RTVSPropertyOp42
 70
     1
102
RTVSPropertyOp43
 70
     1
102
RTVSPropertyOp44
 70
     1
102
RTVSPropertyOp45
 70
     1
102
RTVSPropertyOp46
 70
     1
102
RTVSPropertyOp47
 70
     1
102
RTVSPropertyOp48
 70
     1
102
RTVSPropertyOp49
 70
     1
102
RTVSPropertyOp50
 70
     1
102
RTVSPropertyOp51
 70
     0
102
RTVSPropertyOp52
 70
     0
102
RTVSPropertyOp53
 70
     1
102
RTVSPropertyOp54
 70
     1
102
RTVSPropertyOp55
 70
     1
102
RTVSPropertyOp56
 70
     1
102
RTVSPropertyOp57
 70
     1
102
RTVSPropertyOp58
 70
     1
102
RTVSPropertyOp59
 70
     1
102
RTVSPropertyOp60
 70
     1
102
RTVSPropertyOp61
 70
     1
102
RTVSPropertyOp62
 70
     1
102
RTVSPropertyOp0
 70
     1
102
RTVSPropertyOp1
 70
     1
102
RTVSPropertyOp2
 70
     1
102
RTVSPropertyOp3
 70
     1
102
RTVSPropertyOp4
 70
     1
102
RTVSPropertyOp5
 70
     1
102
RTVSPropertyOp6
 70
     1
102
RTVSPropertyOp7
 70
     1
102
RTVSPropertyOp8
 70
     1
102
RTVSPropertyOp9
 70
     1
102
RTVSPropertyOp10
 70
     1
102
RTVSPropertyOp11
 70
     1
102
RTVSPropertyOp12
 70
     1
102
RTVSPropertyOp13
 70
     1
102
RTVSPropertyOp14
 70
     1
102
RTVSPropertyOp15
 70
     1
102
RTVSPropertyOp16
 70
     1
102
RTVSPropertyOp17
 70
     1
102
RTVSPropertyOp18
 70
     1
102
RTVSPropertyOp19
 70
     1
102
RTVSPropertyOp20
 70
     1
102
RTVSPropertyOp21
 70
     1
102
RTVSPropertyOp22
 70
     1
102
RTVSPropertyOp23
 70
     1
102
RTVSPropertyOp24
 70
     1
102
RTVSPropertyOp25
 70
     1
102
RTVSPropertyOp26
 70
     1
102
RTVSPropertyOp27
 70
     1
  0
XRECORD
  5
3404
102
{ACAD_REACTORS
330
3403
102
}
330
3403
100
AcDbXrecord
280
     1
102
RTVSPost2010Prop28
280
     0
102
RTVSPost2010PropOp28
 70
     1
102
RTVSPost2010Prop29
280
     1
102
RTVSPost2010PropOp29
 70
     1
102
RTVSPost2010Prop30
280
     1
102
RTVSPost2010PropOp30
 70
     1
102
RTVSPost2010Prop31
280
     0
102
RTVSPost2010PropOp31
 70
     1
102
RTVSPost2010Prop32
280
     0
102
RTVSPost2010PropOp32
 70
     1
102
RTVSPost2010Prop33
280
     0
102
RTVSPost2010PropOp33
 70
     1
102
RTVSPost2010Prop34
280
     0
102
RTVSPost2010PropOp34
 70
     1
102
RTVSPost2010Prop35
280
     0
102
RTVSPost2010PropOp35
 70
     1
102
RTVSPost2010Prop36
280
     0
102
RTVSPost2010PropOp36
 70
     1
102
RTVSPost2010Prop37
 90
       50
102
RTVSPost2010PropOp37
 70
     1
102
RTVSPost2010Prop38
140
0.0
102
RTVSPost2010PropOp38
 70
     1
102
RTVSPost2010Prop39
140
1.0
102
RTVSPost2010PropOp39
 70
     1
102
RTVSPost2010Prop40
 90
        0
102
RTVSPost2010PropOp40
 70
     1
102
RTVSPost2010Prop41ColorIndex
 90
       18
102
RTVSPost2010Prop41ColorRGB
 90
        0
102
RTVSPost2010PropOp41
 70
     1
102
RTVSPost2010Prop42
 90
       50
102
RTVSPost2010PropOp42
 70
     1
102
RTVSPost2010Prop43
 90
        3
102
RTVSPost2010PropOp43
 70
     1
102
RTVSPost2010Prop44ColorIndex
 90
        5
102
RTVSPost2010Prop44ColorRGB
 90
      255
102
RTVSPost2010PropOp44
 70
     1
102
RTVSPost2010Prop45
280
     0
102
RTVSPost2010PropOp45
 70
     1
102
RTVSPost2010Prop46
 90
       50
102
RTVSPost2010PropOp46
 70
     1
102
RTVSPost2010Prop47
 90
       50
102
RTVSPost2010PropOp47
 70
     1
102
RTVSPost2010Prop48
 90
       50
102
RTVSPost2010PropOp48
 70
     1
102
RTVSPost2010Prop49
280
     0
102
RTVSPost2010PropOp49
 70
     1
102
RTVSPost2010Prop50
 90
       50
102
RTVSPost2010PropOp50
 70
     1
102
RTVSPost2010Prop51ColorIndex
 90
      256
102
RTVSPost2010Prop51ColorRGB
 90
-16777216
102
RTVSPost2010PropOp51
 70
     0
102
RTVSPost2010Prop52
140
1.0
102
RTVSPost2010PropOp52
 70
     0
102
RTVSPost2010Prop53
 90
        2
102
RTVSPost2010PropOp53
 70
     1
102
RTVSPost2010Prop54
  1
strokes_ogs.tif
102
RTVSPost2010PropOp54
 70
     1
102
RTVSPost2010Prop55
280
     0
102
RTVSPost2010PropOp55
 70
     1
102
RTVSPost2010Prop56
140
1.0
102
RTVSPost2010PropOp56
 70
     1
102
RTVSPost2010Prop57
140
1.0
102
RTVSPost2010PropOp57
 70
     1
102
RTVSPropertyOp28
 70
     1
102
RTVSPropertyOp29
 70
     1
102
RTVSPropertyOp30
 70
     1
102
RTVSPropertyOp31
 70
     1
102
RTVSPropertyOp32
 70
     1
102
RTVSPropertyOp33
 70
     1
102
RTVSPropertyOp34
 70
     1
102
RTVSPropertyOp35
 70
     1
102
RTVSPropertyOp36
 70
     1
102
RTVSPropertyOp37
 70
     1
102
RTVSPropertyOp38
 70
     1
102
RTVSPropertyOp39
 70
     1
102
RTVSPropertyOp40
 70
     1
102
RTVSPropertyOp41
 70
     1
102
RTVSPropertyOp42
 70
     1
102
RTVSPropertyOp43
 70
     1
102
RTVSPropertyOp44
 70
     1
102
RTVSPropertyOp45
 70
     1
102
RTVSPropertyOp46
 70
     1
102
RTVSPropertyOp47
 70
     1
102
RTVSPropertyOp48
 70
     1
102
RTVSPropertyOp49
 70
     1
102
RTVSPropertyOp50
 70
     1
102
RTVSPropertyOp51
 70
     0
102
RTVSPropertyOp52
 70
     0
102
RTVSPropertyOp53
 70
     1
102
RTVSPropertyOp54
 70
     1
102
RTVSPropertyOp55
 70
     1
102
RTVSPropertyOp56
 70
     1
102
RTVSPropertyOp57
 70
     1
102
RTVSPropertyOp58
 70
     1
102
RTVSPropertyOp59
 70
     1
102
RTVSPropertyOp60
 70
     1
102
RTVSPropertyOp61
 70
     1
102
RTVSPropertyOp62
 70
     1
102
RTVSPropertyOp0
 70
     1
102
RTVSPropertyOp1
 70
     1
102
RTVSPropertyOp2
 70
     1
102
RTVSPropertyOp3
 70
     1
102
RTVSPropertyOp4
 70
     1
102
RTVSPropertyOp5
 70
     1
102
RTVSPropertyOp6
 70
     1
102
RTVSPropertyOp7
 70
     1
102
RTVSPropertyOp8
 70
     1
102
RTVSPropertyOp9
 70
     1
102
RTVSPropertyOp10
 70
     1
102
RTVSPropertyOp11
 70
     1
102
RTVSPropertyOp12
 70
     1
102
RTVSPropertyOp13
 70
     1
102
RTVSPropertyOp14
 70
     1
102
RTVSPropertyOp15
 70
     1
102
RTVSPropertyOp16
 70
     1
102
RTVSPropertyOp17
 70
     1
102
RTVSPropertyOp18
 70
     1
102
RTVSPropertyOp19
 70
     1
102
RTVSPropertyOp20
 70
     1
102
RTVSPropertyOp21
 70
     1
102
RTVSPropertyOp22
 70
     1
102
RTVSPropertyOp23
 70
     1
102
RTVSPropertyOp24
 70
     1
102
RTVSPropertyOp25
 70
     1
102
RTVSPropertyOp26
 70
     1
102
RTVSPropertyOp27
 70
     1
  0
XRECORD
  5
3406
102
{ACAD_REACTORS
330
3405
102
}
330
3405
100
AcDbXrecord
280
     1
102
RTVSPost2010Prop28
280
     0
102
RTVSPost2010PropOp28
 70
     1
102
RTVSPost2010Prop29
280
     1
102
RTVSPost2010PropOp29
 70
     1
102
RTVSPost2010Prop30
280
     1
102
RTVSPost2010PropOp30
 70
     1
102
RTVSPost2010Prop31
280
     0
102
RTVSPost2010PropOp31
 70
     1
102
RTVSPost2010Prop32
280
     0
102
RTVSPost2010PropOp32
 70
     1
102
RTVSPost2010Prop33
280
     0
102
RTVSPost2010PropOp33
 70
     1
102
RTVSPost2010Prop34
280
     0
102
RTVSPost2010PropOp34
 70
     1
102
RTVSPost2010Prop35
280
     0
102
RTVSPost2010PropOp35
 70
     1
102
RTVSPost2010Prop36
280
     0
102
RTVSPost2010PropOp36
 70
     1
102
RTVSPost2010Prop37
 90
       50
102
RTVSPost2010PropOp37
 70
     1
102
RTVSPost2010Prop38
140
0.0
102
RTVSPost2010PropOp38
 70
     1
102
RTVSPost2010Prop39
140
1.0
102
RTVSPost2010PropOp39
 70
     1
102
RTVSPost2010Prop40
 90
        0
102
RTVSPost2010PropOp40
 70
     1
102
RTVSPost2010Prop41ColorIndex
 90
       18
102
RTVSPost2010Prop41ColorRGB
 90
        0
102
RTVSPost2010PropOp41
 70
     1
102
RTVSPost2010Prop42
 90
       50
102
RTVSPost2010PropOp42
 70
     1
102
RTVSPost2010Prop43
 90
        3
102
RTVSPost2010PropOp43
 70
     1
102
RTVSPost2010Prop44ColorIndex
 90
        5
102
RTVSPost2010Prop44ColorRGB
 90
      255
102
RTVSPost2010PropOp44
 70
     1
102
RTVSPost2010Prop45
280
     0
102
RTVSPost2010PropOp45
 70
     1
102
RTVSPost2010Prop46
 90
       50
102
RTVSPost2010PropOp46
 70
     1
102
RTVSPost2010Prop47
 90
       50
102
RTVSPost2010PropOp47
 70
     1
102
RTVSPost2010Prop48
 90
       50
102
RTVSPost2010PropOp48
 70
     1
102
RTVSPost2010Prop49
280
     0
102
RTVSPost2010PropOp49
 70
     1
102
RTVSPost2010Prop50
 90
       50
102
RTVSPost2010PropOp50
 70
     1
102
RTVSPost2010Prop51ColorIndex
 90
      256
102
RTVSPost2010Prop51ColorRGB
 90
-16777216
102
RTVSPost2010PropOp51
 70
     0
102
RTVSPost2010Prop52
140
1.0
102
RTVSPost2010PropOp52
 70
     0
102
RTVSPost2010Prop53
 90
        2
102
RTVSPost2010PropOp53
 70
     1
102
RTVSPost2010Prop54
  1
strokes_ogs.tif
102
RTVSPost2010PropOp54
 70
     1
102
RTVSPost2010Prop55
280
     0
102
RTVSPost2010PropOp55
 70
     1
102
RTVSPost2010Prop56
140
1.0
102
RTVSPost2010PropOp56
 70
     1
102
RTVSPost2010Prop57
140
1.0
102
RTVSPost2010PropOp57
 70
     1
102
RTVSPropertyOp28
 70
     1
102
RTVSPropertyOp29
 70
     1
102
RTVSPropertyOp30
 70
     1
102
RTVSPropertyOp31
 70
     1
102
RTVSPropertyOp32
 70
     1
102
RTVSPropertyOp33
 70
     1
102
RTVSPropertyOp34
 70
     1
102
RTVSPropertyOp35
 70
     1
102
RTVSPropertyOp36
 70
     1
102
RTVSPropertyOp37
 70
     1
102
RTVSPropertyOp38
 70
     1
102
RTVSPropertyOp39
 70
     1
102
RTVSPropertyOp40
 70
     1
102
RTVSPropertyOp41
 70
     1
102
RTVSPropertyOp42
 70
     1
102
RTVSPropertyOp43
 70
     1
102
RTVSPropertyOp44
 70
     1
102
RTVSPropertyOp45
 70
     1
102
RTVSPropertyOp46
 70
     1
102
RTVSPropertyOp47
 70
     1
102
RTVSPropertyOp48
 70
     1
102
RTVSPropertyOp49
 70
     1
102
RTVSPropertyOp50
 70
     1
102
RTVSPropertyOp51
 70
     0
102
RTVSPropertyOp52
 70
     0
102
RTVSPropertyOp53
 70
     1
102
RTVSPropertyOp54
 70
     1
102
RTVSPropertyOp55
 70
     1
102
RTVSPropertyOp56
 70
     1
102
RTVSPropertyOp57
 70
     1
102
RTVSPropertyOp58
 70
     1
102
RTVSPropertyOp59
 70
     1
102
RTVSPropertyOp60
 70
     1
102
RTVSPropertyOp61
 70
     1
102
RTVSPropertyOp62
 70
     1
102
RTVSPropertyOp0
 70
     1
102
RTVSPropertyOp1
 70
     1
102
RTVSPropertyOp2
 70
     1
102
RTVSPropertyOp3
 70
     1
102
RTVSPropertyOp4
 70
     1
102
RTVSPropertyOp5
 70
     1
102
RTVSPropertyOp6
 70
     1
102
RTVSPropertyOp7
 70
     1
102
RTVSPropertyOp8
 70
     1
102
RTVSPropertyOp9
 70
     1
102
RTVSPropertyOp10
 70
     1
102
RTVSPropertyOp11
 70
     1
102
RTVSPropertyOp12
 70
     1
102
RTVSPropertyOp13
 70
     1
102
RTVSPropertyOp14
 70
     1
102
RTVSPropertyOp15
 70
     1
102
RTVSPropertyOp16
 70
     1
102
RTVSPropertyOp17
 70
     1
102
RTVSPropertyOp18
 70
     1
102
RTVSPropertyOp19
 70
     1
102
RTVSPropertyOp20
 70
     1
102
RTVSPropertyOp21
 70
     1
102
RTVSPropertyOp22
 70
     1
102
RTVSPropertyOp23
 70
     1
102
RTVSPropertyOp24
 70
     1
102
RTVSPropertyOp25
 70
     1
102
RTVSPropertyOp26
 70
     1
102
RTVSPropertyOp27
 70
     1
  0
XRECORD
  5
3408
102
{ACAD_REACTORS
330
3407
102
}
330
3407
100
AcDbXrecord
280
     1
102
RTVSPost2010Prop28
280
     0
102
RTVSPost2010PropOp28
 70
     1
102
RTVSPost2010Prop29
280
     1
102
RTVSPost2010PropOp29
 70
     1
102
RTVSPost2010Prop30
280
     1
102
RTVSPost2010PropOp30
 70
     1
102
RTVSPost2010Prop31
280
     0
102
RTVSPost2010PropOp31
 70
     1
102
RTVSPost2010Prop32
280
     0
102
RTVSPost2010PropOp32
 70
     1
102
RTVSPost2010Prop33
280
     0
102
RTVSPost2010PropOp33
 70
     1
102
RTVSPost2010Prop34
280
     0
102
RTVSPost2010PropOp34
 70
     1
102
RTVSPost2010Prop35
280
     0
102
RTVSPost2010PropOp35
 70
     1
102
RTVSPost2010Prop36
280
     0
102
RTVSPost2010PropOp36
 70
     1
102
RTVSPost2010Prop37
 90
       50
102
RTVSPost2010PropOp37
 70
     1
102
RTVSPost2010Prop38
140
0.0
102
RTVSPost2010PropOp38
 70
     1
102
RTVSPost2010Prop39
140
1.0
102
RTVSPost2010PropOp39
 70
     1
102
RTVSPost2010Prop40
 90
        0
102
RTVSPost2010PropOp40
 70
     1
102
RTVSPost2010Prop41ColorIndex
 90
       18
102
RTVSPost2010Prop41ColorRGB
 90
        0
102
RTVSPost2010PropOp41
 70
     1
102
RTVSPost2010Prop42
 90
       50
102
RTVSPost2010PropOp42
 70
     1
102
RTVSPost2010Prop43
 90
        3
102
RTVSPost2010PropOp43
 70
     1
102
RTVSPost2010Prop44ColorIndex
 90
        5
102
RTVSPost2010Prop44ColorRGB
 90
      255
102
RTVSPost2010PropOp44
 70
     1
102
RTVSPost2010Prop45
280
     0
102
RTVSPost2010PropOp45
 70
     1
102
RTVSPost2010Prop46
 90
       50
102
RTVSPost2010PropOp46
 70
     1
102
RTVSPost2010Prop47
 90
       50
102
RTVSPost2010PropOp47
 70
     1
102
RTVSPost2010Prop48
 90
       50
102
RTVSPost2010PropOp48
 70
     1
102
RTVSPost2010Prop49
280
     0
102
RTVSPost2010PropOp49
 70
     1
102
RTVSPost2010Prop50
 90
       50
102
RTVSPost2010PropOp50
 70
     1
102
RTVSPost2010Prop51ColorIndex
 90
      256
102
RTVSPost2010Prop51ColorRGB
 90
-16777216
102
RTVSPost2010PropOp51
 70
     0
102
RTVSPost2010Prop52
140
1.0
102
RTVSPost2010PropOp52
 70
     0
102
RTVSPost2010Prop53
 90
        2
102
RTVSPost2010PropOp53
 70
     1
102
RTVSPost2010Prop54
  1
strokes_ogs.tif
102
RTVSPost2010PropOp54
 70
     1
102
RTVSPost2010Prop55
280
     0
102
RTVSPost2010PropOp55
 70
     1
102
RTVSPost2010Prop56
140
1.0
102
RTVSPost2010PropOp56
 70
     1
102
RTVSPost2010Prop57
140
1.0
102
RTVSPost2010PropOp57
 70
     1
102
RTVSPropertyOp28
 70
     1
102
RTVSPropertyOp29
 70
     1
102
RTVSPropertyOp30
 70
     1
102
RTVSPropertyOp31
 70
     1
102
RTVSPropertyOp32
 70
     1
102
RTVSPropertyOp33
 70
     1
102
RTVSPropertyOp34
 70
     1
102
RTVSPropertyOp35
 70
     1
102
RTVSPropertyOp36
 70
     1
102
RTVSPropertyOp37
 70
     1
102
RTVSPropertyOp38
 70
     1
102
RTVSPropertyOp39
 70
     1
102
RTVSPropertyOp40
 70
     1
102
RTVSPropertyOp41
 70
     1
102
RTVSPropertyOp42
 70
     1
102
RTVSPropertyOp43
 70
     1
102
RTVSPropertyOp44
 70
     1
102
RTVSPropertyOp45
 70
     1
102
RTVSPropertyOp46
 70
     1
102
RTVSPropertyOp47
 70
     1
102
RTVSPropertyOp48
 70
     1
102
RTVSPropertyOp49
 70
     1
102
RTVSPropertyOp50
 70
     1
102
RTVSPropertyOp51
 70
     0
102
RTVSPropertyOp52
 70
     0
102
RTVSPropertyOp53
 70
     1
102
RTVSPropertyOp54
 70
     1
102
RTVSPropertyOp55
 70
     1
102
RTVSPropertyOp56
 70
     1
102
RTVSPropertyOp57
 70
     1
102
RTVSPropertyOp58
 70
     1
102
RTVSPropertyOp59
 70
     1
102
RTVSPropertyOp60
 70
     1
102
RTVSPropertyOp61
 70
     1
102
RTVSPropertyOp62
 70
     1
102
RTVSPropertyOp0
 70
     1
102
RTVSPropertyOp1
 70
     1
102
RTVSPropertyOp2
 70
     1
102
RTVSPropertyOp3
 70
     1
102
RTVSPropertyOp4
 70
     1
102
RTVSPropertyOp5
 70
     1
102
RTVSPropertyOp6
 70
     1
102
RTVSPropertyOp7
 70
     1
102
RTVSPropertyOp8
 70
     1
102
RTVSPropertyOp9
 70
     1
102
RTVSPropertyOp10
 70
     1
102
RTVSPropertyOp11
 70
     1
102
RTVSPropertyOp12
 70
     1
102
RTVSPropertyOp13
 70
     1
102
RTVSPropertyOp14
 70
     1
102
RTVSPropertyOp15
 70
     1
102
RTVSPropertyOp16
 70
     1
102
RTVSPropertyOp17
 70
     1
102
RTVSPropertyOp18
 70
     1
102
RTVSPropertyOp19
 70
     1
102
RTVSPropertyOp20
 70
     1
102
RTVSPropertyOp21
 70
     1
102
RTVSPropertyOp22
 70
     1
102
RTVSPropertyOp23
 70
     1
102
RTVSPropertyOp24
 70
     1
102
RTVSPropertyOp25
 70
     1
102
RTVSPropertyOp26
 70
     1
102
RTVSPropertyOp27
 70
     1
  0
XRECORD
  5
3410
102
{ACAD_REACTORS
330
340F
102
}
330
340F
100
AcDbXrecord
280
     1
102
RTVSPost2010Prop28
280
     0
102
RTVSPost2010PropOp28
 70
     1
102
RTVSPost2010Prop29
280
     1
102
RTVSPost2010PropOp29
 70
     1
102
RTVSPost2010Prop30
280
     1
102
RTVSPost2010PropOp30
 70
     1
102
RTVSPost2010Prop31
280
     0
102
RTVSPost2010PropOp31
 70
     1
102
RTVSPost2010Prop32
280
     0
102
RTVSPost2010PropOp32
 70
     1
102
RTVSPost2010Prop33
280
     0
102
RTVSPost2010PropOp33
 70
     1
102
RTVSPost2010Prop34
280
     0
102
RTVSPost2010PropOp34
 70
     1
102
RTVSPost2010Prop35
280
     0
102
RTVSPost2010PropOp35
 70
     1
102
RTVSPost2010Prop36
280
     0
102
RTVSPost2010PropOp36
 70
     1
102
RTVSPost2010Prop37
 90
       50
102
RTVSPost2010PropOp37
 70
     1
102
RTVSPost2010Prop38
140
0.0
102
RTVSPost2010PropOp38
 70
     1
102
RTVSPost2010Prop39
140
1.0
102
RTVSPost2010PropOp39
 70
     1
102
RTVSPost2010Prop40
 90
        0
102
RTVSPost2010PropOp40
 70
     1
102
RTVSPost2010Prop41ColorIndex
 90
       18
102
RTVSPost2010Prop41ColorRGB
 90
        0
102
RTVSPost2010PropOp41
 70
     1
102
RTVSPost2010Prop42
 90
       50
102
RTVSPost2010PropOp42
 70
     1
102
RTVSPost2010Prop43
 90
        3
102
RTVSPost2010PropOp43
 70
     1
102
RTVSPost2010Prop44ColorIndex
 90
        5
102
RTVSPost2010Prop44ColorRGB
 90
      255
102
RTVSPost2010PropOp44
 70
     1
102
RTVSPost2010Prop45
280
     0
102
RTVSPost2010PropOp45
 70
     1
102
RTVSPost2010Prop46
 90
       50
102
RTVSPost2010PropOp46
 70
     1
102
RTVSPost2010Prop47
 90
       50
102
RTVSPost2010PropOp47
 70
     1
102
RTVSPost2010Prop48
 90
       50
102
RTVSPost2010PropOp48
 70
     1
102
RTVSPost2010Prop49
280
     0
102
RTVSPost2010PropOp49
 70
     1
102
RTVSPost2010Prop50
 90
       50
102
RTVSPost2010PropOp50
 70
     1
102
RTVSPost2010Prop51ColorIndex
 90
      256
102
RTVSPost2010Prop51ColorRGB
 90
-16777216
102
RTVSPost2010PropOp51
 70
     0
102
RTVSPost2010Prop52
140
1.0
102
RTVSPost2010PropOp52
 70
     0
102
RTVSPost2010Prop53
 90
        2
102
RTVSPost2010PropOp53
 70
     1
102
RTVSPost2010Prop54
  1
strokes_ogs.tif
102
RTVSPost2010PropOp54
 70
     1
102
RTVSPost2010Prop55
280
     0
102
RTVSPost2010PropOp55
 70
     1
102
RTVSPost2010Prop56
140
1.0
102
RTVSPost2010PropOp56
 70
     1
102
RTVSPost2010Prop57
140
1.0
102
RTVSPost2010PropOp57
 70
     1
102
RTVSPropertyOp28
 70
     1
102
RTVSPropertyOp29
 70
     1
102
RTVSPropertyOp30
 70
     1
102
RTVSPropertyOp31
 70
     1
102
RTVSPropertyOp32
 70
     1
102
RTVSPropertyOp33
 70
     1
102
RTVSPropertyOp34
 70
     1
102
RTVSPropertyOp35
 70
     1
102
RTVSPropertyOp36
 70
     1
102
RTVSPropertyOp37
 70
     1
102
RTVSPropertyOp38
 70
     1
102
RTVSPropertyOp39
 70
     1
102
RTVSPropertyOp40
 70
     1
102
RTVSPropertyOp41
 70
     1
102
RTVSPropertyOp42
 70
     1
102
RTVSPropertyOp43
 70
     1
102
RTVSPropertyOp44
 70
     1
102
RTVSPropertyOp45
 70
     1
102
RTVSPropertyOp46
 70
     1
102
RTVSPropertyOp47
 70
     1
102
RTVSPropertyOp48
 70
     1
102
RTVSPropertyOp49
 70
     1
102
RTVSPropertyOp50
 70
     1
102
RTVSPropertyOp51
 70
     0
102
RTVSPropertyOp52
 70
     0
102
RTVSPropertyOp53
 70
     1
102
RTVSPropertyOp54
 70
     1
102
RTVSPropertyOp55
 70
     1
102
RTVSPropertyOp56
 70
     1
102
RTVSPropertyOp57
 70
     1
102
RTVSPropertyOp58
 70
     1
102
RTVSPropertyOp59
 70
     1
102
RTVSPropertyOp60
 70
     1
102
RTVSPropertyOp61
 70
     1
102
RTVSPropertyOp62
 70
     1
102
RTVSPropertyOp0
 70
     1
102
RTVSPropertyOp1
 70
     1
102
RTVSPropertyOp2
 70
     1
102
RTVSPropertyOp3
 70
     1
102
RTVSPropertyOp4
 70
     1
102
RTVSPropertyOp5
 70
     1
102
RTVSPropertyOp6
 70
     1
102
RTVSPropertyOp7
 70
     1
102
RTVSPropertyOp8
 70
     1
102
RTVSPropertyOp9
 70
     1
102
RTVSPropertyOp10
 70
     1
102
RTVSPropertyOp11
 70
     1
102
RTVSPropertyOp12
 70
     1
102
RTVSPropertyOp13
 70
     1
102
RTVSPropertyOp14
 70
     1
102
RTVSPropertyOp15
 70
     1
102
RTVSPropertyOp16
 70
     1
102
RTVSPropertyOp17
 70
     1
102
RTVSPropertyOp18
 70
     1
102
RTVSPropertyOp19
 70
     1
102
RTVSPropertyOp20
 70
     1
102
RTVSPropertyOp21
 70
     1
102
RTVSPropertyOp22
 70
     1
102
RTVSPropertyOp23
 70
     1
102
RTVSPropertyOp24
 70
     1
102
RTVSPropertyOp25
 70
     1
102
RTVSPropertyOp26
 70
     1
102
RTVSPropertyOp27
 70
     1
  0
XRECORD
  5
342C
102
{ACAD_REACTORS
330
342B
102
}
330
342B
100
AcDbXrecord
280
     1
102
RTVSPost2010Prop28
280
     0
102
RTVSPost2010PropOp28
 70
     0
102
RTVSPost2010Prop29
280
     1
102
RTVSPost2010PropOp29
 70
     0
102
RTVSPost2010Prop30
280
     1
102
RTVSPost2010PropOp30
 70
     0
102
RTVSPost2010Prop31
280
     0
102
RTVSPost2010PropOp31
 70
     0
102
RTVSPost2010Prop32
280
     0
102
RTVSPost2010PropOp32
 70
     0
102
RTVSPost2010Prop33
280
     0
102
RTVSPost2010PropOp33
 70
     1
102
RTVSPost2010Prop34
280
     0
102
RTVSPost2010PropOp34
 70
     1
102
RTVSPost2010Prop35
280
     0
102
RTVSPost2010PropOp35
 70
     1
102
RTVSPost2010Prop36
280
     0
102
RTVSPost2010PropOp36
 70
     1
102
RTVSPost2010Prop37
 90
       50
102
RTVSPost2010PropOp37
 70
     1
102
RTVSPost2010Prop38
140
0.0
102
RTVSPost2010PropOp38
 70
     1
102
RTVSPost2010Prop39
140
1.0
102
RTVSPost2010PropOp39
 70
     1
102
RTVSPost2010Prop40
 90
        0
102
RTVSPost2010PropOp40
 70
     1
102
RTVSPost2010Prop41ColorIndex
 90
       18
102
RTVSPost2010Prop41ColorRGB
 90
        0
102
RTVSPost2010PropOp41
 70
     1
102
RTVSPost2010Prop42
 90
       50
102
RTVSPost2010PropOp42
 70
     1
102
RTVSPost2010Prop43
 90
        3
102
RTVSPost2010PropOp43
 70
     1
102
RTVSPost2010Prop44ColorIndex
 90
        5
102
RTVSPost2010Prop44ColorRGB
 90
      255
102
RTVSPost2010PropOp44
 70
     1
102
RTVSPost2010Prop45
280
     0
102
RTVSPost2010PropOp45
 70
     1
102
RTVSPost2010Prop46
 90
       50
102
RTVSPost2010PropOp46
 70
     1
102
RTVSPost2010Prop47
 90
       50
102
RTVSPost2010PropOp47
 70
     1
102
RTVSPost2010Prop48
 90
       50
102
RTVSPost2010PropOp48
 70
     1
102
RTVSPost2010Prop49
280
     0
102
RTVSPost2010PropOp49
 70
     1
102
RTVSPost2010Prop50
 90
       50
102
RTVSPost2010PropOp50
 70
     1
102
RTVSPost2010Prop51ColorIndex
 90
      256
102
RTVSPost2010Prop51ColorRGB
 90
-16777216
102
RTVSPost2010PropOp51
 70
     0
102
RTVSPost2010Prop52
140
1.0
102
RTVSPost2010PropOp52
 70
     0
102
RTVSPost2010Prop53
 90
        2
102
RTVSPost2010PropOp53
 70
     1
102
RTVSPost2010Prop54
  1
strokes_ogs.tif
102
RTVSPost2010PropOp54
 70
     1
102
RTVSPost2010Prop55
280
     0
102
RTVSPost2010PropOp55
 70
     1
102
RTVSPost2010Prop56
140
1.0
102
RTVSPost2010PropOp56
 70
     1
102
RTVSPost2010Prop57
140
1.0
102
RTVSPost2010PropOp57
 70
     1
102
RTVSPropertyOp28
 70
     0
102
RTVSPropertyOp29
 70
     0
102
RTVSPropertyOp30
 70
     0
102
RTVSPropertyOp31
 70
     0
102
RTVSPropertyOp32
 70
     0
102
RTVSPropertyOp33
 70
     1
102
RTVSPropertyOp34
 70
     1
102
RTVSPropertyOp35
 70
     1
102
RTVSPropertyOp36
 70
     1
102
RTVSPropertyOp37
 70
     1
102
RTVSPropertyOp38
 70
     1
102
RTVSPropertyOp39
 70
     1
102
RTVSPropertyOp40
 70
     1
102
RTVSPropertyOp41
 70
     1
102
RTVSPropertyOp42
 70
     1
102
RTVSPropertyOp43
 70
     1
102
RTVSPropertyOp44
 70
     1
102
RTVSPropertyOp45
 70
     1
102
RTVSPropertyOp46
 70
     1
102
RTVSPropertyOp47
 70
     1
102
RTVSPropertyOp48
 70
     1
102
RTVSPropertyOp49
 70
     1
102
RTVSPropertyOp50
 70
     1
102
RTVSPropertyOp51
 70
     0
102
RTVSPropertyOp52
 70
     0
102
RTVSPropertyOp53
 70
     1
102
RTVSPropertyOp54
 70
     1
102
RTVSPropertyOp55
 70
     1
102
RTVSPropertyOp56
 70
     1
102
RTVSPropertyOp57
 70
     1
102
RTVSPropertyOp58
 70
     1
102
RTVSPropertyOp59
 70
     1
102
RTVSPropertyOp60
 70
     1
102
RTVSPropertyOp61
 70
     1
102
RTVSPropertyOp62
 70
     1
102
RTVSPropertyOp0
 70
     0
102
RTVSPropertyOp1
 70
     0
102
RTVSPropertyOp2
 70
     0
102
RTVSPropertyOp3
 70
     0
102
RTVSPropertyOp4
 70
     0
102
RTVSPropertyOp5
 70
     0
102
RTVSPropertyOp6
 70
     0
102
RTVSPropertyOp7
 70
     0
102
RTVSPropertyOp8
 70
     0
102
RTVSPropertyOp9
 70
     0
102
RTVSPropertyOp10
 70
     0
102
RTVSPropertyOp11
 70
     0
102
RTVSPropertyOp12
 70
     0
102
RTVSPropertyOp13
 70
     0
102
RTVSPropertyOp14
 70
     2
102
RTVSPropertyOp15
 70
     0
102
RTVSPropertyOp16
 70
     0
102
RTVSPropertyOp17
 70
     0
102
RTVSPropertyOp18
 70
     0
102
RTVSPropertyOp19
 70
     0
102
RTVSPropertyOp20
 70
     0
102
RTVSPropertyOp21
 70
     0
102
RTVSPropertyOp22
 70
     0
102
RTVSPropertyOp23
 70
     0
102
RTVSPropertyOp24
 70
     0
102
RTVSPropertyOp25
 70
     0
102
RTVSPropertyOp26
 70
     0
102
RTVSPropertyOp27
 70
     0
  0
XRECORD
  5
341C
102
{ACAD_REACTORS
330
341B
102
}
330
341B
100
AcDbXrecord
280
     1
102
RTVSPost2010Prop28
280
     0
102
RTVSPost2010PropOp28
 70
     1
102
RTVSPost2010Prop29
280
     1
102
RTVSPost2010PropOp29
 70
     1
102
RTVSPost2010Prop30
280
     1
102
RTVSPost2010PropOp30
 70
     1
102
RTVSPost2010Prop31
280
     0
102
RTVSPost2010PropOp31
 70
     1
102
RTVSPost2010Prop32
280
     0
102
RTVSPost2010PropOp32
 70
     1
102
RTVSPost2010Prop33
280
     0
102
RTVSPost2010PropOp33
 70
     1
102
RTVSPost2010Prop34
280
     0
102
RTVSPost2010PropOp34
 70
     1
102
RTVSPost2010Prop35
280
     0
102
RTVSPost2010PropOp35
 70
     1
102
RTVSPost2010Prop36
280
     0
102
RTVSPost2010PropOp36
 70
     1
102
RTVSPost2010Prop37
 90
       50
102
RTVSPost2010PropOp37
 70
     1
102
RTVSPost2010Prop38
140
0.0
102
RTVSPost2010PropOp38
 70
     1
102
RTVSPost2010Prop39
140
1.0
102
RTVSPost2010PropOp39
 70
     1
102
RTVSPost2010Prop40
 90
        0
102
RTVSPost2010PropOp40
 70
     1
102
RTVSPost2010Prop41ColorIndex
 90
       18
102
RTVSPost2010Prop41ColorRGB
 90
        0
102
RTVSPost2010PropOp41
 70
     1
102
RTVSPost2010Prop42
 90
       50
102
RTVSPost2010PropOp42
 70
     1
102
RTVSPost2010Prop43
 90
        3
102
RTVSPost2010PropOp43
 70
     1
102
RTVSPost2010Prop44ColorIndex
 90
        5
102
RTVSPost2010Prop44ColorRGB
 90
      255
102
RTVSPost2010PropOp44
 70
     1
102
RTVSPost2010Prop45
280
     0
102
RTVSPost2010PropOp45
 70
     1
102
RTVSPost2010Prop46
 90
       50
102
RTVSPost2010PropOp46
 70
     1
102
RTVSPost2010Prop47
 90
       50
102
RTVSPost2010PropOp47
 70
     1
102
RTVSPost2010Prop48
 90
       50
102
RTVSPost2010PropOp48
 70
     1
102
RTVSPost2010Prop49
280
     0
102
RTVSPost2010PropOp49
 70
     1
102
RTVSPost2010Prop50
 90
       50
102
RTVSPost2010PropOp50
 70
     1
102
RTVSPost2010Prop51ColorIndex
 90
      256
102
RTVSPost2010Prop51ColorRGB
 90
-16777216
102
RTVSPost2010PropOp51
 70
     0
102
RTVSPost2010Prop52
140
1.0
102
RTVSPost2010PropOp52
 70
     0
102
RTVSPost2010Prop53
 90
        2
102
RTVSPost2010PropOp53
 70
     1
102
RTVSPost2010Prop54
  1
strokes_ogs.tif
102
RTVSPost2010PropOp54
 70
     1
102
RTVSPost2010Prop55
280
     0
102
RTVSPost2010PropOp55
 70
     1
102
RTVSPost2010Prop56
140
1.0
102
RTVSPost2010PropOp56
 70
     1
102
RTVSPost2010Prop57
140
1.0
102
RTVSPost2010PropOp57
 70
     1
102
RTVSPropertyOp28
 70
     1
102
RTVSPropertyOp29
 70
     1
102
RTVSPropertyOp30
 70
     1
102
RTVSPropertyOp31
 70
     1
102
RTVSPropertyOp32
 70
     1
102
RTVSPropertyOp33
 70
     1
102
RTVSPropertyOp34
 70
     1
102
RTVSPropertyOp35
 70
     1
102
RTVSPropertyOp36
 70
     1
102
RTVSPropertyOp37
 70
     1
102
RTVSPropertyOp38
 70
     1
102
RTVSPropertyOp39
 70
     1
102
RTVSPropertyOp40
 70
     1
102
RTVSPropertyOp41
 70
     1
102
RTVSPropertyOp42
 70
     1
102
RTVSPropertyOp43
 70
     1
102
RTVSPropertyOp44
 70
     1
102
RTVSPropertyOp45
 70
     1
102
RTVSPropertyOp46
 70
     1
102
RTVSPropertyOp47
 70
     1
102
RTVSPropertyOp48
 70
     1
102
RTVSPropertyOp49
 70
     1
102
RTVSPropertyOp50
 70
     1
102
RTVSPropertyOp51
 70
     0
102
RTVSPropertyOp52
 70
     0
102
RTVSPropertyOp53
 70
     1
102
RTVSPropertyOp54
 70
     1
102
RTVSPropertyOp55
 70
     1
102
RTVSPropertyOp56
 70
     1
102
RTVSPropertyOp57
 70
     1
102
RTVSPropertyOp58
 70
     1
102
RTVSPropertyOp59
 70
     1
102
RTVSPropertyOp60
 70
     1
102
RTVSPropertyOp61
 70
     1
102
RTVSPropertyOp62
 70
     1
102
RTVSPropertyOp0
 70
     1
102
RTVSPropertyOp1
 70
     1
102
RTVSPropertyOp2
 70
     1
102
RTVSPropertyOp3
 70
     1
102
RTVSPropertyOp4
 70
     1
102
RTVSPropertyOp5
 70
     1
102
RTVSPropertyOp6
 70
     1
102
RTVSPropertyOp7
 70
     1
102
RTVSPropertyOp8
 70
     1
102
RTVSPropertyOp9
 70
     1
102
RTVSPropertyOp10
 70
     1
102
RTVSPropertyOp11
 70
     1
102
RTVSPropertyOp12
 70
     1
102
RTVSPropertyOp13
 70
     1
102
RTVSPropertyOp14
 70
     1
102
RTVSPropertyOp15
 70
     1
102
RTVSPropertyOp16
 70
     1
102
RTVSPropertyOp17
 70
     1
102
RTVSPropertyOp18
 70
     1
102
RTVSPropertyOp19
 70
     1
102
RTVSPropertyOp20
 70
     1
102
RTVSPropertyOp21
 70
     1
102
RTVSPropertyOp22
 70
     1
102
RTVSPropertyOp23
 70
     1
102
RTVSPropertyOp24
 70
     1
102
RTVSPropertyOp25
 70
     1
102
RTVSPropertyOp26
 70
     1
102
RTVSPropertyOp27
 70
     1
  0
XRECORD
  5
342E
102
{ACAD_REACTORS
330
342D
102
}
330
342D
100
AcDbXrecord
280
     1
102
RTVSPost2010Prop28
280
     0
102
RTVSPost2010PropOp28
 70
     0
102
RTVSPost2010Prop29
280
     1
102
RTVSPost2010PropOp29
 70
     0
102
RTVSPost2010Prop30
280
     1
102
RTVSPost2010PropOp30
 70
     0
102
RTVSPost2010Prop31
280
     0
102
RTVSPost2010PropOp31
 70
     0
102
RTVSPost2010Prop32
280
     0
102
RTVSPost2010PropOp32
 70
     0
102
RTVSPost2010Prop33
280
     0
102
RTVSPost2010PropOp33
 70
     1
102
RTVSPost2010Prop34
280
     0
102
RTVSPost2010PropOp34
 70
     1
102
RTVSPost2010Prop35
280
     0
102
RTVSPost2010PropOp35
 70
     1
102
RTVSPost2010Prop36
280
     0
102
RTVSPost2010PropOp36
 70
     1
102
RTVSPost2010Prop37
 90
       50
102
RTVSPost2010PropOp37
 70
     1
102
RTVSPost2010Prop38
140
0.0
102
RTVSPost2010PropOp38
 70
     1
102
RTVSPost2010Prop39
140
1.0
102
RTVSPost2010PropOp39
 70
     1
102
RTVSPost2010Prop40
 90
        0
102
RTVSPost2010PropOp40
 70
     1
102
RTVSPost2010Prop41ColorIndex
 90
       18
102
RTVSPost2010Prop41ColorRGB
 90
        0
102
RTVSPost2010PropOp41
 70
     1
102
RTVSPost2010Prop42
 90
       50
102
RTVSPost2010PropOp42
 70
     1
102
RTVSPost2010Prop43
 90
        3
102
RTVSPost2010PropOp43
 70
     1
102
RTVSPost2010Prop44ColorIndex
 90
        5
102
RTVSPost2010Prop44ColorRGB
 90
      255
102
RTVSPost2010PropOp44
 70
     1
102
RTVSPost2010Prop45
280
     0
102
RTVSPost2010PropOp45
 70
     1
102
RTVSPost2010Prop46
 90
       50
102
RTVSPost2010PropOp46
 70
     1
102
RTVSPost2010Prop47
 90
       50
102
RTVSPost2010PropOp47
 70
     1
102
RTVSPost2010Prop48
 90
       50
102
RTVSPost2010PropOp48
 70
     1
102
RTVSPost2010Prop49
280
     0
102
RTVSPost2010PropOp49
 70
     1
102
RTVSPost2010Prop50
 90
       50
102
RTVSPost2010PropOp50
 70
     1
102
RTVSPost2010Prop51ColorIndex
 90
      256
102
RTVSPost2010Prop51ColorRGB
 90
-16777216
102
RTVSPost2010PropOp51
 70
     0
102
RTVSPost2010Prop52
140
1.0
102
RTVSPost2010PropOp52
 70
     0
102
RTVSPost2010Prop53
 90
        2
102
RTVSPost2010PropOp53
 70
     1
102
RTVSPost2010Prop54
  1
strokes_ogs.tif
102
RTVSPost2010PropOp54
 70
     1
102
RTVSPost2010Prop55
280
     0
102
RTVSPost2010PropOp55
 70
     1
102
RTVSPost2010Prop56
140
1.0
102
RTVSPost2010PropOp56
 70
     1
102
RTVSPost2010Prop57
140
1.0
102
RTVSPost2010PropOp57
 70
     1
102
RTVSPropertyOp28
 70
     0
102
RTVSPropertyOp29
 70
     0
102
RTVSPropertyOp30
 70
     0
102
RTVSPropertyOp31
 70
     0
102
RTVSPropertyOp32
 70
     0
102
RTVSPropertyOp33
 70
     1
102
RTVSPropertyOp34
 70
     1
102
RTVSPropertyOp35
 70
     1
102
RTVSPropertyOp36
 70
     1
102
RTVSPropertyOp37
 70
     1
102
RTVSPropertyOp38
 70
     1
102
RTVSPropertyOp39
 70
     1
102
RTVSPropertyOp40
 70
     1
102
RTVSPropertyOp41
 70
     1
102
RTVSPropertyOp42
 70
     1
102
RTVSPropertyOp43
 70
     1
102
RTVSPropertyOp44
 70
     1
102
RTVSPropertyOp45
 70
     1
102
RTVSPropertyOp46
 70
     1
102
RTVSPropertyOp47
 70
     1
102
RTVSPropertyOp48
 70
     1
102
RTVSPropertyOp49
 70
     1
102
RTVSPropertyOp50
 70
     1
102
RTVSPropertyOp51
 70
     0
102
RTVSPropertyOp52
 70
     0
102
RTVSPropertyOp53
 70
     1
102
RTVSPropertyOp54
 70
     1
102
RTVSPropertyOp55
 70
     1
102
RTVSPropertyOp56
 70
     1
102
RTVSPropertyOp57
 70
     1
102
RTVSPropertyOp58
 70
     1
102
RTVSPropertyOp59
 70
     1
102
RTVSPropertyOp60
 70
     1
102
RTVSPropertyOp61
 70
     1
102
RTVSPropertyOp62
 70
     1
102
RTVSPropertyOp0
 70
     0
102
RTVSPropertyOp1
 70
     0
102
RTVSPropertyOp2
 70
     0
102
RTVSPropertyOp3
 70
     0
102
RTVSPropertyOp4
 70
     0
102
RTVSPropertyOp5
 70
     0
102
RTVSPropertyOp6
 70
     0
102
RTVSPropertyOp7
 70
     0
102
RTVSPropertyOp8
 70
     0
102
RTVSPropertyOp9
 70
     0
102
RTVSPropertyOp10
 70
     0
102
RTVSPropertyOp11
 70
     0
102
RTVSPropertyOp12
 70
     0
102
RTVSPropertyOp13
 70
     0
102
RTVSPropertyOp14
 70
     2
102
RTVSPropertyOp15
 70
     0
102
RTVSPropertyOp16
 70
     0
102
RTVSPropertyOp17
 70
     0
102
RTVSPropertyOp18
 70
     0
102
RTVSPropertyOp19
 70
     0
102
RTVSPropertyOp20
 70
     0
102
RTVSPropertyOp21
 70
     0
102
RTVSPropertyOp22
 70
     0
102
RTVSPropertyOp23
 70
     0
102
RTVSPropertyOp24
 70
     0
102
RTVSPropertyOp25
 70
     0
102
RTVSPropertyOp26
 70
     0
102
RTVSPropertyOp27
 70
     0
  0
XRECORD
  5
3414
102
{ACAD_REACTORS
330
3413
102
}
330
3413
100
AcDbXrecord
280
     1
102
RTVSPost2010Prop28
280
     0
102
RTVSPost2010PropOp28
 70
     1
102
RTVSPost2010Prop29
280
     1
102
RTVSPost2010PropOp29
 70
     1
102
RTVSPost2010Prop30
280
     1
102
RTVSPost2010PropOp30
 70
     1
102
RTVSPost2010Prop31
280
     0
102
RTVSPost2010PropOp31
 70
     1
102
RTVSPost2010Prop32
280
     0
102
RTVSPost2010PropOp32
 70
     1
102
RTVSPost2010Prop33
280
     0
102
RTVSPost2010PropOp33
 70
     1
102
RTVSPost2010Prop34
280
     0
102
RTVSPost2010PropOp34
 70
     1
102
RTVSPost2010Prop35
280
     0
102
RTVSPost2010PropOp35
 70
     1
102
RTVSPost2010Prop36
280
     0
102
RTVSPost2010PropOp36
 70
     1
102
RTVSPost2010Prop37
 90
       50
102
RTVSPost2010PropOp37
 70
     1
102
RTVSPost2010Prop38
140
0.0
102
RTVSPost2010PropOp38
 70
     1
102
RTVSPost2010Prop39
140
1.0
102
RTVSPost2010PropOp39
 70
     1
102
RTVSPost2010Prop40
 90
        0
102
RTVSPost2010PropOp40
 70
     1
102
RTVSPost2010Prop41ColorIndex
 90
       18
102
RTVSPost2010Prop41ColorRGB
 90
        0
102
RTVSPost2010PropOp41
 70
     1
102
RTVSPost2010Prop42
 90
       50
102
RTVSPost2010PropOp42
 70
     1
102
RTVSPost2010Prop43
 90
        3
102
RTVSPost2010PropOp43
 70
     1
102
RTVSPost2010Prop44ColorIndex
 90
        5
102
RTVSPost2010Prop44ColorRGB
 90
      255
102
RTVSPost2010PropOp44
 70
     1
102
RTVSPost2010Prop45
280
     0
102
RTVSPost2010PropOp45
 70
     1
102
RTVSPost2010Prop46
 90
       50
102
RTVSPost2010PropOp46
 70
     1
102
RTVSPost2010Prop47
 90
       50
102
RTVSPost2010PropOp47
 70
     1
102
RTVSPost2010Prop48
 90
       50
102
RTVSPost2010PropOp48
 70
     1
102
RTVSPost2010Prop49
280
     0
102
RTVSPost2010PropOp49
 70
     1
102
RTVSPost2010Prop50
 90
       50
102
RTVSPost2010PropOp50
 70
     1
102
RTVSPost2010Prop51ColorIndex
 90
      256
102
RTVSPost2010Prop51ColorRGB
 90
-16777216
102
RTVSPost2010PropOp51
 70
     0
102
RTVSPost2010Prop52
140
1.0
102
RTVSPost2010PropOp52
 70
     0
102
RTVSPost2010Prop53
 90
        2
102
RTVSPost2010PropOp53
 70
     1
102
RTVSPost2010Prop54
  1
strokes_ogs.tif
102
RTVSPost2010PropOp54
 70
     1
102
RTVSPost2010Prop55
280
     0
102
RTVSPost2010PropOp55
 70
     1
102
RTVSPost2010Prop56
140
1.0
102
RTVSPost2010PropOp56
 70
     1
102
RTVSPost2010Prop57
140
1.0
102
RTVSPost2010PropOp57
 70
     1
102
RTVSPropertyOp28
 70
     1
102
RTVSPropertyOp29
 70
     1
102
RTVSPropertyOp30
 70
     1
102
RTVSPropertyOp31
 70
     1
102
RTVSPropertyOp32
 70
     1
102
RTVSPropertyOp33
 70
     1
102
RTVSPropertyOp34
 70
     1
102
RTVSPropertyOp35
 70
     1
102
RTVSPropertyOp36
 70
     1
102
RTVSPropertyOp37
 70
     1
102
RTVSPropertyOp38
 70
     1
102
RTVSPropertyOp39
 70
     1
102
RTVSPropertyOp40
 70
     1
102
RTVSPropertyOp41
 70
     1
102
RTVSPropertyOp42
 70
     1
102
RTVSPropertyOp43
 70
     1
102
RTVSPropertyOp44
 70
     1
102
RTVSPropertyOp45
 70
     1
102
RTVSPropertyOp46
 70
     1
102
RTVSPropertyOp47
 70
     1
102
RTVSPropertyOp48
 70
     1
102
RTVSPropertyOp49
 70
     1
102
RTVSPropertyOp50
 70
     1
102
RTVSPropertyOp51
 70
     0
102
RTVSPropertyOp52
 70
     0
102
RTVSPropertyOp53
 70
     1
102
RTVSPropertyOp54
 70
     1
102
RTVSPropertyOp55
 70
     1
102
RTVSPropertyOp56
 70
     1
102
RTVSPropertyOp57
 70
     1
102
RTVSPropertyOp58
 70
     1
102
RTVSPropertyOp59
 70
     1
102
RTVSPropertyOp60
 70
     1
102
RTVSPropertyOp61
 70
     1
102
RTVSPropertyOp62
 70
     1
102
RTVSPropertyOp0
 70
     1
102
RTVSPropertyOp1
 70
     1
102
RTVSPropertyOp2
 70
     1
102
RTVSPropertyOp3
 70
     1
102
RTVSPropertyOp4
 70
     1
102
RTVSPropertyOp5
 70
     1
102
RTVSPropertyOp6
 70
     1
102
RTVSPropertyOp7
 70
     1
102
RTVSPropertyOp8
 70
     1
102
RTVSPropertyOp9
 70
     1
102
RTVSPropertyOp10
 70
     1
102
RTVSPropertyOp11
 70
     1
102
RTVSPropertyOp12
 70
     1
102
RTVSPropertyOp13
 70
     1
102
RTVSPropertyOp14
 70
     1
102
RTVSPropertyOp15
 70
     1
102
RTVSPropertyOp16
 70
     1
102
RTVSPropertyOp17
 70
     1
102
RTVSPropertyOp18
 70
     1
102
RTVSPropertyOp19
 70
     1
102
RTVSPropertyOp20
 70
     1
102
RTVSPropertyOp21
 70
     1
102
RTVSPropertyOp22
 70
     1
102
RTVSPropertyOp23
 70
     1
102
RTVSPropertyOp24
 70
     1
102
RTVSPropertyOp25
 70
     1
102
RTVSPropertyOp26
 70
     1
102
RTVSPropertyOp27
 70
     1
  0
XRECORD
  5
342A
102
{ACAD_REACTORS
330
3429
102
}
330
3429
100
AcDbXrecord
280
     1
102
RTVSPost2010Prop28
280
     0
102
RTVSPost2010PropOp28
 70
     1
102
RTVSPost2010Prop29
280
     1
102
RTVSPost2010PropOp29
 70
     1
102
RTVSPost2010Prop30
280
     1
102
RTVSPost2010PropOp30
 70
     1
102
RTVSPost2010Prop31
280
     0
102
RTVSPost2010PropOp31
 70
     1
102
RTVSPost2010Prop32
280
     0
102
RTVSPost2010PropOp32
 70
     1
102
RTVSPost2010Prop33
280
     0
102
RTVSPost2010PropOp33
 70
     1
102
RTVSPost2010Prop34
280
     0
102
RTVSPost2010PropOp34
 70
     1
102
RTVSPost2010Prop35
280
     0
102
RTVSPost2010PropOp35
 70
     1
102
RTVSPost2010Prop36
280
     0
102
RTVSPost2010PropOp36
 70
     1
102
RTVSPost2010Prop37
 90
       50
102
RTVSPost2010PropOp37
 70
     1
102
RTVSPost2010Prop38
140
0.0
102
RTVSPost2010PropOp38
 70
     1
102
RTVSPost2010Prop39
140
1.0
102
RTVSPost2010PropOp39
 70
     1
102
RTVSPost2010Prop40
 90
        0
102
RTVSPost2010PropOp40
 70
     1
102
RTVSPost2010Prop41ColorIndex
 90
       18
102
RTVSPost2010Prop41ColorRGB
 90
        0
102
RTVSPost2010PropOp41
 70
     1
102
RTVSPost2010Prop42
 90
       50
102
RTVSPost2010PropOp42
 70
     1
102
RTVSPost2010Prop43
 90
        3
102
RTVSPost2010PropOp43
 70
     1
102
RTVSPost2010Prop44ColorIndex
 90
        5
102
RTVSPost2010Prop44ColorRGB
 90
      255
102
RTVSPost2010PropOp44
 70
     1
102
RTVSPost2010Prop45
280
     0
102
RTVSPost2010PropOp45
 70
     1
102
RTVSPost2010Prop46
 90
       50
102
RTVSPost2010PropOp46
 70
     1
102
RTVSPost2010Prop47
 90
       50
102
RTVSPost2010PropOp47
 70
     1
102
RTVSPost2010Prop48
 90
       50
102
RTVSPost2010PropOp48
 70
     1
102
RTVSPost2010Prop49
280
     0
102
RTVSPost2010PropOp49
 70
     1
102
RTVSPost2010Prop50
 90
       50
102
RTVSPost2010PropOp50
 70
     1
102
RTVSPost2010Prop51ColorIndex
 90
      256
102
RTVSPost2010Prop51ColorRGB
 90
-16777216
102
RTVSPost2010PropOp51
 70
     0
102
RTVSPost2010Prop52
140
1.0
102
RTVSPost2010PropOp52
 70
     0
102
RTVSPost2010Prop53
 90
        2
102
RTVSPost2010PropOp53
 70
     1
102
RTVSPost2010Prop54
  1
strokes_ogs.tif
102
RTVSPost2010PropOp54
 70
     1
102
RTVSPost2010Prop55
280
     0
102
RTVSPost2010PropOp55
 70
     1
102
RTVSPost2010Prop56
140
1.0
102
RTVSPost2010PropOp56
 70
     1
102
RTVSPost2010Prop57
140
1.0
102
RTVSPost2010PropOp57
 70
     1
102
RTVSPropertyOp28
 70
     1
102
RTVSPropertyOp29
 70
     1
102
RTVSPropertyOp30
 70
     1
102
RTVSPropertyOp31
 70
     1
102
RTVSPropertyOp32
 70
     1
102
RTVSPropertyOp33
 70
     1
102
RTVSPropertyOp34
 70
     1
102
RTVSPropertyOp35
 70
     1
102
RTVSPropertyOp36
 70
     1
102
RTVSPropertyOp37
 70
     1
102
RTVSPropertyOp38
 70
     1
102
RTVSPropertyOp39
 70
     1
102
RTVSPropertyOp40
 70
     1
102
RTVSPropertyOp41
 70
     1
102
RTVSPropertyOp42
 70
     1
102
RTVSPropertyOp43
 70
     1
102
RTVSPropertyOp44
 70
     1
102
RTVSPropertyOp45
 70
     1
102
RTVSPropertyOp46
 70
     1
102
RTVSPropertyOp47
 70
     1
102
RTVSPropertyOp48
 70
     1
102
RTVSPropertyOp49
 70
     1
102
RTVSPropertyOp50
 70
     1
102
RTVSPropertyOp51
 70
     0
102
RTVSPropertyOp52
 70
     0
102
RTVSPropertyOp53
 70
     1
102
RTVSPropertyOp54
 70
     1
102
RTVSPropertyOp55
 70
     1
102
RTVSPropertyOp56
 70
     1
102
RTVSPropertyOp57
 70
     1
102
RTVSPropertyOp58
 70
     1
102
RTVSPropertyOp59
 70
     1
102
RTVSPropertyOp60
 70
     1
102
RTVSPropertyOp61
 70
     1
102
RTVSPropertyOp62
 70
     1
102
RTVSPropertyOp0
 70
     1
102
RTVSPropertyOp1
 70
     1
102
RTVSPropertyOp2
 70
     1
102
RTVSPropertyOp3
 70
     1
102
RTVSPropertyOp4
 70
     1
102
RTVSPropertyOp5
 70
     1
102
RTVSPropertyOp6
 70
     1
102
RTVSPropertyOp7
 70
     1
102
RTVSPropertyOp8
 70
     1
102
RTVSPropertyOp9
 70
     1
102
RTVSPropertyOp10
 70
     1
102
RTVSPropertyOp11
 70
     1
102
RTVSPropertyOp12
 70
     1
102
RTVSPropertyOp13
 70
     1
102
RTVSPropertyOp14
 70
     1
102
RTVSPropertyOp15
 70
     1
102
RTVSPropertyOp16
 70
     1
102
RTVSPropertyOp17
 70
     1
102
RTVSPropertyOp18
 70
     1
102
RTVSPropertyOp19
 70
     1
102
RTVSPropertyOp20
 70
     1
102
RTVSPropertyOp21
 70
     1
102
RTVSPropertyOp22
 70
     1
102
RTVSPropertyOp23
 70
     1
102
RTVSPropertyOp24
 70
     1
102
RTVSPropertyOp25
 70
     1
102
RTVSPropertyOp26
 70
     1
102
RTVSPropertyOp27
 70
     1
  0
XRECORD
  5
3428
102
{ACAD_REACTORS
330
3427
102
}
330
3427
100
AcDbXrecord
280
     1
102
RTVSPost2010Prop28
280
     0
102
RTVSPost2010PropOp28
 70
     1
102
RTVSPost2010Prop29
280
     1
102
RTVSPost2010PropOp29
 70
     1
102
RTVSPost2010Prop30
280
     1
102
RTVSPost2010PropOp30
 70
     1
102
RTVSPost2010Prop31
280
     0
102
RTVSPost2010PropOp31
 70
     1
102
RTVSPost2010Prop32
280
     0
102
RTVSPost2010PropOp32
 70
     1
102
RTVSPost2010Prop33
280
     0
102
RTVSPost2010PropOp33
 70
     1
102
RTVSPost2010Prop34
280
     0
102
RTVSPost2010PropOp34
 70
     1
102
RTVSPost2010Prop35
280
     0
102
RTVSPost2010PropOp35
 70
     1
102
RTVSPost2010Prop36
280
     0
102
RTVSPost2010PropOp36
 70
     1
102
RTVSPost2010Prop37
 90
       50
102
RTVSPost2010PropOp37
 70
     1
102
RTVSPost2010Prop38
140
0.0
102
RTVSPost2010PropOp38
 70
     1
102
RTVSPost2010Prop39
140
1.0
102
RTVSPost2010PropOp39
 70
     1
102
RTVSPost2010Prop40
 90
        0
102
RTVSPost2010PropOp40
 70
     1
102
RTVSPost2010Prop41ColorIndex
 90
       18
102
RTVSPost2010Prop41ColorRGB
 90
        0
102
RTVSPost2010PropOp41
 70
     1
102
RTVSPost2010Prop42
 90
       50
102
RTVSPost2010PropOp42
 70
     1
102
RTVSPost2010Prop43
 90
        3
102
RTVSPost2010PropOp43
 70
     1
102
RTVSPost2010Prop44ColorIndex
 90
        5
102
RTVSPost2010Prop44ColorRGB
 90
      255
102
RTVSPost2010PropOp44
 70
     1
102
RTVSPost2010Prop45
280
     0
102
RTVSPost2010PropOp45
 70
     1
102
RTVSPost2010Prop46
 90
       50
102
RTVSPost2010PropOp46
 70
     1
102
RTVSPost2010Prop47
 90
       50
102
RTVSPost2010PropOp47
 70
     1
102
RTVSPost2010Prop48
 90
       50
102
RTVSPost2010PropOp48
 70
     1
102
RTVSPost2010Prop49
280
     0
102
RTVSPost2010PropOp49
 70
     1
102
RTVSPost2010Prop50
 90
       50
102
RTVSPost2010PropOp50
 70
     1
102
RTVSPost2010Prop51ColorIndex
 90
      256
102
RTVSPost2010Prop51ColorRGB
 90
-16777216
102
RTVSPost2010PropOp51
 70
     0
102
RTVSPost2010Prop52
140
1.0
102
RTVSPost2010PropOp52
 70
     0
102
RTVSPost2010Prop53
 90
        2
102
RTVSPost2010PropOp53
 70
     1
102
RTVSPost2010Prop54
  1
strokes_ogs.tif
102
RTVSPost2010PropOp54
 70
     1
102
RTVSPost2010Prop55
280
     0
102
RTVSPost2010PropOp55
 70
     1
102
RTVSPost2010Prop56
140
1.0
102
RTVSPost2010PropOp56
 70
     1
102
RTVSPost2010Prop57
140
1.0
102
RTVSPost2010PropOp57
 70
     1
102
RTVSPropertyOp28
 70
     1
102
RTVSPropertyOp29
 70
     1
102
RTVSPropertyOp30
 70
     1
102
RTVSPropertyOp31
 70
     1
102
RTVSPropertyOp32
 70
     1
102
RTVSPropertyOp33
 70
     1
102
RTVSPropertyOp34
 70
     1
102
RTVSPropertyOp35
 70
     1
102
RTVSPropertyOp36
 70
     1
102
RTVSPropertyOp37
 70
     1
102
RTVSPropertyOp38
 70
     1
102
RTVSPropertyOp39
 70
     1
102
RTVSPropertyOp40
 70
     1
102
RTVSPropertyOp41
 70
     1
102
RTVSPropertyOp42
 70
     1
102
RTVSPropertyOp43
 70
     1
102
RTVSPropertyOp44
 70
     1
102
RTVSPropertyOp45
 70
     1
102
RTVSPropertyOp46
 70
     1
102
RTVSPropertyOp47
 70
     1
102
RTVSPropertyOp48
 70
     1
102
RTVSPropertyOp49
 70
     1
102
RTVSPropertyOp50
 70
     1
102
RTVSPropertyOp51
 70
     0
102
RTVSPropertyOp52
 70
     0
102
RTVSPropertyOp53
 70
     1
102
RTVSPropertyOp54
 70
     1
102
RTVSPropertyOp55
 70
     1
102
RTVSPropertyOp56
 70
     1
102
RTVSPropertyOp57
 70
     1
102
RTVSPropertyOp58
 70
     1
102
RTVSPropertyOp59
 70
     1
102
RTVSPropertyOp60
 70
     1
102
RTVSPropertyOp61
 70
     1
102
RTVSPropertyOp62
 70
     1
102
RTVSPropertyOp0
 70
     1
102
RTVSPropertyOp1
 70
     1
102
RTVSPropertyOp2
 70
     1
102
RTVSPropertyOp3
 70
     1
102
RTVSPropertyOp4
 70
     1
102
RTVSPropertyOp5
 70
     1
102
RTVSPropertyOp6
 70
     1
102
RTVSPropertyOp7
 70
     1
102
RTVSPropertyOp8
 70
     1
102
RTVSPropertyOp9
 70
     1
102
RTVSPropertyOp10
 70
     1
102
RTVSPropertyOp11
 70
     1
102
RTVSPropertyOp12
 70
     1
102
RTVSPropertyOp13
 70
     1
102
RTVSPropertyOp14
 70
     1
102
RTVSPropertyOp15
 70
     1
102
RTVSPropertyOp16
 70
     1
102
RTVSPropertyOp17
 70
     1
102
RTVSPropertyOp18
 70
     1
102
RTVSPropertyOp19
 70
     1
102
RTVSPropertyOp20
 70
     1
102
RTVSPropertyOp21
 70
     1
102
RTVSPropertyOp22
 70
     1
102
RTVSPropertyOp23
 70
     1
102
RTVSPropertyOp24
 70
     1
102
RTVSPropertyOp25
 70
     1
102
RTVSPropertyOp26
 70
     1
102
RTVSPropertyOp27
 70
     1
  0
XRECORD
  5
3422
102
{ACAD_REACTORS
330
3421
102
}
330
3421
100
AcDbXrecord
280
     1
102
RTVSPost2010Prop28
280
     0
102
RTVSPost2010PropOp28
 70
     1
102
RTVSPost2010Prop29
280
     1
102
RTVSPost2010PropOp29
 70
     1
102
RTVSPost2010Prop30
280
     1
102
RTVSPost2010PropOp30
 70
     1
102
RTVSPost2010Prop31
280
     0
102
RTVSPost2010PropOp31
 70
     1
102
RTVSPost2010Prop32
280
     0
102
RTVSPost2010PropOp32
 70
     1
102
RTVSPost2010Prop33
280
     0
102
RTVSPost2010PropOp33
 70
     1
102
RTVSPost2010Prop34
280
     0
102
RTVSPost2010PropOp34
 70
     1
102
RTVSPost2010Prop35
280
     0
102
RTVSPost2010PropOp35
 70
     1
102
RTVSPost2010Prop36
280
     0
102
RTVSPost2010PropOp36
 70
     1
102
RTVSPost2010Prop37
 90
       50
102
RTVSPost2010PropOp37
 70
     1
102
RTVSPost2010Prop38
140
0.0
102
RTVSPost2010PropOp38
 70
     1
102
RTVSPost2010Prop39
140
1.0
102
RTVSPost2010PropOp39
 70
     1
102
RTVSPost2010Prop40
 90
        0
102
RTVSPost2010PropOp40
 70
     1
102
RTVSPost2010Prop41ColorIndex
 90
       18
102
RTVSPost2010Prop41ColorRGB
 90
        0
102
RTVSPost2010PropOp41
 70
     1
102
RTVSPost2010Prop42
 90
       50
102
RTVSPost2010PropOp42
 70
     1
102
RTVSPost2010Prop43
 90
        3
102
RTVSPost2010PropOp43
 70
     1
102
RTVSPost2010Prop44ColorIndex
 90
        5
102
RTVSPost2010Prop44ColorRGB
 90
      255
102
RTVSPost2010PropOp44
 70
     1
102
RTVSPost2010Prop45
280
     0
102
RTVSPost2010PropOp45
 70
     1
102
RTVSPost2010Prop46
 90
       50
102
RTVSPost2010PropOp46
 70
     1
102
RTVSPost2010Prop47
 90
       50
102
RTVSPost2010PropOp47
 70
     1
102
RTVSPost2010Prop48
 90
       50
102
RTVSPost2010PropOp48
 70
     1
102
RTVSPost2010Prop49
280
     0
102
RTVSPost2010PropOp49
 70
     1
102
RTVSPost2010Prop50
 90
       50
102
RTVSPost2010PropOp50
 70
     1
102
RTVSPost2010Prop51ColorIndex
 90
      256
102
RTVSPost2010Prop51ColorRGB
 90
-16777216
102
RTVSPost2010PropOp51
 70
     0
102
RTVSPost2010Prop52
140
1.0
102
RTVSPost2010PropOp52
 70
     0
102
RTVSPost2010Prop53
 90
        2
102
RTVSPost2010PropOp53
 70
     1
102
RTVSPost2010Prop54
  1
strokes_ogs.tif
102
RTVSPost2010PropOp54
 70
     1
102
RTVSPost2010Prop55
280
     0
102
RTVSPost2010PropOp55
 70
     1
102
RTVSPost2010Prop56
140
1.0
102
RTVSPost2010PropOp56
 70
     1
102
RTVSPost2010Prop57
140
1.0
102
RTVSPost2010PropOp57
 70
     1
102
RTVSPropertyOp28
 70
     1
102
RTVSPropertyOp29
 70
     1
102
RTVSPropertyOp30
 70
     1
102
RTVSPropertyOp31
 70
     1
102
RTVSPropertyOp32
 70
     1
102
RTVSPropertyOp33
 70
     1
102
RTVSPropertyOp34
 70
     1
102
RTVSPropertyOp35
 70
     1
102
RTVSPropertyOp36
 70
     1
102
RTVSPropertyOp37
 70
     1
102
RTVSPropertyOp38
 70
     1
102
RTVSPropertyOp39
 70
     1
102
RTVSPropertyOp40
 70
     1
102
RTVSPropertyOp41
 70
     1
102
RTVSPropertyOp42
 70
     1
102
RTVSPropertyOp43
 70
     1
102
RTVSPropertyOp44
 70
     1
102
RTVSPropertyOp45
 70
     1
102
RTVSPropertyOp46
 70
     1
102
RTVSPropertyOp47
 70
     1
102
RTVSPropertyOp48
 70
     1
102
RTVSPropertyOp49
 70
     1
102
RTVSPropertyOp50
 70
     1
102
RTVSPropertyOp51
 70
     0
102
RTVSPropertyOp52
 70
     0
102
RTVSPropertyOp53
 70
     1
102
RTVSPropertyOp54
 70
     1
102
RTVSPropertyOp55
 70
     1
102
RTVSPropertyOp56
 70
     1
102
RTVSPropertyOp57
 70
     1
102
RTVSPropertyOp58
 70
     1
102
RTVSPropertyOp59
 70
     1
102
RTVSPropertyOp60
 70
     1
102
RTVSPropertyOp61
 70
     1
102
RTVSPropertyOp62
 70
     1
102
RTVSPropertyOp0
 70
     1
102
RTVSPropertyOp1
 70
     1
102
RTVSPropertyOp2
 70
     1
102
RTVSPropertyOp3
 70
     1
102
RTVSPropertyOp4
 70
     1
102
RTVSPropertyOp5
 70
     1
102
RTVSPropertyOp6
 70
     1
102
RTVSPropertyOp7
 70
     1
102
RTVSPropertyOp8
 70
     1
102
RTVSPropertyOp9
 70
     1
102
RTVSPropertyOp10
 70
     1
102
RTVSPropertyOp11
 70
     1
102
RTVSPropertyOp12
 70
     1
102
RTVSPropertyOp13
 70
     1
102
RTVSPropertyOp14
 70
     1
102
RTVSPropertyOp15
 70
     1
102
RTVSPropertyOp16
 70
     1
102
RTVSPropertyOp17
 70
     1
102
RTVSPropertyOp18
 70
     1
102
RTVSPropertyOp19
 70
     1
102
RTVSPropertyOp20
 70
     1
102
RTVSPropertyOp21
 70
     1
102
RTVSPropertyOp22
 70
     1
102
RTVSPropertyOp23
 70
     1
102
RTVSPropertyOp24
 70
     1
102
RTVSPropertyOp25
 70
     1
102
RTVSPropertyOp26
 70
     1
102
RTVSPropertyOp27
 70
     1
  0
XRECORD
  5
3424
102
{ACAD_REACTORS
330
3423
102
}
330
3423
100
AcDbXrecord
280
     1
102
RTVSPost2010Prop28
280
     0
102
RTVSPost2010PropOp28
 70
     1
102
RTVSPost2010Prop29
280
     1
102
RTVSPost2010PropOp29
 70
     1
102
RTVSPost2010Prop30
280
     1
102
RTVSPost2010PropOp30
 70
     1
102
RTVSPost2010Prop31
280
     0
102
RTVSPost2010PropOp31
 70
     1
102
RTVSPost2010Prop32
280
     0
102
RTVSPost2010PropOp32
 70
     1
102
RTVSPost2010Prop33
280
     0
102
RTVSPost2010PropOp33
 70
     1
102
RTVSPost2010Prop34
280
     0
102
RTVSPost2010PropOp34
 70
     1
102
RTVSPost2010Prop35
280
     0
102
RTVSPost2010PropOp35
 70
     1
102
RTVSPost2010Prop36
280
     0
102
RTVSPost2010PropOp36
 70
     1
102
RTVSPost2010Prop37
 90
       50
102
RTVSPost2010PropOp37
 70
     1
102
RTVSPost2010Prop38
140
0.0
102
RTVSPost2010PropOp38
 70
     1
102
RTVSPost2010Prop39
140
1.0
102
RTVSPost2010PropOp39
 70
     1
102
RTVSPost2010Prop40
 90
        0
102
RTVSPost2010PropOp40
 70
     1
102
RTVSPost2010Prop41ColorIndex
 90
       18
102
RTVSPost2010Prop41ColorRGB
 90
        0
102
RTVSPost2010PropOp41
 70
     1
102
RTVSPost2010Prop42
 90
       50
102
RTVSPost2010PropOp42
 70
     1
102
RTVSPost2010Prop43
 90
        3
102
RTVSPost2010PropOp43
 70
     1
102
RTVSPost2010Prop44ColorIndex
 90
        5
102
RTVSPost2010Prop44ColorRGB
 90
      255
102
RTVSPost2010PropOp44
 70
     1
102
RTVSPost2010Prop45
280
     0
102
RTVSPost2010PropOp45
 70
     1
102
RTVSPost2010Prop46
 90
       50
102
RTVSPost2010PropOp46
 70
     1
102
RTVSPost2010Prop47
 90
       50
102
RTVSPost2010PropOp47
 70
     1
102
RTVSPost2010Prop48
 90
       50
102
RTVSPost2010PropOp48
 70
     1
102
RTVSPost2010Prop49
280
     0
102
RTVSPost2010PropOp49
 70
     1
102
RTVSPost2010Prop50
 90
       50
102
RTVSPost2010PropOp50
 70
     1
102
RTVSPost2010Prop51ColorIndex
 90
      256
102
RTVSPost2010Prop51ColorRGB
 90
-16777216
102
RTVSPost2010PropOp51
 70
     0
102
RTVSPost2010Prop52
140
1.0
102
RTVSPost2010PropOp52
 70
     0
102
RTVSPost2010Prop53
 90
        2
102
RTVSPost2010PropOp53
 70
     1
102
RTVSPost2010Prop54
  1
strokes_ogs.tif
102
RTVSPost2010PropOp54
 70
     1
102
RTVSPost2010Prop55
280
     0
102
RTVSPost2010PropOp55
 70
     1
102
RTVSPost2010Prop56
140
1.0
102
RTVSPost2010PropOp56
 70
     1
102
RTVSPost2010Prop57
140
1.0
102
RTVSPost2010PropOp57
 70
     1
102
RTVSPropertyOp28
 70
     1
102
RTVSPropertyOp29
 70
     1
102
RTVSPropertyOp30
 70
     1
102
RTVSPropertyOp31
 70
     1
102
RTVSPropertyOp32
 70
     1
102
RTVSPropertyOp33
 70
     1
102
RTVSPropertyOp34
 70
     1
102
RTVSPropertyOp35
 70
     1
102
RTVSPropertyOp36
 70
     1
102
RTVSPropertyOp37
 70
     1
102
RTVSPropertyOp38
 70
     1
102
RTVSPropertyOp39
 70
     1
102
RTVSPropertyOp40
 70
     1
102
RTVSPropertyOp41
 70
     1
102
RTVSPropertyOp42
 70
     1
102
RTVSPropertyOp43
 70
     1
102
RTVSPropertyOp44
 70
     1
102
RTVSPropertyOp45
 70
     1
102
RTVSPropertyOp46
 70
     1
102
RTVSPropertyOp47
 70
     1
102
RTVSPropertyOp48
 70
     1
102
RTVSPropertyOp49
 70
     1
102
RTVSPropertyOp50
 70
     1
102
RTVSPropertyOp51
 70
     0
102
RTVSPropertyOp52
 70
     0
102
RTVSPropertyOp53
 70
     1
102
RTVSPropertyOp54
 70
     1
102
RTVSPropertyOp55
 70
     1
102
RTVSPropertyOp56
 70
     1
102
RTVSPropertyOp57
 70
     1
102
RTVSPropertyOp58
 70
     1
102
RTVSPropertyOp59
 70
     1
102
RTVSPropertyOp60
 70
     1
102
RTVSPropertyOp61
 70
     1
102
RTVSPropertyOp62
 70
     1
102
RTVSPropertyOp0
 70
     1
102
RTVSPropertyOp1
 70
     1
102
RTVSPropertyOp2
 70
     1
102
RTVSPropertyOp3
 70
     1
102
RTVSPropertyOp4
 70
     1
102
RTVSPropertyOp5
 70
     1
102
RTVSPropertyOp6
 70
     1
102
RTVSPropertyOp7
 70
     1
102
RTVSPropertyOp8
 70
     1
102
RTVSPropertyOp9
 70
     1
102
RTVSPropertyOp10
 70
     1
102
RTVSPropertyOp11
 70
     1
102
RTVSPropertyOp12
 70
     1
102
RTVSPropertyOp13
 70
     1
102
RTVSPropertyOp14
 70
     1
102
RTVSPropertyOp15
 70
     1
102
RTVSPropertyOp16
 70
     1
102
RTVSPropertyOp17
 70
     1
102
RTVSPropertyOp18
 70
     1
102
RTVSPropertyOp19
 70
     1
102
RTVSPropertyOp20
 70
     1
102
RTVSPropertyOp21
 70
     1
102
RTVSPropertyOp22
 70
     1
102
RTVSPropertyOp23
 70
     1
102
RTVSPropertyOp24
 70
     1
102
RTVSPropertyOp25
 70
     1
102
RTVSPropertyOp26
 70
     1
102
RTVSPropertyOp27
 70
     1
  0
XRECORD
  5
341A
102
{ACAD_REACTORS
330
3419
102
}
330
3419
100
AcDbXrecord
280
     1
102
RTVSPost2010Prop28
280
     0
102
RTVSPost2010PropOp28
 70
     1
102
RTVSPost2010Prop29
280
     1
102
RTVSPost2010PropOp29
 70
     1
102
RTVSPost2010Prop30
280
     1
102
RTVSPost2010PropOp30
 70
     1
102
RTVSPost2010Prop31
280
     0
102
RTVSPost2010PropOp31
 70
     1
102
RTVSPost2010Prop32
280
     0
102
RTVSPost2010PropOp32
 70
     1
102
RTVSPost2010Prop33
280
     0
102
RTVSPost2010PropOp33
 70
     1
102
RTVSPost2010Prop34
280
     0
102
RTVSPost2010PropOp34
 70
     1
102
RTVSPost2010Prop35
280
     0
102
RTVSPost2010PropOp35
 70
     1
102
RTVSPost2010Prop36
280
     0
102
RTVSPost2010PropOp36
 70
     1
102
RTVSPost2010Prop37
 90
       50
102
RTVSPost2010PropOp37
 70
     1
102
RTVSPost2010Prop38
140
0.0
102
RTVSPost2010PropOp38
 70
     1
102
RTVSPost2010Prop39
140
1.0
102
RTVSPost2010PropOp39
 70
     1
102
RTVSPost2010Prop40
 90
        0
102
RTVSPost2010PropOp40
 70
     1
102
RTVSPost2010Prop41ColorIndex
 90
       18
102
RTVSPost2010Prop41ColorRGB
 90
        0
102
RTVSPost2010PropOp41
 70
     1
102
RTVSPost2010Prop42
 90
       50
102
RTVSPost2010PropOp42
 70
     1
102
RTVSPost2010Prop43
 90
        3
102
RTVSPost2010PropOp43
 70
     1
102
RTVSPost2010Prop44ColorIndex
 90
        5
102
RTVSPost2010Prop44ColorRGB
 90
      255
102
RTVSPost2010PropOp44
 70
     1
102
RTVSPost2010Prop45
280
     0
102
RTVSPost2010PropOp45
 70
     1
102
RTVSPost2010Prop46
 90
       50
102
RTVSPost2010PropOp46
 70
     1
102
RTVSPost2010Prop47
 90
       50
102
RTVSPost2010PropOp47
 70
     1
102
RTVSPost2010Prop48
 90
       50
102
RTVSPost2010PropOp48
 70
     1
102
RTVSPost2010Prop49
280
     0
102
RTVSPost2010PropOp49
 70
     1
102
RTVSPost2010Prop50
 90
       50
102
RTVSPost2010PropOp50
 70
     1
102
RTVSPost2010Prop51ColorIndex
 90
      256
102
RTVSPost2010Prop51ColorRGB
 90
-16777216
102
RTVSPost2010PropOp51
 70
     0
102
RTVSPost2010Prop52
140
1.0
102
RTVSPost2010PropOp52
 70
     0
102
RTVSPost2010Prop53
 90
        2
102
RTVSPost2010PropOp53
 70
     1
102
RTVSPost2010Prop54
  1
strokes_ogs.tif
102
RTVSPost2010PropOp54
 70
     1
102
RTVSPost2010Prop55
280
     0
102
RTVSPost2010PropOp55
 70
     1
102
RTVSPost2010Prop56
140
1.0
102
RTVSPost2010PropOp56
 70
     1
102
RTVSPost2010Prop57
140
1.0
102
RTVSPost2010PropOp57
 70
     1
102
RTVSPropertyOp28
 70
     1
102
RTVSPropertyOp29
 70
     1
102
RTVSPropertyOp30
 70
     1
102
RTVSPropertyOp31
 70
     1
102
RTVSPropertyOp32
 70
     1
102
RTVSPropertyOp33
 70
     1
102
RTVSPropertyOp34
 70
     1
102
RTVSPropertyOp35
 70
     1
102
RTVSPropertyOp36
 70
     1
102
RTVSPropertyOp37
 70
     1
102
RTVSPropertyOp38
 70
     1
102
RTVSPropertyOp39
 70
     1
102
RTVSPropertyOp40
 70
     1
102
RTVSPropertyOp41
 70
     1
102
RTVSPropertyOp42
 70
     1
102
RTVSPropertyOp43
 70
     1
102
RTVSPropertyOp44
 70
     1
102
RTVSPropertyOp45
 70
     1
102
RTVSPropertyOp46
 70
     1
102
RTVSPropertyOp47
 70
     1
102
RTVSPropertyOp48
 70
     1
102
RTVSPropertyOp49
 70
     1
102
RTVSPropertyOp50
 70
     1
102
RTVSPropertyOp51
 70
     0
102
RTVSPropertyOp52
 70
     0
102
RTVSPropertyOp53
 70
     1
102
RTVSPropertyOp54
 70
     1
102
RTVSPropertyOp55
 70
     1
102
RTVSPropertyOp56
 70
     1
102
RTVSPropertyOp57
 70
     1
102
RTVSPropertyOp58
 70
     1
102
RTVSPropertyOp59
 70
     1
102
RTVSPropertyOp60
 70
     1
102
RTVSPropertyOp61
 70
     1
102
RTVSPropertyOp62
 70
     1
102
RTVSPropertyOp0
 70
     1
102
RTVSPropertyOp1
 70
     1
102
RTVSPropertyOp2
 70
     1
102
RTVSPropertyOp3
 70
     1
102
RTVSPropertyOp4
 70
     1
102
RTVSPropertyOp5
 70
     1
102
RTVSPropertyOp6
 70
     1
102
RTVSPropertyOp7
 70
     1
102
RTVSPropertyOp8
 70
     1
102
RTVSPropertyOp9
 70
     1
102
RTVSPropertyOp10
 70
     1
102
RTVSPropertyOp11
 70
     1
102
RTVSPropertyOp12
 70
     1
102
RTVSPropertyOp13
 70
     1
102
RTVSPropertyOp14
 70
     1
102
RTVSPropertyOp15
 70
     1
102
RTVSPropertyOp16
 70
     1
102
RTVSPropertyOp17
 70
     1
102
RTVSPropertyOp18
 70
     1
102
RTVSPropertyOp19
 70
     1
102
RTVSPropertyOp20
 70
     1
102
RTVSPropertyOp21
 70
     1
102
RTVSPropertyOp22
 70
     1
102
RTVSPropertyOp23
 70
     1
102
RTVSPropertyOp24
 70
     1
102
RTVSPropertyOp25
 70
     1
102
RTVSPropertyOp26
 70
     1
102
RTVSPropertyOp27
 70
     1
  0
XRECORD
  5
340E
102
{ACAD_REACTORS
330
340D
102
}
330
340D
100
AcDbXrecord
280
     1
102
RTVSPost2010Prop28
280
     0
102
RTVSPost2010PropOp28
 70
     1
102
RTVSPost2010Prop29
280
     1
102
RTVSPost2010PropOp29
 70
     1
102
RTVSPost2010Prop30
280
     1
102
RTVSPost2010PropOp30
 70
     1
102
RTVSPost2010Prop31
280
     0
102
RTVSPost2010PropOp31
 70
     1
102
RTVSPost2010Prop32
280
     0
102
RTVSPost2010PropOp32
 70
     1
102
RTVSPost2010Prop33
280
     0
102
RTVSPost2010PropOp33
 70
     1
102
RTVSPost2010Prop34
280
     0
102
RTVSPost2010PropOp34
 70
     1
102
RTVSPost2010Prop35
280
     0
102
RTVSPost2010PropOp35
 70
     1
102
RTVSPost2010Prop36
280
     0
102
RTVSPost2010PropOp36
 70
     1
102
RTVSPost2010Prop37
 90
       50
102
RTVSPost2010PropOp37
 70
     1
102
RTVSPost2010Prop38
140
0.0
102
RTVSPost2010PropOp38
 70
     1
102
RTVSPost2010Prop39
140
1.0
102
RTVSPost2010PropOp39
 70
     1
102
RTVSPost2010Prop40
 90
        0
102
RTVSPost2010PropOp40
 70
     1
102
RTVSPost2010Prop41ColorIndex
 90
       18
102
RTVSPost2010Prop41ColorRGB
 90
        0
102
RTVSPost2010PropOp41
 70
     1
102
RTVSPost2010Prop42
 90
       50
102
RTVSPost2010PropOp42
 70
     1
102
RTVSPost2010Prop43
 90
        3
102
RTVSPost2010PropOp43
 70
     1
102
RTVSPost2010Prop44ColorIndex
 90
        5
102
RTVSPost2010Prop44ColorRGB
 90
      255
102
RTVSPost2010PropOp44
 70
     1
102
RTVSPost2010Prop45
280
     0
102
RTVSPost2010PropOp45
 70
     1
102
RTVSPost2010Prop46
 90
       50
102
RTVSPost2010PropOp46
 70
     1
102
RTVSPost2010Prop47
 90
       50
102
RTVSPost2010PropOp47
 70
     1
102
RTVSPost2010Prop48
 90
       50
102
RTVSPost2010PropOp48
 70
     1
102
RTVSPost2010Prop49
280
     0
102
RTVSPost2010PropOp49
 70
     1
102
RTVSPost2010Prop50
 90
       50
102
RTVSPost2010PropOp50
 70
     1
102
RTVSPost2010Prop51ColorIndex
 90
      256
102
RTVSPost2010Prop51ColorRGB
 90
-16777216
102
RTVSPost2010PropOp51
 70
     0
102
RTVSPost2010Prop52
140
1.0
102
RTVSPost2010PropOp52
 70
     0
102
RTVSPost2010Prop53
 90
        2
102
RTVSPost2010PropOp53
 70
     1
102
RTVSPost2010Prop54
  1
strokes_ogs.tif
102
RTVSPost2010PropOp54
 70
     1
102
RTVSPost2010Prop55
280
     0
102
RTVSPost2010PropOp55
 70
     1
102
RTVSPost2010Prop56
140
1.0
102
RTVSPost2010PropOp56
 70
     1
102
RTVSPost2010Prop57
140
1.0
102
RTVSPost2010PropOp57
 70
     1
102
RTVSPropertyOp28
 70
     1
102
RTVSPropertyOp29
 70
     1
102
RTVSPropertyOp30
 70
     1
102
RTVSPropertyOp31
 70
     1
102
RTVSPropertyOp32
 70
     1
102
RTVSPropertyOp33
 70
     1
102
RTVSPropertyOp34
 70
     1
102
RTVSPropertyOp35
 70
     1
102
RTVSPropertyOp36
 70
     1
102
RTVSPropertyOp37
 70
     1
102
RTVSPropertyOp38
 70
     1
102
RTVSPropertyOp39
 70
     1
102
RTVSPropertyOp40
 70
     1
102
RTVSPropertyOp41
 70
     1
102
RTVSPropertyOp42
 70
     1
102
RTVSPropertyOp43
 70
     1
102
RTVSPropertyOp44
 70
     1
102
RTVSPropertyOp45
 70
     1
102
RTVSPropertyOp46
 70
     1
102
RTVSPropertyOp47
 70
     1
102
RTVSPropertyOp48
 70
     1
102
RTVSPropertyOp49
 70
     1
102
RTVSPropertyOp50
 70
     1
102
RTVSPropertyOp51
 70
     0
102
RTVSPropertyOp52
 70
     0
102
RTVSPropertyOp53
 70
     1
102
RTVSPropertyOp54
 70
     1
102
RTVSPropertyOp55
 70
     1
102
RTVSPropertyOp56
 70
     1
102
RTVSPropertyOp57
 70
     1
102
RTVSPropertyOp58
 70
     1
102
RTVSPropertyOp59
 70
     1
102
RTVSPropertyOp60
 70
     1
102
RTVSPropertyOp61
 70
     1
102
RTVSPropertyOp62
 70
     1
102
RTVSPropertyOp0
 70
     1
102
RTVSPropertyOp1
 70
     1
102
RTVSPropertyOp2
 70
     1
102
RTVSPropertyOp3
 70
     1
102
RTVSPropertyOp4
 70
     1
102
RTVSPropertyOp5
 70
     1
102
RTVSPropertyOp6
 70
     1
102
RTVSPropertyOp7
 70
     1
102
RTVSPropertyOp8
 70
     1
102
RTVSPropertyOp9
 70
     1
102
RTVSPropertyOp10
 70
     1
102
RTVSPropertyOp11
 70
     1
102
RTVSPropertyOp12
 70
     1
102
RTVSPropertyOp13
 70
     1
102
RTVSPropertyOp14
 70
     1
102
RTVSPropertyOp15
 70
     1
102
RTVSPropertyOp16
 70
     1
102
RTVSPropertyOp17
 70
     1
102
RTVSPropertyOp18
 70
     1
102
RTVSPropertyOp19
 70
     1
102
RTVSPropertyOp20
 70
     1
102
RTVSPropertyOp21
 70
     1
102
RTVSPropertyOp22
 70
     1
102
RTVSPropertyOp23
 70
     1
102
RTVSPropertyOp24
 70
     1
102
RTVSPropertyOp25
 70
     1
102
RTVSPropertyOp26
 70
     1
102
RTVSPropertyOp27
 70
     1
  0
XRECORD
  5
3426
102
{ACAD_REACTORS
330
3425
102
}
330
3425
100
AcDbXrecord
280
     1
102
RTVSPost2010Prop28
280
     0
102
RTVSPost2010PropOp28
 70
     1
102
RTVSPost2010Prop29
280
     1
102
RTVSPost2010PropOp29
 70
     1
102
RTVSPost2010Prop30
280
     1
102
RTVSPost2010PropOp30
 70
     1
102
RTVSPost2010Prop31
280
     0
102
RTVSPost2010PropOp31
 70
     1
102
RTVSPost2010Prop32
280
     0
102
RTVSPost2010PropOp32
 70
     1
102
RTVSPost2010Prop33
280
     0
102
RTVSPost2010PropOp33
 70
     1
102
RTVSPost2010Prop34
280
     0
102
RTVSPost2010PropOp34
 70
     1
102
RTVSPost2010Prop35
280
     0
102
RTVSPost2010PropOp35
 70
     1
102
RTVSPost2010Prop36
280
     0
102
RTVSPost2010PropOp36
 70
     1
102
RTVSPost2010Prop37
 90
       50
102
RTVSPost2010PropOp37
 70
     1
102
RTVSPost2010Prop38
140
0.0
102
RTVSPost2010PropOp38
 70
     1
102
RTVSPost2010Prop39
140
1.0
102
RTVSPost2010PropOp39
 70
     1
102
RTVSPost2010Prop40
 90
        0
102
RTVSPost2010PropOp40
 70
     1
102
RTVSPost2010Prop41ColorIndex
 90
       18
102
RTVSPost2010Prop41ColorRGB
 90
        0
102
RTVSPost2010PropOp41
 70
     1
102
RTVSPost2010Prop42
 90
       50
102
RTVSPost2010PropOp42
 70
     1
102
RTVSPost2010Prop43
 90
        3
102
RTVSPost2010PropOp43
 70
     1
102
RTVSPost2010Prop44ColorIndex
 90
        5
102
RTVSPost2010Prop44ColorRGB
 90
      255
102
RTVSPost2010PropOp44
 70
     1
102
RTVSPost2010Prop45
280
     0
102
RTVSPost2010PropOp45
 70
     1
102
RTVSPost2010Prop46
 90
       50
102
RTVSPost2010PropOp46
 70
     1
102
RTVSPost2010Prop47
 90
       50
102
RTVSPost2010PropOp47
 70
     1
102
RTVSPost2010Prop48
 90
       50
102
RTVSPost2010PropOp48
 70
     1
102
RTVSPost2010Prop49
280
     0
102
RTVSPost2010PropOp49
 70
     1
102
RTVSPost2010Prop50
 90
       50
102
RTVSPost2010PropOp50
 70
     1
102
RTVSPost2010Prop51ColorIndex
 90
      256
102
RTVSPost2010Prop51ColorRGB
 90
-16777216
102
RTVSPost2010PropOp51
 70
     0
102
RTVSPost2010Prop52
140
1.0
102
RTVSPost2010PropOp52
 70
     0
102
RTVSPost2010Prop53
 90
        2
102
RTVSPost2010PropOp53
 70
     1
102
RTVSPost2010Prop54
  1
strokes_ogs.tif
102
RTVSPost2010PropOp54
 70
     1
102
RTVSPost2010Prop55
280
     0
102
RTVSPost2010PropOp55
 70
     1
102
RTVSPost2010Prop56
140
1.0
102
RTVSPost2010PropOp56
 70
     1
102
RTVSPost2010Prop57
140
1.0
102
RTVSPost2010PropOp57
 70
     1
102
RTVSPropertyOp28
 70
     1
102
RTVSPropertyOp29
 70
     1
102
RTVSPropertyOp30
 70
     1
102
RTVSPropertyOp31
 70
     1
102
RTVSPropertyOp32
 70
     1
102
RTVSPropertyOp33
 70
     1
102
RTVSPropertyOp34
 70
     1
102
RTVSPropertyOp35
 70
     1
102
RTVSPropertyOp36
 70
     1
102
RTVSPropertyOp37
 70
     1
102
RTVSPropertyOp38
 70
     1
102
RTVSPropertyOp39
 70
     1
102
RTVSPropertyOp40
 70
     1
102
RTVSPropertyOp41
 70
     1
102
RTVSPropertyOp42
 70
     1
102
RTVSPropertyOp43
 70
     1
102
RTVSPropertyOp44
 70
     1
102
RTVSPropertyOp45
 70
     1
102
RTVSPropertyOp46
 70
     1
102
RTVSPropertyOp47
 70
     1
102
RTVSPropertyOp48
 70
     1
102
RTVSPropertyOp49
 70
     1
102
RTVSPropertyOp50
 70
     1
102
RTVSPropertyOp51
 70
     0
102
RTVSPropertyOp52
 70
     0
102
RTVSPropertyOp53
 70
     1
102
RTVSPropertyOp54
 70
     1
102
RTVSPropertyOp55
 70
     1
102
RTVSPropertyOp56
 70
     1
102
RTVSPropertyOp57
 70
     1
102
RTVSPropertyOp58
 70
     1
102
RTVSPropertyOp59
 70
     1
102
RTVSPropertyOp60
 70
     1
102
RTVSPropertyOp61
 70
     1
102
RTVSPropertyOp62
 70
     1
102
RTVSPropertyOp0
 70
     1
102
RTVSPropertyOp1
 70
     1
102
RTVSPropertyOp2
 70
     1
102
RTVSPropertyOp3
 70
     1
102
RTVSPropertyOp4
 70
     1
102
RTVSPropertyOp5
 70
     1
102
RTVSPropertyOp6
 70
     1
102
RTVSPropertyOp7
 70
     1
102
RTVSPropertyOp8
 70
     1
102
RTVSPropertyOp9
 70
     1
102
RTVSPropertyOp10
 70
     1
102
RTVSPropertyOp11
 70
     1
102
RTVSPropertyOp12
 70
     1
102
RTVSPropertyOp13
 70
     1
102
RTVSPropertyOp14
 70
     1
102
RTVSPropertyOp15
 70
     1
102
RTVSPropertyOp16
 70
     1
102
RTVSPropertyOp17
 70
     1
102
RTVSPropertyOp18
 70
     1
102
RTVSPropertyOp19
 70
     1
102
RTVSPropertyOp20
 70
     1
102
RTVSPropertyOp21
 70
     1
102
RTVSPropertyOp22
 70
     1
102
RTVSPropertyOp23
 70
     1
102
RTVSPropertyOp24
 70
     1
102
RTVSPropertyOp25
 70
     1
102
RTVSPropertyOp26
 70
     1
102
RTVSPropertyOp27
 70
     1
  0
ENDSEC
  0
EOF
