  0
SECTION
  2
HEADER
  9
$ACADVER
  1
AC1027
  9
$ACADMAINTVER
 70
   125
  9
$DWGCODEPAGE
  3
ANSI_932
  9
$LASTSAVEDBY
  1
t-kanatani
  9
$REQUIREDVERSIONS
160
                 0
  9
$INSBASE
 10
0.0
 20
0.0
 30
0.0
  9
$EXTMIN
 10
-604.0945069670051
 20
5.474621351409354
 30
0.0
  9
$EXTMAX
 10
216.6666666666666
 20
891.6142547555066
 30
0.0
  9
$LIMMIN
 10
-2550.0
 20
0.0
  9
$LIMMAX
 10
0.0
 20
1800.0
  9
$ORTHOMODE
 70
     1
  9
$REGENMODE
 70
     1
  9
$FILLMODE
 70
     1
  9
$QTEXTMODE
 70
     0
  9
$MIRRTEXT
 70
     0
  9
$LTSCALE
 40
1.0
  9
$ATTMODE
 70
     1
  9
$TEXTSIZE
 40
0.2
  9
$TRACEWID
 40
0.05
  9
$TEXTSTYLE
  7
STANDARD
  9
$CLAYER
  8
0
  9
$CELTYPE
  6
CONTINUOUS
  9
$CECOLOR
 62
   256
  9
$CELTSCALE
 40
1.0
  9
$DISPSILH
 70
     0
  9
$DIMSCALE
 40
1.0
  9
$DIMASZ
 40
0.18
  9
$DIMEXO
 40
0.0625
  9
$DIMDLI
 40
0.38
  9
$DIMRND
 40
0.0
  9
$DIMDLE
 40
0.0
  9
$DIMEXE
 40
0.18
  9
$DIMTP
 40
0.0
  9
$DIMTM
 40
0.0
  9
$DIMTXT
 40
0.18
  9
$DIMCEN
 40
0.09
  9
$DIMTSZ
 40
0.0
  9
$DIMTOL
 70
     0
  9
$DIMLIM
 70
     0
  9
$DIMTIH
 70
     1
  9
$DIMTOH
 70
     1
  9
$DIMSE1
 70
     0
  9
$DIMSE2
 70
     0
  9
$DIMTAD
 70
     0
  9
$DIMZIN
 70
     0
  9
$DIMBLK
  1

  9
$DIMASO
 70
     1
  9
$DIMSHO
 70
     0
  9
$DIMPOST
  1

  9
$DIMAPOST
  1

  9
$DIMALT
 70
     0
  9
$DIMALTD
 70
     2
  9
$DIMALTF
 40
25.4
  9
$DIMLFAC
 40
1.0
  9
$DIMTOFL
 70
     0
  9
$DIMTVP
 40
0.0
  9
$DIMTIX
 70
     0
  9
$DIMSOXD
 70
     0
  9
$DIMSAH
 70
     0
  9
$DIMBLK1
  1

  9
$DIMBLK2
  1

  9
$DIMSTYLE
  2
Standard
  9
$DIMCLRD
 70
     0
  9
$DIMCLRE
 70
     0
  9
$DIMCLRT
 70
     0
  9
$DIMTFAC
 40
1.0
  9
$DIMGAP
 40
0.09
  9
$DIMJUST
 70
     0
  9
$DIMSD1
 70
     0
  9
$DIMSD2
 70
     0
  9
$DIMTOLJ
 70
     1
  9
$DIMTZIN
 70
     0
  9
$DIMALTZ
 70
     0
  9
$DIMALTTZ
 70
     0
  9
$DIMUPT
 70
     0
  9
$DIMDEC
 70
     4
  9
$DIMTDEC
 70
     4
  9
$DIMALTU
 70
     2
  9
$DIMALTTD
 70
     2
  9
$DIMTXSTY
  7
STANDARD
  9
$DIMAUNIT
 70
     0
  9
$DIMADEC
 70
     0
  9
$DIMALTRND
 40
0.0
  9
$DIMAZIN
 70
     0
  9
$DIMDSEP
 70
    46
  9
$DIMATFIT
 70
     3
  9
$DIMFRAC
 70
     0
  9
$DIMLDRBLK
  1

  9
$DIMLUNIT
 70
     2
  9
$DIMLWD
 70
    -2
  9
$DIMLWE
 70
    -2
  9
$DIMTMOVE
 70
     0
  9
$DIMFXL
 40
1.0
  9
$DIMFXLON
 70
     0
  9
$DIMJOGANG
 40
0.7853981633974483
  9
$DIMTFILL
 70
     1
  9
$DIMTFILLCLR
 70
     0
  9
$DIMARCSYM
 70
     1
  9
$DIMLTYPE
  6
BYBLOCK
  9
$DIMLTEX1
  6
BYBLOCK
  9
$DIMLTEX2
  6
BYBLOCK
  9
$DIMTXTDIRECTION
 70
     0
  9
$LUNITS
 70
     2
  9
$LUPREC
 70
     8
  9
$SKETCHINC
 40
0.1
  9
$FILLETRAD
 40
0.0
  9
$AUNITS
 70
     0
  9
$AUPREC
 70
     0
  9
$MENU
  1
.
  9
$ELEVATION
 40
0.0
  9
$PELEVATION
 40
0.0
  9
$THICKNESS
 40
0.0
  9
$LIMCHECK
 70
     0
  9
$CHAMFERA
 40
0.0
  9
$CHAMFERB
 40
0.0
  9
$CHAMFERC
 40
0.0
  9
$CHAMFERD
 40
0.0
  9
$SKPOLY
 70
     0
  9
$TDCREATE
 40
2456143.683831019
  9
$TDUCREATE
 40
2456143.308840602
  9
$TDUPDATE
 40
2459713.430949074
  9
$TDUUPDATE
 40
2459713.055949074
  9
$TDINDWG
 40
0.0969937731
  9
$TDUSRTIMER
 40
0.0969937731
  9
$USRTIMER
 70
     1
  9
$ANGBASE
 50
0.0
  9
$ANGDIR
 70
     0
  9
$PDMODE
 70
     0
  9
$PDSIZE
 40
0.0
  9
$PLINEWID
 40
0.0
  9
$SPLFRAME
 70
     0
  9
$SPLINETYPE
 70
     6
  9
$SPLINESEGS
 70
     8
  9
$HANDSEED
  5
4A44
  9
$SURFTAB1
 70
     6
  9
$SURFTAB2
 70
     6
  9
$SURFTYPE
 70
     6
  9
$SURFU
 70
     6
  9
$SURFV
 70
     6
  9
$UCSBASE
  2

  9
$UCSNAME
  2

  9
$UCSORG
 10
0.0
 20
0.0
 30
0.0
  9
$UCSXDIR
 10
1.0
 20
0.0
 30
0.0
  9
$UCSYDIR
 10
0.0
 20
1.0
 30
0.0
  9
$UCSORTHOREF
  2

  9
$UCSORTHOVIEW
 70
     0
  9
$UCSORGTOP
 10
0.0
 20
0.0
 30
0.0
  9
$UCSORGBOTTOM
 10
0.0
 20
0.0
 30
0.0
  9
$UCSORGLEFT
 10
0.0
 20
0.0
 30
0.0
  9
$UCSORGRIGHT
 10
0.0
 20
0.0
 30
0.0
  9
$UCSORGFRONT
 10
0.0
 20
0.0
 30
0.0
  9
$UCSORGBACK
 10
0.0
 20
0.0
 30
0.0
  9
$PUCSBASE
  2

  9
$PUCSNAME
  2

  9
$PUCSORG
 10
0.0
 20
0.0
 30
0.0
  9
$PUCSXDIR
 10
1.0
 20
0.0
 30
0.0
  9
$PUCSYDIR
 10
0.0
 20
1.0
 30
0.0
  9
$PUCSORTHOREF
  2

  9
$PUCSORTHOVIEW
 70
     0
  9
$PUCSORGTOP
 10
0.0
 20
0.0
 30
0.0
  9
$PUCSORGBOTTOM
 10
0.0
 20
0.0
 30
0.0
  9
$PUCSORGLEFT
 10
0.0
 20
0.0
 30
0.0
  9
$PUCSORGRIGHT
 10
0.0
 20
0.0
 30
0.0
  9
$PUCSORGFRONT
 10
0.0
 20
0.0
 30
0.0
  9
$PUCSORGBACK
 10
0.0
 20
0.0
 30
0.0
  9
$USERI1
 70
     0
  9
$USERI2
 70
     0
  9
$USERI3
 70
     0
  9
$USERI4
 70
     0
  9
$USERI5
 70
     0
  9
$USERR1
 40
0.0
  9
$USERR2
 40
0.0
  9
$USERR3
 40
0.0
  9
$USERR4
 40
0.0
  9
$USERR5
 40
0.0
  9
$WORLDVIEW
 70
     1
  9
$SHADEDGE
 70
     3
  9
$SHADEDIF
 70
    70
  9
$TILEMODE
 70
     1
  9
$MAXACTVP
 70
    64
  9
$PINSBASE
 10
0.0
 20
0.0
 30
0.0
  9
$PLIMCHECK
 70
     0
  9
$PEXTMIN
 10
-2550.0
 20
0.0
 30
0.0
  9
$PEXTMAX
 10
0.0
 20
1800.0
 30
0.0
  9
$PLIMMIN
 10
-2550.0
 20
0.0
  9
$PLIMMAX
 10
0.0
 20
1800.0
  9
$UNITMODE
 70
     0
  9
$VISRETAIN
 70
     1
  9
$PLINEGEN
 70
     0
  9
$PSLTSCALE
 70
     1
  9
$TREEDEPTH
 70
  3020
  9
$CMLSTYLE
  2
STANDARD
  9
$CMLJUST
 70
     0
  9
$CMLSCALE
 40
1.0
  9
$PROXYGRAPHICS
 70
     1
  9
$MEASUREMENT
 70
     1
  9
$CELWEIGHT
370
    -1
  9
$ENDCAPS
280
     0
  9
$JOINSTYLE
280
     0
  9
$LWDISPLAY
290
     0
  9
$INSUNITS
 70
     0
  9
$HYPERLINKBASE
  1

  9
$STYLESHEET
  1

  9
$XEDIT
290
     1
  9
$CEPSNTYPE
380
     0
  9
$PSTYLEMODE
290
     1
  9
$FINGERPRINTGUID
  2
{BB9BFA00-F76C-44F8-8090-B0A6A8DEAECD}
  9
$VERSIONGUID
  2
{C640E80C-45E6-0D41-AB2F-9A7588B39A29}
  9
$EXTNAMES
290
     1
  9
$PSVPSCALE
 40
0.0
  9
$OLESTARTUP
290
     0
  9
$SORTENTS
280
   127
  9
$INDEXCTL
280
     0
  9
$HIDETEXT
280
     0
  9
$XCLIPFRAME
280
     2
  9
$HALOGAP
280
     0
  9
$OBSCOLOR
 70
   257
  9
$OBSLTYPE
280
     0
  9
$INTERSECTIONDISPLAY
280
     0
  9
$INTERSECTIONCOLOR
 70
   257
  9
$DIMASSOC
280
     1
  9
$PROJECTNAME
  1

  9
$CAMERADISPLAY
290
     0
  9
$LENSLENGTH
 40
50.0
  9
$CAMERAHEIGHT
 40
0.0
  9
$STEPSPERSEC
 40
2.0
  9
$STEPSIZE
 40
6.0
  9
$3DDWFPREC
 40
2.0
  9
$PSOLWIDTH
 40
0.25
  9
$PSOLHEIGHT
 40
4.0
  9
$LOFTANG1
 40
1.570796326794896
  9
$LOFTANG2
 40
1.570796326794896
  9
$LOFTMAG1
 40
0.0
  9
$LOFTMAG2
 40
0.0
  9
$LOFTPARAM
 70
     7
  9
$LOFTNORMALS
280
     1
  9
$LATITUDE
 40
37.795
  9
$LONGITUDE
 40
-122.394
  9
$NORTHDIRECTION
 40
0.0
  9
$TIMEZONE
 70
 -8000
  9
$LIGHTGLYPHDISPLAY
280
     1
  9
$TILEMODELIGHTSYNCH
280
     1
  9
$CMATERIAL
347
1454
  9
$SOLIDHIST
280
     1
  9
$SHOWHIST
280
     1
  9
$DWFFRAME
280
     2
  9
$DGNFRAME
280
     0
  9
$REALWORLDSCALE
290
     1
  9
$INTERFERECOLOR
 62
     1
  9
$INTERFEREOBJVS
345
1476
  9
$INTERFEREVPVS
346
1473
  9
$CSHADOW
280
     0
  9
$SHADOWPLANELOCATION
 40
0.0
  0
ENDSEC
  0
SECTION
  2
CLASSES
  0
CLASS
  1
ACDBDICTIONARYWDFLT
  2
AcDbDictionaryWithDefault
  3
ObjectDBX Classes
 90
        0
 91
        1
280
     0
281
     0
  0
CLASS
  1
MATERIAL
  2
AcDbMaterial
  3
ObjectDBX Classes
 90
     1153
 91
        3
280
     0
281
     0
  0
CLASS
  1
VISUALSTYLE
  2
AcDbVisualStyle
  3
ObjectDBX Classes
 90
     4095
 91
       26
280
     0
281
     0
  0
CLASS
  1
TABLESTYLE
  2
AcDbTableStyle
  3
ObjectDBX Classes
 90
     4095
 91
        1
280
     0
281
     0
  0
CLASS
  1
SCALE
  2
AcDbScale
  3
ObjectDBX Classes
 90
     1153
 91
       17
280
     0
281
     0
  0
CLASS
  1
MLEADERSTYLE
  2
AcDbMLeaderStyle
  3
ACDB_MLEADERSTYLE_CLASS
 90
     4095
 91
        1
280
     0
281
     0
  0
CLASS
  1
ACMESCOPE
  2
AcMeScope
  3
AcMeServices
 90
     1024
 91
        1
280
     0
281
     0
  0
CLASS
  1
ACMECOMMANDHISTORY
  2
AcMeCommandHistory
  3
AcMeServices
 90
     1024
 91
        1
280
     0
281
     0
  0
CLASS
  1
ACIMSYSVARMAN
  2
AcImSysVarManager
  3
AcMeServices
 90
     1024
 91
        3
280
     0
281
     0
  0
CLASS
  1
ACIMINTSYSVAR
  2
AcImIntSysVar
  3
AcMeServices
 90
     1024
 91
        2
280
     0
281
     0
  0
CLASS
  1
ACMESTATEMGR
  2
AcMeStateMgr
  3
AcMeServices
 90
     1024
 91
        1
280
     0
281
     0
  0
CLASS
  1
AMGSETTINGSOBJ
  2
AmgSettingsObj
  3
"AcadM|Product Description: AutoCAD Mechanical|Company: Autodesk, Inc."
 90
     1024
 91
        2
280
     0
281
     0
  0
CLASS
  1
ACGREFMASTER
  2
AcGrefMaster
  3
AcAttribServices
 90
     1024
 91
        1
280
     0
281
     0
  0
CLASS
  1
AMGOBJPROPCFG
  2
AmgObjPropCfg
  3
"AmgLay|Product Description: AutoCAD Mechanical|Company: Autodesk, Inc."
 90
     1024
 91
        1
280
     0
281
     0
  0
CLASS
  1
ACME_DOCUMENT
  2
AcMeDbDoc
  3
AcMeServices
 90
     1024
 91
        0
280
     0
281
     0
  0
CLASS
  1
ACDBENTITYCACHE
  2
AcMeEntityCache
  3
AcMeServices
 90
     1024
 91
        0
280
     0
281
     0
  0
CLASS
  1
ACME_DATABASE
  2
AcMeDbDatabase
  3
AcMeServices
 90
     1024
 91
        0
280
     0
281
     0
  0
CLASS
  1
ACRFINSADJUSTERMGR
  2
AcRfInsAdjusterMgr
  3
AcMeServices
 90
     1024
 91
        0
280
     0
281
     0
  0
CLASS
  1
ACGREFACADMASTER
  2
AcGrefacadMaster
  3
AcGrefServices
 90
     1024
 91
        1
280
     0
281
     0
  0
CLASS
  1
AMDTMENUSTATEMGR
  2
AmdtMenuStateMgr
  3
McadcomServices
 90
     1024
 91
        0
280
     0
281
     0
  0
CLASS
  1
AMDTMCOMMENUSTATE
  2
AmdtMcomMenuState
  3
McadcomServices
 90
     1024
 91
        0
280
     0
281
     0
  0
CLASS
  1
AMIMASTER
  2
AmiMaster
  3
AmiServices
 90
     1024
 91
        1
280
     0
281
     0
  0
CLASS
  1
MAPIAMMOUDLE
  2
MApiAmModule
  3
MApiAmServices
 90
     1024
 91
        1
280
     0
281
     0
  0
CLASS
  1
ACMSTANDARDISO
  2
AcmStandardISO
  3
"Amdt_StdImp|Product Description: AutoCAD Mechanical|Company: Autodesk, Inc."
 90
     1024
 91
        1
280
     0
281
     0
  0
CLASS
  1
AMDTEDGESTANDARDISO
  2
AmdtEdgeStdISO
  3
"Amdt_StdImp|Product Description: AutoCAD Mechanical|Company: Autodesk, Inc."
 90
     1024
 91
        0
280
     0
281
     0
  0
CLASS
  1
ACMSURFSTANDARDISO
  2
AcmSurfTextStdISO
  3
"Amdt_StdImp|Product Description: AutoCAD Mechanical|Company: Autodesk, Inc."
 90
     1024
 91
        0
280
     0
281
     0
  0
CLASS
  1
ACMFCFSTANDARDISO
  2
AcmFCFStdISO
  3
"Amdt_StdImp|Product Description: AutoCAD Mechanical|Company: Autodesk, Inc."
 90
     1024
 91
        0
280
     0
281
     0
  0
CLASS
  1
ACMWELDSTANDARDISO
  2
AcmWeldingStdISO
  3
"Amdt_StdImp|Product Description: AutoCAD Mechanical|Company: Autodesk, Inc."
 90
     1024
 91
        0
280
     0
281
     0
  0
CLASS
  1
ACMIDSTANDARDISO
  2
AcmIdStdISO
  3
"Amdt_StdImp|Product Description: AutoCAD Mechanical|Company: Autodesk, Inc."
 90
     1024
 91
        0
280
     0
281
     0
  0
CLASS
  1
ACMDATUMSTANDARDISO
  2
AcmDatumStdISO
  3
"Amdt_StdImp|Product Description: AutoCAD Mechanical|Company: Autodesk, Inc."
 90
     1024
 91
        0
280
     0
281
     0
  0
CLASS
  1
ACMBOMSTANDARDISO
  2
AcmBOMStdISO
  3
"Amdt_StdImp|Product Description: AutoCAD Mechanical|Company: Autodesk, Inc."
 90
     1024
 91
        1
280
     0
281
     0
  0
CLASS
  1
ACMDETAILSTANDARDISO
  2
AmdtDetailSymStdISO
  3
"Amdt_StdImp|Product Description: AutoCAD Mechanical|Company: Autodesk, Inc."
 90
     1024
 91
        1
280
     0
281
     0
  0
CLASS
  1
ACMSECTIONSTANDARDISO
  2
AmdtSectionSymStdISO
  3
"Amdt_StdImp|Product Description: AutoCAD Mechanical|Company: Autodesk, Inc."
 90
     1024
 91
        0
280
     0
281
     0
  0
CLASS
  1
ACMCENTERLINESTANDARDISO
  2
AmdtCenterLineStdISO
  3
"Amdt_StdImp|Product Description: AutoCAD Mechanical|Company: Autodesk, Inc."
 90
     1024
 91
        1
280
     0
281
     0
  0
CLASS
  1
ACMNOTESTANDARDISO
  2
AmdtNoteStdISO
  3
"Amdt_StdImp|Product Description: AutoCAD Mechanical|Company: Autodesk, Inc."
 90
     1024
 91
        1
280
     0
281
     0
  0
CLASS
  1
AMDTNOTETEMPLATEDB
  2
AmdtNoteTemplateDB
  3
"AcmSymBB" "Product Description: AutoCAD Mechanical|Company: Autodesk, Inc."
 90
     1024
 91
        7
280
     0
281
     0
  0
CLASS
  1
ACAMGLAYSTD
  2
AcAmgLayStd
  3
"AmgLay|Product Description: AutoCAD Mechanical|Company: Autodesk, Inc."
 90
     1024
 91
        2
280
     0
281
     0
  0
CLASS
  1
ACAMGDIMSTD
  2
AcAmgDimStd
  3
"AmgDim|Product Description: AutoCAD Mechanical|Company: Autodesk, Inc."
 90
     1024
 91
        2
280
     0
281
     0
  0
CLASS
  1
ACAMGHOLECHARTSTDISO
  2
AcAmgHoleChartStdISO
  3
"AmgDim" "Product Description: AutoCAD Mechanical|Company: Autodesk, Inc."
 90
     1024
 91
        1
280
     0
281
     0
  0
CLASS
  1
ACAMGTITLESTD
  2
AcAmgTitleStd
  3
"AmgTitle|Product Description: AutoCAD Mechanical|Company: Autodesk, Inc."
 90
     1024
 91
        2
280
     0
281
     0
  0
CLASS
  1
ACMTHREADLINESTANDARDISO
  2
AmdtThreadLineStdISO
  3
"Amdt_StdImp|Product Description: AutoCAD Mechanical|Company: Autodesk, Inc."
 90
     1024
 91
        1
280
     0
281
     0
  0
CLASS
  1
ACMTAPERSTANDARDISO
  2
AcmTaperStdISO
  3
"Amdt_StdImp|Product Description: AutoCAD Mechanical|Company: Autodesk, Inc."
 90
     1024
 91
        1
280
     0
281
     0
  0
CLASS
  1
ACMANOOTATIONVIEWSTANDARDISO
  2
AmdtAnViewStdISO
  3
"Amdt_StdImp|Product Description: AutoCAD Mechanical|Company: Autodesk, Inc."
 90
     1024
 91
        1
280
     0
281
     0
  0
CLASS
  1
ACMSTANDARDJIS
  2
AcmStandardJIS
  3
"Amdt_StdImp|Product Description: AutoCAD Mechanical|Company: Autodesk, Inc."
 90
     1024
 91
        1
280
     0
281
     0
  0
CLASS
  1
ACMSURFSTANDARDJIS
  2
AcmSurfTextStdJIS
  3
"Amdt_StdImp|Product Description: AutoCAD Mechanical|Company: Autodesk, Inc."
 90
     1024
 91
        1
280
     0
281
     0
  0
CLASS
  1
ACMFCFSTANDARDJIS
  2
AcmFCFStdJIS
  3
"Amdt_StdImp|Product Description: AutoCAD Mechanical|Company: Autodesk, Inc."
 90
     1024
 91
        0
280
     0
281
     0
  0
CLASS
  1
ACMWELDSTANDARDJIS
  2
AcmWeldingStdJIS
  3
"Amdt_StdImp|Product Description: AutoCAD Mechanical|Company: Autodesk, Inc."
 90
     1024
 91
        1
280
     0
281
     0
  0
CLASS
  1
ACMIDSTANDARDJIS
  2
AcmIdStdJIS
  3
"Amdt_StdImp|Product Description: AutoCAD Mechanical|Company: Autodesk, Inc."
 90
     1024
 91
        1
280
     0
281
     0
  0
CLASS
  1
ACMDATUMSTANDARDJIS
  2
AcmDatumStdJIS
  3
"Amdt_StdImp|Product Description: AutoCAD Mechanical|Company: Autodesk, Inc."
 90
     1024
 91
        1
280
     0
281
     0
  0
CLASS
  1
ACMBOMSTANDARDJIS
  2
AcmBOMStdJIS
  3
"Amdt_StdImp|Product Description: AutoCAD Mechanical|Company: Autodesk, Inc."
 90
     1024
 91
        1
280
     0
281
     0
  0
CLASS
  1
ACMDETAILSTANDARDJIS
  2
AmdtDetailSymStdJIS
  3
"Amdt_StdImp|Product Description: AutoCAD Mechanical|Company: Autodesk, Inc."
 90
     1024
 91
        1
280
     0
281
     0
  0
CLASS
  1
ACMSECTIONSTANDARDJIS
  2
AmdtSectionSymStdJIS
  3
"Amdt_StdImp|Product Description: AutoCAD Mechanical|Company: Autodesk, Inc."
 90
     1024
 91
        1
280
     0
281
     0
  0
CLASS
  1
ACMCENTERLINESTANDARDJIS
  2
AmdtCenterLineStdJIS
  3
"Amdt_StdImp|Product Description: AutoCAD Mechanical|Company: Autodesk, Inc."
 90
     1024
 91
        1
280
     0
281
     0
  0
CLASS
  1
ACMTHREADLINESTANDARDJIS
  2
AmdtThreadLineStdJIS
  3
"Amdt_StdImp|Product Description: AutoCAD Mechanical|Company: Autodesk, Inc."
 90
     1024
 91
        1
280
     0
281
     0
  0
CLASS
  1
ACMNOTESTANDARDJIS
  2
AmdtNoteStdJIS
  3
"Amdt_StdImp|Product Description: AutoCAD Mechanical|Company: Autodesk, Inc."
 90
     1024
 91
        1
280
     0
281
     0
  0
CLASS
  1
ACAMGHOLECHARTSTDJIS
  2
AcAmgHoleChartStdJIS
  3
"AmgDim" "Product Description: AutoCAD Mechanical|Company: Autodesk, Inc."
 90
     1024
 91
        1
280
     0
281
     0
  0
CLASS
  1
ACMTAPERSTANDARDJIS
  2
AcmTaperStdJIS
  3
"Amdt_StdImp|Product Description: AutoCAD Mechanical|Company: Autodesk, Inc."
 90
     1024
 91
        1
280
     0
281
     0
  0
CLASS
  1
ACMANOOTATIONVIEWSTANDARDJIS
  2
AmdtAnViewStdJIS
  3
"Amdt_StdImp|Product Description: AutoCAD Mechanical|Company: Autodesk, Inc."
 90
     1024
 91
        1
280
     0
281
     0
  0
CLASS
  1
AMDTEDGESTANDARDJIS
  2
AmdtEdgeStdJIS
  3
"Amdt_StdImp|Product Description: AutoCAD Mechanical|Company: Autodesk, Inc."
 90
     1024
 91
        1
280
     0
281
     0
  0
CLASS
  1
ACMFCFSTANDARDJIS98
  2
AcmFCFStdJIS98
  3
"Amdt_StdImp|Product Description: AutoCAD Mechanical|Company: Autodesk, Inc."
 90
     1024
 91
        1
280
     0
281
     0
  0
CLASS
  1
ACIMSTRSYSVAR
  2
AcImStrSysVar
  3
AcMeServices
 90
     1024
 91
        5
280
     0
281
     0
  0
CLASS
  1
AMDTAMMENUSTATE
  2
AmdtAmMenuState
  3
DesignerAssemblies_arx
 90
     1024
 91
        0
280
     0
281
     0
  0
CLASS
  1
ACAMPROJECT
  2
AcAmProject
  3
DesignerAssemblies
 90
     1024
 91
        1
280
     0
281
     0
  0
CLASS
  1
ACAMGRCOMPDEF
  2
AcAmGrCompDef
  3
DesignerAssemblies
 90
     1024
 91
        1
280
     0
281
     0
  0
CLASS
  1
ACAMCOMPDEF
  2
AcAmCompDef
  3
DesignerAssemblies
 90
     1024
 91
        1
280
     0
281
     0
  0
CLASS
  1
ACAMCOMPDEFMGR
  2
AcAmCompDefMgr
  3
DesignerAssemblies
 90
     1024
 91
        1
280
     0
281
     0
  0
CLASS
  1
AMCONTEXTMGR
  2
AcAmContextMgr
  3
DesignerAssemblies
 90
     1024
 91
        1
280
     0
281
     0
  0
CLASS
  1
ACAMCONTEXTMODELER
  2
AcAmContextModeler
  3
DesignerAssemblies
 90
     1024
 91
        1
280
     0
281
     0
  0
CLASS
  1
ACMDATADICTIONARY
  2
AcmDataDictionary
  3
"AcmSymBB|Product Description: AutoCAD Mechanical|Company: Autodesk, Inc."
 90
     1024
 91
        1
280
     0
281
     0
  0
CLASS
  1
ACAMGRCOMPDEFSET
  2
AcAmGrCompDefSet
  3
DesignerAssemblies
 90
     1024
 91
        0
280
     0
281
     0
  0
CLASS
  1
AMDTBROWSERDBTAB
  2
AmdtBrowserDbTab
  3
McadcomServices
 90
     1024
 91
        0
280
     0
281
     0
  0
CLASS
  1
CBROWSERAPPOBJECT
  2
CBrowserAppObject
  3
McadcomServices
 90
     1024
 91
        0
280
     0
281
     0
  0
CLASS
  1
DM_PLACEHOLDER
  2
AcDmSelsetPlaceholder
  3
McadcomServices
 90
     1024
 91
        0
280
     0
281
     0
  0
CLASS
  1
EXACXREFPANELOBJECT
  2
ExAcXREFPanelObject
  3
EXAC_ESW
 90
     1025
 91
        0
280
     0
281
     0
  0
CLASS
  1
NPOCOLLECTION
  2
AcDbImpNonPersistentObjectsCollection
  3
ObjectDBX Classes
 90
     1153
 91
        0
280
     0
281
     0
  0
CLASS
  1
ACAMGFILTERDAT
  2
AcAmgFilterDat
  3
"AcadM|Product Description: AutoCAD Mechanical|Company: Autodesk, Inc."
 90
     1024
 91
        0
280
     0
281
     0
  0
CLASS
  1
DIMASSOC
  2
AcDbDimAssoc
  3
"AcDbDimAssoc|Product Desc:     AcDim ARX App For Dimension|Company:          Autodesk, Inc.|WEB Address:      www.autodesk.com"
 90
        0
 91
        0
280
     0
281
     0
  0
CLASS
  1
SOLID_BACKGROUND
  2
AcDbSolidBackground
  3
SCENEOE
 90
     4095
 91
        0
280
     0
281
     0
  0
CLASS
  1
CAMSSTRUCTBTNSTATE
  2
StructBtnState
  3
DesignerAssemblies_arx
 90
     1024
 91
        1
280
     0
281
     0
  0
CLASS
  1
DICTIONARYVAR
  2
AcDbDictionaryVar
  3
ObjectDBX Classes
 90
        0
 91
       13
280
     0
281
     0
  0
CLASS
  1
SORTENTSTABLE
  2
AcDbSortentsTable
  3
ObjectDBX Classes
 90
        0
 91
        1
280
     0
281
     0
  0
CLASS
  1
CELLSTYLEMAP
  2
AcDbCellStyleMap
  3
ObjectDBX Classes
 90
     1152
 91
        1
280
     0
281
     0
  0
CLASS
  1
ACDBPLACEHOLDER
  2
AcDbPlaceHolder
  3
ObjectDBX Classes
 90
        0
 91
        1
280
     0
281
     0
  0
CLASS
  1
LAYOUT
  2
AcDbLayout
  3
ObjectDBX Classes
 90
        0
 91
        2
280
     0
281
     0
  0
CLASS
  1
ACMSTANDARDANSI
  2
AcmStandardANSI
  3
"Amdt_StdImp|Product Description: AutoCAD Mechanical|Company: Autodesk, Inc."
 90
     1024
 91
        0
280
     0
281
     0
  0
CLASS
  1
ACMSURFSTANDARDANSI
  2
AcmSurfTextStdANSI
  3
"Amdt_StdImp|Product Description: AutoCAD Mechanical|Company: Autodesk, Inc."
 90
     1024
 91
        0
280
     0
281
     0
  0
CLASS
  1
ACMFCFSTANDARDANSI
  2
AcmFCFStdANSI
  3
"Amdt_StdImp|Product Description: AutoCAD Mechanical|Company: Autodesk, Inc."
 90
     1024
 91
        0
280
     0
281
     0
  0
CLASS
  1
ACMWELDSTANDARDANSI
  2
AcmWeldingStdANSI
  3
"Amdt_StdImp|Product Description: AutoCAD Mechanical|Company: Autodesk, Inc."
 90
     1024
 91
        0
280
     0
281
     0
  0
CLASS
  1
ACMIDSTANDARDANSI
  2
AcmIdStdANSI
  3
"Amdt_StdImp|Product Description: AutoCAD Mechanical|Company: Autodesk, Inc."
 90
     1024
 91
        0
280
     0
281
     0
  0
CLASS
  1
ACMDATUMSTANDARDANSI
  2
AcmDatumStdANSI
  3
"Amdt_StdImp|Product Description: AutoCAD Mechanical|Company: Autodesk, Inc."
 90
     1024
 91
        0
280
     0
281
     0
  0
CLASS
  1
ACMBOMSTANDARDANSI
  2
AcmBOMStdANSI
  3
"Amdt_StdImp|Product Description: AutoCAD Mechanical|Company: Autodesk, Inc."
 90
     1024
 91
        0
280
     0
281
     0
  0
CLASS
  1
ACMDETAILSTANDARDANSI
  2
AmdtDetailSymStdANSI
  3
"Amdt_StdImp|Product Description: AutoCAD Mechanical|Company: Autodesk, Inc."
 90
     1024
 91
        0
280
     0
281
     0
  0
CLASS
  1
ACMSECTIONSTANDARDANSI
  2
AmdtSectionSymStdANSI
  3
"Amdt_StdImp|Product Description: AutoCAD Mechanical|Company: Autodesk, Inc."
 90
     1024
 91
        0
280
     0
281
     0
  0
CLASS
  1
ACMCENTERLINESTANDARDANSI
  2
AmdtCenterLineStdANSI
  3
"Amdt_StdImp|Product Description: AutoCAD Mechanical|Company: Autodesk, Inc."
 90
     1024
 91
        0
280
     0
281
     0
  0
CLASS
  1
ACMTHREADLINESTANDARDANSI
  2
AmdtThreadLineStdANSI
  3
"Amdt_StdImp|Product Description: AutoCAD Mechanical|Company: Autodesk, Inc."
 90
     1024
 91
        0
280
     0
281
     0
  0
CLASS
  1
ACMNOTESTANDARDANSI
  2
AmdtNoteStdANSI
  3
"Amdt_StdImp|Product Description: AutoCAD Mechanical|Company: Autodesk, Inc."
 90
     1024
 91
        0
280
     0
281
     0
  0
CLASS
  1
ACMTAPERSTANDARDANSI
  2
AcmTaperStdANSI
  3
"Amdt_StdImp|Product Description: AutoCAD Mechanical|Company: Autodesk, Inc."
 90
     1024
 91
        0
280
     0
281
     0
  0
CLASS
  1
ACMANOOTATIONVIEWSTANDARDANSI
  2
AmdtAnViewStdANSI
  3
"Amdt_StdImp|Product Description: AutoCAD Mechanical|Company: Autodesk, Inc."
 90
     1024
 91
        0
280
     0
281
     0
  0
CLASS
  1
ACAMGHOLECHARTSTDANSI
  2
AcAmgHoleChartStdANSI
  3
"AmgDim" "Product Description: AutoCAD Mechanical|Company: Autodesk, Inc."
 90
     1024
 91
        0
280
     0
281
     0
  0
CLASS
  1
ACDBSECTIONVIEWSTYLE
  2
AcDbSectionViewStyle
  3
ObjectDBX Classes
 90
     1025
 91
        5
280
     0
281
     0
  0
CLASS
  1
ACDBDETAILVIEWSTYLE
  2
AcDbDetailViewStyle
  3
ObjectDBX Classes
 90
     1025
 91
        5
280
     0
281
     0
  0
CLASS
  1
AMDTEDGESTANDARDISO13715
  2
AmdtEdgeStdISO13715
  3
"Amdt_StdImp|Product Description: AutoCAD Mechanical|Company: Autodesk, Inc."
 90
     1024
 91
        1
280
     0
281
     0
  0
CLASS
  1
ACMSURFSTANDARDISO2002
  2
AcmSurfTextStdISO2002
  3
"Amdt_StdImp|Product Description: AutoCAD Mechanical|Company: Autodesk, Inc."
 90
     1024
 91
        1
280
     0
281
     0
  0
CLASS
  1
ACMFCFSTANDARDISO2012
  2
AcmFCFStdISO2012
  3
"Amdt_StdImp|Product Description: AutoCAD Mechanical|Company: Autodesk, Inc."
 90
     1024
 91
        1
280
     0
281
     0
  0
CLASS
  1
ACMWELDSTANDARDISO2013
  2
AcmWeldingStdISO2013
  3
"Amdt_StdImp|Product Description: AutoCAD Mechanical|Company: Autodesk, Inc."
 90
     1024
 91
        1
280
     0
281
     0
  0
CLASS
  1
ACMIDSTANDARDISO2012
  2
AcmIdStdISO2012
  3
"Amdt_StdImp|Product Description: AutoCAD Mechanical|Company: Autodesk, Inc."
 90
     1024
 91
        1
280
     0
281
     0
  0
CLASS
  1
ACMDATUMSTANDARDISO2012
  2
AcmDatumStdISO2012
  3
"Amdt_StdImp|Product Description: AutoCAD Mechanical|Company: Autodesk, Inc."
 90
     1024
 91
        1
280
     0
281
     0
  0
CLASS
  1
ACMSECTIONSTANDARDISO2001
  2
AmdtSectionSymStdISO2001
  3
"Amdt_StdImp|Product Description: AutoCAD Mechanical|Company: Autodesk, Inc."
 90
     1024
 91
        1
280
     0
281
     0
  0
CLASS
  1
ACMSECTIONSTANDARDCUSTOM
  2
AmdtSectionSymStdCustom
  3
"Amdt_StdImp|Product Description: AutoCAD Mechanical|Company: Autodesk, Inc."
 90
     1024
 91
        6
280
     0
281
     0
  0
CLASS
  1
ACMDETAILTANDARDCUSTOM
  2
AmdtDetailSymStdCustom
  3
"Amdt_StdImp|Product Description: AutoCAD Mechanical|Company: Autodesk, Inc."
 90
     1024
 91
        6
280
     0
281
     0
  0
CLASS
  1
FIELD
  2
AcDbField
  3
ObjectDBX Classes
 90
     1152
 91
        9
280
     0
281
     0
  0
CLASS
  1
FIELDLIST
  2
AcDbFieldList
  3
ObjectDBX Classes
 90
     1152
 91
        1
280
     0
281
     0
  0
CLASS
  1
ACMDATAENTRYBLOCK
  2
AcmDataEntryBlock
  3
"AcmSymBB" "Product Description: AutoCAD Mechanical|Company: Autodesk, Inc."
 90
     1024
 91
        0
280
     0
281
     0
  0
ENDSEC
  0
SECTION
  2
TABLES
  0
TABLE
  2
VPORT
  5
E2
102
{ACAD_XDICTIONARY
360
1A2C
102
}
330
0
100
AcDbSymbolTable
 70
     1
1001
ACAD
1000
DbSaveVer
1071
      247
  0
VPORT
  5
14A6
330
E2
100
AcDbSymbolTableRecord
100
AcDbViewportTableRecord
  2
*Active
 70
     0
 10
0.0
 20
0.0
 11
1.0
 21
1.0
 12
1983.127431058626
 22
-25.67686547908738
 13
0.0
 23
0.0
 14
1.0
 24
1.0
 15
0.0
 25
0.0
 16
0.0
 26
0.0
 36
13589.73119704388
 17
-1533.185437899534
 27
463.7850657233811
 37
0.0
 40
1867.956518499751
 41
2.463687150837988
 42
50.0
 43
0.0
 44
0.0
 50
0.0
 51
0.0
 71
     0
 72
  1000
 73
     1
 74
     3
 75
     0
 76
     0
 77
     0
 78
     0
281
     0
 65
     1
110
0.0
120
0.0
130
0.0
111
1.0
121
0.0
131
0.0
112
0.0
122
1.0
132
0.0
 79
     0
146
0.0
348
1472
 60
     3
 61
     5
292
     1
282
     1
141
0.0
142
0.0
 63
   250
421
  3355443
1001
ACAD_NAV_VCDISPLAY
1070
     1
  0
ENDTAB
  0
TABLE
  2
LTYPE
  5
25
330
0
100
AcDbSymbolTable
 70
    16
  0
LTYPE
  5
26
330
25
100
AcDbSymbolTableRecord
100
AcDbLinetypeTableRecord
  2
BYBLOCK
 70
     0
  3

 72
    65
 73
     0
 40
0.0
  0
LTYPE
  5
27
330
25
100
AcDbSymbolTableRecord
100
AcDbLinetypeTableRecord
  2
BYLAYER
 70
     0
  3

 72
    65
 73
     0
 40
0.0
  0
LTYPE
  5
28
330
25
100
AcDbSymbolTableRecord
100
AcDbLinetypeTableRecord
  2
CONTINUOUS
 70
     0
  3
Solid line
 72
    65
 73
     0
 40
0.0
  0
LTYPE
  5
2A
330
25
100
AcDbSymbolTableRecord
100
AcDbLinetypeTableRecord
  2
CENTER
 70
     0
  3
__ . __
 72
    65
 73
     4
 40
7.0
 49
4.0
 74
     0
 49
-1.0
 74
     0
 49
1.0
 74
     0
 49
-1.0
 74
     0
  0
LTYPE
  5
2BAB
330
25
100
AcDbSymbolTableRecord
100
AcDbLinetypeTableRecord
  2
HIDDEN
 70
     0
  3
Hidden __ __ __ __ __ __ __ __ __ __ __ __ __ _
 72
    65
 73
     2
 40
9.524999999999998
 49
6.349999999999999
 74
     0
 49
-3.174999999999999
 74
     0
  0
LTYPE
  5
2BAC
330
25
100
AcDbSymbolTableRecord
100
AcDbLinetypeTableRecord
  2
PHANTOM2
 70
     0
  3
Phantom (.5x) ___ _ _ ___ _ _ ___ _ _ ___ _ _
 72
    65
 73
     6
 40
31.75
 49
15.875
 74
     0
 49
-3.174999999999999
 74
     0
 49
3.174999999999999
 74
     0
 49
-3.174999999999999
 74
     0
 49
3.174999999999999
 74
     0
 49
-3.174999999999999
 74
     0
  0
LTYPE
  5
2BE2
330
25
100
AcDbSymbolTableRecord
100
AcDbLinetypeTableRecord
  2
AM_ISO02W050
 70
     0
  3
__ __ __ __ __ __ __ __ __ __ __ __ __ __ __
 72
    65
 73
     2
 40
7.5
 49
6.0
 74
     0
 49
-1.5
 74
     0
  0
LTYPE
  5
2BE3
330
25
100
AcDbSymbolTableRecord
100
AcDbLinetypeTableRecord
  2
AM_ISO08W050
 70
     0
  3
____ . ____ . ____ . ____ . ____ . ____ . ____
 72
    65
 73
     4
 40
18.0
 49
12.0
 74
     0
 49
-1.5
 74
     0
 49
3.0
 74
     0
 49
-1.5
 74
     0
  0
LTYPE
  5
2BE4
330
25
100
AcDbSymbolTableRecord
100
AcDbLinetypeTableRecord
  2
AM_ISO09W050
 70
     0
  3
_____ . . _____ . . _____ . . ____ .. ____
 72
    65
 73
     6
 40
22.5
 49
12.0
 74
     0
 49
-1.5
 74
     0
 49
3.0
 74
     0
 49
-1.5
 74
     0
 49
3.0
 74
     0
 49
-1.5
 74
     0
  0
LTYPE
  5
2BE5
330
25
100
AcDbSymbolTableRecord
100
AcDbLinetypeTableRecord
  2
Amconstr
 70
     0
  3
_______________________
 72
    65
 73
     2
 40
9999.0
 49
9999.0
 74
     0
 49
0.0
 74
     0
  0
LTYPE
  5
2BE6
330
25
100
AcDbSymbolTableRecord
100
AcDbLinetypeTableRecord
  2
AM_ISO08W050x2
 70
     0
  3
__ . __ . __ . __ . __ . __
 72
    65
 73
     4
 40
9.0
 49
6.0
 74
     0
 49
-0.75
 74
     0
 49
1.5
 74
     0
 49
-0.75
 74
     0
  0
LTYPE
  5
2BE7
330
25
100
AcDbSymbolTableRecord
100
AcDbLinetypeTableRecord
  2
AM_ISO02W050x2
 70
     0
  3
 _ _ _ _ _ _ _ _ _ _ _ _
 72
    65
 73
     2
 40
3.75
 49
3.0
 74
     0
 49
-0.75
 74
     0
  0
LTYPE
  5
2BEA
330
25
100
AcDbSymbolTableRecord
100
AcDbLinetypeTableRecord
  2
Amzigzag
 70
     0
  3
/\/-/\/-/\/-/\/-/\/-/\/
 72
    65
 73
     2
 40
11.0001
 49
0.0001
 74
     4
 75
   136
340
2BE9
 46
0.04
 50
0.0
 44
0.0
 45
0.0
 49
-11.0
 74
     0
  0
LTYPE
  5
2BFA
330
25
100
AcDbSymbolTableRecord
100
AcDbLinetypeTableRecord
  2
ACISOWELD
 70
     0
  3
_ _ _ _ _
 72
    65
 73
     2
 40
2.0
 49
2.0
 74
     0
 49
-1.0
 74
     0
  0
LTYPE
  5
2BFB
330
25
100
AcDbSymbolTableRecord
100
AcDbLinetypeTableRecord
  2
ACISOTGL
 70
     0
  3
_ _ _ _ _
 72
    65
 73
     2
 40
3.0
 49
2.0
 74
     0
 49
-1.0
 74
     0
  0
LTYPE
  5
2BFC
330
25
100
AcDbSymbolTableRecord
100
AcDbLinetypeTableRecord
  2
ACISOTGB
 70
     0
  3
__ . . __ . .
 72
    65
 73
     6
 40
9.0
 49
4.0
 74
     0
 49
-1.0
 74
     0
 49
1.0
 74
     0
 49
-1.0
 74
     0
 49
1.0
 74
     0
 49
-1.0
 74
     0
  0
LTYPE
  5
2C29
330
25
100
AcDbSymbolTableRecord
100
AcDbLinetypeTableRecord
  2
ACJISTGB
 70
     0
  3
__ . . __ . .
 72
    65
 73
     6
 40
9.0
 49
4.0
 74
     0
 49
-1.0
 74
     0
 49
1.0
 74
     0
 49
-1.0
 74
     0
 49
1.0
 74
     0
 49
-1.0
 74
     0
  0
LTYPE
  5
2C2A
330
25
100
AcDbSymbolTableRecord
100
AcDbLinetypeTableRecord
  2
ACJISTGL
 70
     0
  3
_ _ _ _ _
 72
    65
 73
     2
 40
3.0
 49
2.0
 74
     0
 49
-1.0
 74
     0
  0
ENDTAB
  0
TABLE
  2
LAYER
  5
C8
102
{ACAD_XDICTIONARY
360
1A02
102
}
330
0
100
AcDbSymbolTable
 70
     4
  0
LAYER
  5
C9
102
{ACAD_XDICTIONARY
360
15EF
102
}
330
C8
100
AcDbSymbolTableRecord
100
AcDbLayerTableRecord
  2
0
 70
     0
 62
     7
  6
CONTINUOUS
370
    -3
390
1452
347
1464
348
0
  0
LAYER
  5
2C2B
102
{ACAD_XDICTIONARY
360
2C2C
102
}
330
C8
100
AcDbSymbolTableRecord
100
AcDbLayerTableRecord
  2
AM_0_T3
 70
     0
 62
     7
  6
CONTINUOUS
370
    30
390
1452
347
1464
348
0
  0
LAYER
  5
3C24
330
C8
100
AcDbSymbolTableRecord
100
AcDbLayerTableRecord
  2
Defpoints
 70
     0
 62
     7
  6
CONTINUOUS
290
     0
370
    -3
390
1452
347
1464
348
0
  0
LAYER
  5
3C25
102
{ACAD_XDICTIONARY
360
3C26
102
}
330
C8
100
AcDbSymbolTableRecord
100
AcDbLayerTableRecord
  2
AM_4_T2
 70
     0
 62
     3
  6
CONTINUOUS
370
    20
390
1452
347
1464
348
0
  0
ENDTAB
  0
TABLE
  2
STYLE
  5
CA
330
0
100
AcDbSymbolTable
 70
     9
  0
STYLE
  5
23
330
CA
100
AcDbSymbolTableRecord
100
AcDbTextStyleTableRecord
  2
STANDARD
 70
     0
 40
0.0
 41
1.0
 50
0.0
 71
     0
 42
0.2
  3
txt.shx
  4

  0
STYLE
  5
2BE9
330
CA
100
AcDbSymbolTableRecord
100
AcDbTextStyleTableRecord
  2

 70
     1
 40
0.0
 41
1.0
 50
0.0
 71
     0
 42
3.2
  3
genltshp.shx
  4

  0
STYLE
  5
2BF8
330
CA
100
AcDbSymbolTableRecord
100
AcDbTextStyleTableRecord
  2
ACISOTS
 70
     0
 40
0.0
 41
1.0
 50
0.0
 71
     0
 42
3.2
  3
isocp.shx
  4

  0
STYLE
  5
2BF9
330
CA
100
AcDbSymbolTableRecord
100
AcDbTextStyleTableRecord
  2
ACISOGDT
 70
     0
 40
0.0
 41
1.0
 50
0.0
 71
     0
 42
3.2
  3
amgdt.shx
  4

  0
STYLE
  5
2C2D
330
CA
100
AcDbSymbolTableRecord
100
AcDbTextStyleTableRecord
  2

 70
     1
 40
0.0
 41
1.0
 50
0.0
 71
     0
 42
2.5
  3
ltypeshp.shx
  4

  0
STYLE
  5
2C2E
330
CA
100
AcDbSymbolTableRecord
100
AcDbTextStyleTableRecord
  2
ACJISTS
 70
     0
 40
1.0
 41
1.0
 50
0.0
 71
     0
 42
2.5
  3

  4

1001
ACAD
1000
MS Gothic
1071
    32817
  0
STYLE
  5
2C2F
330
CA
100
AcDbSymbolTableRecord
100
AcDbTextStyleTableRecord
  2
ACJISGDT
 70
     0
 40
0.0
 41
1.0
 50
0.0
 71
     0
 42
2.5
  3
amgdt.shx
  4

  0
STYLE
  5
2C30
330
CA
100
AcDbSymbolTableRecord
100
AcDbTextStyleTableRecord
  2
TSKDIM
 70
     0
 40
0.0
 41
1.0
 50
0.0
 71
     0
 42
4.0
  3

  4

1001
ACAD
1000
MS Gothic
1071
    32817
  0
STYLE
  5
2C31
330
CA
100
AcDbSymbolTableRecord
100
AcDbTextStyleTableRecord
  2
ACTSKTS
 70
     0
 40
1.0
 41
0.8
 50
0.0
 71
     0
 42
1.0
  3

  4

1001
ACAD
1000
MS Gothic
1071
    32817
  0
ENDTAB
  0
TABLE
  2
VIEW
  5
CE
330
0
100
AcDbSymbolTable
 70
     0
  0
ENDTAB
  0
TABLE
  2
UCS
  5
CF
330
0
100
AcDbSymbolTable
 70
     0
  0
ENDTAB
  0
TABLE
  2
APPID
  5
CC
330
0
100
AcDbSymbolTable
 70
    85
  0
APPID
  5
CD
330
CC
100
AcDbSymbolTableRecord
100
AcDbRegAppTableRecord
  2
ACAD
 70
     0
  0
APPID
  5
14A5
330
CC
100
AcDbSymbolTableRecord
100
AcDbRegAppTableRecord
  2
ACAD_NAV_VCDISPLAY
 70
     0
  0
APPID
  5
14AC
330
CC
100
AcDbSymbolTableRecord
100
AcDbRegAppTableRecord
  2
MCAD_NO_VIS
 70
     0
  0
APPID
  5
14AD
330
CC
100
AcDbSymbolTableRecord
100
AcDbRegAppTableRecord
  2
ACAD_TEMP_GRAPHIC
 70
     0
  0
APPID
  5
14B3
330
CC
100
AcDbSymbolTableRecord
100
AcDbRegAppTableRecord
  2
ACATTRIBSERVICES
 70
     0
  0
APPID
  5
14B4
330
CC
100
AcDbSymbolTableRecord
100
AcDbRegAppTableRecord
  2
AD_DRAW
 70
     0
  0
APPID
  5
14B5
330
CC
100
AcDbSymbolTableRecord
100
AcDbRegAppTableRecord
  2
DESIGNERASSEMBLIES
 70
     0
  0
APPID
  5
14B6
330
CC
100
AcDbSymbolTableRecord
100
AcDbRegAppTableRecord
  2
ASURF_PCURVE_APPNAME
 70
     0
  0
APPID
  5
14B7
330
CC
100
AcDbSymbolTableRecord
100
AcDbRegAppTableRecord
  2
ACADM_DIM_EDIT
 70
     0
  0
APPID
  5
14B8
330
CC
100
AcDbSymbolTableRecord
100
AcDbRegAppTableRecord
  2
GENIUS_GENDIM_13
 70
     0
  0
APPID
  5
14B9
330
CC
100
AcDbSymbolTableRecord
100
AcDbRegAppTableRecord
  2
GENIUS_GENDTOL_13
 70
     0
  0
APPID
  5
14BA
330
CC
100
AcDbSymbolTableRecord
100
AcDbRegAppTableRecord
  2
GENIUS_GE3DTOL_13
 70
     0
  0
APPID
  5
14BB
330
CC
100
AcDbSymbolTableRecord
100
AcDbRegAppTableRecord
  2
AMG_3D2D_5.0
 70
     0
  0
APPID
  5
14BC
330
CC
100
AcDbSymbolTableRecord
100
AcDbRegAppTableRecord
  2
AMDT_DM_ADJ
 70
     0
  0
APPID
  5
14BD
330
CC
100
AcDbSymbolTableRecord
100
AcDbRegAppTableRecord
  2
CK_MATE-SERIES
 70
     0
  0
APPID
  5
14BE
330
CC
100
AcDbSymbolTableRecord
100
AcDbRegAppTableRecord
  2
GEVID1042077799
 70
     0
  0
APPID
  5
14BF
330
CC
100
AcDbSymbolTableRecord
100
AcDbRegAppTableRecord
  2
GEVMK
 70
     0
  0
APPID
  5
14C0
330
CC
100
AcDbSymbolTableRecord
100
AcDbRegAppTableRecord
  2
GEVDC
 70
     0
  0
APPID
  5
14C1
330
CC
100
AcDbSymbolTableRecord
100
AcDbRegAppTableRecord
  2
GENIUS_GENBH_13
 70
     0
  0
APPID
  5
14C2
330
CC
100
AcDbSymbolTableRecord
100
AcDbRegAppTableRecord
  2
GENIUS_GENOLIS_13
 70
     0
  0
APPID
  5
14C3
330
CC
100
AcDbSymbolTableRecord
100
AcDbRegAppTableRecord
  2
GENIUS_GENOENT_13
 70
     0
  0
APPID
  5
14C4
330
CC
100
AcDbSymbolTableRecord
100
AcDbRegAppTableRecord
  2
GENIUS_GENODEF_13
 70
     0
  0
APPID
  5
14C5
330
CC
100
AcDbSymbolTableRecord
100
AcDbRegAppTableRecord
  2
GENIUS_GENOBJ-NBEHI-BHF_13
 70
     0
  0
APPID
  5
14C6
330
CC
100
AcDbSymbolTableRecord
100
AcDbRegAppTableRecord
  2
GENIUS_GENOREF_13
 70
     0
  0
APPID
  5
14C7
330
CC
100
AcDbSymbolTableRecord
100
AcDbRegAppTableRecord
  2
GENIUS_GENOBJ-NBEHI-BHB_13
 70
     0
  0
APPID
  5
14C8
330
CC
100
AcDbSymbolTableRecord
100
AcDbRegAppTableRecord
  2
GEVID1042183772
 70
     0
  0
APPID
  5
14C9
330
CC
100
AcDbSymbolTableRecord
100
AcDbRegAppTableRecord
  2
GEVID1042183773
 70
     0
  0
APPID
  5
14CA
330
CC
100
AcDbSymbolTableRecord
100
AcDbRegAppTableRecord
  2
GEVID1042183774
 70
     0
  0
APPID
  5
14CB
330
CC
100
AcDbSymbolTableRecord
100
AcDbRegAppTableRecord
  2
DCO15
 70
     0
  0
APPID
  5
14CC
330
CC
100
AcDbSymbolTableRecord
100
AcDbRegAppTableRecord
  2
ACAD_DSTYLE_DIMARC_LENGTH_SYMBOL
 70
     0
  0
APPID
  5
14CD
330
CC
100
AcDbSymbolTableRecord
100
AcDbRegAppTableRecord
  2
ACAD_DSTYLE_DIMJOGGED_JOGANGLE_SYMBOL
 70
     0
  0
APPID
  5
14CE
330
CC
100
AcDbSymbolTableRecord
100
AcDbRegAppTableRecord
  2
ACAD_MLEADERVER
 70
     0
  0
APPID
  5
14CF
330
CC
100
AcDbSymbolTableRecord
100
AcDbRegAppTableRecord
  2
GENIUS_GENOBJ-N-FIL_13
 70
     0
  0
APPID
  5
14D0
330
CC
100
AcDbSymbolTableRecord
100
AcDbRegAppTableRecord
  2
AcadAnnoPO
 70
     0
  0
APPID
  5
14D1
330
CC
100
AcDbSymbolTableRecord
100
AcDbRegAppTableRecord
  2
GENIUS_GENOBJ-N-TIT_13
 70
     0
  0
APPID
  5
14D2
330
CC
100
AcDbSymbolTableRecord
100
AcDbRegAppTableRecord
  2
GENIUS_GENTITLE_13
 70
     0
  0
APPID
  5
14D3
330
CC
100
AcDbSymbolTableRecord
100
AcDbRegAppTableRecord
  2
GENIUS_GENSCREG_15
 70
     0
  0
APPID
  5
14D4
330
CC
100
AcDbSymbolTableRecord
100
AcDbRegAppTableRecord
  2
GENIUS_GENOBJ-N-SDF_13
 70
     0
  0
APPID
  5
14D5
330
CC
100
AcDbSymbolTableRecord
100
AcDbRegAppTableRecord
  2
ACAD_PSEXT
 70
     0
  0
APPID
  5
14D6
330
CC
100
AcDbSymbolTableRecord
100
AcDbRegAppTableRecord
  2
AcAecLayerStandard
 70
     0
  0
APPID
  5
14D7
330
CC
100
AcDbSymbolTableRecord
100
AcDbRegAppTableRecord
  2
ACAD_EXEMPT_FROM_CAD_STANDARDS
 70
     0
  0
APPID
  5
14D8
330
CC
100
AcDbSymbolTableRecord
100
AcDbRegAppTableRecord
  2
ACAD_DSTYLE_DIMINSPECT
 70
     0
  0
APPID
  5
14D9
330
CC
100
AcDbSymbolTableRecord
100
AcDbRegAppTableRecord
  2
GENIUS_GENDIMSH_14
 70
     0
  0
APPID
  5
14DA
330
CC
100
AcDbSymbolTableRecord
100
AcDbRegAppTableRecord
  2
GENIUS_GENOBJ-N-CEN_13
 70
     0
  0
APPID
  5
14DB
330
CC
100
AcDbSymbolTableRecord
100
AcDbRegAppTableRecord
  2
GENIUS_GENCEN_19
 70
     0
  0
APPID
  5
14DC
330
CC
100
AcDbSymbolTableRecord
100
AcDbRegAppTableRecord
  2
ACAD_DSTYLE_DIMJAG
 70
     0
  0
APPID
  5
14DD
330
CC
100
AcDbSymbolTableRecord
100
AcDbRegAppTableRecord
  2
ACAD_DSTYLE_DIMTALN
 70
     0
  0
APPID
  5
14DE
330
CC
100
AcDbSymbolTableRecord
100
AcDbRegAppTableRecord
  2
GENIUS_GENREC_14
 70
     0
  0
APPID
  5
14DF
330
CC
100
AcDbSymbolTableRecord
100
AcDbRegAppTableRecord
  2
GENIUS_GENOBJ-N-REC_13
 70
     0
  0
APPID
  5
14E0
330
CC
100
AcDbSymbolTableRecord
100
AcDbRegAppTableRecord
  2
ACAD_DIMASSOC_CALC_DIMLFAC
 70
     0
  0
APPID
  5
14E1
330
CC
100
AcDbSymbolTableRecord
100
AcDbRegAppTableRecord
  2
ACAD_DIMASSOC_DIMLFAC
 70
     0
  0
APPID
  5
14E2
330
CC
100
AcDbSymbolTableRecord
100
AcDbRegAppTableRecord
  2
ACAD_DIMASSOC_OVERRIDDEN_DIMLFAC
 70
     0
  0
APPID
  5
14E3
330
CC
100
AcDbSymbolTableRecord
100
AcDbRegAppTableRecord
  2
AcadAnnotative
 70
     0
  0
APPID
  5
14E4
330
CC
100
AcDbSymbolTableRecord
100
AcDbRegAppTableRecord
  2
ACAD_DSTYLE_DIMEXT_LENGTH
 70
     0
  0
APPID
  5
14E5
330
CC
100
AcDbSymbolTableRecord
100
AcDbRegAppTableRecord
  2
ACAD_DSTYLE_DIMEXT_ENABLED
 70
     0
  0
APPID
  5
14E6
330
CC
100
AcDbSymbolTableRecord
100
AcDbRegAppTableRecord
  2
ACAD_DSTYLE_DIMBREAK
 70
     0
  0
APPID
  5
14E7
330
CC
100
AcDbSymbolTableRecord
100
AcDbRegAppTableRecord
  2
ACAD_DSTYLE_DIMANGULAR_EXTENSION
 70
     0
  0
APPID
  5
14E8
330
CC
100
AcDbSymbolTableRecord
100
AcDbRegAppTableRecord
  2
ACCMTRANSPARENCY
 70
     0
  0
APPID
  5
14E9
330
CC
100
AcDbSymbolTableRecord
100
AcDbRegAppTableRecord
  2
GENIUS_GENBLLY_14
 70
     0
  0
APPID
  5
14EA
330
CC
100
AcDbSymbolTableRecord
100
AcDbRegAppTableRecord
  2
GENIUS_GENTRA_14
 70
     0
  0
APPID
  5
14EB
330
CC
100
AcDbSymbolTableRecord
100
AcDbRegAppTableRecord
  2
GENIUS_GENOBJ-N-REV_13
 70
     0
  0
APPID
  5
14EC
330
CC
100
AcDbSymbolTableRecord
100
AcDbRegAppTableRecord
  2
GENIUS_GENOBJ-N-RSSYM_13
 70
     0
  0
APPID
  5
14ED
330
CC
100
AcDbSymbolTableRecord
100
AcDbRegAppTableRecord
  2
GENIUS_GENSYMENT_13
 70
     0
  0
APPID
  5
14EE
330
CC
100
AcDbSymbolTableRecord
100
AcDbRegAppTableRecord
  2
GENIUS_GENSCSYM_13
 70
     0
  0
APPID
  5
14EF
330
CC
100
AcDbSymbolTableRecord
100
AcDbRegAppTableRecord
  2
AcDbBlockRepBTag
 70
     0
  0
APPID
  5
14F0
330
CC
100
AcDbSymbolTableRecord
100
AcDbRegAppTableRecord
  2
ACAUTHENVIRON
 70
     0
  0
APPID
  5
14F1
330
CC
100
AcDbSymbolTableRecord
100
AcDbRegAppTableRecord
  2
AcDbDynamicBlockTrueName
 70
     0
  0
APPID
  5
14F2
330
CC
100
AcDbSymbolTableRecord
100
AcDbRegAppTableRecord
  2
AcDbDynamicBlockGUID
 70
     0
  0
APPID
  5
14F3
330
CC
100
AcDbSymbolTableRecord
100
AcDbRegAppTableRecord
  2
AcDbBlockRepETag
 70
     0
  0
APPID
  5
14F4
330
CC
100
AcDbSymbolTableRecord
100
AcDbRegAppTableRecord
  2
GENIUS_GENOBJ-N-HTC_13
 70
     0
  0
APPID
  5
14F5
330
CC
100
AcDbSymbolTableRecord
100
AcDbRegAppTableRecord
  2
GENIUS_GENHATCH_13
 70
     0
  0
APPID
  5
14F6
330
CC
100
AcDbSymbolTableRecord
100
AcDbRegAppTableRecord
  2
GRADIENTCOLOR1ACI
 70
     0
  0
APPID
  5
14F7
330
CC
100
AcDbSymbolTableRecord
100
AcDbRegAppTableRecord
  2
GRADIENTCOLOR2ACI
 70
     0
  0
APPID
  5
14F8
330
CC
100
AcDbSymbolTableRecord
100
AcDbRegAppTableRecord
  2
GENIUS_GENFIL_13
 70
     0
  0
APPID
  5
14F9
330
CC
100
AcDbSymbolTableRecord
100
AcDbRegAppTableRecord
  2
GENIUS_GENOBJ-N-CHA_13
 70
     0
  0
APPID
  5
14FA
330
CC
100
AcDbSymbolTableRecord
100
AcDbRegAppTableRecord
  2
ACAD_DSTYLE_DIM_LINETYPE
 70
     0
  0
APPID
  5
14FB
330
CC
100
AcDbSymbolTableRecord
100
AcDbRegAppTableRecord
  2
ACAD_DSTYLE_DIM_EXT1_LINETYPE
 70
     0
  0
APPID
  5
14FC
330
CC
100
AcDbSymbolTableRecord
100
AcDbRegAppTableRecord
  2
ACAD_DSTYLE_DIM_EXT2_LINETYPE
 70
     0
  0
APPID
  5
14FD
330
CC
100
AcDbSymbolTableRecord
100
AcDbRegAppTableRecord
  2
AcDbAttr
 70
     0
  0
APPID
  5
14FE
330
CC
100
AcDbSymbolTableRecord
100
AcDbRegAppTableRecord
  2
ACAD_DSTYLE_DIMRADIAL_EXTENSION
 70
     0
  0
APPID
  5
14FF
330
CC
100
AcDbSymbolTableRecord
100
AcDbRegAppTableRecord
  2
ACADANNOAV
 70
     0
  0
APPID
  5
1500
330
CC
100
AcDbSymbolTableRecord
100
AcDbRegAppTableRecord
  2
ACAD_DSTYLE_DIMTEXT_FILL
 70
     0
  0
APPID
  5
1501
330
CC
100
AcDbSymbolTableRecord
100
AcDbRegAppTableRecord
  2
ACAD_DSTYLE_DIMFLIPARROW_WHICH_SYMBOL
 70
     0
  0
APPID
  5
1502
330
CC
100
AcDbSymbolTableRecord
100
AcDbRegAppTableRecord
  2
ACADBPTGRAPHNODEID
 70
     0
  0
APPID
  5
1503
330
CC
100
AcDbSymbolTableRecord
100
AcDbRegAppTableRecord
  2
PE_URL
 70
     0
  0
ENDTAB
  0
TABLE
  2
DIMSTYLE
  5
CB
330
0
100
AcDbSymbolTable
 70
    21
100
AcDbDimStyleTable
 71
     0
  0
DIMSTYLE
105
1A1F
330
CB
100
AcDbSymbolTableRecord
100
AcDbDimStyleTableRecord
  2
Standard
 70
     0
340
23
  0
DIMSTYLE
105
2BE0
102
{ACAD_REACTORS
330
2BCE
102
}
330
CB
100
AcDbSymbolTableRecord
100
AcDbDimStyleTableRecord
  2
AM_ISO
 70
     0
  4
"
 41
3.5
 42
1.0
 43
10.0
 44
1.0
 47
0.1
 48
0.1
 73
     0
 74
     0
 77
     1
 78
     8
 79
     2
 90
        1
140
3.5
141
0.0
143
0.0393701
146
0.71
147
1.5
172
     1
176
   256
177
   256
178
     2
271
     2
272
     3
274
     4
283
     0
284
     8
340
23
345
26
346
26
347
26
371
    -1
372
    -1
1001
ACAD_DSTYLE_DIMJAG
1070
   388
1040
1.5
1001
ACAD_DSTYLE_DIMBREAK
1070
   391
1040
3.75
  0
DIMSTYLE
105
2BEB
330
CB
100
AcDbSymbolTableRecord
100
AcDbDimStyleTableRecord
  2
AM_ISO$3
 70
     0
  4
"
 41
3.5
 42
1.0
 43
10.0
 44
1.0
 47
0.1
 48
0.1
 73
     0
 77
     1
 78
     8
 79
     2
 90
        1
140
3.5
141
0.0
143
0.0393701
146
0.71
147
1.5
176
   256
177
   256
178
     2
271
     2
272
     3
274
     4
283
     0
284
     8
288
     1
289
     0
340
23
345
26
346
26
347
26
371
    -1
372
    -1
1001
ACAD_DSTYLE_DIMBREAK
1070
   391
1040
3.75
1001
ACAD_DSTYLE_DIMJAG
1070
   388
1040
1.5
  0
DIMSTYLE
105
2BEC
330
CB
100
AcDbSymbolTableRecord
100
AcDbDimStyleTableRecord
  2
AM_ISO$4
 70
     0
  4
"
 41
3.5
 42
1.0
 43
10.0
 44
1.0
 47
0.1
 48
0.1
 73
     0
 77
     1
 78
     8
 79
     2
 90
        1
140
3.5
141
0.0
143
0.0393701
146
0.71
147
1.5
176
   256
177
   256
178
     2
271
     2
272
     3
274
     4
283
     0
284
     8
288
     1
289
     0
340
23
345
26
346
26
347
26
371
    -1
372
    -1
1001
ACAD_DSTYLE_DIMBREAK
1070
   391
1040
3.75
1001
ACAD_DSTYLE_DIMJAG
1070
   388
1040
1.5
  0
DIMSTYLE
105
2BED
330
CB
100
AcDbSymbolTableRecord
100
AcDbDimStyleTableRecord
  2
AM_ISO$6
 70
     0
  4
"
 41
3.5
 42
1.0
 43
10.0
 44
1.0
 47
0.1
 48
0.1
 73
     0
 74
     0
 78
     8
 79
     2
 90
        1
140
3.5
141
0.0
143
0.0393701
146
0.71
147
1.5
172
     1
176
   256
177
   256
178
     2
271
     2
272
     3
274
     4
283
     0
284
     8
340
23
345
26
346
26
347
26
371
    -1
372
    -1
1001
ACAD_DSTYLE_DIMBREAK
1070
   391
1040
3.75
1001
ACAD_DSTYLE_DIMJAG
1070
   388
1040
1.5
  0
DIMSTYLE
105
2BEE
330
CB
100
AcDbSymbolTableRecord
100
AcDbDimStyleTableRecord
  2
AM_ISO$7
 70
     0
  4
"
 41
3.5
 42
1.0
 43
10.0
 44
1.0
 47
0.1
 48
0.1
 73
     0
 74
     0
 77
     1
 78
     8
 79
     2
 90
        1
140
3.5
141
0.0
143
0.0393701
146
0.71
147
1.5
172
     1
176
   256
177
   256
178
     2
271
     2
272
     3
274
     4
283
     0
284
     8
340
23
345
26
346
26
347
26
371
    -1
372
    -1
1001
ACAD_DSTYLE_DIMBREAK
1070
   391
1040
3.75
1001
ACAD_DSTYLE_DIMJAG
1070
   388
1040
1.5
  0
DIMSTYLE
105
2BEF
330
CB
100
AcDbSymbolTableRecord
100
AcDbDimStyleTableRecord
  2
AM_ISO$SF
 70
     0
  4
"
 41
3.5
 42
1.0
 43
10.0
 44
1.0
 47
0.1
 48
0.1
 73
     0
 74
     0
 75
     1
 76
     1
 77
     1
 78
     8
 79
     2
 90
        1
140
3.5
141
0.0
143
0.0393701
146
0.71
147
1.5
172
     1
176
   256
177
   256
178
     2
271
     2
272
     3
274
     4
283
     0
284
     8
340
23
345
26
346
26
347
26
371
    -1
372
    -1
1001
ACAD_DSTYLE_DIMBREAK
1070
   391
1040
3.75
1001
ACAD_DSTYLE_DIMJAG
1070
   388
1040
1.5
  0
DIMSTYLE
105
2BF4
330
CB
100
AcDbSymbolTableRecord
100
AcDbDimStyleTableRecord
  2
AM_ISO$SH
 70
     0
  4
"
 41
3.5
 42
1.0
 43
10.0
 44
1.0
 47
0.1
 48
0.1
 73
     0
 74
     0
 75
     1
 76
     1
 77
     1
 78
     8
 79
     2
 90
        1
140
3.5
141
0.0
143
0.0393701
144
2.0
146
0.71
147
1.5
172
     1
173
     1
176
   256
177
   256
178
     2
271
     2
272
     3
274
     4
283
     0
284
     8
340
23
343
2BF0
345
26
346
26
347
26
371
    -1
372
    -1
1001
ACAD_DSTYLE_DIMBREAK
1070
   391
1040
3.75
1001
ACAD_DSTYLE_DIMJAG
1070
   388
1040
1.5
  0
DIMSTYLE
105
2C32
330
CB
100
AcDbSymbolTableRecord
100
AcDbDimStyleTableRecord
  2
TSK
 70
     0
  4
"
 41
3.0
 42
1.0
 43
10.0
 44
1.0
 47
0.1
 48
0.1
 73
     0
 74
     0
 77
     3
 78
     8
 79
     2
 90
        1
140
3.0
141
0.0
143
0.0393701
146
0.71
147
1.5
172
     1
176
   256
177
   256
178
     2
271
     2
272
     2
284
     8
340
2C30
341
2C16
342
2C16
371
    -1
372
    -1
1001
ACAD_DSTYLE_DIMJOGGED_JOGANGLE_SYMBOL
1070
   384
1040
0.7853981633974483
1001
ACAD_DSTYLE_DIMJAG
1070
   388
1040
1.5
1001
ACAD_DSTYLE_DIMTALN
1070
   392
1070
     0
  0
DIMSTYLE
105
2C33
330
CB
100
AcDbSymbolTableRecord
100
AcDbDimStyleTableRecord
  2
TSK$3
 70
     0
  4
"
 41
3.0
 42
1.0
 43
10.0
 44
1.0
 47
0.1
 48
0.1
 73
     0
 74
     0
 77
     3
 78
     8
 79
     2
 90
        1
140
3.0
141
0.0
143
0.0393701
146
0.71
147
1.5
172
     1
176
   256
177
   256
178
     2
271
     2
272
     2
284
     8
288
     1
340
23
341
2C10
342
2C16
371
    -1
372
    -1
1001
ACAD_DSTYLE_DIMJOGGED_JOGANGLE_SYMBOL
1070
   384
1040
0.7853981633974483
1001
ACAD_DSTYLE_DIMBREAK
1070
   391
1040
3.75
1001
ACAD_DSTYLE_DIMJAG
1070
   388
1040
1.5
1001
ACAD_DSTYLE_DIMTALN
1070
   392
1070
     0
  0
DIMSTYLE
105
2C34
330
CB
100
AcDbSymbolTableRecord
100
AcDbDimStyleTableRecord
  2
TSK$4
 70
     0
  4
"
 41
3.0
 42
1.0
 43
10.0
 44
1.0
 47
0.1
 48
0.1
 73
     0
 74
     0
 77
     3
 78
     8
 79
     2
 90
        1
140
3.0
141
0.0
143
0.0393701
146
0.71
147
1.5
173
     1
176
   256
177
   256
178
     2
271
     2
272
     2
284
     8
288
     1
340
23
341
2C10
343
2C10
344
2C16
371
    -1
372
    -1
1001
ACAD_DSTYLE_DIMJOGGED_JOGANGLE_SYMBOL
1070
   384
1040
0.7853981633974483
1001
ACAD_DSTYLE_DIMBREAK
1070
   391
1040
3.75
1001
ACAD_DSTYLE_DIMJAG
1070
   388
1040
1.5
1001
ACAD_DSTYLE_DIMTALN
1070
   392
1070
     0
  0
DIMSTYLE
105
2C35
330
CB
100
AcDbSymbolTableRecord
100
AcDbDimStyleTableRecord
  2
TSK$6
 70
     0
  4
"
 41
3.0
 42
1.0
 43
10.0
 44
1.0
 47
0.1
 48
0.1
 73
     0
 74
     0
 78
     8
 79
     2
 90
        1
140
3.0
141
0.0
143
0.0393701
146
0.71
147
1.5
172
     1
176
   256
177
   256
178
     2
271
     2
272
     3
274
     4
284
     8
340
23
341
2C10
342
2C10
343
2C10
344
2C10
371
    -1
372
    -1
1001
ACAD_DSTYLE_DIMJOGGED_JOGANGLE_SYMBOL
1070
   384
1040
0.7853981633974483
1001
ACAD_DSTYLE_DIMBREAK
1070
   391
1040
3.75
1001
ACAD_DSTYLE_DIMJAG
1070
   388
1040
1.5
1001
ACAD_DSTYLE_DIMTALN
1070
   392
1070
     0
  0
DIMSTYLE
105
2C36
330
CB
100
AcDbSymbolTableRecord
100
AcDbDimStyleTableRecord
  2
TSK$7
 70
     0
  4
"
 41
2.0
 42
1.0
 43
10.0
 44
1.0
 47
0.1
 48
0.1
 73
     0
 74
     0
 77
     3
 78
     8
 79
     2
 90
        1
140
3.0
141
0.0
143
0.0393701
146
0.71
147
1.0
172
     1
176
   256
177
   256
178
     2
271
     2
272
     2
284
     8
340
23
341
2C16
342
2C10
371
    -1
372
    -1
1001
ACAD_DSTYLE_DIMJOGGED_JOGANGLE_SYMBOL
1070
   384
1040
0.7853981633974483
1001
ACAD_DSTYLE_DIMBREAK
1070
   391
1040
3.75
1001
ACAD_DSTYLE_DIMJAG
1070
   388
1040
1.5
1001
ACAD_DSTYLE_DIMTALN
1070
   392
1070
     0
  0
DIMSTYLE
105
2C37
330
CB
100
AcDbSymbolTableRecord
100
AcDbDimStyleTableRecord
  2
TSK$SF
 70
     0
  4
"
 41
2.5
 42
1.0
 43
10.0
 44
1.0
 47
0.1
 48
0.1
 73
     0
 74
     0
 75
     1
 76
     1
 77
     3
 78
     8
 79
     2
 90
        1
140
3.5
141
0.0
143
0.0393701
146
0.71
147
1.5
172
     1
176
   256
177
   256
178
     2
271
     2
272
     2
283
     0
284
     8
340
23
341
2C16
342
2C16
343
2C16
344
2C1C
371
    -1
372
    -1
1001
ACAD_DSTYLE_DIMJOGGED_JOGANGLE_SYMBOL
1070
   384
1040
0.7853981633974483
1001
ACAD_DSTYLE_DIMBREAK
1070
   391
1040
3.75
1001
ACAD_DSTYLE_DIMJAG
1070
   388
1040
1.5
1001
ACAD_DSTYLE_DIMTALN
1070
   392
1070
     0
  0
DIMSTYLE
105
2C38
330
CB
100
AcDbSymbolTableRecord
100
AcDbDimStyleTableRecord
  2
TSK$SH
 70
     0
  4
"
 41
2.5
 42
1.0
 43
10.0
 44
1.0
 47
0.1
 48
0.1
 73
     0
 74
     0
 75
     1
 76
     1
 77
     3
 78
     8
 79
     2
 90
        1
140
3.5
141
0.0
143
0.0393701
144
2.0
146
0.71
147
1.5
172
     1
173
     1
176
   256
177
   256
178
     2
271
     2
272
     2
283
     0
284
     8
340
23
341
2C1C
343
2BF0
344
2C16
371
    -1
372
    -1
1001
ACAD_DSTYLE_DIMJOGGED_JOGANGLE_SYMBOL
1070
   384
1040
0.7853981633974483
1001
ACAD_DSTYLE_DIMBREAK
1070
   391
1040
3.75
1001
ACAD_DSTYLE_DIMJAG
1070
   388
1040
1.5
1001
ACAD_DSTYLE_DIMTALN
1070
   392
1070
     0
  0
DIMSTYLE
105
2C39
330
CB
100
AcDbSymbolTableRecord
100
AcDbDimStyleTableRecord
  2
1-1
 70
     0
  4
"
 41
3.0
 42
1.0
 43
10.0
 44
1.0
 47
0.1
 48
0.1
 73
     0
 74
     0
 77
     3
 78
     8
 79
     2
140
3.5
141
0.0
143
0.0393701
146
0.71
147
1.5
172
     1
176
   256
177
   256
178
     2
179
     1
271
     2
272
     2
279
     2
284
     8
340
2C30
341
2C16
342
2C16
371
    15
372
    15
  0
DIMSTYLE
105
2C3A
330
CB
100
AcDbSymbolTableRecord
100
AcDbDimStyleTableRecord
  2
1-2
 70
     0
  4
"
 41
3.0
 42
1.0
 43
10.0
 44
1.0
 47
0.1
 48
0.1
 73
     0
 74
     0
 77
     3
 78
     8
 79
     2
140
3.5
141
0.0
143
0.0393701
144
2.0
146
0.71
147
1.5
172
     1
176
   256
177
   256
178
     2
179
     1
271
     2
272
     2
279
     2
284
     8
340
2C30
341
2C16
342
2C16
371
    15
372
    15
  0
DIMSTYLE
105
2C3B
330
CB
100
AcDbSymbolTableRecord
100
AcDbDimStyleTableRecord
  2
1-10
 70
     0
  4
"
 41
3.0
 42
1.0
 43
10.0
 44
1.0
 47
0.1
 48
0.1
 73
     0
 74
     0
 77
     3
 78
     8
 79
     2
140
3.5
141
0.0
143
0.0393701
144
10.0
146
0.71
147
1.5
172
     1
176
   256
177
   256
178
     2
179
     1
271
     2
272
     2
279
     2
284
     8
340
2C30
341
2C16
342
2C16
371
    15
372
    15
  0
DIMSTYLE
105
2C3C
330
CB
100
AcDbSymbolTableRecord
100
AcDbDimStyleTableRecord
  2
1-15
 70
     0
  4
"
 41
3.0
 42
1.0
 43
10.0
 44
1.0
 47
0.1
 48
0.1
 73
     0
 74
     0
 77
     3
 78
     8
 79
     2
140
3.5
141
0.0
143
0.0393701
144
15.0
146
0.71
147
1.5
172
     1
176
   256
177
   256
178
     2
179
     1
271
     2
272
     2
279
     2
284
     8
340
2C30
341
2C16
342
2C16
371
    15
372
    15
  0
DIMSTYLE
105
2C3D
330
CB
100
AcDbSymbolTableRecord
100
AcDbDimStyleTableRecord
  2
1-20
 70
     0
  4
"
 41
3.0
 42
1.0
 43
10.0
 44
1.0
 47
0.1
 48
0.1
 73
     0
 74
     0
 77
     3
 78
     8
 79
     2
140
3.5
141
0.0
143
0.0393701
144
20.0
146
0.71
147
1.5
172
     1
176
   256
177
   256
178
     2
179
     1
271
     2
272
     2
279
     2
284
     8
340
2C30
341
2C16
342
2C16
371
    15
372
    15
  0
DIMSTYLE
105
3C27
330
CB
100
AcDbSymbolTableRecord
100
AcDbDimStyleTableRecord
  2
TSK$0
 70
     0
  4
"
 41
3.0
 42
1.0
 43
10.0
 44
1.0
 47
0.1
 48
0.1
 73
     0
 74
     0
 77
     3
 78
     8
 79
     2
 90
        1
140
3.0
141
0.0
143
0.0393701
146
0.71
147
1.5
172
     1
176
   256
177
   256
178
     2
271
     2
272
     2
284
     8
340
2C30
341
2C16
342
2C16
371
    -1
372
    -1
1001
ACAD_DSTYLE_DIMBREAK
1070
   391
1040
3.75
1001
ACAD_DSTYLE_DIMJAG
1070
   388
1040
1.5
  0
ENDTAB
  0
TABLE
  2
BLOCK_RECORD
  5
D0
330
0
100
AcDbSymbolTable
 70
     6
  0
BLOCK_RECORD
  5
D1
102
{ACAD_XDICTIONARY
360
179F
102
}
330
D0
100
AcDbSymbolTableRecord
100
AcDbBlockTableRecord
  2
*MODEL_SPACE
340
149F
 70
     0
280
     1
281
     0
  0
BLOCK_RECORD
  5
D2
330
D0
100
AcDbSymbolTableRecord
100
AcDbBlockTableRecord
  2
*PAPER_SPACE
340
14A0
 70
     0
280
     1
281
     0
  0
BLOCK_RECORD
  5
2BC0
330
D0
100
AcDbSymbolTableRecord
100
AcDbBlockTableRecord
  2
*U0
340
0
 70
     0
280
     1
281
     0
  0
BLOCK_RECORD
  5
2BF0
330
D0
100
AcDbSymbolTableRecord
100
AcDbBlockTableRecord
  2
GENAXEH
340
0
 70
     0
280
     1
281
     0
  0
BLOCK_RECORD
  5
2C10
330
D0
100
AcDbSymbolTableRecord
100
AcDbBlockTableRecord
  2
_Open30
340
0
 70
     0
280
     1
281
     0
  0
BLOCK_RECORD
  5
2C16
330
D0
100
AcDbSymbolTableRecord
100
AcDbBlockTableRecord
  2
_Open
340
0
 70
     0
280
     1
281
     0
  0
BLOCK_RECORD
  5
2C1C
330
D0
100
AcDbSymbolTableRecord
100
AcDbBlockTableRecord
  2
_Closed
340
0
 70
     0
280
     1
281
     0
  0
BLOCK_RECORD
  5
2C23
330
D0
100
AcDbSymbolTableRecord
100
AcDbBlockTableRecord
  2
_ACMOPEN15
340
0
 70
     0
280
     1
281
     0
  0
ENDTAB
  0
ENDSEC
  0
SECTION
  2
BLOCKS
  0
BLOCK
  5
E3
330
D1
100
AcDbEntity
  8
0
100
AcDbBlockBegin
  2
*MODEL_SPACE
 70
     0
 10
0.0
 20
0.0
 30
0.0
  3
*MODEL_SPACE
  1

  0
ENDBLK
  5
E4
330
D1
100
AcDbEntity
  8
0
100
AcDbBlockEnd
  0
BLOCK
  5
E5
330
D2
100
AcDbEntity
 67
     1
  8
0
100
AcDbBlockBegin
  2
*PAPER_SPACE
 70
     0
 10
0.0
 20
0.0
 30
0.0
  3
*PAPER_SPACE
  1

  0
ENDBLK
  5
E6
330
D2
100
AcDbEntity
 67
     1
  8
0
100
AcDbBlockEnd
  0
BLOCK
  5
2BC1
330
2BC0
100
AcDbEntity
  8
0
100
AcDbBlockBegin
  2
*U0
 70
     1
 10
0.0
 20
0.0
 30
0.0
  3
*U0
  1

  0
ENDBLK
  5
2BC2
330
2BC0
100
AcDbEntity
  8
0
100
AcDbBlockEnd
  0
BLOCK
  5
2BF2
330
2BF0
100
AcDbEntity
  8
0
100
AcDbBlockBegin
  2
GENAXEH
 70
     0
 10
0.0
 20
0.0
 30
0.0
  3
GENAXEH
  1

  0
LINE
  5
2BF1
330
2BF0
100
AcDbEntity
  8
0
100
AcDbLine
 10
-1.0
 20
0.0
 30
0.0
 11
1.0
 21
0.0
 31
0.0
  0
ENDBLK
  5
2BF3
330
2BF0
100
AcDbEntity
  8
0
100
AcDbBlockEnd
  0
BLOCK
  5
2C11
330
2C10
100
AcDbEntity
  8
0
100
AcDbBlockBegin
  2
_Open30
 70
     0
 10
0.0
 20
0.0
 30
0.0
  3
_Open30
  1

  0
LINE
  5
2C12
330
2C10
100
AcDbEntity
  8
0
  6
ByBlock
 62
     0
370
    -2
100
AcDbLine
 10
-1.0
 20
0.26794919
 30
0.0
 11
0.0
 21
0.0
 31
0.0
  0
LINE
  5
2C13
330
2C10
100
AcDbEntity
  8
0
  6
ByBlock
 62
     0
370
    -2
100
AcDbLine
 10
0.0
 20
0.0
 30
0.0
 11
-1.0
 21
-0.26794919
 31
0.0
  0
LINE
  5
2C14
330
2C10
100
AcDbEntity
  8
0
  6
ByBlock
 62
     0
370
    -2
100
AcDbLine
 10
0.0
 20
0.0
 30
0.0
 11
-1.0
 21
0.0
 31
0.0
  0
ENDBLK
  5
2C15
330
2C10
100
AcDbEntity
  8
0
100
AcDbBlockEnd
  0
BLOCK
  5
2C17
330
2C16
100
AcDbEntity
  8
0
100
AcDbBlockBegin
  2
_Open
 70
     0
 10
0.0
 20
0.0
 30
0.0
  3
_Open
  1

  0
LINE
  5
2C18
330
2C16
100
AcDbEntity
  8
0
  6
ByBlock
 62
     0
370
    -2
100
AcDbLine
 10
-1.0
 20
0.1666666666666666
 30
0.0
 11
0.0
 21
0.0
 31
0.0
  0
LINE
  5
2C19
330
2C16
100
AcDbEntity
  8
0
  6
ByBlock
 62
     0
370
    -2
100
AcDbLine
 10
-1.0
 20
-0.1666666666666666
 30
0.0
 11
0.0
 21
0.0
 31
0.0
  0
LINE
  5
2C1A
330
2C16
100
AcDbEntity
  8
0
  6
ByBlock
 62
     0
370
    -2
100
AcDbLine
 10
0.0
 20
0.0
 30
0.0
 11
-1.0
 21
0.0
 31
0.0
  0
ENDBLK
  5
2C1B
330
2C16
100
AcDbEntity
  8
0
100
AcDbBlockEnd
  0
BLOCK
  5
2C1D
330
2C1C
100
AcDbEntity
  8
0
100
AcDbBlockBegin
  2
_Closed
 70
     0
 10
0.0
 20
0.0
 30
0.0
  3
_Closed
  1

  0
LINE
  5
2C1E
330
2C1C
100
AcDbEntity
  8
0
  6
ByBlock
 62
     0
370
    -2
100
AcDbLine
 10
-1.0
 20
0.1666666666666666
 30
0.0
 11
0.0
 21
0.0
 31
0.0
  0
LINE
  5
2C1F
330
2C1C
100
AcDbEntity
  8
0
  6
ByBlock
 62
     0
370
    -2
100
AcDbLine
 10
0.0
 20
0.0
 30
0.0
 11
-1.0
 21
-0.1666666666666666
 31
0.0
  0
LINE
  5
2C20
330
2C1C
100
AcDbEntity
  8
0
  6
ByBlock
 62
     0
370
    -2
100
AcDbLine
 10
-1.0
 20
0.1666666666666666
 30
0.0
 11
-1.0
 21
-0.1666666666666666
 31
0.0
  0
LINE
  5
2C21
330
2C1C
100
AcDbEntity
  8
0
  6
ByBlock
 62
     0
370
    -2
100
AcDbLine
 10
0.0
 20
0.0
 30
0.0
 11
-1.0
 21
0.0
 31
0.0
  0
ENDBLK
  5
2C22
330
2C1C
100
AcDbEntity
  8
0
100
AcDbBlockEnd
  0
BLOCK
  5
2C24
330
2C23
100
AcDbEntity
  8
0
100
AcDbBlockBegin
  2
_ACMOPEN15
 70
     0
 10
0.0
 20
0.0
 30
0.0
  3
_ACMOPEN15
  1

  0
LINE
  5
2C25
330
2C23
100
AcDbEntity
  8
AM_0_T3
 62
     0
100
AcDbLine
 10
-1.0
 20
0.0
 30
0.0
 11
0.0
 21
0.0
 31
0.0
  0
LINE
  5
2C26
330
2C23
100
AcDbEntity
  8
AM_0_T3
 62
     0
100
AcDbLine
 10
-1.0
 20
-0.131652497
 30
0.0
 11
0.0
 21
0.0
 31
0.0
  0
LINE
  5
2C27
330
2C23
100
AcDbEntity
  8
AM_0_T3
 62
     0
100
AcDbLine
 10
0.0
 20
0.0
 30
0.0
 11
-1.0
 21
0.131652497
 31
0.0
  0
ENDBLK
  5
2C28
330
2C23
100
AcDbEntity
  8
0
100
AcDbBlockEnd
  0
ENDSEC
  0
SECTION
  2
ENTITIES
  0
TEXT
  5
2B89
330
D1
100
AcDbEntity
  8
0
100
AcDbText
 10
-216.6666666666667
 20
841.6142547555066
 30
0.0
 40
50.0
  1
2MMT_F 4S
 72
     4
 11
-0.0000000000000568
 21
862.44758808884
 31
0.0
100
AcDbText
  0
LINE
  5
474B
330
D1
100
AcDbEntity
  8
0
100
AcDbLine
 10
-468.0996164670014
 20
244.2773716562109
 30
0.0
 11
-492.0945069670015
 21
244.2773716562109
 31
0.0
  0
LINE
  5
474C
330
D1
100
AcDbEntity
  8
0
100
AcDbLine
 10
-478.3992669670015
 20
243.9773606562115
 30
0.0
 11
-446.0945069670015
 21
243.9773606562115
 31
0.0
  0
LINE
  5
474D
330
D1
100
AcDbEntity
  8
0
100
AcDbLine
 10
-446.0945069670015
 20
243.9773606562115
 30
0.0
 11
-446.0945069670015
 21
241.9773606562115
 31
0.0
  0
LINE
  5
474E
330
D1
100
AcDbEntity
  8
0
100
AcDbLine
 10
-486.0139179670013
 20
241.9773606562115
 30
0.0
 11
-446.0945069670015
 21
241.9773606562115
 31
0.0
  0
LINE
  5
474F
330
D1
100
AcDbEntity
  8
0
100
AcDbLine
 10
-492.0945069670015
 20
243.9773606562115
 30
0.0
 11
-478.3992669670015
 21
243.9773606562115
 31
0.0
  0
LINE
  5
4750
330
D1
100
AcDbEntity
  8
0
100
AcDbLine
 10
-492.0945069670015
 20
241.9773606562097
 30
0.0
 11
-486.0139179670013
 21
241.9773606562115
 31
0.0
  0
LINE
  5
4751
330
D1
100
AcDbEntity
  8
0
100
AcDbLine
 10
-479.0945069670015
 20
272.4189496562116
 30
0.0
 11
-479.0945069670015
 21
265.561383656211
 31
0.0
  0
LINE
  5
4752
330
D1
100
AcDbEntity
  8
0
100
AcDbLine
 10
-452.0914825620002
 20
244.2664372945122
 30
0.0
 11
-468.0996164670014
 21
244.2773716562109
 31
0.0
  0
LINE
  5
4753
330
D1
100
AcDbEntity
  8
0
100
AcDbLine
 10
-452.0945069670014
 20
269.7773486562122
 30
0.0
 11
-452.0945069670024
 21
244.2623282481703
 31
0.0
  0
LINE
  5
4754
330
D1
100
AcDbEntity
  8
0
100
AcDbLine
 10
-489.0945069670014
 20
272.7573486562122
 30
0.0
 11
-479.8642093670014
 21
272.7573486562122
 31
0.0
  0
LINE
  5
4755
330
D1
100
AcDbEntity
  8
0
100
AcDbLine
 10
-492.0945069670015
 20
269.7773486562122
 30
0.0
 11
-492.0945069670015
 21
245.2773716562109
 31
0.0
  0
LINE
  5
4756
330
D1
100
AcDbEntity
  8
0
100
AcDbLine
 10
-464.3248045670016
 20
272.7573486562122
 30
0.0
 11
-455.0945069670015
 21
272.7573486562122
 31
0.0
  0
LINE
  5
4757
330
D1
100
AcDbEntity
  8
0
100
AcDbLine
 10
-465.0945069670014
 20
272.4189496562116
 30
0.0
 11
-465.0945069670014
 21
265.561383656211
 31
0.0
  0
ARC
  5
4758
330
D1
100
AcDbEntity
  8
0
100
AcDbCircle
 10
-455.0945069670015
 20
269.7573486562122
 30
0.0
 40
3.0
100
AcDbArc
 50
0.0
 51
90.0
  0
ARC
  5
4759
330
D1
100
AcDbEntity
  8
0
100
AcDbCircle
 10
-489.0945069670014
 20
269.7573486562122
 30
0.0
 40
3.0
100
AcDbArc
 50
90.0
 51
180.0
  0
ARC
  5
475A
330
D1
100
AcDbEntity
  8
0
100
AcDbCircle
 10
-491.3994981669393
 20
244.7773716562109
 30
0.0
 40
0.856175935286849
100
AcDbArc
 50
215.7318198183304
 51
249.1314647110268
  0
ARC
  5
475B
330
D1
100
AcDbEntity
  8
0
100
AcDbCircle
 10
-452.7797374690972
 20
244.7698499521915
 30
0.0
 40
0.8527128010373996
100
AcDbArc
 50
291.6625231712118
 51
323.8170140125667
  0
ARC
  5
475C
330
D1
100
AcDbEntity
  8
0
100
AcDbCircle
 10
-472.0945069670015
 20
265.561383656211
 30
0.0
 40
7.0
100
AcDbArc
 50
180.0
 51
0.0
  0
CIRCLE
  5
475D
330
D1
100
AcDbEntity
  8
0
100
AcDbCircle
 10
-472.0945069670015
 20
288.4579666562116
 30
0.0
 40
17.5
  0
LINE
  5
475E
330
D1
100
AcDbEntity
  8
0
100
AcDbLine
 10
-492.0945069670015
 20
245.2773716562109
 30
0.0
 11
-492.0945069670015
 21
244.2773716562109
 31
0.0
  0
LINE
  5
475F
330
D1
100
AcDbEntity
  8
0
100
AcDbLine
 10
-492.0945069670024
 20
243.9773606562115
 30
0.0
 11
-492.0945069670015
 21
241.9773606562097
 31
0.0
  0
ARC
  5
4760
330
D1
100
AcDbEntity
  8
0
100
AcDbCircle
 10
-491.2944959670021
 20
241.2823518561475
 30
0.0
 40
0.856175935286849
100
AcDbArc
 50
125.7318198183247
 51
159.1314647110788
  0
ARC
  5
4761
330
D1
100
AcDbEntity
  8
0
100
AcDbCircle
 10
-452.894517146612
 20
241.2823518561484
 30
0.0
 40
0.856175935286849
100
AcDbArc
 50
20.86853528892123
 51
54.2681801817103
  0
LINE
  5
4762
330
D1
100
AcDbEntity
  8
0
100
AcDbLine
 10
56.68820693928501
 20
672.1843380120317
 30
0.0
 11
-48.9999992720368
 21
672.1843380140235
 31
0.0
  0
ARC
  5
4763
330
D1
100
AcDbEntity
  8
0
100
AcDbCircle
 10
-48.99999927202225
 20
674.1843380140235
 30
0.0
 40
2.0
100
AcDbArc
 50
180.0
 51
270.0
  0
LINE
  5
4764
330
D1
100
AcDbEntity
  8
0
100
AcDbLine
 10
56.68820693576162
 20
503.1843380129831
 30
0.0
 11
-48.99999927554564
 21
503.1843380151849
 31
0.0
  0
ARC
  5
4765
330
D1
100
AcDbEntity
  8
0
100
AcDbCircle
 10
-48.9999992756293
 20
501.1843380151849
 30
0.0
 40
2.0
100
AcDbArc
 50
89.99999999760293
 51
179.9999999976029
  0
LINE
  5
4766
330
D1
100
AcDbEntity
  8
0
100
AcDbLine
 10
17.50000072412513
 20
605.1843379768524
 30
0.0
 11
9.682458431801023
 21
605.1843379770152
 31
0.0
  0
LINE
  5
4767
330
D1
100
AcDbEntity
  8
0
100
AcDbLine
 10
-9.68245843106979
 20
605.18433797742
 30
0.0
 11
-50.99999927436693
 21
605.184337978283
 31
0.0
  0
LINE
  5
4768
330
D1
100
AcDbEntity
  8
0
100
AcDbLine
 10
17.50000072339571
 20
570.1843380528743
 30
0.0
 11
13.43136028582285
 21
570.1843380529599
 31
0.0
  0
LINE
  5
4769
330
D1
100
AcDbEntity
  8
0
100
AcDbLine
 10
-9.68245843736804
 20
570.1843380534419
 30
0.0
 11
-50.99999927447789
 21
570.184338054305
 31
0.0
  0
LINE
  5
476A
330
D1
100
AcDbEntity
  8
0
100
AcDbLine
 10
17.50000072339571
 20
570.184338052968
 30
0.0
 11
17.5000007235576
 21
578.0018809559233
 31
0.0
  0
LINE
  5
476B
330
D1
100
AcDbEntity
  8
0
100
AcDbLine
 10
17.50000072396051
 20
597.3667950707267
 30
0.0
 11
17.50000072412331
 21
605.184337976947
 31
0.0
  0
LINE
  5
476C
330
D1
100
AcDbEntity
  8
0
100
AcDbLine
 10
19.50000072224247
 20
556.6773193153476
 30
0.0
 11
19.50000072312468
 21
618.6913567105348
 31
0.0
  0
LINE
  5
476D
330
D1
100
AcDbEntity
  8
0
100
AcDbLine
 10
19.50000072224247
 20
556.6773193152831
 30
0.0
 11
-50.99999927819954
 21
556.6773193181543
 31
0.0
  0
LINE
  5
476E
330
D1
100
AcDbEntity
  8
0
100
AcDbLine
 10
19.50000072312468
 20
618.6913567068022
 30
0.0
 11
-50.99999927819954
 21
618.6913567078036
 31
0.0
  0
ARC
  5
476F
330
D1
100
AcDbEntity
  8
0
100
AcDbCircle
 10
-21.00000000000364
 20
598.1843380094232
 30
0.0
 40
3.0
100
AcDbArc
 50
46.62813122128208
 51
188.4412232423951
  0
CIRCLE
  5
4770
330
D1
100
AcDbEntity
  8
0
100
AcDbCircle
 10
-21.0
 20
577.1843380094233
 30
0.0
 40
3.0
  0
CIRCLE
  5
4771
330
D1
100
AcDbEntity
  8
0
100
AcDbCircle
 10
-21.0
 20
577.1843380094233
 30
0.0
 40
2.75
  0
ARC
  5
4772
330
D1
100
AcDbEntity
  8
0
100
AcDbCircle
 10
-21.00000000000182
 20
598.1843380094232
 30
0.0
 40
2.75
100
AcDbArc
 50
48.44137502104008
 51
186.6279794426565
  0
LINE
  5
4773
330
D1
100
AcDbEntity
  8
0
100
AcDbLine
 10
0.0
 20
682.1843380136888
 30
0.0
 11
0.0
 21
493.1843380136888
 31
0.0
  0
LINE
  5
4774
330
D1
100
AcDbEntity
  8
0
100
AcDbLine
 10
-125.0
 20
587.6843380136888
 30
0.0
 11
176.7789599999996
 21
587.6843380136888
 31
0.0
  0
LINE
  5
4775
330
D1
100
AcDbEntity
  8
0
100
AcDbLine
 10
-26.0
 20
591.6843380136888
 30
0.0
 11
-26.0
 21
583.6843380136888
 31
0.0
  0
LINE
  5
4776
330
D1
100
AcDbEntity
  8
0
100
AcDbLine
 10
-26.0
 20
591.6843380136888
 30
0.0
 11
-21.16601600000013
 21
591.6843380136888
 31
0.0
  0
LINE
  5
4777
330
D1
100
AcDbEntity
  8
0
100
AcDbLine
 10
-25.0
 20
583.6843380136888
 30
0.0
 11
-21.16601600000013
 21
583.6843380136888
 31
0.0
  0
LINE
  5
4778
330
D1
100
AcDbEntity
  8
0
100
AcDbLine
 10
-26.0
 20
596.6843377164823
 30
0.0
 11
-26.0
 21
591.6843380136888
 31
0.0
  0
LINE
  5
4779
330
D1
100
AcDbEntity
  8
0
100
AcDbLine
 10
-26.0
 20
596.6843377164823
 30
0.0
 11
-9.245706599999721
 21
605.4189630136879
 31
0.0
  0
LINE
  5
477A
330
D1
100
AcDbEntity
  8
0
100
AcDbLine
 10
-21.5
 20
583.6843380136888
 30
0.0
 11
-26.0
 21
583.6843380136888
 31
0.0
  0
LINE
  5
477B
330
D1
100
AcDbEntity
  8
0
100
AcDbLine
 10
8.999999702793502
 20
561.6843380136888
 30
0.0
 11
4.0
 21
561.6843380136888
 31
0.0
  0
LINE
  5
477C
330
D1
100
AcDbEntity
  8
0
100
AcDbLine
 10
8.999999702793502
 20
561.6843380136888
 30
0.0
 11
17.73462500000005
 21
578.4386314136882
 31
0.0
  0
LINE
  5
477D
330
D1
100
AcDbEntity
  8
0
100
AcDbLine
 10
4.0
 20
567.6843380136888
 30
0.0
 11
4.0
 21
561.6843380136888
 31
0.0
  0
LINE
  5
477E
330
D1
100
AcDbEntity
  8
0
100
AcDbLine
 10
4.0
 20
567.6843380136888
 30
0.0
 11
0.0
 21
567.6843380136888
 31
0.0
  0
LINE
  5
477F
330
D1
100
AcDbEntity
  8
0
100
AcDbLine
 10
133.2399399999995
 20
580.6843380136888
 30
0.0
 11
18.7349949999998
 21
580.6843380136888
 31
0.0
  0
LINE
  5
4780
330
D1
100
AcDbEntity
  8
0
100
AcDbLine
 10
133.2399399999995
 20
594.6843380136888
 30
0.0
 11
18.7349949999998
 21
594.6843380136888
 31
0.0
  0
CIRCLE
  5
4781
330
D1
100
AcDbEntity
  8
0
100
AcDbCircle
 10
0.0
 20
587.6843380136888
 30
0.0
 40
16.5
  0
CIRCLE
  5
4782
330
D1
100
AcDbEntity
  8
0
100
AcDbCircle
 10
0.0
 20
587.6843380136888
 30
0.0
 40
6.400000099999999
  0
ARC
  5
4783
330
D1
100
AcDbEntity
  8
0
100
AcDbCircle
 10
-21.16601600000013
 20
581.6843380136888
 30
0.0
 40
2.0
100
AcDbArc
 50
15.82661799997746
 51
90.0
  0
ARC
  5
4784
330
D1
100
AcDbEntity
  8
0
100
AcDbCircle
 10
-21.16601600000013
 20
593.6843380136888
 30
0.0
 40
2.0
100
AcDbArc
 50
270.0
 51
344.1733799999738
  0
CIRCLE
  5
4785
330
D1
100
AcDbEntity
  8
0
100
AcDbCircle
 10
149.2789599999996
 20
587.6843380136888
 30
0.0
 40
17.5
  0
CIRCLE
  5
4786
330
D1
100
AcDbEntity
  8
0
100
AcDbCircle
 10
0.0
 20
587.6843380136888
 30
0.0
 40
20.0
  0
LINE
  5
4787
330
D1
100
AcDbEntity
  8
0
100
AcDbLine
 10
115.0
 20
528.1843380136888
 30
0.0
 11
115.0
 21
580.6843380136888
 31
0.0
  0
LINE
  5
4788
330
D1
100
AcDbEntity
  8
0
100
AcDbLine
 10
115.0
 20
594.6843380136888
 30
0.0
 11
115.0
 21
647.1843380136888
 31
0.0
  0
LINE
  5
4789
330
D1
100
AcDbEntity
  8
0
100
AcDbLine
 10
111.862618863227
 20
528.9739138287204
 30
0.0
 11
109.4624283246885
 21
535.5683828996061
 31
0.0
  0
LINE
  5
478A
330
D1
100
AcDbEntity
  8
0
100
AcDbLine
 10
115.0
 20
528.1843380136888
 30
0.0
 11
112.9902500034459
 21
528.1843380136888
 31
0.0
  0
ARC
  5
478B
330
D1
100
AcDbEntity
  8
0
100
AcDbCircle
 10
112.9902500034459
 20
529.3843380136896
 30
0.0
 40
1.199999999999999
100
AcDbArc
 50
200.0000006593907
 51
270.0
  0
ARC
  5
478C
330
D1
100
AcDbEntity
  8
0
100
AcDbCircle
 10
107.5830430909891
 20
534.8843425913255
 30
0.0
 40
2.0
100
AcDbArc
 50
20.00000065939073
 51
90.0
  0
LINE
  5
478D
330
D1
100
AcDbEntity
  8
0
100
AcDbLine
 10
115.0
 20
647.1843380136888
 30
0.0
 11
112.9902500034459
 21
647.1843380136888
 31
0.0
  0
ARC
  5
478E
330
D1
100
AcDbEntity
  8
0
100
AcDbCircle
 10
112.9902500034459
 20
645.9843380136899
 30
0.0
 40
1.199999999999999
100
AcDbArc
 50
90.0
 51
159.9999993406093
  0
ARC
  5
478F
330
D1
100
AcDbEntity
  8
0
100
AcDbCircle
 10
107.5830430909891
 20
640.4843334360521
 30
0.0
 40
2.0
100
AcDbArc
 50
270.0
 51
339.9999993406092
  0
LINE
  5
4790
330
D1
100
AcDbEntity
  8
0
100
AcDbLine
 10
111.862618863227
 20
646.3947621986571
 30
0.0
 11
109.4624283246885
 21
639.8002931277724
 31
0.0
  0
LINE
  5
4791
330
D1
100
AcDbEntity
  8
0
100
AcDbLine
 10
107.5830426374013
 20
536.8843425913255
 30
0.0
 11
80.25001024934317
 21
536.8843363923643
 31
0.0
  0
LINE
  5
4792
330
D1
100
AcDbEntity
  8
0
100
AcDbLine
 10
107.5830426374013
 20
638.4843334360521
 30
0.0
 11
80.2500102493459
 21
638.4843396350161
 31
0.0
  0
LINE
  5
4793
330
D1
100
AcDbEntity
  8
0
100
AcDbLine
 10
54.25
 20
680.1843262723032
 30
0.0
 11
57.52573656770983
 21
689.1843382018933
 31
0.0
  0
LINE
  5
4794
330
D1
100
AcDbEntity
  8
0
100
AcDbLine
 10
54.25
 20
594.6843380136888
 30
0.0
 11
54.25
 21
680.1843262723032
 31
0.0
  0
LINE
  5
4795
330
D1
100
AcDbEntity
  8
0
100
AcDbLine
 10
112.1500009678857
 20
528.9739138287204
 30
0.0
 11
112.1500009678866
 21
580.6843380136888
 31
0.0
  0
LINE
  5
4796
330
D1
100
AcDbEntity
  8
0
100
AcDbLine
 10
108.9834581502573
 20
536.8843425913255
 30
0.0
 11
108.9834581502582
 21
580.6843380136897
 31
0.0
  0
LINE
  5
4797
330
D1
100
AcDbEntity
  8
0
100
AcDbLine
 10
112.1500009678857
 20
646.3947621986571
 30
0.0
 11
112.1500009678866
 21
594.6843380136888
 31
0.0
  0
LINE
  5
4798
330
D1
100
AcDbEntity
  8
0
100
AcDbLine
 10
108.9834581502573
 20
638.4843334360521
 30
0.0
 11
108.9834581502582
 21
594.6843380136888
 31
0.0
  0
LINE
  5
4799
330
D1
100
AcDbEntity
  8
0
100
AcDbLine
 10
57.52573511077208
 20
580.6843380136888
 30
0.0
 11
57.52573511077208
 21
486.1843418283861
 31
0.0
  0
LINE
  5
479A
330
D1
100
AcDbEntity
  8
0
100
AcDbLine
 10
57.52573511077208
 20
594.6843380136888
 30
0.0
 11
57.52573511077208
 21
689.1843341989897
 31
0.0
  0
LINE
  5
479B
330
D1
100
AcDbEntity
  8
0
100
AcDbLine
 10
54.24999999999545
 20
495.1843497550744
 30
0.0
 11
57.52573656770437
 21
486.1843378254852
 31
0.0
  0
LINE
  5
479C
330
D1
100
AcDbEntity
  8
0
100
AcDbLine
 10
54.25
 20
580.6843380136888
 30
0.0
 11
54.24999999999545
 21
495.1843497550744
 31
0.0
  0
LINE
  5
479D
330
D1
100
AcDbEntity
  8
0
100
AcDbLine
 10
57.52573656770437
 20
486.1843378254852
 30
0.0
 11
76.97427513856928
 21
486.1843378254852
 31
0.0
  0
LINE
  5
479E
330
D1
100
AcDbEntity
  8
0
100
AcDbLine
 10
57.52573656770437
 20
689.1843301960907
 30
0.0
 11
76.97427513856928
 21
689.1843301960907
 31
0.0
  0
LINE
  5
479F
330
D1
100
AcDbEntity
  8
0
100
AcDbLine
 10
76.97427513856837
 20
580.6843380136888
 30
0.0
 11
76.97427513856928
 21
486.1843378254852
 31
0.0
  0
LINE
  5
47A0
330
D1
100
AcDbEntity
  8
0
100
AcDbLine
 10
76.97427513856837
 20
594.6843380136888
 30
0.0
 11
76.97427513856928
 21
689.1843301960889
 31
0.0
  0
LINE
  5
47A1
330
D1
100
AcDbEntity
  8
0
100
AcDbLine
 10
80.2500102493459
 20
680.1843222694023
 30
0.0
 11
76.97427368163608
 21
689.1843341989924
 31
0.0
  0
LINE
  5
47A2
330
D1
100
AcDbEntity
  8
0
100
AcDbLine
 10
80.2500102493459
 20
594.6843380136879
 30
0.0
 11
80.2500102493459
 21
680.1843222694023
 31
0.0
  0
LINE
  5
47A3
330
D1
100
AcDbEntity
  8
0
100
AcDbLine
 10
80.25001024934136
 20
495.1843457521717
 30
0.0
 11
76.97427368163062
 21
486.1843338225826
 31
0.0
  0
LINE
  5
47A4
330
D1
100
AcDbEntity
  8
0
100
AcDbLine
 10
80.2500102493459
 20
580.6843380136897
 30
0.0
 11
80.25001024934045
 21
495.1843457521717
 31
0.0
  0
LINE
  5
47A5
330
D1
100
AcDbEntity
  8
0
100
AcDbLine
 10
59.24999999999545
 20
465.684327531846
 30
0.0
 11
75.25001024934136
 21
465.684327531846
 31
0.0
  0
LINE
  5
47A6
330
D1
100
AcDbEntity
  8
0
100
AcDbLine
 10
80.25001024934045
 20
495.1843457521717
 30
0.0
 11
80.25001024934136
 21
470.684327531846
 31
0.0
  0
ARC
  5
47A7
330
D1
100
AcDbEntity
  8
0
100
AcDbCircle
 10
75.25001024934136
 20
470.684327531846
 30
0.0
 40
5.0
100
AcDbArc
 50
270.0
 51
0.0
  0
LINE
  5
47A8
330
D1
100
AcDbEntity
  8
0
100
AcDbLine
 10
72.50001024934045
 20
486.1843378254852
 30
0.0
 11
72.50001024934135
 21
465.6843275318451
 31
0.0
  0
LINE
  5
47A9
330
D1
100
AcDbEntity
  8
0
100
AcDbLine
 10
54.24999999999545
 20
495.1843497550744
 30
0.0
 11
54.24999999999545
 21
470.684327531846
 31
0.0
  0
ARC
  5
47AA
330
D1
100
AcDbEntity
  8
0
100
AcDbCircle
 10
59.24999999999545
 20
470.684327531846
 30
0.0
 40
5.0
100
AcDbArc
 50
180.0
 51
270.0
  0
LINE
  5
47AB
330
D1
100
AcDbEntity
  8
0
100
AcDbLine
 10
61.99999999999545
 20
486.1843378254852
 30
0.0
 11
61.99999999999545
 21
465.684327531846
 31
0.0
  0
LINE
  5
47AC
330
D1
100
AcDbEntity
  8
0
100
AcDbLine
 10
64.40000585313646
 20
465.684327531846
 30
0.0
 11
64.40000585313646
 21
458.5343351910423
 31
0.0
  0
LINE
  5
47AD
330
D1
100
AcDbEntity
  8
0
100
AcDbLine
 10
70.10000585313901
 20
465.684327531846
 30
0.0
 11
70.1000058531381
 21
458.5343351910423
 31
0.0
  0
ARC
  5
47AE
330
D1
100
AcDbEntity
  8
0
100
AcDbCircle
 10
67.25000585313683
 20
458.5343351910423
 30
0.0
 40
2.850000000000363
100
AcDbArc
 50
180.0
 51
0.0
  0
LINE
  5
47AF
330
D1
100
AcDbEntity
  8
0
100
AcDbLine
 10
-50.9999986625371
 20
495.4212326051183
 30
0.0
 11
-50.9999986625371
 21
489.921229573798
 31
0.0
  0
LINE
  5
47B0
330
D1
100
AcDbEntity
  8
0
100
AcDbLine
 10
-50.9999986625371
 20
493.8908984062163
 30
0.0
 11
-50.9999986625371
 21
488.9212295737979
 31
0.0
  0
LINE
  5
47B1
330
D1
100
AcDbEntity
  8
0
100
AcDbLine
 10
-50.99999927142562
 20
499.6161416713148
 30
0.0
 11
-50.99999927142562
 21
493.6161416713148
 31
0.0
  0
LINE
  5
47B2
330
D1
100
AcDbEntity
  8
0
100
AcDbLine
 10
-50.99999927142562
 20
487.9464895131313
 30
0.0
 11
-50.99999927142562
 21
504.9158441345971
 31
0.0
  0
LINE
  5
47B3
330
D1
100
AcDbEntity
  8
0
100
AcDbLine
 10
-50.99999927142562
 20
497.5851987560599
 30
0.0
 11
-50.99999927142562
 21
492.615844134596
 31
0.0
  0
LINE
  5
47B4
330
D1
100
AcDbEntity
  8
0
100
AcDbLine
 10
-73.99999927142562
 20
698.9340678034996
 30
0.0
 11
-73.99999927142562
 21
681.434608223878
 31
0.0
  0
LINE
  5
47B5
330
D1
100
AcDbEntity
  8
0
100
AcDbLine
 10
-70.99999927142562
 20
698.9340678034996
 30
0.0
 11
-70.99999927142562
 21
681.434608223878
 31
0.0
  0
LINE
  5
47B6
330
D1
100
AcDbEntity
  8
0
100
AcDbLine
 10
-50.99999948934237
 20
509.8857912663333
 30
0.0
 11
-50.99999927142562
 21
493.431321266331
 31
0.0
  0
LINE
  5
47B7
330
D1
100
AcDbEntity
  8
0
100
AcDbLine
 10
-50.99999927470708
 20
665.4446484765358
 30
0.0
 11
-50.99999927470708
 21
682.4140030980006
 31
0.0
  0
LINE
  5
47B8
330
D1
100
AcDbEntity
  8
0
100
AcDbLine
 10
-50.99999927470708
 20
687.3833577194646
 30
0.0
 11
-50.99999927470708
 21
682.4140030980006
 31
0.0
  0
LINE
  5
47B9
330
D1
100
AcDbEntity
  8
0
100
AcDbLine
 10
-50.99999927470708
 20
677.1513493342172
 30
0.0
 11
-50.99999927470708
 21
671.1513493342172
 31
0.0
  0
LINE
  5
47BA
330
D1
100
AcDbEntity
  8
0
100
AcDbLine
 10
-50.99999927470708
 20
675.1204064189623
 30
0.0
 11
-50.99999927470708
 21
670.1510517974984
 31
0.0
  0
LINE
  5
47BB
330
D1
100
AcDbEntity
  8
0
100
AcDbLine
 10
-73.99999966932591
 20
684.1843370000242
 30
0.0
 11
-70.99999966932592
 21
684.1843370000242
 31
0.0
  0
LINE
  5
47BC
330
D1
100
AcDbEntity
  8
0
100
AcDbLine
 10
-73.99999966932591
 20
696.1843370000233
 30
0.0
 11
-70.99999966932592
 21
696.1843370000233
 31
0.0
  0
LINE
  5
47BD
330
D1
100
AcDbEntity
  8
0
100
AcDbLine
 10
-73.99999966932591
 20
695.4843370000235
 30
0.0
 11
-70.99999966932592
 21
695.4843370000235
 31
0.0
  0
LINE
  5
47BE
330
D1
100
AcDbEntity
  8
0
100
AcDbLine
 10
-74.00000865795664
 20
684.8843392525796
 30
0.0
 11
-70.99999966932592
 21
684.8843390273532
 31
0.0
  0
LINE
  5
47BF
330
D1
100
AcDbEntity
  8
0
100
AcDbLine
 10
-50.99999927502904
 20
693.6843380102691
 30
0.0
 11
-50.99999927142562
 21
705.1843380089267
 31
0.0
  0
LINE
  5
47C0
330
D1
100
AcDbEntity
  8
0
100
AcDbLine
 10
-50.99999927142562
 20
705.1843380089267
 30
0.0
 11
-70.99999927142562
 21
705.1843380089267
 31
0.0
  0
LINE
  5
47C1
330
D1
100
AcDbEntity
  8
0
100
AcDbLine
 10
-70.99999927142562
 20
705.1843380089267
 30
0.0
 11
-70.99999927142562
 21
470.1843380146073
 31
0.0
  0
LINE
  5
47C2
330
D1
100
AcDbEntity
  8
0
100
AcDbLine
 10
-70.99999927142562
 20
470.1843380146073
 30
0.0
 11
-50.99999927142562
 21
470.1843380146073
 31
0.0
  0
LINE
  5
47C3
330
D1
100
AcDbEntity
  8
0
100
AcDbLine
 10
-50.99999927142562
 20
470.1843380146073
 30
0.0
 11
-50.99999927142562
 21
501.184338014631
 31
0.0
  0
LINE
  5
47C4
330
D1
100
AcDbEntity
  8
0
100
AcDbLine
 10
-73.99994447522295
 20
705.1843380130503
 30
0.0
 11
-98.99994447520658
 21
705.1843380130413
 31
0.0
  0
LINE
  5
47C5
330
D1
100
AcDbEntity
  8
0
100
AcDbLine
 10
-98.99994447520658
 20
705.1843380130413
 30
0.0
 11
-98.99994447525751
 21
470.1843380130339
 31
0.0
  0
LINE
  5
47C6
330
D1
100
AcDbEntity
  8
0
100
AcDbLine
 10
-98.99994447525751
 20
470.1843380130339
 30
0.0
 11
-73.99994447520476
 21
470.1843380130285
 31
0.0
  0
LINE
  5
47C7
330
D1
100
AcDbEntity
  8
0
100
AcDbLine
 10
-73.99994447520476
 20
470.1843380130285
 30
0.0
 11
-73.99994447529024
 21
705.1843380130503
 31
0.0
  0
LINE
  5
47C8
330
D1
100
AcDbEntity
  8
0
100
AcDbLine
 10
-50.99999927502904
 20
693.6843380102691
 30
0.0
 11
-50.99999927142562
 21
501.1843380146092
 31
0.0
  0
LINE
  5
47C9
330
D1
100
AcDbEntity
  8
0
100
AcDbLine
 10
-73.99999927142562
 20
596.4340678030712
 30
0.0
 11
-73.99999927142562
 21
578.9346082234496
 31
0.0
  0
LINE
  5
47CA
330
D1
100
AcDbEntity
  8
0
100
AcDbLine
 10
-70.99999927142562
 20
596.4340678030712
 30
0.0
 11
-70.99999927142562
 21
578.9346082234496
 31
0.0
  0
LINE
  5
47CB
330
D1
100
AcDbEntity
  8
0
100
AcDbLine
 10
-50.99999927304543
 20
598.6157538883571
 30
0.0
 11
-50.99999927304543
 21
594.646696803612
 31
0.0
  0
LINE
  5
47CC
330
D1
100
AcDbEntity
  8
0
100
AcDbLine
 10
-50.99999927304543
 20
576.6770446454274
 30
0.0
 11
-50.99999927304543
 21
593.6463992668932
 31
0.0
  0
LINE
  5
47CD
330
D1
100
AcDbEntity
  8
0
100
AcDbLine
 10
-50.99999927304543
 20
598.6157538883571
 30
0.0
 11
-50.99999927304543
 21
593.6463992668932
 31
0.0
  0
LINE
  5
47CE
330
D1
100
AcDbEntity
  8
0
100
AcDbLine
 10
-50.99999927304543
 20
588.3837455031089
 30
0.0
 11
-50.99999927304543
 21
582.3837455031089
 31
0.0
  0
LINE
  5
47CF
330
D1
100
AcDbEntity
  8
0
100
AcDbLine
 10
-50.99999927304543
 20
586.352802587854
 30
0.0
 11
-50.99999927304543
 21
581.3834479663901
 31
0.0
  0
LINE
  5
47D0
330
D1
100
AcDbEntity
  8
0
100
AcDbLine
 10
-73.99999966932591
 20
632.9343370993001
 30
0.0
 11
-70.99999966932592
 21
632.9343370993001
 31
0.0
  0
LINE
  5
47D1
330
D1
100
AcDbEntity
  8
0
100
AcDbLine
 10
-73.99999966932591
 20
644.9343370992983
 30
0.0
 11
-70.99999966932592
 21
644.9343370992983
 31
0.0
  0
LINE
  5
47D2
330
D1
100
AcDbEntity
  8
0
100
AcDbLine
 10
-73.99999966932591
 20
644.2343370992993
 30
0.0
 11
-70.99999966932592
 21
644.2343370992993
 31
0.0
  0
LINE
  5
47D3
330
D1
100
AcDbEntity
  8
0
100
AcDbLine
 10
-74.00000865795664
 20
633.6343393518554
 30
0.0
 11
-70.99999966932592
 21
633.6343391266282
 31
0.0
  0
LINE
  5
47D4
330
D1
100
AcDbEntity
  8
0
100
AcDbLine
 10
-73.99999927142562
 20
493.9340678034995
 30
0.0
 11
-73.99999927142562
 21
476.434608223878
 31
0.0
  0
LINE
  5
47D5
330
D1
100
AcDbEntity
  8
0
100
AcDbLine
 10
-70.99999927142562
 20
493.9340678034995
 30
0.0
 11
-70.99999927142562
 21
476.434608223878
 31
0.0
  0
LINE
  5
47D6
330
D1
100
AcDbEntity
  8
0
100
AcDbLine
 10
-73.99999966932591
 20
479.1843370000242
 30
0.0
 11
-70.99999966932592
 21
479.1843370000242
 31
0.0
  0
LINE
  5
47D7
330
D1
100
AcDbEntity
  8
0
100
AcDbLine
 10
-73.99999966932591
 20
491.1843370000233
 30
0.0
 11
-70.99999966932592
 21
491.1843370000233
 31
0.0
  0
LINE
  5
47D8
330
D1
100
AcDbEntity
  8
0
100
AcDbLine
 10
-73.99999966932591
 20
490.4843370000235
 30
0.0
 11
-70.99999966932592
 21
490.4843370000235
 31
0.0
  0
LINE
  5
47D9
330
D1
100
AcDbEntity
  8
0
100
AcDbLine
 10
-74.00000865795664
 20
479.8843392525795
 30
0.0
 11
-70.99999966932592
 21
479.8843390273532
 31
0.0
  0
LINE
  5
47DA
330
D1
100
AcDbEntity
  8
0
100
AcDbLine
 10
-73.99999927142562
 20
545.1840677057179
 30
0.0
 11
-73.99999927142562
 21
527.6846081260964
 31
0.0
  0
LINE
  5
47DB
330
D1
100
AcDbEntity
  8
0
100
AcDbLine
 10
-70.99999927142562
 20
545.1840677057179
 30
0.0
 11
-70.99999927142562
 21
527.6846081260964
 31
0.0
  0
LINE
  5
47DC
330
D1
100
AcDbEntity
  8
0
100
AcDbLine
 10
-73.99999966932591
 20
530.4343369022417
 30
0.0
 11
-70.99999966932592
 21
530.4343369022417
 31
0.0
  0
LINE
  5
47DD
330
D1
100
AcDbEntity
  8
0
100
AcDbLine
 10
-73.99999966932591
 20
542.4343369022417
 30
0.0
 11
-70.99999966932592
 21
542.4343369022417
 31
0.0
  0
LINE
  5
47DE
330
D1
100
AcDbEntity
  8
0
100
AcDbLine
 10
-73.99999966932591
 20
541.734336902241
 30
0.0
 11
-70.99999966932592
 21
541.734336902241
 31
0.0
  0
LINE
  5
47DF
330
D1
100
AcDbEntity
  8
0
100
AcDbLine
 10
-74.00000865795664
 20
531.134339154797
 30
0.0
 11
-70.99999966932592
 21
531.1343389295716
 31
0.0
  0
LINE
  5
47E0
330
D1
100
AcDbEntity
  8
0
100
AcDbLine
 10
-13.07469074349819
 20
243.965065307242
 30
0.0
 11
-13.07469074349819
 21
244.2650763072413
 31
0.0
  0
LINE
  5
47E1
330
D1
100
AcDbEntity
  8
0
100
AcDbLine
 10
16.9253092565018
 20
243.965065307242
 30
0.0
 11
16.9253092565018
 21
244.2650763072413
 31
0.0
  0
LINE
  5
47E2
330
D1
100
AcDbEntity
  8
0
100
AcDbLine
 10
21.92530925650181
 20
243.965065307242
 30
0.0
 11
-18.57469074349819
 21
243.965065307242
 31
0.0
  0
LINE
  5
47E3
330
D1
100
AcDbEntity
  8
0
100
AcDbLine
 10
21.92530925650181
 20
242.2583037691572
 30
0.0
 11
-18.61512687487584
 21
242.2583037691572
 31
0.0
  0
LINE
  5
47E4
330
D1
100
AcDbEntity
  8
0
100
AcDbLine
 10
21.92530925650181
 20
243.965065307242
 30
0.0
 11
21.92530925650181
 21
242.2583037691572
 31
0.0
  0
LINE
  5
47E5
330
D1
100
AcDbEntity
  8
0
100
AcDbLine
 10
-24.07469074349819
 20
243.965065307242
 30
0.0
 11
-24.07469074349819
 21
241.9650653072419
 31
0.0
  0
LINE
  5
47E6
330
D1
100
AcDbEntity
  8
0
100
AcDbLine
 10
136.6244692565019
 20
278.7736433072421
 30
0.0
 11
134.1933892564998
 21
292.5609513072411
 31
0.0
  0
LINE
  5
47E7
330
D1
100
AcDbEntity
  8
0
100
AcDbLine
 10
134.1933892564998
 20
292.5609513072411
 30
0.0
 11
21.92526125650011
 21
272.7650533072417
 31
0.0
  0
LINE
  5
47E8
330
D1
100
AcDbEntity
  8
0
100
AcDbLine
 10
136.6244692565019
 20
278.7736433072421
 30
0.0
 11
24.4043472565013
 21
258.9862103072416
 31
0.0
  0
LINE
  5
47E9
330
D1
100
AcDbEntity
  8
0
100
AcDbLine
 10
-15.07469074349819
 20
272.7550533072417
 30
0.0
 11
21.92529425650036
 21
272.7550533072417
 31
0.0
  0
LINE
  5
47EA
330
D1
100
AcDbEntity
  8
0
100
AcDbLine
 10
-24.07469074349819
 20
245.765095721448
 30
0.0
 11
-18.07469074349819
 21
251.7650928930204
 31
0.0
  0
LINE
  5
47EB
330
D1
100
AcDbEntity
  8
0
100
AcDbLine
 10
-18.57469074349819
 20
244.2650763072413
 30
0.0
 11
-18.57469074349819
 21
240.7650763072413
 31
0.0
  0
LINE
  5
47EC
330
D1
100
AcDbEntity
  8
0
100
AcDbLine
 10
-24.07469074349819
 20
245.765095721448
 30
0.0
 11
-24.07469074349819
 21
240.7650763072413
 31
0.0
  0
LINE
  5
47ED
330
D1
100
AcDbEntity
  8
0
100
AcDbLine
 10
-24.07469074349819
 20
240.7650763072413
 30
0.0
 11
-18.57469074349819
 21
240.7650763072413
 31
0.0
  0
LINE
  5
47EE
330
D1
100
AcDbEntity
  8
0
100
AcDbLine
 10
21.92529425650036
 20
256.0317763072414
 30
0.0
 11
21.92529425650036
 21
245.2650763072413
 31
0.0
  0
LINE
  5
47EF
330
D1
100
AcDbEntity
  8
0
100
AcDbLine
 10
-18.07469074349819
 20
269.7650533072417
 30
0.0
 11
-18.07469074349819
 21
245.2650763072413
 31
0.0
  0
LINE
  5
47F0
330
D1
100
AcDbEntity
  8
0
100
AcDbLine
 10
-18.57469074349819
 20
244.2650763072413
 30
0.0
 11
20.92529425650036
 21
244.2650763072413
 31
0.0
  0
ARC
  5
47F1
330
D1
100
AcDbEntity
  8
0
100
AcDbCircle
 10
24.92529425650037
 20
256.0317763072414
 30
0.0
 40
3.0
100
AcDbArc
 50
100.000009999975
 51
180.0
  0
ARC
  5
47F2
330
D1
100
AcDbEntity
  8
0
100
AcDbCircle
 10
20.92529425650036
 20
245.2650763072413
 30
0.0
 40
1.0
100
AcDbArc
 50
270.0
 51
0.0
  0
ARC
  5
47F3
330
D1
100
AcDbEntity
  8
0
100
AcDbCircle
 10
-15.07469074349819
 20
269.7550533072417
 30
0.0
 40
3.0
100
AcDbArc
 50
90.0
 51
180.0
  0
ARC
  5
47F4
330
D1
100
AcDbEntity
  8
0
100
AcDbCircle
 10
151.1658492565006
 20
288.4456713072411
 30
0.0
 40
17.5
100
AcDbArc
 50
213.5782000000232
 51
166.4218300000444
  0
ARC
  5
47F5
330
D1
100
AcDbEntity
  8
0
100
AcDbCircle
 10
-17.07469074349819
 20
245.2650763072413
 30
0.0
 40
1.0
100
AcDbArc
 50
180.0
 51
270.0
  0
ELLIPSE
  5
47F6
330
D1
100
AcDbEntity
  8
0
100
AcDbEllipse
 10
23.1888092564991
 20
265.8798683072416
 30
0.0
 11
-1.215536899999999
 21
6.8936546
 31
0.0
210
0.0
220
0.0
230
1.0
 40
0.35961386
 41
0.6424298400000001
 42
2.577695999999999
  0
LINE
  5
47F7
330
D1
100
AcDbEntity
  8
0
100
AcDbLine
 10
5.925309256501805
 20
242.2583037691572
 30
0.0
 11
5.925309256501805
 21
243.965065307242
 31
0.0
  0
LINE
  5
47F8
330
D1
100
AcDbEntity
  8
0
100
AcDbLine
 10
10.92530895929349
 20
242.2583037691572
 30
0.0
 11
10.92530895929349
 21
243.965065307242
 31
0.0
  0
LINE
  5
47F9
330
D1
100
AcDbEntity
  8
0
100
AcDbLine
 10
24.04371572754872
 20
266.0306086732078
 30
0.0
 11
175.6478605911256
 21
292.7625105722762
 31
0.0
  0
LINE
  5
47FA
330
D1
100
AcDbEntity
  8
0
100
AcDbLine
 10
147.2587634461565
 20
310.6038553909073
 30
0.0
 11
155.072937337984
 21
266.2874743433111
 31
0.0
  0
LINE
  5
47FB
330
D1
100
AcDbEntity
  8
0
100
AcDbLine
 10
19.13689779245806
 20
242.0083051869367
 30
0.0
 11
19.38689829309487
 21
241.7583056969049
 31
0.0
  0
LINE
  5
47FC
330
D1
100
AcDbEntity
  8
0
100
AcDbLine
 10
-15.11312586605845
 20
242.2582700388264
 30
0.0
 11
-15.61312584856341
 21
241.7582700399923
 31
0.0
  0
LINE
  5
47FD
330
D1
100
AcDbEntity
  8
0
100
AcDbLine
 10
18.8869035442317
 20
242.2583111171022
 30
0.0
 11
19.38690454550533
 21
241.7582994445199
 31
0.0
  0
LINE
  5
47FE
330
D1
100
AcDbEntity
  8
0
100
AcDbLine
 10
-15.11312586605845
 20
242.2582700388264
 30
0.0
 11
-15.61312584856341
 21
241.7582700399923
 31
0.0
  0
LINE
  5
47FF
330
D1
100
AcDbEntity
  8
0
100
AcDbLine
 10
18.8869035442317
 20
242.2583111171022
 30
0.0
 11
19.38689829309487
 21
241.7583056969049
 31
0.0
  0
LINE
  5
4800
330
D1
100
AcDbEntity
  8
0
100
AcDbLine
 10
-15.11312586605845
 20
242.2582700388264
 30
0.0
 11
-15.61311816762781
 21
241.7582777209288
 31
0.0
  0
LINE
  5
4801
330
D1
100
AcDbEntity
  8
0
100
AcDbLine
 10
-49.11304659997722
 20
31.49513402268872
 30
0.0
 11
-49.11304659997722
 21
25.99513099136834
 31
0.0
  0
LINE
  5
4802
330
D1
100
AcDbEntity
  8
0
100
AcDbLine
 10
-49.11304659997722
 20
29.96479982378673
 30
0.0
 11
-49.11304659997722
 21
24.99513099136834
 31
0.0
  0
LINE
  5
4803
330
D1
100
AcDbEntity
  8
0
100
AcDbLine
 10
-36.10906326405848
 20
40.2906355991579
 30
0.0
 11
-36.10906326405848
 21
29.69063559915753
 31
0.0
  0
LINE
  5
4804
330
D1
100
AcDbEntity
  8
0
100
AcDbLine
 10
-41.11308660886561
 20
28.99063589082812
 30
0.0
 11
-36.51320845249165
 21
28.9906355991568
 31
0.0
  0
LINE
  5
4805
330
D1
100
AcDbEntity
  8
0
100
AcDbLine
 10
-41.11308660886561
 20
40.99063594449376
 30
0.0
 11
-36.51320845249165
 21
40.9906355991568
 31
0.0
  0
LINE
  5
4806
330
D1
100
AcDbEntity
  8
0
100
AcDbLine
 10
-41.11308660886743
 20
40.2906359121805
 30
0.0
 11
-36.10906326405848
 21
40.2906355991579
 31
0.0
  0
LINE
  5
4807
330
D1
100
AcDbEntity
  8
0
100
AcDbLine
 10
-41.11308660886561
 20
29.69063591218014
 30
0.0
 11
-36.10906326405848
 21
29.69063559915753
 31
0.0
  0
LINE
  5
4808
330
D1
100
AcDbEntity
  8
0
100
AcDbLine
 10
-36.10906326405848
 20
29.69063559915753
 30
0.0
 11
-36.51320845249165
 21
28.9906355991568
 31
0.0
  0
LINE
  5
4809
330
D1
100
AcDbEntity
  8
0
100
AcDbLine
 10
-36.51320845249165
 20
40.9906355991568
 30
0.0
 11
-36.51320845249165
 21
28.9906355991568
 31
0.0
  0
LINE
  5
480A
330
D1
100
AcDbEntity
  8
0
100
AcDbLine
 10
-49.11304720886573
 20
35.69004308888521
 30
0.0
 11
-49.11304720886573
 21
29.6900430888852
 31
0.0
  0
LINE
  5
480B
330
D1
100
AcDbEntity
  8
0
100
AcDbLine
 10
-49.11304720886573
 20
24.02039093070175
 30
0.0
 11
-49.11304720886573
 21
40.9897455521675
 31
0.0
  0
LINE
  5
480C
330
D1
100
AcDbEntity
  8
0
100
AcDbLine
 10
-49.11304720886573
 20
33.65910017363035
 30
0.0
 11
-49.11304720886573
 21
28.68974555216642
 31
0.0
  0
LINE
  5
480D
330
D1
100
AcDbEntity
  8
0
100
AcDbLine
 10
-41.96905720886525
 20
24.02039268390377
 30
0.0
 11
-49.11304720886573
 21
24.02039268390377
 31
0.0
  0
LINE
  5
480E
330
D1
100
AcDbEntity
  8
0
100
AcDbLine
 10
-41.96905720886525
 20
29.50522268390319
 30
0.0
 11
-49.11304720886573
 21
29.50522268390319
 31
0.0
  0
LINE
  5
480F
330
D1
100
AcDbEntity
  8
0
100
AcDbLine
 10
-41.96905720886525
 20
40.47486268390253
 30
0.0
 11
-49.11304720886573
 21
40.47486268390253
 31
0.0
  0
LINE
  5
4810
330
D1
100
AcDbEntity
  8
0
100
AcDbLine
 10
-41.96905720886525
 20
45.95969268390376
 30
0.0
 11
-49.11304720886573
 21
45.95969268390376
 31
0.0
  0
ARC
  5
4811
330
D1
100
AcDbEntity
  8
0
100
AcDbCircle
 10
-59.11304720886573
 20
34.99002268390337
 30
0.0
 40
18.0
100
AcDbArc
 50
342.259119999999
 51
17.74086999999848
  0
ARC
  5
4812
330
D1
100
AcDbEntity
  8
0
100
AcDbCircle
 10
-45.93408720886464
 20
26.76279268390294
 30
0.0
 40
4.821000599999999
100
AcDbArc
 50
325.330119999988
 51
34.66988999997634
  0
ARC
  5
4813
330
D1
100
AcDbEntity
  8
0
100
AcDbCircle
 10
-45.93408720886464
 20
43.21729268390277
 30
0.0
 40
4.821000599999999
100
AcDbArc
 50
325.330119999988
 51
34.66988999997634
  0
LINE
  5
4814
330
D1
100
AcDbEntity
  8
0
100
AcDbLine
 10
-41.11308660886561
 20
43.21729310461319
 30
0.0
 11
-41.11308660886561
 21
26.76279310461337
 31
0.0
  0
LINE
  5
4815
330
D1
100
AcDbEntity
  8
0
100
AcDbLine
 10
-72.11304720886573
 20
221.2755528686064
 30
0.0
 11
-72.11304720886573
 21
203.7760932889848
 31
0.0
  0
LINE
  5
4816
330
D1
100
AcDbEntity
  8
0
100
AcDbLine
 10
-69.11304720886573
 20
221.2755528686064
 30
0.0
 11
-69.11304720886573
 21
203.7760932889848
 31
0.0
  0
LINE
  5
4817
330
D1
100
AcDbEntity
  8
0
100
AcDbLine
 10
-49.11304742678249
 20
45.95969268390376
 30
0.0
 11
-49.11304720886573
 21
29.50522268390137
 31
0.0
  0
LINE
  5
4818
330
D1
100
AcDbEntity
  8
0
100
AcDbLine
 10
-49.11304721214719
 20
223.4572591370358
 30
0.0
 11
-49.11304721214719
 21
219.4882020522898
 31
0.0
  0
LINE
  5
4819
330
D1
100
AcDbEntity
  8
0
100
AcDbLine
 10
-49.11304721214719
 20
201.5185498941062
 30
0.0
 11
-49.11304721214719
 21
218.487904515571
 31
0.0
  0
LINE
  5
481A
330
D1
100
AcDbEntity
  8
0
100
AcDbLine
 10
-49.11304721214719
 20
223.457259137035
 30
0.0
 11
-49.11304721214719
 21
218.487904515571
 31
0.0
  0
LINE
  5
481B
330
D1
100
AcDbEntity
  8
0
100
AcDbLine
 10
-41.96905721214671
 20
201.5179591370349
 30
0.0
 11
-49.11304721214719
 21
201.5179591370349
 31
0.0
  0
LINE
  5
481C
330
D1
100
AcDbEntity
  8
0
100
AcDbLine
 10
-41.96905721214671
 20
207.0027891370344
 30
0.0
 11
-49.11304721214719
 21
207.0027891370344
 31
0.0
  0
LINE
  5
481D
330
D1
100
AcDbEntity
  8
0
100
AcDbLine
 10
-41.96905721214671
 20
217.9724291370346
 30
0.0
 11
-49.11304721214719
 21
217.9724291370346
 31
0.0
  0
LINE
  5
481E
330
D1
100
AcDbEntity
  8
0
100
AcDbLine
 10
-41.96905721214671
 20
223.457259137035
 30
0.0
 11
-49.11304721214719
 21
223.457259137035
 31
0.0
  0
ARC
  5
481F
330
D1
100
AcDbEntity
  8
0
100
AcDbCircle
 10
-59.11304721214719
 20
212.4875891370345
 30
0.0
 40
18.0
100
AcDbArc
 50
342.259119999999
 51
17.74086999999848
  0
ARC
  5
4820
330
D1
100
AcDbEntity
  8
0
100
AcDbCircle
 10
-45.93408721214609
 20
204.2603591370341
 30
0.0
 40
4.821000599999999
100
AcDbArc
 50
325.330119999988
 51
34.66988999997634
  0
ARC
  5
4821
330
D1
100
AcDbEntity
  8
0
100
AcDbCircle
 10
-45.93408721214609
 20
220.7148591370349
 30
0.0
 40
4.821000599999999
100
AcDbArc
 50
325.330119999988
 51
34.66988999997634
  0
LINE
  5
4822
330
D1
100
AcDbEntity
  8
0
100
AcDbLine
 10
-41.11308661214525
 20
220.7148595577462
 30
0.0
 11
-41.11308661214525
 21
204.2603595577455
 31
0.0
  0
LINE
  5
4823
330
D1
100
AcDbEntity
  8
0
100
AcDbLine
 10
-36.10906326733811
 20
217.8258432620594
 30
0.0
 11
-36.10906326733811
 21
207.225843262059
 31
0.0
  0
LINE
  5
4824
330
D1
100
AcDbEntity
  8
0
100
AcDbLine
 10
-41.11308661214525
 20
206.5258432620592
 30
0.0
 11
-36.51320845576947
 21
206.5258432620592
 31
0.0
  0
LINE
  5
4825
330
D1
100
AcDbEntity
  8
0
100
AcDbLine
 10
-41.11308661214525
 20
218.5258432620601
 30
0.0
 11
-36.51320845576947
 21
218.5258432620592
 31
0.0
  0
LINE
  5
4826
330
D1
100
AcDbEntity
  8
0
100
AcDbLine
 10
-41.11308661214525
 20
217.8258432620594
 30
0.0
 11
-36.10906326733811
 21
217.8258432620594
 31
0.0
  0
LINE
  5
4827
330
D1
100
AcDbEntity
  8
0
100
AcDbLine
 10
-41.11308661214525
 20
207.2258436377376
 30
0.0
 11
-36.10906326733811
 21
207.2258432620599
 31
0.0
  0
LINE
  5
4828
330
D1
100
AcDbEntity
  8
0
100
AcDbLine
 10
-36.10906326733811
 20
207.225843262059
 30
0.0
 11
-36.51320845576947
 21
206.5258432620592
 31
0.0
  0
LINE
  5
4829
330
D1
100
AcDbEntity
  8
0
100
AcDbLine
 10
-36.51320845576947
 20
218.5258432620592
 30
0.0
 11
-36.51320845576947
 21
206.5258432620592
 31
0.0
  0
LINE
  5
482A
330
D1
100
AcDbEntity
  8
0
100
AcDbLine
 10
-49.11304721214719
 20
213.2252507517876
 30
0.0
 11
-49.11304721214719
 21
207.2252507517876
 31
0.0
  0
LINE
  5
482B
330
D1
100
AcDbEntity
  8
0
100
AcDbLine
 10
-49.11304721214719
 20
211.1943078365328
 30
0.0
 11
-49.11304721214719
 21
206.2249532150688
 31
0.0
  0
LINE
  5
482C
330
D1
100
AcDbEntity
  8
0
100
AcDbLine
 10
-41.96905721214671
 20
201.5556003468053
 30
0.0
 11
-49.11304721214719
 21
201.5556003468053
 31
0.0
  0
LINE
  5
482D
330
D1
100
AcDbEntity
  8
0
100
AcDbLine
 10
-41.96905721214671
 20
207.0404303468047
 30
0.0
 11
-49.11304721214719
 21
207.0404303468047
 31
0.0
  0
LINE
  5
482E
330
D1
100
AcDbEntity
  8
0
100
AcDbLine
 10
-41.96905721214671
 20
218.0100703468049
 30
0.0
 11
-49.11304721214719
 21
218.0100703468049
 31
0.0
  0
LINE
  5
482F
330
D1
100
AcDbEntity
  8
0
100
AcDbLine
 10
-41.96905721214671
 20
223.4949003468052
 30
0.0
 11
-49.11304721214719
 21
223.4949003468052
 31
0.0
  0
ARC
  5
4830
330
D1
100
AcDbEntity
  8
0
100
AcDbCircle
 10
-59.11304721214719
 20
212.5252303468049
 30
0.0
 40
18.0
100
AcDbArc
 50
342.259119999999
 51
17.74086999999848
  0
ARC
  5
4831
330
D1
100
AcDbEntity
  8
0
100
AcDbCircle
 10
-45.93408721214609
 20
204.2980003468044
 30
0.0
 40
4.821000599999999
100
AcDbArc
 50
325.330119999988
 51
34.66988999997634
  0
ARC
  5
4832
330
D1
100
AcDbEntity
  8
0
100
AcDbCircle
 10
-45.93408721214609
 20
220.7525003468052
 30
0.0
 40
4.821000599999999
100
AcDbArc
 50
325.330119999988
 51
34.66988999997634
  0
LINE
  5
4833
330
D1
100
AcDbEntity
  8
0
100
AcDbLine
 10
-41.11308661214525
 20
220.7525007675156
 30
0.0
 11
-41.11308661214525
 21
204.2980007675148
 31
0.0
  0
LINE
  5
4834
330
D1
100
AcDbEntity
  8
0
100
AcDbLine
 10
-72.11304760676603
 20
206.525822065131
 30
0.0
 11
-69.11304760676603
 21
206.525822065131
 31
0.0
  0
LINE
  5
4835
330
D1
100
AcDbEntity
  8
0
100
AcDbLine
 10
-72.11304760676603
 20
218.5258220651301
 30
0.0
 11
-69.11304760676603
 21
218.5258220651301
 31
0.0
  0
LINE
  5
4836
330
D1
100
AcDbEntity
  8
0
100
AcDbLine
 10
-72.11304760676603
 20
217.8258220651303
 30
0.0
 11
-69.11304760676603
 21
217.8258220651303
 31
0.0
  0
LINE
  5
4837
330
D1
100
AcDbEntity
  8
0
100
AcDbLine
 10
-72.11305659539675
 20
207.2258243176864
 30
0.0
 11
-69.11304760676603
 21
207.22582409246
 31
0.0
  0
LINE
  5
4838
330
D1
100
AcDbEntity
  8
0
100
AcDbLine
 10
-72.11304720886573
 20
28.99004207522171
 30
0.0
 11
-69.11304720886573
 21
28.99004207522171
 31
0.0
  0
LINE
  5
4839
330
D1
100
AcDbEntity
  8
0
100
AcDbLine
 10
-72.11304720886573
 20
40.99004207521988
 30
0.0
 11
-69.11304720886573
 21
40.99004207521988
 31
0.0
  0
LINE
  5
483A
330
D1
100
AcDbEntity
  8
0
100
AcDbLine
 10
-72.11304720886573
 20
40.29004207522098
 30
0.0
 11
-69.11304720886573
 21
40.29004207522098
 31
0.0
  0
LINE
  5
483B
330
D1
100
AcDbEntity
  8
0
100
AcDbLine
 10
-72.11305619749828
 20
29.69004432777706
 30
0.0
 11
-69.11304720886573
 21
29.69004410254979
 31
0.0
  0
LINE
  5
483C
330
D1
100
AcDbEntity
  8
0
100
AcDbLine
 10
-105.863008071728
 20
123.7582394306098
 30
0.0
 11
139.8899638536409
 21
123.7582394320904
 31
0.0
  0
LINE
  5
483D
330
D1
100
AcDbEntity
  8
0
100
AcDbLine
 10
1.886952062559885
 20
288.4904268229509
 30
0.0
 11
1.886952062559885
 21
21.47784311225564
 31
0.0
  0
LINE
  5
483E
330
D1
100
AcDbEntity
  8
0
100
AcDbLine
 10
116.8869985675014
 20
183.2582394329481
 30
0.0
 11
116.8869985675014
 21
64.25823943294813
 31
0.0
  0
LINE
  5
483F
330
D1
100
AcDbEntity
  8
0
100
AcDbLine
 10
113.7496174307275
 20
182.4686636179165
 30
0.0
 11
111.3494268921899
 21
175.8741945470308
 31
0.0
  0
LINE
  5
4840
330
D1
100
AcDbEntity
  8
0
100
AcDbLine
 10
116.8869985675014
 20
183.2582394329481
 30
0.0
 11
114.8772485709473
 21
183.2582394329481
 31
0.0
  0
ARC
  5
4841
330
D1
100
AcDbEntity
  8
0
100
AcDbCircle
 10
114.8772485709473
 20
182.0582394329474
 30
0.0
 40
1.199999999999999
100
AcDbArc
 50
90.0
 51
159.9999993406119
  0
ARC
  5
4842
330
D1
100
AcDbEntity
  8
0
100
AcDbCircle
 10
109.4700416584896
 20
176.5582348553114
 30
0.0
 40
2.0
100
AcDbArc
 50
270.0
 51
339.9999993406119
  0
LINE
  5
4843
330
D1
100
AcDbEntity
  8
0
100
AcDbLine
 10
116.8869985675014
 20
64.25823943294813
 30
0.0
 11
114.8772485709473
 21
64.25823943294813
 31
0.0
  0
ARC
  5
4844
330
D1
100
AcDbEntity
  8
0
100
AcDbCircle
 10
114.8772485709473
 20
65.45823943294704
 30
0.0
 40
1.199999999999999
100
AcDbArc
 50
200.0000006593881
 51
270.0
  0
ARC
  5
4845
330
D1
100
AcDbEntity
  8
0
100
AcDbCircle
 10
109.4700416584896
 20
70.95824401058485
 30
0.0
 40
2.0
100
AcDbArc
 50
20.00000065938812
 51
90.0
  0
LINE
  5
4846
330
D1
100
AcDbEntity
  8
0
100
AcDbLine
 10
113.7496174307275
 20
65.04781524797976
 30
0.0
 11
111.3494268921899
 21
71.64228431886454
 31
0.0
  0
LINE
  5
4847
330
D1
100
AcDbEntity
  8
0
100
AcDbLine
 10
109.4700412049028
 20
174.5582348553114
 30
0.0
 11
82.13700619689417
 21
174.5582410542736
 31
0.0
  0
LINE
  5
4848
330
D1
100
AcDbEntity
  8
0
100
AcDbLine
 10
59.41273251525536
 20
227.5582356182511
 30
0.0
 11
78.86127108612027
 21
227.5582356182511
 31
0.0
  0
LINE
  5
4849
330
D1
100
AcDbEntity
  8
0
100
AcDbLine
 10
109.4700412049028
 20
72.95824401058485
 30
0.0
 11
82.13700619689598
 21
72.95823781162084
 31
0.0
  0
LINE
  5
484A
330
D1
100
AcDbEntity
  8
0
100
AcDbLine
 10
56.13699856750145
 20
33.55825117433392
 30
0.0
 11
59.41273513521128
 21
24.55823924474385
 31
0.0
  0
LINE
  5
484B
330
D1
100
AcDbEntity
  8
0
100
AcDbLine
 10
59.41273251525536
 20
24.55824324764558
 30
0.0
 11
78.86127108612027
 21
24.55824324764558
 31
0.0
  0
LINE
  5
484C
330
D1
100
AcDbEntity
  8
0
100
AcDbLine
 10
56.13699856750145
 20
126.0582394329483
 30
0.0
 11
56.13699856750145
 21
33.55825117433392
 31
0.0
  0
LINE
  5
484D
330
D1
100
AcDbEntity
  8
0
100
AcDbLine
 10
114.0369995353871
 20
182.4686636179165
 30
0.0
 11
114.0369995353871
 21
123.7582394329481
 31
0.0
  0
LINE
  5
484E
330
D1
100
AcDbEntity
  8
0
100
AcDbLine
 10
110.8704567177597
 20
174.5582348553114
 30
0.0
 11
110.8704567177597
 21
123.7582394329481
 31
0.0
  0
LINE
  5
484F
330
D1
100
AcDbEntity
  8
0
100
AcDbLine
 10
114.0369995353871
 20
65.04781524797976
 30
0.0
 11
114.0369995353871
 21
123.7582394329481
 31
0.0
  0
LINE
  5
4850
330
D1
100
AcDbEntity
  8
0
100
AcDbLine
 10
110.8704567177597
 20
72.95824401058485
 30
0.0
 11
110.8704567177597
 21
123.7582394329472
 31
0.0
  0
LINE
  5
4851
330
D1
100
AcDbEntity
  8
0
100
AcDbLine
 10
59.41273367827353
 20
144.5582318035538
 30
0.0
 11
59.41273367827353
 21
227.5582356182511
 31
0.0
  0
LINE
  5
4852
330
D1
100
AcDbEntity
  8
0
100
AcDbLine
 10
78.86127108612027
 20
144.5582318035538
 30
0.0
 11
78.86127108612027
 21
227.5582356182511
 31
0.0
  0
LINE
  5
4853
330
D1
100
AcDbEntity
  8
0
100
AcDbLine
 10
59.41273367827353
 20
107.5582470623428
 30
0.0
 11
59.41273367827353
 21
24.5582432476474
 31
0.0
  0
LINE
  5
4854
330
D1
100
AcDbEntity
  8
0
100
AcDbLine
 10
78.86127108612027
 20
107.5582470623428
 30
0.0
 11
78.86127108612027
 21
24.5582432476474
 31
0.0
  0
LINE
  5
4855
330
D1
100
AcDbEntity
  8
0
100
AcDbLine
 10
82.13700619689598
 20
33.55825117433392
 30
0.0
 11
78.86126962918615
 21
24.55823924474385
 31
0.0
  0
LINE
  5
4856
330
D1
100
AcDbEntity
  8
0
100
AcDbLine
 10
82.13700619689598
 20
126.0582394329483
 30
0.0
 11
82.13700619689598
 21
33.55825117433392
 31
0.0
  0
LINE
  5
4857
330
D1
100
AcDbEntity
  8
0
100
AcDbLine
 10
56.13699856749599
 20
218.5582276915627
 30
0.0
 11
59.41273513520582
 21
227.5582396211519
 31
0.0
  0
LINE
  5
4858
330
D1
100
AcDbEntity
  8
0
100
AcDbLine
 10
56.13699856750145
 20
126.0582394329483
 30
0.0
 11
56.13699856749599
 21
218.5582276915627
 31
0.0
  0
LINE
  5
4859
330
D1
100
AcDbEntity
  8
0
100
AcDbLine
 10
82.13700619689234
 20
218.5582276915645
 30
0.0
 11
78.86126962918069
 21
227.5582396211537
 31
0.0
  0
LINE
  5
485A
330
D1
100
AcDbEntity
  8
0
100
AcDbLine
 10
82.13700619689598
 20
126.0582394329501
 30
0.0
 11
82.13700619689234
 21
218.5582276915645
 31
0.0
  0
LINE
  5
485B
330
D1
100
AcDbEntity
  8
0
100
AcDbLine
 10
64.13700619689598
 20
110.3373074261124
 30
0.0
 11
64.13700619689598
 21
142.8984036175186
 31
0.0
  0
LINE
  5
485C
330
D1
100
AcDbEntity
  8
0
100
AcDbLine
 10
74.13699093810691
 20
110.3373074261124
 30
0.0
 11
74.13699093810691
 21
142.8984036175186
 31
0.0
  0
LINE
  5
485D
330
D1
100
AcDbEntity
  8
0
100
AcDbLine
 10
66.28700000844265
 20
95.48730850942661
 30
0.0
 11
66.28700000844265
 21
65.74423511324835
 31
0.0
  0
LINE
  5
485E
330
D1
100
AcDbEntity
  8
0
100
AcDbLine
 10
60.38700208994533
 20
98.33730159619495
 30
0.0
 11
60.96581894127348
 21
87.29281818860703
 31
0.0
  0
LINE
  5
485F
330
D1
100
AcDbEntity
  8
0
100
AcDbLine
 10
77.88699882827177
 20
103.9673044896897
 30
0.0
 11
77.88699882827177
 21
98.33729180969454
 31
0.0
  0
LINE
  5
4860
330
D1
100
AcDbEntity
  8
0
100
AcDbLine
 10
60.38699830673113
 20
103.9673044896897
 30
0.0
 11
60.38699830673113
 21
98.33735284485351
 31
0.0
  0
LINE
  5
4861
330
D1
100
AcDbEntity
  8
0
100
AcDbLine
 10
71.98699712655844
 20
95.48730850942661
 30
0.0
 11
71.98699712655844
 21
65.74423511324835
 31
0.0
  0
LINE
  5
4862
330
D1
100
AcDbEntity
  8
0
100
AcDbLine
 10
66.38034992994881
 20
65.3223537230067
 30
0.0
 11
67.36798844158738
 21
63.19986957891774
 31
0.0
  0
LINE
  5
4863
330
D1
100
AcDbEntity
  8
0
100
AcDbLine
 10
71.89364571565102
 20
65.32234600112929
 30
0.0
 11
70.90600720401062
 21
63.19986185703942
 31
0.0
  0
LINE
  5
4864
330
D1
100
AcDbEntity
  8
0
100
AcDbLine
 10
68.27463663384197
 20
62.62175272038689
 30
0.0
 11
69.99936050116094
 21
62.62175272038689
 31
0.0
  0
LINE
  5
4865
330
D1
100
AcDbEntity
  8
0
100
AcDbLine
 10
71.98699712655844
 20
84.44982496515217
 30
0.0
 11
74.31229550518446
 21
84.44982496515217
 31
0.0
  0
LINE
  5
4866
330
D1
100
AcDbEntity
  8
0
100
AcDbLine
 10
77.88699830144697
 20
98.33730906539926
 30
0.0
 11
77.30818105082699
 21
87.2928180388733
 31
0.0
  0
LINE
  5
4867
330
D1
100
AcDbEntity
  8
0
100
AcDbLine
 10
63.9617054445157
 20
84.44982496515217
 30
0.0
 11
66.28700000844265
 21
84.44982496515217
 31
0.0
  0
LINE
  5
4868
330
D1
100
AcDbEntity
  8
0
100
AcDbLine
 10
63.88699856750145
 20
110.3373074261124
 30
0.0
 11
74.38699856750145
 21
110.3373074261124
 31
0.0
  0
LINE
  5
4869
330
D1
100
AcDbEntity
  8
0
100
AcDbLine
 10
73.13702030316608
 20
81.30823943294831
 30
0.0
 11
71.98699712655844
 21
81.30823943294831
 31
0.0
  0
LINE
  5
486A
330
D1
100
AcDbEntity
  8
0
100
AcDbLine
 10
74.13699093810691
 20
82.30821006788824
 30
0.0
 11
74.13699093810691
 21
84.44982496515217
 31
0.0
  0
LINE
  5
486B
330
D1
100
AcDbEntity
  8
0
100
AcDbLine
 10
64.13700619689598
 20
82.30821006788824
 30
0.0
 11
64.13700619689598
 21
84.44982496515217
 31
0.0
  0
LINE
  5
486C
330
D1
100
AcDbEntity
  8
0
100
AcDbLine
 10
64.13697930405806
 20
82.3082173130731
 30
0.0
 11
65.13697835971334
 21
81.30821825741874
 31
0.0
  0
LINE
  5
486D
330
D1
100
AcDbEntity
  8
0
100
AcDbLine
 10
74.13699413719815
 20
82.30821326696673
 30
0.0
 11
73.13699305849377
 21
81.30821218826326
 31
0.0
  0
LINE
  5
486E
330
D1
100
AcDbEntity
  8
0
100
AcDbLine
 10
71.98699712655844
 20
82.30821006788824
 30
0.0
 11
74.13699093810691
 21
82.30821006788824
 31
0.0
  0
LINE
  5
486F
330
D1
100
AcDbEntity
  8
0
100
AcDbLine
 10
66.28700000844265
 20
81.30823943294831
 30
0.0
 11
65.13699093810692
 21
81.30823943294831
 31
0.0
  0
LINE
  5
4870
330
D1
100
AcDbEntity
  8
0
100
AcDbLine
 10
64.13700619689598
 20
82.30821006788824
 30
0.0
 11
66.28700000844265
 21
82.30821006788824
 31
0.0
  0
LINE
  5
4871
330
D1
100
AcDbEntity
  8
0
100
AcDbLine
 10
74.13699093810691
 20
133.8082470623428
 30
0.0
 11
74.38699856750145
 21
133.8082470623428
 31
0.0
  0
LINE
  5
4872
330
D1
100
AcDbEntity
  8
0
100
AcDbLine
 10
74.13699093810691
 20
140.8082318035537
 30
0.0
 11
74.38699856750145
 21
140.8082318035537
 31
0.0
  0
LINE
  5
4873
330
D1
100
AcDbEntity
  8
0
100
AcDbLine
 10
63.88699856750145
 20
108.5582470623428
 30
0.0
 11
63.88699856750145
 21
121.0582318035537
 31
0.0
  0
LINE
  5
4874
330
D1
100
AcDbEntity
  8
0
100
AcDbLine
 10
63.88699856750145
 20
131.0582470623428
 30
0.0
 11
63.88699856750145
 21
143.5582318035538
 31
0.0
  0
LINE
  5
4875
330
D1
100
AcDbEntity
  8
0
100
AcDbLine
 10
57.13699856750145
 20
130.0582470623428
 30
0.0
 11
64.13700619689598
 21
130.0582470623428
 31
0.0
  0
LINE
  5
4876
330
D1
100
AcDbEntity
  8
0
100
AcDbLine
 10
57.13699856750145
 20
122.0582318035537
 30
0.0
 11
64.13700619689598
 21
122.0582318035537
 31
0.0
  0
LINE
  5
4877
330
D1
100
AcDbEntity
  8
0
100
AcDbLine
 10
75.38699856750145
 20
107.5582470623428
 30
0.0
 11
81.13699856750145
 21
107.5582470623428
 31
0.0
  0
LINE
  5
4878
330
D1
100
AcDbEntity
  8
0
100
AcDbLine
 10
74.13699093810691
 20
122.0582318035537
 30
0.0
 11
81.13699856750145
 21
122.0582318035537
 31
0.0
  0
LINE
  5
4879
330
D1
100
AcDbEntity
  8
0
100
AcDbLine
 10
74.38699856750145
 20
131.0582470623428
 30
0.0
 11
74.38699856750145
 21
143.5582318035538
 31
0.0
  0
LINE
  5
487A
330
D1
100
AcDbEntity
  8
0
100
AcDbLine
 10
74.38699856750145
 20
108.5582470623428
 30
0.0
 11
74.38699856750145
 21
121.0582318035537
 31
0.0
  0
LINE
  5
487B
330
D1
100
AcDbEntity
  8
0
100
AcDbLine
 10
83.63700619689598
 20
133.4082302776748
 30
0.0
 11
83.63700619689598
 21
141.2082485882217
 31
0.0
  0
LINE
  5
487C
330
D1
100
AcDbEntity
  8
0
100
AcDbLine
 10
55.13700619689598
 20
132.3082470623428
 30
0.0
 11
56.13699093810692
 21
132.3082470623428
 31
0.0
  0
LINE
  5
487D
330
D1
100
AcDbEntity
  8
0
100
AcDbLine
 10
63.88699856750145
 20
140.8082318035537
 30
0.0
 11
64.13700619689598
 21
140.8082318035537
 31
0.0
  0
LINE
  5
487E
330
D1
100
AcDbEntity
  8
0
100
AcDbLine
 10
63.88699856750145
 20
133.8082470623428
 30
0.0
 11
64.13700619689598
 21
133.8082470623428
 31
0.0
  0
LINE
  5
487F
330
D1
100
AcDbEntity
  8
0
100
AcDbLine
 10
55.13700619689598
 20
142.3082318035538
 30
0.0
 11
56.13699093810692
 21
142.3082318035538
 31
0.0
  0
LINE
  5
4880
330
D1
100
AcDbEntity
  8
0
100
AcDbLine
 10
71.05731380885163
 20
144.5582318035538
 30
0.0
 11
81.13699856750145
 21
144.5582318035538
 31
0.0
  0
LINE
  5
4881
330
D1
100
AcDbEntity
  8
0
100
AcDbLine
 10
74.13699093810691
 20
130.0582470623428
 30
0.0
 11
81.13699856750145
 21
130.0582470623428
 31
0.0
  0
LINE
  5
4882
330
D1
100
AcDbEntity
  8
0
100
AcDbLine
 10
57.13699856750145
 20
144.5582318035538
 30
0.0
 11
67.21668332615127
 21
144.5582318035538
 31
0.0
  0
LINE
  5
4883
330
D1
100
AcDbEntity
  8
0
100
AcDbLine
 10
57.13699856750145
 20
107.5582470623428
 30
0.0
 11
62.88699856750145
 21
107.5582470623428
 31
0.0
  0
LINE
  5
4884
330
D1
100
AcDbEntity
  8
0
100
AcDbLine
 10
82.13700619689598
 20
141.9582485882217
 30
0.0
 11
82.88700619689597
 21
141.9582485882217
 31
0.0
  0
LINE
  5
4885
330
D1
100
AcDbEntity
  8
0
100
AcDbLine
 10
82.13700619689598
 20
132.6582302776748
 30
0.0
 11
82.88700619689597
 21
132.6582302776748
 31
0.0
  0
ARC
  5
4886
330
D1
100
AcDbEntity
  8
0
100
AcDbCircle
 10
69.13699856750145
 20
137.3082394329483
 30
0.0
 40
7.500000000000001
100
AcDbArc
 50
48.18968593426133
 51
131.8103156596114
  0
ARC
  5
4887
330
D1
100
AcDbEntity
  8
0
100
AcDbCircle
 10
69.13699856750145
 20
101.9873048884444
 30
0.0
 40
6.000000178813935
100
AcDbArc
 50
311.8103174808585
 51
340.5287784594137
  0
ARC
  5
4888
330
D1
100
AcDbEntity
  8
0
100
AcDbCircle
 10
70.98699709675611
 20
65.74423511324835
 30
0.0
 40
1.000000029802322
100
AcDbArc
 50
335.0464041786911
 51
0.0000025044687019
  0
ARC
  5
4889
330
D1
100
AcDbEntity
  8
0
100
AcDbCircle
 10
69.99936050116094
 20
63.62175275018921
 30
0.0
 40
1.000000029802322
100
AcDbArc
 50
269.9999974955313
 51
335.0464041786911
  0
ARC
  5
488A
330
D1
100
AcDbEntity
  8
0
100
AcDbCircle
 10
68.27463663384197
 20
63.62175275018921
 30
0.0
 40
1.000000029802322
100
AcDbArc
 50
204.9535993500836
 51
269.9999974955313
  0
ARC
  5
488B
330
D1
100
AcDbEntity
  8
0
100
AcDbCircle
 10
67.28700003824497
 20
65.74423511324835
 30
0.0
 40
1.000000029802322
100
AcDbArc
 50
179.9999949910626
 51
204.9535993500836
  0
ARC
  5
488C
330
D1
100
AcDbEntity
  8
0
100
AcDbCircle
 10
74.31229550518446
 20
87.44982505455913
 30
0.0
 40
3.000000089406967
100
AcDbArc
 50
269.9999974955313
 51
356.9999990627584
  0
ARC
  5
488D
330
D1
100
AcDbEntity
  8
0
100
AcDbCircle
 10
63.9617054445157
 20
87.44982505455913
 30
0.0
 40
3.000000089406967
100
AcDbArc
 50
183.0000053198279
 51
269.9999974955313
  0
ARC
  5
488E
330
D1
100
AcDbEntity
  8
0
100
AcDbCircle
 10
69.13699856750145
 20
101.9873048884444
 30
0.0
 40
6.000000178813935
100
AcDbArc
 50
199.4712250693136
 51
228.1896843403885
  0
ARC
  5
488F
330
D1
100
AcDbEntity
  8
0
100
AcDbCircle
 10
69.13699856750145
 20
95.48730850942661
 30
0.0
 40
2.849999989569183
100
AcDbArc
 50
0.0574064728786115
 51
180.0000086514409
  0
ARC
  5
4890
330
D1
100
AcDbEntity
  8
0
100
AcDbCircle
 10
69.13699856750145
 20
103.9673044896897
 30
0.0
 40
8.750000260770322
100
AcDbArc
 50
155.7704484832596
 51
179.999991348559
  0
ARC
  5
4891
330
D1
100
AcDbEntity
  8
0
100
AcDbCircle
 10
69.13699856750145
 20
103.9673044896897
 30
0.0
 40
8.750000260770322
100
AcDbArc
 50
0.0000025044687019
 51
24.22955151674039
  0
ARC
  5
4892
330
D1
100
AcDbEntity
  8
0
100
AcDbCircle
 10
81.13699856750145
 20
108.5582318035537
 30
0.0
 40
1.000000029802322
100
AcDbArc
 50
269.9999974955313
 51
0.0
  0
ARC
  5
4893
330
D1
100
AcDbEntity
  8
0
100
AcDbCircle
 10
81.13699856750145
 20
143.5582470623428
 30
0.0
 40
1.000000029802322
100
AcDbArc
 50
0.0
 51
90.0000025045208
  0
ARC
  5
4894
330
D1
100
AcDbEntity
  8
0
100
AcDbCircle
 10
57.13699856750145
 20
143.5582470623428
 30
0.0
 40
1.000000029802322
100
AcDbArc
 50
89.99999931678306
 51
180.0000086514409
  0
ARC
  5
4895
330
D1
100
AcDbEntity
  8
0
100
AcDbCircle
 10
62.88699856750145
 20
131.0582470623428
 30
0.0
 40
1.0
100
AcDbArc
 50
270.0
 51
0.0
  0
ARC
  5
4896
330
D1
100
AcDbEntity
  8
0
100
AcDbCircle
 10
75.38699856750145
 20
121.0582318035537
 30
0.0
 40
1.0
100
AcDbArc
 50
90.0
 51
180.0
  0
ARC
  5
4897
330
D1
100
AcDbEntity
  8
0
100
AcDbCircle
 10
75.38699856750145
 20
108.5582470623428
 30
0.0
 40
1.0
100
AcDbArc
 50
180.0
 51
270.0
  0
ARC
  5
4898
330
D1
100
AcDbEntity
  8
0
100
AcDbCircle
 10
62.88699856750145
 20
108.5582470623428
 30
0.0
 40
1.0
100
AcDbArc
 50
270.0
 51
0.0
  0
ARC
  5
4899
330
D1
100
AcDbEntity
  8
0
100
AcDbCircle
 10
61.24414578429832
 20
137.3082394329483
 30
0.0
 40
7.89285707473755
100
AcDbArc
 50
140.6923519402615
 51
219.3076517022047
  0
ARC
  5
489A
330
D1
100
AcDbEntity
  8
0
100
AcDbCircle
 10
57.13699856750145
 20
131.0582318035538
 30
0.0
 40
1.000000029802322
100
AcDbArc
 50
179.9999949910626
 51
269.9999974955313
  0
ARC
  5
489B
330
D1
100
AcDbEntity
  8
0
100
AcDbCircle
 10
81.13699856750145
 20
121.0582470623428
 30
0.0
 40
1.000000029802322
100
AcDbArc
 50
0.0
 51
90.0000025045208
  0
ARC
  5
489C
330
D1
100
AcDbEntity
  8
0
100
AcDbCircle
 10
62.88699856750145
 20
121.0582318035537
 30
0.0
 40
1.0
100
AcDbArc
 50
0.0
 51
90.0
  0
ARC
  5
489D
330
D1
100
AcDbEntity
  8
0
100
AcDbCircle
 10
81.13699856750145
 20
131.0582318035538
 30
0.0
 40
1.000000029802322
100
AcDbArc
 50
269.9999974955313
 51
0.0
  0
ARC
  5
489E
330
D1
100
AcDbEntity
  8
0
100
AcDbCircle
 10
57.13699856750145
 20
121.0582470623428
 30
0.0
 40
1.000000029802322
100
AcDbArc
 50
89.99999931678306
 51
180.0000086514409
  0
ARC
  5
489F
330
D1
100
AcDbEntity
  8
0
100
AcDbCircle
 10
57.13699856750145
 20
108.5582318035537
 30
0.0
 40
1.000000029802322
100
AcDbArc
 50
179.9999949910626
 51
269.9999974955313
  0
ARC
  5
48A0
330
D1
100
AcDbEntity
  8
0
100
AcDbCircle
 10
75.38699856750145
 20
143.5582318035538
 30
0.0
 40
1.0
100
AcDbArc
 50
90.0
 51
180.0
  0
ARC
  5
48A1
330
D1
100
AcDbEntity
  8
0
100
AcDbCircle
 10
62.88699856750145
 20
143.5582318035538
 30
0.0
 40
1.0
100
AcDbArc
 50
0.0
 51
90.0
  0
ARC
  5
48A2
330
D1
100
AcDbEntity
  8
0
100
AcDbCircle
 10
75.38699856750145
 20
131.0582470623428
 30
0.0
 40
1.0
100
AcDbArc
 50
180.0
 51
270.0
  0
ARC
  5
48A3
330
D1
100
AcDbEntity
  8
0
100
AcDbCircle
 10
82.88700619689597
 20
133.4082302776748
 30
0.0
 40
0.7500000000000002
100
AcDbArc
 50
269.9999974955313
 51
0.0
  0
ARC
  5
48A4
330
D1
100
AcDbEntity
  8
0
100
AcDbCircle
 10
82.88700619689597
 20
141.2082485882217
 30
0.0
 40
0.7500000000000002
100
AcDbArc
 50
0.0
 51
90.0000025045208
  0
LINE
  5
48A5
330
D1
100
AcDbEntity
  8
0
100
AcDbLine
 10
-15.1130528700537
 20
242.2582700388245
 30
0.0
 11
-15.61311816762781
 21
241.7582777209288
 31
0.0
  0
LINE
  5
48A6
330
D1
100
AcDbEntity
  8
0
100
AcDbLine
 10
-15.61311816762781
 20
241.7582777209288
 30
0.0
 11
-15.6131181761607
 21
238.2581667011852
 31
0.0
  0
LINE
  5
48A7
330
D1
100
AcDbEntity
  8
0
100
AcDbLine
 10
-15.6131181761607
 20
238.2581667011852
 30
0.0
 11
-16.61277115155053
 21
238.2581667036227
 31
0.0
  0
LINE
  5
48A8
330
D1
100
AcDbEntity
  8
0
100
AcDbLine
 10
-16.61277115155053
 20
238.2581667036227
 30
0.0
 11
-16.61277115154144
 21
237.7581850203203
 31
0.0
  0
LINE
  5
48A9
330
D1
100
AcDbEntity
  8
0
100
AcDbLine
 10
-16.61277115154144
 20
237.7581850203203
 30
0.0
 11
-14.7241261257127
 21
237.7581850203203
 31
0.0
  0
LINE
  5
48AA
330
D1
100
AcDbEntity
  8
0
100
AcDbLine
 10
-14.7241261257127
 20
237.7581850203203
 30
0.0
 11
-14.11305624055376
 21
237.4053836512974
 31
0.0
  0
LINE
  5
48AB
330
D1
100
AcDbEntity
  8
0
100
AcDbLine
 10
-14.11305624055376
 20
237.4053836512974
 30
0.0
 11
-14.11305624055376
 21
231.7581850203203
 31
0.0
  0
LINE
  5
48AC
330
D1
100
AcDbEntity
  8
0
100
AcDbLine
 10
-14.11305624055376
 20
231.7581850203203
 30
0.0
 11
-24.61302753773589
 21
231.7581672285394
 31
0.0
  0
LINE
  5
48AD
330
D1
100
AcDbEntity
  8
0
100
AcDbLine
 10
-24.61302753773589
 20
231.7581672285394
 30
0.0
 11
-25.11302753773589
 21
231.258269852209
 31
0.0
  0
LINE
  5
48AE
330
D1
100
AcDbEntity
  8
0
100
AcDbLine
 10
-25.11302753773589
 20
231.258269852209
 30
0.0
 11
-25.11302753773589
 21
227.7582703789592
 31
0.0
  0
LINE
  5
48AF
330
D1
100
AcDbEntity
  8
0
100
AcDbLine
 10
-24.11305624055376
 20
231.7581850203203
 30
0.0
 11
-24.11305624055376
 21
237.4053849048448
 31
0.0
  0
LINE
  5
48B0
330
D1
100
AcDbEntity
  8
0
100
AcDbLine
 10
-24.11305624055376
 20
237.4053849048448
 30
0.0
 11
-23.50198638734537
 21
237.7581862554178
 31
0.0
  0
LINE
  5
48B1
330
D1
100
AcDbEntity
  8
0
100
AcDbLine
 10
-23.50198638734537
 20
237.7581862554178
 30
0.0
 11
-16.61277115154144
 21
237.7581862555433
 31
0.0
  0
LINE
  5
48B2
330
D1
100
AcDbEntity
  8
0
100
AcDbLine
 10
-24.11305624055376
 20
237.4053849048448
 30
0.0
 11
-14.11305624055376
 21
237.4053849048448
 31
0.0
  0
LINE
  5
48B3
330
D1
100
AcDbEntity
  8
0
100
AcDbLine
 10
-24.11305624055376
 20
232.7013859175365
 30
0.0
 11
-14.11305624055376
 21
232.7013859175365
 31
0.0
  0
LINE
  5
48B4
330
D1
100
AcDbEntity
  8
0
100
AcDbLine
 10
-25.11302787443992
 20
227.7582703789592
 30
0.0
 11
-47.1130472123873
 21
227.7582394279177
 31
0.0
  0
LINE
  5
48B5
330
D1
100
AcDbEntity
  8
0
100
AcDbLine
 10
-47.1130472123873
 20
227.7582394279177
 30
0.0
 11
-48.52726077478428
 21
228.3440258654889
 31
0.0
  0
LINE
  5
48B6
330
D1
100
AcDbEntity
  8
0
100
AcDbLine
 10
-48.52726077478428
 20
228.3440258654889
 30
0.0
 11
-49.11304721246915
 21
229.7582394278395
 31
0.0
  0
LINE
  5
48B7
330
D1
100
AcDbEntity
  8
0
100
AcDbLine
 10
-49.11304721246915
 20
229.7582394278395
 30
0.0
 11
-49.11304720886573
 21
241.2582394264971
 31
0.0
  0
LINE
  5
48B8
330
D1
100
AcDbEntity
  8
0
100
AcDbLine
 10
-49.11304720886573
 20
241.2582394264971
 30
0.0
 11
-69.11304720886573
 21
241.2582394264971
 31
0.0
  0
LINE
  5
48B9
330
D1
100
AcDbEntity
  8
0
100
AcDbLine
 10
-69.11304720886573
 20
241.2582394264971
 30
0.0
 11
-69.11304720886573
 21
6.258239432177788
 31
0.0
  0
LINE
  5
48BA
330
D1
100
AcDbEntity
  8
0
100
AcDbLine
 10
-69.11304720886573
 20
6.258239432177788
 30
0.0
 11
-49.11304720886573
 21
6.258239432177788
 31
0.0
  0
LINE
  5
48BB
330
D1
100
AcDbEntity
  8
0
100
AcDbLine
 10
-49.11304720886573
 20
6.258239432177788
 30
0.0
 11
-49.11304720886573
 21
37.25823943220144
 31
0.0
  0
LINE
  5
48BC
330
D1
100
AcDbEntity
  8
0
100
AcDbLine
 10
-36.10906326405848
 20
39.25823943217961
 30
0.0
 11
56.13699856750145
 21
39.25823943217961
 31
0.0
  0
LINE
  5
48BD
330
D1
100
AcDbEntity
  8
0
100
AcDbLine
 10
18.88697028782599
 20
242.2583046769703
 30
0.0
 11
19.38697128909962
 21
241.7583056969031
 31
0.0
  0
LINE
  5
48BE
330
D1
100
AcDbEntity
  8
0
100
AcDbLine
 10
19.38697128909962
 20
241.7583056969031
 30
0.0
 11
19.38695132391376
 21
210.2582394309263
 31
0.0
  0
LINE
  5
48BF
330
D1
100
AcDbEntity
  8
0
100
AcDbLine
 10
19.38695132391376
 20
210.2582394309263
 30
0.0
 11
19.97273776154134
 21
208.844025868553
 31
0.0
  0
LINE
  5
48C0
330
D1
100
AcDbEntity
  8
0
100
AcDbLine
 10
19.97273776154134
 20
208.844025868553
 30
0.0
 11
21.38695132391376
 21
208.2582394309263
 31
0.0
  0
LINE
  5
48C1
330
D1
100
AcDbEntity
  8
0
100
AcDbLine
 10
21.38695132391376
 20
208.2582394309263
 30
0.0
 11
56.13699856749599
 21
208.2582394309282
 31
0.0
  0
LINE
  5
48C2
330
D1
100
AcDbEntity
  8
0
100
AcDbLine
 10
-72.11299241266306
 20
241.2582394306207
 30
0.0
 11
-97.11299241264669
 21
241.2582394306117
 31
0.0
  0
LINE
  5
48C3
330
D1
100
AcDbEntity
  8
0
100
AcDbLine
 10
-97.11299241264669
 20
241.2582394306117
 30
0.0
 11
-97.11299241269763
 21
6.258239430604362
 31
0.0
  0
LINE
  5
48C4
330
D1
100
AcDbEntity
  8
0
100
AcDbLine
 10
-97.11299241269763
 20
6.258239430604362
 30
0.0
 11
-72.11299241264487
 21
6.258239430598905
 31
0.0
  0
LINE
  5
48C5
330
D1
100
AcDbEntity
  8
0
100
AcDbLine
 10
-72.11299241264487
 20
6.258239430598905
 30
0.0
 11
-72.11299241273036
 21
241.2582394306207
 31
0.0
  0
LINE
  5
48C6
330
D1
100
AcDbEntity
  8
0
100
AcDbLine
 10
-49.11304721246915
 20
229.7582394278395
 30
0.0
 11
-49.11304720886573
 21
37.25823943217961
 31
0.0
  0
LINE
  5
48C7
330
D1
100
AcDbEntity
  8
0
100
AcDbLine
 10
-72.11304720886573
 20
132.5079692206416
 30
0.0
 11
-72.11304720886573
 21
115.00850964102
 31
0.0
  0
LINE
  5
48C8
330
D1
100
AcDbEntity
  8
0
100
AcDbLine
 10
-69.11304720886573
 20
132.5079692206416
 30
0.0
 11
-69.11304720886573
 21
115.00850964102
 31
0.0
  0
LINE
  5
48C9
330
D1
100
AcDbEntity
  8
0
100
AcDbLine
 10
-49.11304721048555
 20
134.6896553059275
 30
0.0
 11
-49.11304721048555
 21
130.7205982211824
 31
0.0
  0
LINE
  5
48CA
330
D1
100
AcDbEntity
  8
0
100
AcDbLine
 10
-49.11304721048555
 20
112.7509460629978
 30
0.0
 11
-49.11304721048555
 21
129.7203006844636
 31
0.0
  0
LINE
  5
48CB
330
D1
100
AcDbEntity
  8
0
100
AcDbLine
 10
-49.11304721048555
 20
134.6896553059275
 30
0.0
 11
-49.11304721048555
 21
129.7203006844636
 31
0.0
  0
LINE
  5
48CC
330
D1
100
AcDbEntity
  8
0
100
AcDbLine
 10
-41.96905721048506
 20
112.7503553059275
 30
0.0
 11
-49.11304721048555
 21
112.7503553059275
 31
0.0
  0
LINE
  5
48CD
330
D1
100
AcDbEntity
  8
0
100
AcDbLine
 10
-41.96905721048506
 20
118.2351853059269
 30
0.0
 11
-49.11304721048555
 21
118.2351853059269
 31
0.0
  0
LINE
  5
48CE
330
D1
100
AcDbEntity
  8
0
100
AcDbLine
 10
-41.96905721048506
 20
129.2048253059263
 30
0.0
 11
-49.11304721048555
 21
129.2048253059263
 31
0.0
  0
LINE
  5
48CF
330
D1
100
AcDbEntity
  8
0
100
AcDbLine
 10
-41.96905721048506
 20
134.6896553059275
 30
0.0
 11
-49.11304721048555
 21
134.6896553059275
 31
0.0
  0
ARC
  5
48D0
330
D1
100
AcDbEntity
  8
0
100
AcDbCircle
 10
-59.11304721048555
 20
123.7199853059271
 30
0.0
 40
18.0
100
AcDbArc
 50
342.259119999999
 51
17.74086999999848
  0
ARC
  5
48D1
330
D1
100
AcDbEntity
  8
0
100
AcDbCircle
 10
-45.93408721048445
 20
115.4927553059267
 30
0.0
 40
4.821000599999999
100
AcDbArc
 50
325.330119999988
 51
34.66988999997634
  0
ARC
  5
48D2
330
D1
100
AcDbEntity
  8
0
100
AcDbCircle
 10
-45.93408721048445
 20
131.9472553059265
 30
0.0
 40
4.821000599999999
100
AcDbArc
 50
325.330119999988
 51
34.66988999997634
  0
LINE
  5
48D3
330
D1
100
AcDbEntity
  8
0
100
AcDbLine
 10
-41.11308661048361
 20
131.9472557266388
 30
0.0
 11
-41.11308661048361
 21
115.4927557266371
 31
0.0
  0
LINE
  5
48D4
330
D1
100
AcDbEntity
  8
0
100
AcDbLine
 10
-36.10906326567647
 20
129.058239430952
 30
0.0
 11
-36.10906326567647
 21
118.4582394309516
 31
0.0
  0
LINE
  5
48D5
330
D1
100
AcDbEntity
  8
0
100
AcDbLine
 10
-41.11308661048361
 20
117.7582394309508
 30
0.0
 11
-36.51320845410783
 21
117.7582394309508
 31
0.0
  0
LINE
  5
48D6
330
D1
100
AcDbEntity
  8
0
100
AcDbLine
 10
-41.11308661048361
 20
129.7582394309527
 30
0.0
 11
-36.51320845410783
 21
129.7582394309509
 31
0.0
  0
LINE
  5
48D7
330
D1
100
AcDbEntity
  8
0
100
AcDbLine
 10
-41.11308661048361
 20
129.058239430952
 30
0.0
 11
-36.10906326567647
 21
129.058239430952
 31
0.0
  0
LINE
  5
48D8
330
D1
100
AcDbEntity
  8
0
100
AcDbLine
 10
-41.11308661048361
 20
118.4582398066293
 30
0.0
 11
-36.10906326567647
 21
118.4582394309516
 31
0.0
  0
LINE
  5
48D9
330
D1
100
AcDbEntity
  8
0
100
AcDbLine
 10
-36.10906326567647
 20
118.4582394309516
 30
0.0
 11
-36.51320845410783
 21
117.7582394309508
 31
0.0
  0
LINE
  5
48DA
330
D1
100
AcDbEntity
  8
0
100
AcDbLine
 10
-36.51320845410783
 20
129.7582394309509
 30
0.0
 11
-36.51320845410783
 21
117.7582394309508
 31
0.0
  0
LINE
  5
48DB
330
D1
100
AcDbEntity
  8
0
100
AcDbLine
 10
-49.11304721048555
 20
124.4576469206793
 30
0.0
 11
-49.11304721048555
 21
118.4576469206793
 31
0.0
  0
LINE
  5
48DC
330
D1
100
AcDbEntity
  8
0
100
AcDbLine
 10
-49.11304721048555
 20
122.4267040054244
 30
0.0
 11
-49.11304721048555
 21
117.4573493839605
 31
0.0
  0
LINE
  5
48DD
330
D1
100
AcDbEntity
  8
0
100
AcDbLine
 10
-41.96905721048506
 20
112.7879965156978
 30
0.0
 11
-49.11304721048555
 21
112.7879965156978
 31
0.0
  0
LINE
  5
48DE
330
D1
100
AcDbEntity
  8
0
100
AcDbLine
 10
-41.96905721048506
 20
118.2728265156972
 30
0.0
 11
-49.11304721048555
 21
118.2728265156972
 31
0.0
  0
LINE
  5
48DF
330
D1
100
AcDbEntity
  8
0
100
AcDbLine
 10
-41.96905721048506
 20
129.2424665156966
 30
0.0
 11
-49.11304721048555
 21
129.2424665156966
 31
0.0
  0
LINE
  5
48E0
330
D1
100
AcDbEntity
  8
0
100
AcDbLine
 10
-41.96905721048506
 20
134.7272965156978
 30
0.0
 11
-49.11304721048555
 21
134.7272965156978
 31
0.0
  0
ARC
  5
48E1
330
D1
100
AcDbEntity
  8
0
100
AcDbCircle
 10
-59.11304721048555
 20
123.7576265156974
 30
0.0
 40
18.0
100
AcDbArc
 50
342.259119999999
 51
17.74086999999848
  0
ARC
  5
48E2
330
D1
100
AcDbEntity
  8
0
100
AcDbCircle
 10
-45.93408721048445
 20
115.530396515697
 30
0.0
 40
4.821000599999999
100
AcDbArc
 50
325.330119999988
 51
34.66988999997634
  0
ARC
  5
48E3
330
D1
100
AcDbEntity
  8
0
100
AcDbCircle
 10
-45.93408721048445
 20
131.9848965156968
 30
0.0
 40
4.821000599999999
100
AcDbArc
 50
325.330119999988
 51
34.66988999997634
  0
LINE
  5
48E4
330
D1
100
AcDbEntity
  8
0
100
AcDbLine
 10
-41.11308661048361
 20
131.9848969364072
 30
0.0
 11
-41.11308661048361
 21
115.5303969364074
 31
0.0
  0
LINE
  5
48E5
330
D1
100
AcDbEntity
  8
0
100
AcDbLine
 10
-72.11304760676603
 20
117.7582384171671
 30
0.0
 11
-69.11304760676603
 21
117.7582384171671
 31
0.0
  0
LINE
  5
48E6
330
D1
100
AcDbEntity
  8
0
100
AcDbLine
 10
-72.11304760676603
 20
129.7582384171653
 30
0.0
 11
-69.11304760676603
 21
129.7582384171653
 31
0.0
  0
LINE
  5
48E7
330
D1
100
AcDbEntity
  8
0
100
AcDbLine
 10
-72.11304760676603
 20
129.0582384171664
 30
0.0
 11
-69.11304760676603
 21
129.0582384171664
 31
0.0
  0
LINE
  5
48E8
330
D1
100
AcDbEntity
  8
0
100
AcDbLine
 10
-72.11305659539675
 20
118.4582406697225
 30
0.0
 11
-69.11304760676603
 21
118.4582404444952
 31
0.0
  0
LINE
  5
48E9
330
D1
100
AcDbEntity
  8
0
100
AcDbLine
 10
-50.9999986625371
 20
532.9394288497105
 30
0.0
 11
-50.9999986625371
 21
527.4394258183901
 31
0.0
  0
LINE
  5
48EA
330
D1
100
AcDbEntity
  8
0
100
AcDbLine
 10
-50.9999986625371
 20
531.4090946508086
 30
0.0
 11
-50.9999986625371
 21
526.4394258183902
 31
0.0
  0
LINE
  5
48EB
330
D1
100
AcDbEntity
  8
0
100
AcDbLine
 10
-37.99601532661836
 20
541.7349304261797
 30
0.0
 11
-37.99601532661836
 21
531.1349304261794
 31
0.0
  0
LINE
  5
48EC
330
D1
100
AcDbEntity
  8
0
100
AcDbLine
 10
-43.0000386714255
 20
530.4349307178499
 30
0.0
 11
-38.40016051505154
 21
530.4349304261786
 31
0.0
  0
LINE
  5
48ED
330
D1
100
AcDbEntity
  8
0
100
AcDbLine
 10
-43.0000386714255
 20
542.4349307715155
 30
0.0
 11
-38.40016051505154
 21
542.4349304261786
 31
0.0
  0
LINE
  5
48EE
330
D1
100
AcDbEntity
  8
0
100
AcDbLine
 10
-43.00003867142732
 20
541.7349307392023
 30
0.0
 11
-37.99601532661836
 21
541.7349304261797
 31
0.0
  0
LINE
  5
48EF
330
D1
100
AcDbEntity
  8
0
100
AcDbLine
 10
-43.0000386714255
 20
531.134930739202
 30
0.0
 11
-37.99601532661836
 21
531.1349304261794
 31
0.0
  0
LINE
  5
48F0
330
D1
100
AcDbEntity
  8
0
100
AcDbLine
 10
-37.99601532661836
 20
531.1349304261794
 30
0.0
 11
-38.40016051505154
 21
530.4349304261786
 31
0.0
  0
LINE
  5
48F1
330
D1
100
AcDbEntity
  8
0
100
AcDbLine
 10
-38.40016051505154
 20
542.4349304261786
 30
0.0
 11
-38.40016051505154
 21
530.4349304261786
 31
0.0
  0
LINE
  5
48F2
330
D1
100
AcDbEntity
  8
0
100
AcDbLine
 10
-50.99999927142562
 20
537.134337915907
 30
0.0
 11
-50.99999927142562
 21
531.134337915907
 31
0.0
  0
LINE
  5
48F3
330
D1
100
AcDbEntity
  8
0
100
AcDbLine
 10
-50.99999927142562
 20
525.4646857577236
 30
0.0
 11
-50.99999927142562
 21
542.4340403791894
 31
0.0
  0
LINE
  5
48F4
330
D1
100
AcDbEntity
  8
0
100
AcDbLine
 10
-50.99999927142562
 20
535.1033950006522
 30
0.0
 11
-50.99999927142562
 21
530.1340403791882
 31
0.0
  0
LINE
  5
48F5
330
D1
100
AcDbEntity
  8
0
100
AcDbLine
 10
-43.85600927142514
 20
525.4646875109256
 30
0.0
 11
-50.99999927142562
 21
525.4646875109256
 31
0.0
  0
LINE
  5
48F6
330
D1
100
AcDbEntity
  8
0
100
AcDbLine
 10
-43.85600927142514
 20
530.949517510925
 30
0.0
 11
-50.99999927142562
 21
530.949517510925
 31
0.0
  0
LINE
  5
48F7
330
D1
100
AcDbEntity
  8
0
100
AcDbLine
 10
-43.85600927142514
 20
541.9191575109244
 30
0.0
 11
-50.99999927142562
 21
541.9191575109244
 31
0.0
  0
LINE
  5
48F8
330
D1
100
AcDbEntity
  8
0
100
AcDbLine
 10
-43.85600927142514
 20
547.4039875109256
 30
0.0
 11
-50.99999927142562
 21
547.4039875109256
 31
0.0
  0
ARC
  5
48F9
330
D1
100
AcDbEntity
  8
0
100
AcDbCircle
 10
-60.99999927142562
 20
536.4343175109252
 30
0.0
 40
18.0
100
AcDbArc
 50
342.2591199999965
 51
17.74086999999763
  0
ARC
  5
48FA
330
D1
100
AcDbEntity
  8
0
100
AcDbCircle
 10
-47.82103927142452
 20
528.2070875109248
 30
0.0
 40
4.821000599999999
100
AcDbArc
 50
325.3301199999856
 51
34.66988999997151
  0
ARC
  5
48FB
330
D1
100
AcDbEntity
  8
0
100
AcDbCircle
 10
-47.82103927142452
 20
544.6615875109245
 30
0.0
 40
4.821000599999999
100
AcDbArc
 50
325.3301199999856
 51
34.66988999997151
  0
LINE
  5
48FC
330
D1
100
AcDbEntity
  8
0
100
AcDbLine
 10
-43.0000386714255
 20
544.661587931635
 30
0.0
 11
-43.0000386714255
 21
528.2070879316352
 31
0.0
  0
LINE
  5
48FD
330
D1
100
AcDbEntity
  8
0
100
AcDbLine
 10
-50.99999948934237
 20
547.4039875109256
 30
0.0
 11
-50.99999927142562
 21
530.9495175109232
 31
0.0
  0
LINE
  5
48FE
330
D1
100
AcDbEntity
  8
0
100
AcDbLine
 10
-50.99999927470708
 20
701.1157740719291
 30
0.0
 11
-50.99999927470708
 21
697.146716987183
 31
0.0
  0
LINE
  5
48FF
330
D1
100
AcDbEntity
  8
0
100
AcDbLine
 10
-50.99999927470708
 20
679.1770648289993
 30
0.0
 11
-50.99999927470708
 21
696.1464194504642
 31
0.0
  0
LINE
  5
4900
330
D1
100
AcDbEntity
  8
0
100
AcDbLine
 10
-50.99999927470708
 20
701.1157740719282
 30
0.0
 11
-50.99999927470708
 21
696.1464194504642
 31
0.0
  0
LINE
  5
4901
330
D1
100
AcDbEntity
  8
0
100
AcDbLine
 10
-43.85600927470659
 20
679.1764740719282
 30
0.0
 11
-50.99999927470708
 21
679.1764740719282
 31
0.0
  0
LINE
  5
4902
330
D1
100
AcDbEntity
  8
0
100
AcDbLine
 10
-43.85600927470659
 20
684.6613040719276
 30
0.0
 11
-50.99999927470708
 21
684.6613040719276
 31
0.0
  0
LINE
  5
4903
330
D1
100
AcDbEntity
  8
0
100
AcDbLine
 10
-43.85600927470659
 20
695.6309440719278
 30
0.0
 11
-50.99999927470708
 21
695.6309440719278
 31
0.0
  0
LINE
  5
4904
330
D1
100
AcDbEntity
  8
0
100
AcDbLine
 10
-43.85600927470659
 20
701.1157740719282
 30
0.0
 11
-50.99999927470708
 21
701.1157740719282
 31
0.0
  0
ARC
  5
4905
330
D1
100
AcDbEntity
  8
0
100
AcDbCircle
 10
-60.99999927470708
 20
690.1461040719278
 30
0.0
 40
18.0
100
AcDbArc
 50
342.2591199999965
 51
17.74086999999763
  0
ARC
  5
4906
330
D1
100
AcDbEntity
  8
0
100
AcDbCircle
 10
-47.82103927470598
 20
681.9188740719273
 30
0.0
 40
4.821000599999999
100
AcDbArc
 50
325.3301199999856
 51
34.66988999997151
  0
ARC
  5
4907
330
D1
100
AcDbEntity
  8
0
100
AcDbCircle
 10
-47.82103927470598
 20
698.373374071928
 30
0.0
 40
4.821000599999999
100
AcDbArc
 50
325.3301199999856
 51
34.66988999997151
  0
LINE
  5
4908
330
D1
100
AcDbEntity
  8
0
100
AcDbLine
 10
-43.00003867470514
 20
698.3733744926394
 30
0.0
 11
-43.00003867470514
 21
681.9188744926386
 31
0.0
  0
LINE
  5
4909
330
D1
100
AcDbEntity
  8
0
100
AcDbLine
 10
-37.996015329898
 20
695.4843581969526
 30
0.0
 11
-37.996015329898
 21
684.8843581969522
 31
0.0
  0
LINE
  5
490A
330
D1
100
AcDbEntity
  8
0
100
AcDbLine
 10
-43.00003867470514
 20
684.1843581969524
 30
0.0
 11
-38.40016051832936
 21
684.1843581969524
 31
0.0
  0
LINE
  5
490B
330
D1
100
AcDbEntity
  8
0
100
AcDbLine
 10
-43.00003867470514
 20
696.1843581969533
 30
0.0
 11
-38.40016051832936
 21
696.1843581969524
 31
0.0
  0
LINE
  5
490C
330
D1
100
AcDbEntity
  8
0
100
AcDbLine
 10
-43.00003867470514
 20
695.4843581969526
 30
0.0
 11
-37.996015329898
 21
695.4843581969526
 31
0.0
  0
LINE
  5
490D
330
D1
100
AcDbEntity
  8
0
100
AcDbLine
 10
-43.00003867470514
 20
684.8843585726308
 30
0.0
 11
-37.996015329898
 21
684.8843581969531
 31
0.0
  0
LINE
  5
490E
330
D1
100
AcDbEntity
  8
0
100
AcDbLine
 10
-37.996015329898
 20
684.8843581969522
 30
0.0
 11
-38.40016051832936
 21
684.1843581969524
 31
0.0
  0
LINE
  5
490F
330
D1
100
AcDbEntity
  8
0
100
AcDbLine
 10
-38.40016051832936
 20
696.1843581969524
 30
0.0
 11
-38.40016051832936
 21
684.1843581969524
 31
0.0
  0
LINE
  5
4910
330
D1
100
AcDbEntity
  8
0
100
AcDbLine
 10
-50.99999927470708
 20
690.8837656866808
 30
0.0
 11
-50.99999927470708
 21
684.8837656866808
 31
0.0
  0
LINE
  5
4911
330
D1
100
AcDbEntity
  8
0
100
AcDbLine
 10
-50.99999927470708
 20
688.8528227714259
 30
0.0
 11
-50.99999927470708
 21
683.883468149962
 31
0.0
  0
LINE
  5
4912
330
D1
100
AcDbEntity
  8
0
100
AcDbLine
 10
-43.85600927470659
 20
679.2141152816984
 30
0.0
 11
-50.99999927470708
 21
679.2141152816984
 31
0.0
  0
LINE
  5
4913
330
D1
100
AcDbEntity
  8
0
100
AcDbLine
 10
-43.85600927470659
 20
684.6989452816979
 30
0.0
 11
-50.99999927470708
 21
684.6989452816979
 31
0.0
  0
LINE
  5
4914
330
D1
100
AcDbEntity
  8
0
100
AcDbLine
 10
-43.85600927470659
 20
695.6685852816981
 30
0.0
 11
-50.99999927470708
 21
695.6685852816981
 31
0.0
  0
LINE
  5
4915
330
D1
100
AcDbEntity
  8
0
100
AcDbLine
 10
-43.85600927470659
 20
701.1534152816984
 30
0.0
 11
-50.99999927470708
 21
701.1534152816984
 31
0.0
  0
ARC
  5
4916
330
D1
100
AcDbEntity
  8
0
100
AcDbCircle
 10
-60.99999927470708
 20
690.183745281698
 30
0.0
 40
18.0
100
AcDbArc
 50
342.2591199999965
 51
17.74086999999763
  0
ARC
  5
4917
330
D1
100
AcDbEntity
  8
0
100
AcDbCircle
 10
-47.82103927470598
 20
681.9565152816976
 30
0.0
 40
4.821000599999999
100
AcDbArc
 50
325.3301199999856
 51
34.66988999997151
  0
ARC
  5
4918
330
D1
100
AcDbEntity
  8
0
100
AcDbCircle
 10
-47.82103927470598
 20
698.4110152816984
 30
0.0
 40
4.821000599999999
100
AcDbArc
 50
325.3301199999856
 51
34.66988999997151
  0
LINE
  5
4919
330
D1
100
AcDbEntity
  8
0
100
AcDbLine
 10
-43.00003867470514
 20
698.4110157024088
 30
0.0
 11
-43.00003867470514
 21
681.956515702408
 31
0.0
  0
LINE
  5
491A
330
D1
100
AcDbEntity
  8
0
100
AcDbLine
 10
-51.00005446712202
 20
649.8657539880605
 30
0.0
 11
-51.00005446712202
 21
645.8966969033154
 31
0.0
  0
LINE
  5
491B
330
D1
100
AcDbEntity
  8
0
100
AcDbLine
 10
-51.00005446712202
 20
627.9270447451308
 30
0.0
 11
-51.00005446712202
 21
644.8963993665966
 31
0.0
  0
LINE
  5
491C
330
D1
100
AcDbEntity
  8
0
100
AcDbLine
 10
-51.00005446712202
 20
649.8657539880605
 30
0.0
 11
-51.00005446712202
 21
644.8963993665966
 31
0.0
  0
LINE
  5
491D
330
D1
100
AcDbEntity
  8
0
100
AcDbLine
 10
-43.85606446712154
 20
627.9264539880605
 30
0.0
 11
-51.00005446712202
 21
627.9264539880605
 31
0.0
  0
LINE
  5
491E
330
D1
100
AcDbEntity
  8
0
100
AcDbLine
 10
-43.85606446712154
 20
633.4112839880599
 30
0.0
 11
-51.00005446712202
 21
633.4112839880599
 31
0.0
  0
LINE
  5
491F
330
D1
100
AcDbEntity
  8
0
100
AcDbLine
 10
-43.85606446712154
 20
644.3809239880593
 30
0.0
 11
-51.00005446712202
 21
644.3809239880593
 31
0.0
  0
LINE
  5
4920
330
D1
100
AcDbEntity
  8
0
100
AcDbLine
 10
-43.85606446712154
 20
649.8657539880605
 30
0.0
 11
-51.00005446712202
 21
649.8657539880605
 31
0.0
  0
ARC
  5
4921
330
D1
100
AcDbEntity
  8
0
100
AcDbCircle
 10
-61.00005446712202
 20
638.8960839880601
 30
0.0
 40
18.0
100
AcDbArc
 50
342.2591199999965
 51
17.74086999999763
  0
ARC
  5
4922
330
D1
100
AcDbEntity
  8
0
100
AcDbCircle
 10
-47.82109446712093
 20
630.6688539880597
 30
0.0
 40
4.821000599999999
100
AcDbArc
 50
325.3301199999856
 51
34.66988999997151
  0
ARC
  5
4923
330
D1
100
AcDbEntity
  8
0
100
AcDbCircle
 10
-47.82109446712093
 20
647.1233539880595
 30
0.0
 40
4.821000599999999
100
AcDbArc
 50
325.3301199999856
 51
34.66988999997151
  0
LINE
  5
4924
330
D1
100
AcDbEntity
  8
0
100
AcDbLine
 10
-43.00009386712008
 20
647.1233544087717
 30
0.0
 11
-43.00009386712008
 21
630.6688544087701
 31
0.0
  0
LINE
  5
4925
330
D1
100
AcDbEntity
  8
0
100
AcDbLine
 10
-37.99607052231295
 20
644.2343381130849
 30
0.0
 11
-37.99607052231295
 21
633.6343381130846
 31
0.0
  0
LINE
  5
4926
330
D1
100
AcDbEntity
  8
0
100
AcDbLine
 10
-43.00009386712008
 20
632.9343381130838
 30
0.0
 11
-38.4002157107443
 21
632.9343381130838
 31
0.0
  0
LINE
  5
4927
330
D1
100
AcDbEntity
  8
0
100
AcDbLine
 10
-43.00009386712008
 20
644.9343381130857
 30
0.0
 11
-38.4002157107443
 21
644.9343381130838
 31
0.0
  0
LINE
  5
4928
330
D1
100
AcDbEntity
  8
0
100
AcDbLine
 10
-43.00009386712008
 20
644.2343381130849
 30
0.0
 11
-37.99607052231295
 21
644.2343381130849
 31
0.0
  0
LINE
  5
4929
330
D1
100
AcDbEntity
  8
0
100
AcDbLine
 10
-43.00009386712008
 20
633.6343384887623
 30
0.0
 11
-37.99607052231295
 21
633.6343381130846
 31
0.0
  0
LINE
  5
492A
330
D1
100
AcDbEntity
  8
0
100
AcDbLine
 10
-37.99607052231295
 20
633.6343381130846
 30
0.0
 11
-38.4002157107443
 21
632.9343381130838
 31
0.0
  0
LINE
  5
492B
330
D1
100
AcDbEntity
  8
0
100
AcDbLine
 10
-38.4002157107443
 20
644.9343381130838
 30
0.0
 11
-38.4002157107443
 21
632.9343381130838
 31
0.0
  0
LINE
  5
492C
330
D1
100
AcDbEntity
  8
0
100
AcDbLine
 10
-51.00005446712202
 20
639.6337456028122
 30
0.0
 11
-51.00005446712202
 21
633.6337456028123
 31
0.0
  0
LINE
  5
492D
330
D1
100
AcDbEntity
  8
0
100
AcDbLine
 10
-51.00005446712202
 20
637.6028026875574
 30
0.0
 11
-51.00005446712202
 21
632.6334480660935
 31
0.0
  0
LINE
  5
492E
330
D1
100
AcDbEntity
  8
0
100
AcDbLine
 10
-43.85606446712154
 20
627.9640951978308
 30
0.0
 11
-51.00005446712202
 21
627.9640951978308
 31
0.0
  0
LINE
  5
492F
330
D1
100
AcDbEntity
  8
0
100
AcDbLine
 10
-43.85606446712154
 20
633.4489251978302
 30
0.0
 11
-51.00005446712202
 21
633.4489251978302
 31
0.0
  0
LINE
  5
4930
330
D1
100
AcDbEntity
  8
0
100
AcDbLine
 10
-43.85606446712154
 20
644.4185651978296
 30
0.0
 11
-51.00005446712202
 21
644.4185651978296
 31
0.0
  0
LINE
  5
4931
330
D1
100
AcDbEntity
  8
0
100
AcDbLine
 10
-43.85606446712154
 20
649.9033951978308
 30
0.0
 11
-51.00005446712202
 21
649.9033951978308
 31
0.0
  0
ARC
  5
4932
330
D1
100
AcDbEntity
  8
0
100
AcDbCircle
 10
-61.00005446712202
 20
638.9337251978304
 30
0.0
 40
18.0
100
AcDbArc
 50
342.2591199999965
 51
17.74086999999763
  0
ARC
  5
4933
330
D1
100
AcDbEntity
  8
0
100
AcDbCircle
 10
-47.82109446712093
 20
630.70649519783
 30
0.0
 40
4.821000599999999
100
AcDbArc
 50
325.3301199999856
 51
34.66988999997151
  0
ARC
  5
4934
330
D1
100
AcDbEntity
  8
0
100
AcDbCircle
 10
-47.82109446712093
 20
647.1609951978298
 30
0.0
 40
4.821000599999999
100
AcDbArc
 50
325.3301199999856
 51
34.66988999997151
  0
LINE
  5
4935
330
D1
100
AcDbEntity
  8
0
100
AcDbLine
 10
-43.00009386712008
 20
647.1609956185402
 30
0.0
 11
-43.00009386712008
 21
630.7064956185404
 31
0.0
  0
LINE
  5
4936
330
D1
100
AcDbEntity
  8
0
100
AcDbLine
 10
-50.9999990604374
 20
481.6894289474921
 30
0.0
 11
-50.9999990604374
 21
476.1894259161717
 31
0.0
  0
LINE
  5
4937
330
D1
100
AcDbEntity
  8
0
100
AcDbLine
 10
-50.9999990604374
 20
480.1590947485902
 30
0.0
 11
-50.9999990604374
 21
475.1894259161717
 31
0.0
  0
LINE
  5
4938
330
D1
100
AcDbEntity
  8
0
100
AcDbLine
 10
-37.99601572451866
 20
490.4849305239613
 30
0.0
 11
-37.99601572451866
 21
479.884930523961
 31
0.0
  0
LINE
  5
4939
330
D1
100
AcDbEntity
  8
0
100
AcDbLine
 10
-43.00003906932579
 20
479.1849308156315
 30
0.0
 11
-38.40016091295183
 21
479.1849305239602
 31
0.0
  0
LINE
  5
493A
330
D1
100
AcDbEntity
  8
0
100
AcDbLine
 10
-43.00003906932579
 20
491.1849308692971
 30
0.0
 11
-38.40016091295183
 21
491.1849305239602
 31
0.0
  0
LINE
  5
493B
330
D1
100
AcDbEntity
  8
0
100
AcDbLine
 10
-43.00003906932761
 20
490.4849308369839
 30
0.0
 11
-37.99601572451866
 21
490.4849305239613
 31
0.0
  0
LINE
  5
493C
330
D1
100
AcDbEntity
  8
0
100
AcDbLine
 10
-43.00003906932579
 20
479.8849308369836
 30
0.0
 11
-37.99601572451866
 21
479.884930523961
 31
0.0
  0
LINE
  5
493D
330
D1
100
AcDbEntity
  8
0
100
AcDbLine
 10
-37.99601572451866
 20
479.884930523961
 30
0.0
 11
-38.40016091295183
 21
479.1849305239602
 31
0.0
  0
LINE
  5
493E
330
D1
100
AcDbEntity
  8
0
100
AcDbLine
 10
-38.40016091295183
 20
491.1849305239602
 30
0.0
 11
-38.40016091295183
 21
479.1849305239602
 31
0.0
  0
LINE
  5
493F
330
D1
100
AcDbEntity
  8
0
100
AcDbLine
 10
-50.99999966932592
 20
485.8843380136886
 30
0.0
 11
-50.99999966932592
 21
479.8843380136886
 31
0.0
  0
LINE
  5
4940
330
D1
100
AcDbEntity
  8
0
100
AcDbLine
 10
-50.99999966932592
 20
474.2146858555051
 30
0.0
 11
-50.99999966932592
 21
491.1840404769709
 31
0.0
  0
LINE
  5
4941
330
D1
100
AcDbEntity
  8
0
100
AcDbLine
 10
-50.99999966932592
 20
483.8533950984338
 30
0.0
 11
-50.99999966932592
 21
478.8840404769699
 31
0.0
  0
LINE
  5
4942
330
D1
100
AcDbEntity
  8
0
100
AcDbLine
 10
-43.85600966932543
 20
474.2146876087072
 30
0.0
 11
-50.99999966932592
 21
474.2146876087072
 31
0.0
  0
LINE
  5
4943
330
D1
100
AcDbEntity
  8
0
100
AcDbLine
 10
-43.85600966932543
 20
479.6995176087066
 30
0.0
 11
-50.99999966932592
 21
479.6995176087066
 31
0.0
  0
LINE
  5
4944
330
D1
100
AcDbEntity
  8
0
100
AcDbLine
 10
-43.85600966932543
 20
490.669157608706
 30
0.0
 11
-50.99999966932592
 21
490.669157608706
 31
0.0
  0
LINE
  5
4945
330
D1
100
AcDbEntity
  8
0
100
AcDbLine
 10
-43.85600966932543
 20
496.1539876087072
 30
0.0
 11
-50.99999966932592
 21
496.1539876087072
 31
0.0
  0
ARC
  5
4946
330
D1
100
AcDbEntity
  8
0
100
AcDbCircle
 10
-60.99999966932592
 20
485.1843176087068
 30
0.0
 40
18.0
100
AcDbArc
 50
342.2591199999965
 51
17.74086999999763
  0
ARC
  5
4947
330
D1
100
AcDbEntity
  8
0
100
AcDbCircle
 10
-47.82103966932481
 20
476.9570876087064
 30
0.0
 40
4.821000599999999
100
AcDbArc
 50
325.3301199999856
 51
34.66988999997151
  0
ARC
  5
4948
330
D1
100
AcDbEntity
  8
0
100
AcDbCircle
 10
-47.82103966932481
 20
493.4115876087061
 30
0.0
 40
4.821000599999999
100
AcDbArc
 50
325.3301199999856
 51
34.66988999997151
  0
LINE
  5
4949
330
D1
100
AcDbEntity
  8
0
100
AcDbLine
 10
-43.00003906932579
 20
493.4115880294166
 30
0.0
 11
-43.00003906932579
 21
476.9570880294168
 31
0.0
  0
LINE
  5
494A
330
D1
100
AcDbEntity
  8
0
100
AcDbLine
 10
-50.99999988724267
 20
496.1539876087072
 30
0.0
 11
-50.99999966932592
 21
479.6995176087047
 31
0.0
  0
LINE
  5
494B
330
D1
100
AcDbEntity
  8
0
100
AcDbLine
 10
-350.678106471627
 20
123.7579666549567
 30
0.0
 11
-593.510907462376
 21
123.7579666574669
 31
0.0
  0
LINE
  5
494C
330
D1
100
AcDbEntity
  8
0
100
AcDbLine
 10
-472.0945069670051
 20
217.0929659683519
 30
0.0
 11
-472.0945069670051
 21
5.474621351409354
 31
0.0
  0
CIRCLE
  5
494D
330
D1
100
AcDbEntity
  8
0
100
AcDbCircle
 10
-472.0945069670051
 20
123.7579666574005
 30
0.0
 40
48.79999237126183
  0
CIRCLE
  5
494E
330
D1
100
AcDbEntity
  8
0
100
AcDbCircle
 10
-472.0945069670051
 20
123.7579666574005
 30
0.0
 40
54.99999999972669
  0
CIRCLE
  5
494F
330
D1
100
AcDbEntity
  8
0
100
AcDbCircle
 10
-472.0945069670051
 20
123.7579666574005
 30
0.0
 40
59.50000000065961
  0
LINE
  5
4950
330
D1
100
AcDbEntity
  8
0
100
AcDbLine
 10
-561.8218858122199
 20
119.7579590268172
 30
0.0
 11
-580.5944993376106
 21
119.7579590268172
 31
0.0
  0
LINE
  5
4951
330
D1
100
AcDbEntity
  8
0
100
AcDbLine
 10
-561.8218858122199
 20
127.7579742856063
 30
0.0
 11
-593.1000442392396
 21
127.7579742856063
 31
0.0
  0
LINE
  5
4952
330
D1
100
AcDbEntity
  8
0
100
AcDbLine
 10
-590.5945069670051
 20
108.0370346493758
 30
0.0
 11
-590.5945069670051
 21
127.7579742856063
 31
0.0
  0
LINE
  5
4953
330
D1
100
AcDbEntity
  8
0
100
AcDbLine
 10
-574.358865487513
 20
142.2579590268172
 30
0.0
 11
-593.0945145963996
 21
142.2579590268172
 31
0.0
  0
LINE
  5
4954
330
D1
100
AcDbEntity
  8
0
100
AcDbLine
 10
-590.5945069670051
 20
119.7579590268172
 30
0.0
 11
-593.0945145963996
 21
119.7579590268172
 31
0.0
  0
LINE
  5
4955
330
D1
100
AcDbEntity
  8
0
100
AcDbLine
 10
-589.5944993376105
 20
108.0370346493758
 30
0.0
 11
-589.5944993376105
 21
124.0370193905868
 31
0.0
  0
LINE
  5
4956
330
D1
100
AcDbEntity
  8
0
100
AcDbLine
 10
-589.5945160787086
 20
124.0370142710147
 30
0.0
 11
-590.5945237215637
 21
125.7690782853108
 31
0.0
  0
LINE
  5
4957
330
D1
100
AcDbEntity
  8
0
100
AcDbLine
 10
-580.5944993376106
 20
80.03702701998131
 30
0.0
 11
-580.5944993376106
 21
81.9975972912683
 31
0.0
  0
LINE
  5
4958
330
D1
100
AcDbEntity
  8
0
100
AcDbLine
 10
-580.5944993376106
 20
108.0370244723911
 30
0.0
 11
-580.5944993376106
 21
127.7579742856063
 31
0.0
  0
LINE
  5
4959
330
D1
100
AcDbEntity
  8
0
100
AcDbLine
 10
-585.5945145963996
 20
79.03704227877037
 30
0.0
 11
-581.5945069670051
 21
79.03704227877037
 31
0.0
  0
LINE
  5
495A
330
D1
100
AcDbEntity
  8
0
100
AcDbLine
 10
-581.5945069670051
 20
79.03704227877037
 30
0.0
 11
-581.5945069670051
 21
82.03955997896569
 31
0.0
  0
LINE
  5
495B
330
D1
100
AcDbEntity
  8
0
100
AcDbLine
 10
-581.5944991410215
 20
108.037025508834
 30
0.0
 11
-581.5945069670051
 21
124.0370422787703
 31
0.0
  0
LINE
  5
495C
330
D1
100
AcDbEntity
  8
0
100
AcDbLine
 10
-581.5945313888223
 20
124.0370194811979
 30
0.0
 11
-580.5945294680132
 21
125.7690735846202
 31
0.0
  0
LINE
  5
495D
330
D1
100
AcDbEntity
  8
0
100
AcDbLine
 10
-594.0944993376105
 20
105.2579742856063
 30
0.0
 11
-594.0944993376105
 21
118.7579742856063
 31
0.0
  0
LINE
  5
495E
330
D1
100
AcDbEntity
  8
0
100
AcDbLine
 10
-594.0944993376105
 20
128.7579590268172
 30
0.0
 11
-594.0944993376105
 21
141.2579742856063
 31
0.0
  0
LINE
  5
495F
330
D1
100
AcDbEntity
  8
0
100
AcDbLine
 10
-574.358865487513
 20
105.2579742856063
 30
0.0
 11
-577.0945069670051
 21
105.2579742856063
 31
0.0
  0
LINE
  5
4960
330
D1
100
AcDbEntity
  8
0
100
AcDbLine
 10
-590.5945069670051
 20
108.0370346493758
 30
0.0
 11
-591.5945145963997
 21
108.0370346493758
 31
0.0
  0
LINE
  5
4961
330
D1
100
AcDbEntity
  8
0
100
AcDbLine
 10
-580.5944953329526
 20
80.03702015889334
 30
0.0
 11
-581.594494388606
 21
79.03702110323806
 31
0.0
  0
LINE
  5
4962
330
D1
100
AcDbEntity
  8
0
100
AcDbLine
 10
-433.483567374802
 20
29.31608096150953
 30
0.0
 11
-421.6046113915435
 21
28.2768069814841
 31
0.0
  0
LINE
  5
4963
330
D1
100
AcDbEntity
  8
0
100
AcDbLine
 10
-409.610915621357
 20
43.09894090395514
 30
0.0
 11
-414.6503510510956
 21
32.29183660718931
 31
0.0
  0
LINE
  5
4964
330
D1
100
AcDbEntity
  8
0
100
AcDbLine
 10
-426.9057752989028
 20
48.00004395533992
 30
0.0
 11
-427.6430449761756
 21
39.57301295830288
 31
0.0
  0
LINE
  5
4965
330
D1
100
AcDbEntity
  8
0
100
AcDbLine
 10
-429.080583765186
 20
46.74441837485969
 30
0.0
 11
-427.0965694083861
 21
45.81925729856934
 31
0.0
  0
LINE
  5
4966
330
D1
100
AcDbEntity
  8
0
100
AcDbLine
 10
-427.6430449761756
 20
39.57301295830288
 30
0.0
 11
-427.9678682152007
 21
35.86026633621927
 31
0.0
  0
LINE
  5
4967
330
D1
100
AcDbEntity
  8
0
100
AcDbLine
 10
-427.643034173896
 20
207.9429241057108
 30
0.0
 11
-427.9678574129247
 21
211.6556707277954
 31
0.0
  0
LINE
  5
4968
330
D1
100
AcDbEntity
  8
0
100
AcDbLine
 10
-426.9057625017885
 20
199.5158703075879
 30
0.0
 11
-427.643034173896
 21
207.9429241057108
 31
0.0
  0
LINE
  5
4969
330
D1
100
AcDbEntity
  8
0
100
AcDbLine
 10
-409.6108944280786
 20
204.4169923674448
 30
0.0
 11
-414.650334694299
 21
215.2241070360809
 31
0.0
  0
LINE
  5
496A
330
D1
100
AcDbEntity
  8
0
100
AcDbLine
 10
-433.4835109703526
 20
218.1998600921773
 30
0.0
 11
-421.604600589264
 21
219.2391300825287
 31
0.0
  0
LINE
  5
496B
330
D1
100
AcDbEntity
  8
0
100
AcDbLine
 10
-429.0805881521264
 20
200.771515595446
 30
0.0
 11
-427.0965589414299
 21
201.6966835982215
 31
0.0
  0
LINE
  5
496C
330
D1
100
AcDbEntity
  8
0
100
AcDbLine
 10
-591.5933015226691
 20
108.0370346493758
 30
0.0
 11
-579.5957137402584
 21
108.0370236816164
 31
0.0
  0
LINE
  5
496D
330
D1
100
AcDbEntity
  8
0
100
AcDbLine
 10
-594.3445069670051
 20
101.6670242733993
 30
0.0
 11
-594.3445069670051
 21
98.71653141451256
 31
0.0
  0
LINE
  5
496E
330
D1
100
AcDbEntity
  8
0
100
AcDbLine
 10
-595.6842326436599
 20
93.71652920849133
 30
0.0
 11
-598.1065864207703
 21
89.5208894679266
 31
0.0
  0
LINE
  5
496F
330
D1
100
AcDbEntity
  8
0
100
AcDbLine
 10
-604.0945069670051
 20
71.53704227877037
 30
0.0
 11
-604.0945069670051
 21
63.32148899507896
 31
0.0
  0
LINE
  5
4970
330
D1
100
AcDbEntity
  8
0
100
AcDbLine
 10
-567.0944993376106
 20
71.53704227877037
 30
0.0
 11
-567.0944993376106
 21
63.32148899507896
 31
0.0
  0
LINE
  5
4971
330
D1
100
AcDbEntity
  8
0
100
AcDbLine
 10
-576.8444993376106
 20
101.6670242733993
 30
0.0
 11
-576.8444993376106
 21
98.71653141451256
 31
0.0
  0
LINE
  5
4972
330
D1
100
AcDbEntity
  8
0
100
AcDbLine
 10
-575.5047694583335
 20
93.71653697561701
 30
0.0
 11
-573.0824214032618
 21
89.52090714592609
 31
0.0
  0
LINE
  5
4973
330
D1
100
AcDbEntity
  8
0
100
AcDbLine
 10
-595.0684355663542
 20
62.3222469891219
 30
0.0
 11
-600.0684316383703
 21
60.50239718229599
 31
0.0
  0
LINE
  5
4974
330
D1
100
AcDbEntity
  8
0
100
AcDbLine
 10
-576.1205713484087
 20
62.32225089112521
 30
0.0
 11
-571.1205537685454
 21
60.50239325607922
 31
0.0
  0
LINE
  5
4975
330
D1
100
AcDbEntity
  8
0
100
AcDbLine
 10
-580.5944993376106
 20
82.03955997896569
 30
0.0
 11
-580.4249665617317
 21
82.03955997896569
 31
0.0
  0
LINE
  5
4976
330
D1
100
AcDbEntity
  8
0
100
AcDbLine
 10
-590.764039742884
 20
82.03955997896569
 30
0.0
 11
-580.5944993376106
 21
82.03955997896569
 31
0.0
  0
LINE
  5
4977
330
D1
100
AcDbEntity
  8
0
100
AcDbLine
 10
-594.4204590305853
 20
97.48635267181938
 30
0.0
 11
-593.7599220173797
 21
84.88255569231872
 31
0.0
  0
LINE
  5
4978
330
D1
100
AcDbEntity
  8
0
100
AcDbLine
 10
-576.7685524936168
 20
97.48634852558675
 30
0.0
 11
-577.4290895068189
 21
84.88255154608609
 31
0.0
  0
LINE
  5
4979
330
D1
100
AcDbEntity
  8
0
100
AcDbLine
 10
-593.0945145963996
 20
79.03955997896568
 30
0.0
 11
-593.0945145963996
 21
65.14132847261802
 31
0.0
  0
LINE
  5
497A
330
D1
100
AcDbEntity
  8
0
100
AcDbLine
 10
-578.0945145963996
 20
79.03955997896568
 30
0.0
 11
-578.0945145963996
 21
65.14132847261802
 31
0.0
  0
LINE
  5
497B
330
D1
100
AcDbEntity
  8
0
100
AcDbLine
 10
-589.5944993376105
 20
79.03704227877037
 30
0.0
 11
-589.5944993376105
 21
82.03955997896569
 31
0.0
  0
LINE
  5
497C
330
D1
100
AcDbEntity
  8
0
100
AcDbLine
 10
-590.5945101660872
 20
80.03701611279515
 30
0.0
 11
-589.5945090873829
 21
79.0370150340917
 31
0.0
  0
LINE
  5
497D
330
D1
100
AcDbEntity
  8
0
100
AcDbLine
 10
-590.5945069670051
 20
80.03702701998131
 30
0.0
 11
-590.5945069670051
 21
82.03955997896569
 31
0.0
  0
LINE
  5
497E
330
D1
100
AcDbEntity
  8
0
100
AcDbLine
 10
-585.5945145963996
 20
79.03704227877037
 30
0.0
 11
-589.5944993376105
 21
79.03704227877037
 31
0.0
  0
LINE
  5
497F
330
D1
100
AcDbEntity
  8
0
100
AcDbLine
 10
-580.5944993376106
 20
124.0370422787703
 30
0.0
 11
-590.5945069670051
 21
124.0370422787703
 31
0.0
  0
ARC
  5
4980
330
D1
100
AcDbEntity
  8
0
100
AcDbCircle
 10
-472.0945069670051
 20
123.7579666562117
 30
0.0
 40
101.4999961853027
100
AcDbArc
 50
191.8729169804255
 51
291.0051837873258
  0
ARC
  5
4981
330
D1
100
AcDbEntity
  8
0
100
AcDbCircle
 10
-472.0952400624737
 20
123.758317101919
 30
0.0
 40
101.5007298537026
100
AcDbArc
 50
308.995013205694
 51
51.00498679430597
  0
ARC
  5
4982
330
D1
100
AcDbEntity
  8
0
100
AcDbCircle
 10
-472.0945069670051
 20
123.7579666562117
 30
0.0
 40
101.499996185303
100
AcDbArc
 50
68.98987094931283
 51
168.1270830195745
  0
ARC
  5
4983
330
D1
100
AcDbEntity
  8
0
100
AcDbCircle
 10
-472.0945069670051
 20
123.7579666562117
 30
0.0
 40
87.0
100
AcDbArc
 50
184.4608435044661
 51
297.6355011316341
  0
ARC
  5
4984
330
D1
100
AcDbEntity
  8
0
100
AcDbCircle
 10
-472.0962438890819
 20
123.7589256863678
 30
0.0
 40
87.00173983983267
100
AcDbArc
 50
302.3651199780447
 51
57.63489347484139
  0
ARC
  5
4985
330
D1
100
AcDbEntity
  8
0
100
AcDbCircle
 10
-472.0945018977508
 20
123.7579633971121
 30
0.0
 40
87.00000530738469
100
AcDbArc
 50
62.36448657459325
 51
175.5391546153272
  0
ARC
  5
4986
330
D1
100
AcDbEntity
  8
0
100
AcDbCircle
 10
-561.8218858122199
 20
130.7579742856063
 30
0.0
 40
3.0
100
AcDbArc
 50
270.0000025045208
 51
355.5391538205329
  0
ARC
  5
4987
330
D1
100
AcDbEntity
  8
0
100
AcDbCircle
 10
-561.8218858122199
 20
116.7579590268172
 30
0.0
 40
3.0
100
AcDbArc
 50
4.460846179467102
 51
89.99999749558341
  0
ARC
  5
4988
330
D1
100
AcDbEntity
  8
0
100
AcDbCircle
 10
-574.358865487513
 20
102.2579742856063
 30
0.0
 40
3.0
100
AcDbArc
 50
11.87291282526973
 51
89.99999749558341
  0
ARC
  5
4989
330
D1
100
AcDbEntity
  8
0
100
AcDbCircle
 10
-574.358865487513
 20
145.2579590268172
 30
0.0
 40
3.0
100
AcDbArc
 50
270.0000025045208
 51
348.1270871747303
  0
ARC
  5
498A
330
D1
100
AcDbEntity
  8
0
100
AcDbCircle
 10
-593.0945145963996
 20
118.7579742856063
 30
0.0
 40
1.000000029802322
100
AcDbArc
 50
89.99999749558341
 51
180.0
  0
ARC
  5
498B
330
D1
100
AcDbEntity
  8
0
100
AcDbCircle
 10
-593.0945145963996
 20
128.7579590268172
 30
0.0
 40
1.000000029802322
100
AcDbArc
 50
180.0
 51
270.0000025045208
  0
ARC
  5
498C
330
D1
100
AcDbEntity
  8
0
100
AcDbCircle
 10
-593.0945145963996
 20
141.2579742856063
 30
0.0
 40
1.000000029802322
100
AcDbArc
 50
89.99999749558341
 51
180.0
  0
CIRCLE
  5
498D
330
D1
100
AcDbEntity
  8
0
100
AcDbCircle
 10
-585.5945145963996
 20
135.0079666562117
 30
0.0
 40
3.0
  0
ARC
  5
498E
330
D1
100
AcDbEntity
  8
0
100
AcDbCircle
 10
-433.9193513273567
 20
24.33510746431725
 30
0.0
 40
4.99999988079071
100
AcDbArc
 50
84.99999849477507
 51
111.0051856086053
  0
ARC
  5
498F
330
D1
100
AcDbEntity
  8
0
100
AcDbCircle
 10
-405.0793702482551
 20
40.98584904146568
 30
0.0
 40
4.99999988079071
100
AcDbArc
 50
128.9948110520774
 51
154.999999873482
  0
CIRCLE
  5
4990
330
D1
100
AcDbEntity
  8
0
100
AcDbCircle
 10
-420.9944856047004
 20
35.25016178560631
 30
0.0
 40
3.099999904632568
  0
ARC
  5
4991
330
D1
100
AcDbEntity
  8
0
100
AcDbCircle
 10
-423.917215096888
 20
47.73859562349693
 30
0.0
 40
3.0
100
AcDbArc
 50
122.3644937077421
 51
175.0000001454468
  0
ARC
  5
4992
330
D1
100
AcDbEntity
  8
0
100
AcDbCircle
 10
-430.3484284757941
 20
44.02549137545006
 30
0.0
 40
3.0
100
AcDbArc
 50
64.9999956615079
 51
117.6355029528518
  0
ARC
  5
4993
330
D1
100
AcDbEntity
  8
0
100
AcDbCircle
 10
-420.994492784499
 20
35.25017640910969
 30
0.0
 40
7.000012472611931
100
AcDbArc
 50
175.0000111675321
 51
334.8665304077226
  0
ARC
  5
4994
330
D1
100
AcDbEntity
  8
0
100
AcDbCircle
 10
-420.9944856047004
 20
212.2657600827254
 30
0.0
 40
6.99999976158142
100
AcDbArc
 50
59.9999966607139
 51
95.00000332642413
  0
ARC
  5
4995
330
D1
100
AcDbEntity
  8
0
100
AcDbCircle
 10
-405.0793702482551
 20
206.5300728268661
 30
0.0
 40
4.99999988079071
100
AcDbArc
 50
205.000000126518
 51
231.0051889479225
  0
ARC
  5
4996
330
D1
100
AcDbEntity
  8
0
100
AcDbCircle
 10
-433.9193513273567
 20
223.1808258481063
 30
0.0
 40
4.99999988079071
100
AcDbArc
 50
248.9948143913947
 51
275.0000015052249
  0
ARC
  5
4997
330
D1
100
AcDbEntity
  8
0
100
AcDbCircle
 10
-423.917215096888
 20
199.7773491330184
 30
0.0
 40
3.0
100
AcDbArc
 50
184.9999998545532
 51
237.6355062922578
  0
CIRCLE
  5
4998
330
D1
100
AcDbEntity
  8
0
100
AcDbCircle
 10
-420.9944856047004
 20
212.2657600827254
 30
0.0
 40
3.099999904632568
  0
ARC
  5
4999
330
D1
100
AcDbEntity
  8
0
100
AcDbCircle
 10
-420.9944785751649
 20
212.2657458282386
 30
0.0
 40
7.000014574493631
100
AcDbArc
 50
95.00005047611031
 51
184.9998655060803
  0
ARC
  5
499A
330
D1
100
AcDbEntity
  8
0
100
AcDbCircle
 10
-430.3484284757941
 20
203.4904304928817
 30
0.0
 40
3.0
100
AcDbArc
 50
242.3644970471482
 51
295.0000043384921
  0
ARC
  5
499B
330
D1
100
AcDbEntity
  8
0
100
AcDbCircle
 10
-420.9944856047004
 20
212.2657600827254
 30
0.0
 40
6.99999976158142
100
AcDbArc
 50
24.99998999493051
 51
59.9999966607139
  0
ARC
  5
499C
330
D1
100
AcDbEntity
  8
0
100
AcDbCircle
 10
-585.5945145963996
 20
101.6670242733993
 30
0.0
 40
8.750000238418579
100
AcDbArc
 50
133.2810177186031
 51
179.9999974954792
  0
ARC
  5
499D
330
D1
100
AcDbEntity
  8
0
100
AcDbCircle
 10
-585.5945145963996
 20
101.6670242733993
 30
0.0
 40
8.750000238418579
100
AcDbArc
 50
0.0000086513888259
 51
46.71898068761521
  0
ARC
  5
499E
330
D1
100
AcDbEntity
  8
0
100
AcDbCircle
 10
-597.0944993376106
 20
71.53704227877037
 30
0.0
 40
30.0
100
AcDbArc
 50
0.0000086513888259
 51
36.83139393945178
  0
ARC
  5
499F
330
D1
100
AcDbEntity
  8
0
100
AcDbCircle
 10
-574.0945069670051
 20
71.53704227877037
 30
0.0
 40
30.0
100
AcDbArc
 50
143.1686044668285
 51
179.9999974954792
  0
ARC
  5
49A0
330
D1
100
AcDbEntity
  8
0
100
AcDbCircle
 10
-601.0945069670051
 20
63.32148899507896
 30
0.0
 40
3.0
100
AcDbArc
 50
179.9999974954792
 51
289.9999985075967
  0
ARC
  5
49A1
330
D1
100
AcDbEntity
  8
0
100
AcDbCircle
 10
-570.0944993376106
 20
63.32148899507896
 30
0.0
 40
3.0
100
AcDbArc
 50
249.999999671165
 51
0.0000050089374039
  0
ARC
  5
49A2
330
D1
100
AcDbEntity
  8
0
100
AcDbCircle
 10
-566.8445145963996
 20
98.71653141451256
 30
0.0
 40
9.99999976158142
100
AcDbArc
 50
179.9999974954792
 51
209.9999974197719
  0
ARC
  5
49A3
330
D1
100
AcDbEntity
  8
0
100
AcDbCircle
 10
-604.3445145963996
 20
98.71653141451256
 30
0.0
 40
9.99999976158142
100
AcDbArc
 50
329.9999973439473
 51
0.0000050089374039
  0
ARC
  5
49A4
330
D1
100
AcDbEntity
  8
0
100
AcDbCircle
 10
-580.4249665617317
 20
85.03955997896568
 30
0.0
 40
3.0
100
AcDbArc
 50
270.0000025045208
 51
356.9999946801711
  0
ARC
  5
49A5
330
D1
100
AcDbEntity
  8
0
100
AcDbCircle
 10
-590.764039742884
 20
85.03955997896568
 30
0.0
 40
3.0
100
AcDbArc
 50
183.0000009372407
 51
270.0000025045208
  0
ARC
  5
49A6
330
D1
100
AcDbEntity
  8
0
100
AcDbCircle
 10
-590.0945145963996
 20
79.03955997896568
 30
0.0
 40
3.0
100
AcDbArc
 50
89.99999749558341
 51
179.9999974954792
  0
ARC
  5
49A7
330
D1
100
AcDbEntity
  8
0
100
AcDbCircle
 10
-581.0945145963996
 20
79.03955997896568
 30
0.0
 40
3.0
100
AcDbArc
 50
0.0000086513888259
 51
90.00000432577257
  0
ARC
  5
49A8
330
D1
100
AcDbEntity
  8
0
100
AcDbCircle
 10
-575.0945145963997
 20
65.14132847261802
 30
0.0
 40
3.0
100
AcDbArc
 50
179.9999974954792
 51
249.999999671165
  0
ARC
  5
49A9
330
D1
100
AcDbEntity
  8
0
100
AcDbCircle
 10
-596.0945145963997
 20
65.14132847261802
 30
0.0
 40
3.0
100
AcDbArc
 50
289.9999985075967
 51
0.0000050089374039
  0
SPLINE
  5
49AA
330
D1
100
AcDbEntity
  8
0
100
AcDbSpline
210
0.0
220
0.0
230
1.0
 70
  1064
 71
     3
 72
     8
 73
     4
 74
     2
 42
0.000000001
 43
0.0000000001
 44
0.0000000001
 12
-0.8522434547228019
 22
0.5231453850337813
 32
0.0
 13
-0.8736419628916451
 23
0.4865693379928837
 33
0.0
 40
0.0
 40
0.0
 40
0.0
 40
0.0
 40
0.840023761866945
 40
0.840023761866945
 40
0.840023761866945
 40
0.840023761866945
 10
-577.0945069670051
 20
105.2579742856063
 30
0.0
 10
-577.333141884626
 20
105.4044591370528
 30
0.0
 10
-577.5749149802623
 20
105.5459533991056
 30
0.0
 10
-577.81954164966
 20
105.6821966676755
 30
0.0
 11
-577.0945069670051
 21
105.2579742856063
 31
0.0
 11
-577.81954164966
 21
105.6821966676755
 31
0.0
  0
SPLINE
  5
49AB
330
D1
100
AcDbEntity
  8
0
100
AcDbSpline
210
0.0
220
0.0
230
1.0
 70
  1064
 71
     3
 72
     8
 73
     4
 74
     2
 42
0.000000001
 43
0.0000000001
 44
0.0000000001
 12
-0.8736416517914163
 22
-0.4865698965772193
 32
0.0
 13
-0.8522434547228019
 23
-0.5231453850337813
 33
0.0
 40
0.0
 40
0.0
 40
0.0
 40
0.0
 40
0.8400232031353302
 40
0.8400232031353302
 40
0.8400232031353302
 40
0.8400232031353302
 10
-593.3694652833001
 20
105.6821966352011
 30
0.0
 10
-593.6140917028768
 20
105.5459533008438
 30
0.0
 10
-593.8558645787147
 20
105.4044590396201
 30
0.0
 10
-594.0944993376105
 20
105.2579742856063
 30
0.0
 11
-593.3694652833001
 21
105.6821966352011
 31
0.0
 11
-594.0944993376105
 21
105.2579742856063
 31
0.0
  0
ARC
  5
49AC
330
D1
100
AcDbEntity
  8
0
100
AcDbCircle
 10
-472.0945069670051
 20
123.7579666472541
 30
0.0
 40
117.499999989194
100
AcDbArc
 50
202.0557207652357
 51
205.5608279433734
  0
ARC
  5
49AD
330
D1
100
AcDbEntity
  8
0
100
AcDbCircle
 10
-472.0945069670051
 20
123.7579666472541
 30
0.0
 40
117.499999989194
100
AcDbArc
 50
212.5695005092956
 51
94.39028500316759
  0
ARC
  5
49AE
330
D1
100
AcDbEntity
  8
0
100
AcDbCircle
 10
-472.0945069670051
 20
123.7579666472541
 30
0.0
 40
117.499999989194
100
AcDbArc
 50
99.80018954003046
 51
170.9412729611313
  0
ARC
  5
49AF
330
D1
100
AcDbEntity
  8
0
100
AcDbCircle
 10
-523.3445069676963
 20
34.99036276710226
 30
0.0
 40
9.000000000013415
100
AcDbArc
 50
141.1138267762242
 51
338.8861732237367
  0
ARC
  5
49B0
330
D1
100
AcDbEntity
  8
0
100
AcDbCircle
 10
-420.8445069663066
 20
34.99036276710226
 30
0.0
 40
9.000000000013415
100
AcDbArc
 50
223.6313590097773
 51
16.36862172749455
  0
ARC
  5
49B1
330
D1
100
AcDbEntity
  8
0
100
AcDbCircle
 10
-369.5945069656155
 20
123.7579666562099
 30
0.0
 40
9.000000000013413
100
AcDbArc
 50
261.1138267761722
 51
98.88617322382776
  0
ARC
  5
49B2
330
D1
100
AcDbEntity
  8
0
100
AcDbCircle
 10
-420.8445069663066
 20
212.5255705453213
 30
0.0
 40
9.000000000013415
100
AcDbArc
 50
343.6313782725055
 51
136.3686409902227
  0
ARC
  5
49B3
330
D1
100
AcDbEntity
  8
0
100
AcDbCircle
 10
-523.3445069658627
 20
212.5255705463818
 30
0.0
 40
9.000000000013415
100
AcDbArc
 50
21.1138267750934
 51
218.8861732225884
  0
LINE
  5
49B4
330
D1
100
AcDbEntity
  8
0
100
AcDbLine
 10
-489.594507171103
 20
228.2576671127111
 30
0.0
 11
-489.5945071955902
 21
223.7379607431097
 31
0.0
  0
ARC
  5
49B5
330
D1
100
AcDbEntity
  8
0
100
AcDbCircle
 10
-489.0945071711066
 20
228.2576672328208
 30
0.0
 40
0.5
100
AcDbArc
 50
90.00000284865661
 51
180.0000053531774
  0
LINE
  5
49B6
330
D1
100
AcDbEntity
  8
0
100
AcDbLine
 10
-489.0945071711066
 20
228.7576672328208
 30
0.0
 11
-455.0945070449743
 21
228.757667240526
 31
0.0
  0
ARC
  5
49B7
330
D1
100
AcDbEntity
  8
0
100
AcDbCircle
 10
-455.0945070449743
 20
228.257667240526
 30
0.0
 40
0.5
100
AcDbArc
 50
359.9999906670618
 51
90.0
  0
LINE
  5
49B8
330
D1
100
AcDbEntity
  8
0
100
AcDbLine
 10
-454.5945072803806
 20
228.2576672178414
 30
0.0
 11
-454.5945072287431
 21
223.7379608289333
 31
0.0
  0
LINE
  5
49B9
330
D1
100
AcDbEntity
  8
0
100
AcDbLine
 10
-492.0945069670015
 20
241.5873430560926
 30
0.0
 11
-492.0945061466118
 21
238.7878509304713
 31
0.0
  0
LINE
  5
49BA
330
D1
100
AcDbEntity
  8
0
100
AcDbLine
 10
-452.6245061466106
 20
238.2578509304706
 30
0.0
 11
-491.5645061466129
 21
238.2578509304706
 31
0.0
  0
ARC
  5
49BB
330
D1
100
AcDbEntity
  8
0
100
AcDbCircle
 10
-491.5645061466129
 20
238.7878509304713
 30
0.0
 40
0.5300000000000001
100
AcDbArc
 50
180.0
 51
270.0
  0
LINE
  5
49BC
330
D1
100
AcDbEntity
  8
0
100
AcDbLine
 10
-452.0945061466127
 20
241.5873430560935
 30
0.0
 11
-452.0945061466118
 21
238.7878509304713
 31
0.0
  0
ARC
  5
49BD
330
D1
100
AcDbEntity
  8
0
100
AcDbCircle
 10
-452.6245061466106
 20
238.7878509304713
 30
0.0
 40
0.5300000000000001
100
AcDbArc
 50
270.0
 51
0.0
  0
LINE
  5
49BE
330
D1
100
AcDbEntity
  8
0
100
AcDbLine
 10
-454.5945885807086
 20
231.7575962645582
 30
0.0
 11
-466.0945691897504
 21
231.7574292422554
 31
0.0
  0
LINE
  5
49BF
330
D1
100
AcDbEntity
  8
0
100
AcDbLine
 10
-489.5944893076957
 20
238.2574754394294
 30
0.0
 11
-489.5944831551169
 21
228.7576456932123
 31
0.0
  0
LINE
  5
49C0
330
D1
100
AcDbEntity
  8
0
100
AcDbLine
 10
-454.5946363910298
 20
238.257664137894
 30
0.0
 11
-454.5945851727956
 21
228.7576887800727
 31
0.0
  0
LINE
  5
49C1
330
D1
100
AcDbEntity
  8
0
100
AcDbLine
 10
-454.5945301346655
 20
228.7576456932105
 30
0.0
 11
-489.5944840814154
 21
228.7576887801364
 31
0.0
  0
LINE
  5
49C2
330
D1
100
AcDbEntity
  8
0
100
AcDbLine
 10
-454.5945959648197
 20
238.2576641381123
 30
0.0
 11
-489.5944893076957
 21
238.2574754394294
 31
0.0
  0
LINE
  5
49C3
330
D1
100
AcDbEntity
  8
0
100
AcDbLine
 10
-478.0944029826314
 20
231.7575510312011
 30
0.0
 11
-478.0944465521606
 21
228.7576598504087
 31
0.0
  0
LINE
  5
49C4
330
D1
100
AcDbEntity
  8
0
100
AcDbLine
 10
-466.0945691915185
 20
231.7575510312011
 30
0.0
 11
-466.0945256219893
 21
228.7576598504087
 31
0.0
  0
LINE
  5
49C5
330
D1
100
AcDbEntity
  8
0
100
AcDbLine
 10
-478.0944029826314
 20
231.7575510312011
 30
0.0
 11
-489.5944889294078
 21
231.7575288953879
 31
0.0
  0
LINE
  5
49C6
330
D1
100
AcDbEntity
  8
0
100
AcDbLine
 10
-472.0945069670015
 20
123.7579666562117
 30
0.0
 11
-472.0945069670015
 21
305.9579666562116
 31
0.0
  0
ENDSEC
  0
SECTION
  2
OBJECTS
  0
DICTIONARY
  5
144B
330
0
100
AcDbDictionary
281
     1
  3
ACAD_BACKGROUND
350
15E4
  3
ACAD_CIP_PREVIOUS_PRODUCT_INFO
350
14A7
  3
ACAD_COLOR
350
1485
  3
ACAD_DETAILVIEWSTYLE
350
2B6B
  3
ACAD_FIELDLIST
350
2C03
  3
ACAD_GROUP
350
144C
  3
ACAD_LAYOUT
350
149D
  3
ACAD_MATERIAL
350
1453
  3
ACAD_MLEADERSTYLE
350
149A
  3
ACAD_MLINESTYLE
350
144D
  3
ACAD_PLOTSETTINGS
350
149E
  3
ACAD_PLOTSTYLENAME
350
1451
  3
ACAD_SCALELIST
350
1488
  3
ACAD_SECTIONVIEWSTYLE
350
2B69
  3
ACAD_TABLESTYLE
350
1486
  3
ACAD_VISUALSTYLE
350
146C
  3
ACDB_RECOMPOSE_DATA
350
4A2A
  3
AcDbVariableDictionary
350
15F3
  3
AcDsDecomposeData
350
4A30
  3
ACGREF_MASTER
350
2BAE
  3
ACGREFACAD_MASTER
350
2BB1
  3
AcmDictionary
350
151A
  3
ACME_COMMAND_HISTORY
350
2BA7
  3
ACME_SCOPE_NAME
350
2BA6
  3
ACMESTATEMGR
350
2BAA
  3
AcmeSysVarManager
350
2BA8
  3
AcmSystemVariableManager
350
2BB6
  3
AEC_PROPERTY_SET_DEFS
350
1A10
  3
AMG
350
14A9
  3
AMGSNAPSETTINGS
350
15B1
  3
AMI_MASTER
350
2BB2
  3
AUTOCAD_ASSEMBLIES_PROJECT
350
2BBF
  3
Designer_Assemblies_SysVars
350
2BB9
  3
GREFAM_MODULE
350
2BB5
  3
StructToggleButtonState
350
2FEE
  0
DICTIONARY
  5
1A2C
330
E2
100
AcDbDictionary
280
     1
281
     1
  0
DICTIONARY
  5
1A02
330
C8
100
AcDbDictionary
280
     1
281
     1
  3
ACAD_LAYERSTATES
360
1A03
  0
DICTIONARY
  5
15EF
330
C9
100
AcDbDictionary
280
     1
281
     1
  3
ADSK_XREC_LAYER_RECONCILED
360
15F0
  0
DICTIONARY
  5
2C2C
330
2C2B
100
AcDbDictionary
280
     1
281
     1
  0
DICTIONARY
  5
3C26
330
3C25
100
AcDbDictionary
280
     1
281
     1
  0
DICTIONARY
  5
179F
330
D1
100
AcDbDictionary
280
     1
281
     1
  3
ACAD_SORTENTS
360
17A0
  0
DICTIONARY
  5
15E4
102
{ACAD_REACTORS
330
144B
102
}
330
144B
100
AcDbDictionary
281
     1
  0
XRECORD
  5
14A7
102
{ACAD_REACTORS
330
144B
102
}
330
144B
100
AcDbXrecord
280
     1
300
ACD
300
2022
300

  0
DICTIONARY
  5
1485
102
{ACAD_REACTORS
330
144B
102
}
330
144B
100
AcDbDictionary
281
     1
  0
DICTIONARY
  5
2B6B
102
{ACAD_REACTORS
330
144B
102
}
330
144B
100
AcDbDictionary
281
     1
  3
Imperial24
350
2C4B
  3
ISO 128-34_2001
350
2BFD
  3
ISO 128-34_2001(1)
350
2C4C
  3
Metric50
350
2B6C
  3
TSK_ JIS Z 8316 _ 1999
350
2C4D
  0
FIELDLIST
  5
2C03
102
{ACAD_REACTORS
330
144B
102
}
330
144B
100
AcDbIdSet
 90
        9
330
2C01
330
2C02
330
2C04
330
2C42
330
2C43
330
2C44
330
2C48
330
2C49
330
2C4A
100
AcDbFieldList
  0
DICTIONARY
  5
144C
102
{ACAD_REACTORS
330
144B
102
}
330
144B
100
AcDbDictionary
281
     1
  0
DICTIONARY
  5
149D
102
{ACAD_REACTORS
330
144B
102
}
330
144B
100
AcDbDictionary
281
     1
  3
Model
350
149F
  3
レイアウト1
350
14A0
  0
DICTIONARY
  5
1453
102
{ACAD_REACTORS
330
144B
102
}
330
144B
100
AcDbDictionary
281
     1
  3
ByBlock
350
145C
  3
ByLayer
350
1454
  3
Global
350
1464
  0
DICTIONARY
  5
149A
102
{ACAD_REACTORS
330
144B
102
}
330
144B
100
AcDbDictionary
281
     1
  3
Standard
350
149B
  0
DICTIONARY
  5
144D
102
{ACAD_REACTORS
330
144B
102
}
330
144B
100
AcDbDictionary
281
     1
  3
STANDARD
350
144E
  0
DICTIONARY
  5
149E
102
{ACAD_REACTORS
330
144B
102
}
330
144B
100
AcDbDictionary
281
     1
  0
ACDBDICTIONARYWDFLT
  5
1451
102
{ACAD_REACTORS
330
144B
102
}
330
144B
100
AcDbDictionary
281
     1
  3
Normal
350
1452
100
AcDbDictionaryWithDefault
340
1452
  0
DICTIONARY
  5
1488
102
{ACAD_REACTORS
330
144B
102
}
330
144B
100
AcDbDictionary
281
     1
  3
A0
350
1489
  3
A1
350
148A
  3
A2
350
148B
  3
A3
350
148C
  3
A4
350
148D
  3
A5
350
148E
  3
A6
350
148F
  3
A7
350
1490
  3
A8
350
1491
  3
A9
350
1492
  3
B0
350
1493
  3
B1
350
1494
  3
B2
350
1495
  3
B3
350
1496
  3
B4
350
1497
  3
B5
350
1498
  3
B6
350
1499
  0
DICTIONARY
  5
2B69
102
{ACAD_REACTORS
330
144B
102
}
330
144B
100
AcDbDictionary
281
     1
  3
Imperial24
350
2C3E
  3
ISO 128-40_2001(E)
350
2BFE
  3
ISO 128-40_2001(E)(1)
350
2C3F
  3
Metric50
350
2B6A
  3
TSK_ JIS  B 0001 _ 2000
350
2C45
  0
DICTIONARY
  5
1486
102
{ACAD_REACTORS
330
144B
102
}
330
144B
100
AcDbDictionary
281
     1
  3
Standard
350
1487
  0
DICTIONARY
  5
146C
102
{ACAD_REACTORS
330
144B
102
}
330
144B
100
AcDbDictionary
281
     1
  3
2dWireframe
350
1472
  3
3D Hidden
350
2B5D
  3
3dWireframe
350
2B5C
  3
Basic
350
1471
  3
Brighten
350
1478
  3
ColorChange
350
147C
  3
Conceptual
350
1475
  3
Dim
350
1477
  3
EdgeColorOff
350
1484
  3
Facepattern
350
147B
  3
Flat
350
146D
  3
FlatWithEdges
350
146E
  3
Gouraud
350
146F
  3
GouraudWithEdges
350
1470
  3
Hidden
350
1474
  3
JitterOff
350
1482
  3
Linepattern
350
147A
  3
OverhangOff
350
1483
  3
Realistic
350
1476
  3
Shaded
350
1481
  3
Shaded with edges
350
1480
  3
Shades of Gray
350
147D
  3
Sketchy
350
147E
  3
Thicken
350
1479
  3
Wireframe
350
1473
  3
X-Ray
350
147F
  0
XRECORD
  5
4A2A
102
{ACAD_REACTORS
330
144B
102
}
330
144B
100
AcDbXrecord
280
     1
 90
        1
330
1487
  0
DICTIONARY
  5
15F3
102
{ACAD_REACTORS
330
144B
102
}
330
144B
100
AcDbDictionary
281
     1
  3
CANNOSCALE
350
15F7
  3
CMLEADERSTYLE
350
15F5
  3
CTABLESTYLE
350
15F4
  3
CVIEWDETAILSTYLE
350
2B81
  3
CVIEWSECTIONSTYLE
350
2B82
  3
DIMASSOC
350
1A68
  3
INDEXCTL
350
1A67
  3
LAYEREVAL
350
15F9
  3
LAYERNOTIFY
350
15FA
  3
LIGHTINGUNITS
350
15F8
  3
MSLTSCALE
350
15F6
  3
SOLIDHIST
350
2B83
  3
SORTENTS
350
1A66
  0
DICTIONARY
  5
4A30
102
{ACAD_REACTORS
330
144B
102
}
330
144B
100
AcDbDictionary
281
     1
  3
AcDsRecords
350
4A32
  3
AcDsSchemas
350
4A31
1001
ACAD
1070
     2
  0
ACAD_PROXY_OBJECT
  5
2BAE
102
{ACAD_REACTORS
330
144B
102
}
330
144B
100
AcDbProxyObject
 90
      499
 91
      512
 95
 11534369
 70
     0
162
                 0
161
                34
310
0C000042CC
 94
        0
  0
ACAD_PROXY_OBJECT
  5
2BB1
102
{ACAD_REACTORS
330
144B
102
}
330
144B
100
AcDbProxyObject
 90
      499
 91
      518
 95
 11534369
 70
     0
162
                 0
161
               114
310
04000041C08000000000000000000C
 94
        0
  0
DICTIONARY
  5
151A
102
{ACAD_REACTORS
330
144B
102
}
330
144B
100
AcDbDictionary
281
     1
  3
AcmBOMDATA
350
2BC8
  3
AcmStdDictionary
350
151B
  0
ACAD_PROXY_OBJECT
  5
2BA7
102
{ACAD_REACTORS
330
144B
102
}
330
144B
100
AcDbProxyObject
 90
      499
 91
      507
 95
 11534369
 70
     0
162
              8396
311
4151401480104014C011401054500520041005300450041134013C0158011401044D004F00560045004311C014801240140017C014C0150014801140150010C012001044D004F00560045004311C014801240140017C014C0150014801140150010C012001184D005300470020002D00200043006F006D006D0061006E0064
311
002000430041004E00430045004C004C00450044002E004151401480104014C011401054500520041005300450041134013C015801140101550041134013C015801140105510053004100560045004C534014C011C008000B4008001400140010400E80080008000800190019401CC01AC01D001BC01C000B8018401C801E0
311
0080011801A401B001940158019401C801CC01A401BC01B800E8008000C800D400B800C000B800D800D000B800C000B800C00105510053004100560045004C534014C011C008000B4008001400140010400E80080008000800190019401CC01AC01D001BC01C000B8018401C801E00080011801A401B001940158019401C80
311
1CC01A401BC01B800E8008000C800D400B800C000B800D800D000B800C000B800C0010455004E0044004F004115401380110013C010455004E0044004F004115401380110013C01085400450058005400450044004900540046134014C011C008000B40080010C01BC01B401B4018401B801900080010C01040138010C0114
311
013001300114011000B80105510053004100560045004C534014C011C008000B4008001400140010400E80080008000800190019401CC01AC01D001BC01C000B8018401C801E00080011801A401B001940158019401C801CC01A401BC01B800E8008000C800D400B800C000B800D800D000B800C000B800C0010843004F005
311
000590043004C004900500041134013C01580114010843004F005000590043004C004900500041134013C015801140105510053004100560045004C534014C011C008000B4008001400140010400E80080008000800190019401CC01AC01D001BC01C000B8018401C801E00080011801A401B001940158019401C801CC01A4
311
01BC01B800E8008000C800D400B800C000B800D800D000B800C000B800C0010843004F005000590043004C004900500041544014C01040158011401314D005300470020002D0020005000500041003A002000200020006400650073006B0074006F0070002E006100720078002000460069006C00650056006500720073006
311
9006F006E003A002000320035002E0030002E00360034002E0030002E0030004115401380110013C010455004E0044004F0041544014C01040158011401314D005300470020002D0020005000500041003A002000200020006400650073006B0074006F0070002E006100720078002000460069006C0065005600650072007
311
30069006F006E003A002000320035002E0030002E00360034002E0030002E003000C
161
               438
310
47806018060180601805010101806018060180501010140404060180601805010101404040601806018050101018050101018060140404
 94
        0
  0
ACAD_PROXY_OBJECT
  5
2BA6
102
{ACAD_REACTORS
330
144B
102
}
330
144B
100
AcDbProxyObject
 90
      499
 91
      506
 95
 11534369
 70
     0
162
                 0
161
               266
310
190000568080000000000000000010C442000000000000000000000000AAA406AA8C
360
2BA9
360
2BB7
360
2BBA
360
2BBB
360
2BBC
360
2BBD
360
2BBE
360
2BC3
360
2BC4
360
2BC5
360
2BC6
360
2BC7
 94
        0
  0
ACAD_PROXY_OBJECT
  5
2BAA
102
{ACAD_REACTORS
330
144B
102
}
330
144B
100
AcDbProxyObject
 90
      499
 91
      510
 95
 11534369
 70
     0
162
                 0
161
                50
310
1900004664128C
 94
        0
  0
ACAD_PROXY_OBJECT
  5
2BA8
102
{ACAD_REACTORS
330
144B
102
}
330
144B
100
AcDbProxyObject
 90
      499
 91
      508
 95
 11534369
 70
     0
162
                 0
161
                32
310
90140A0000
330
2BA9
 94
        0
  0
ACAD_PROXY_OBJECT
  5
2BB6
102
{ACAD_REACTORS
330
144B
102
}
330
144B
100
AcDbProxyObject
 90
      499
 91
      508
 95
 11534369
 70
     0
162
                 0
161
                32
310
90140A0000
330
2BB7
 94
        0
  0
DICTIONARY
  5
1A10
102
{ACAD_REACTORS
330
144B
102
}
330
144B
100
AcDbDictionary
281
     1
  0
DICTIONARY
  5
14A9
102
{ACAD_REACTORS
330
144B
102
}
330
144B
100
AcDbDictionary
281
     1
  3
AcMgSettings
350
2BA2
  3
AMGLAYCFG
350
2BE1
  0
DICTIONARY
  5
15B1
102
{ACAD_REACTORS
330
144B
102
}
330
144B
100
AcDbDictionary
281
     1
  0
ACAD_PROXY_OBJECT
  5
2BB2
102
{ACAD_REACTORS
330
144B
102
}
330
144B
100
AcDbProxyObject
 90
      499
 91
      521
 95
 11534369
 70
     0
162
                 0
161
                34
310
050000428C
 94
        0
  0
ACAD_PROXY_OBJECT
  5
2BBF
102
{ACAD_REACTORS
330
144B
102
}
330
144B
100
AcDbProxyObject
 90
      499
 91
      562
 95
 11534369
 70
     0
162
                 0
161
                98
310
0E000053C0000000000000000C
330
2BC5
330
0
330
2BC6
330
0
330
0
330
0
330
0
330
0
 94
        0
  0
ACAD_PROXY_OBJECT
  5
2BB9
102
{ACAD_REACTORS
330
144B
102
}
330
144B
100
AcDbProxyObject
 90
      499
 91
      508
 95
 11534369
 70
     0
162
                 0
161
                64
310
90541A000000000000
330
2BBA
330
2BBB
330
2BBC
330
2BBD
330
2BBE
 94
        0
  0
ACAD_PROXY_OBJECT
  5
2BB5
102
{ACAD_REACTORS
330
144B
102
}
330
144B
100
AcDbProxyObject
 90
      499
 91
      522
 95
 11534369
 70
     0
162
                 0
161
                 8
310
0500
 94
        0
  0
ACAD_PROXY_OBJECT
  5
2FEE
102
{ACAD_REACTORS
330
144B
102
}
330
144B
100
AcDbProxyObject
 90
      499
 91
      578
 95
 11534369
 70
     0
162
                 0
161
                 1
310
4C
 94
        0
  0
DICTIONARY
  5
1A03
102
{ACAD_REACTORS
330
1A02
102
}
330
1A02
100
AcDbDictionary
281
     1
  0
XRECORD
  5
15F0
102
{ACAD_REACTORS
330
15EF
102
}
330
15EF
100
AcDbXrecord
280
     1
290
     1
  0
SORTENTSTABLE
  5
17A0
102
{ACAD_REACTORS
330
179F
102
}
330
179F
100
AcDbSortentsTable
330
D1
  0
ACDBDETAILVIEWSTYLE
  5
2C4B
102
{ACAD_XDICTIONARY
360
4A3E
102
}
102
{ACAD_REACTORS
330
2E17
330
2B6B
330
2E2A
102
}
330
2B6B
100
AcDbModelDocViewStyle
 70
     0
  3
Imperial24
290
     0
100
AcDbDetailViewStyle
 70
     0
 71
     0
 90
        3
 71
     1
340
23
 62
   256
 40
0.24
340
0
 62
   256
 40
0.24
300

 40
0.36
280
     3
 71
     2
340
28
 90
       25
 62
   256
 71
     3
340
23
 62
   256
 40
0.24
 90
        1
 40
0.75
 90
        1
300
%<\AcVar ViewType \f "%tc1">% %<\AcVar ViewDetailId>%\PSCALE %<\AcVar ViewScale \f "%sn">%
 71
     4
340
28
 90
       25
 62
   256
340
28
 90
       25
 62
   256
280
     0
  0
ACDBDETAILVIEWSTYLE
  5
2BFD
102
{ACAD_XDICTIONARY
360
4A37
102
}
102
{ACAD_REACTORS
330
2BD6
330
2B6B
102
}
330
2B6B
100
AcDbModelDocViewStyle
 70
     0
  3

290
     0
100
AcDbDetailViewStyle
 70
     0
 71
     0
 90
        3
 71
     1
340
23
 62
     7
 40
5.0
340
0
 62
     3
 40
5.0
300

 40
0.0
280
     0
 71
     2
340
28
 90
       25
 62
     3
 71
     3
340
23
 62
     7
 40
5.0
 90
        0
 40
15.0
 90
        1
300
%<\AcVar ViewDetailId>% (%<\AcVar ViewScale \f "%sn">%)
 71
     4
340
28
 90
       25
 62
     3
340
28
 90
       25
 62
     3
280
     0
  0
ACDBDETAILVIEWSTYLE
  5
2C4C
102
{ACAD_XDICTIONARY
360
4A40
102
}
102
{ACAD_REACTORS
330
2E18
330
2B6B
330
2E2B
102
}
330
2B6B
100
AcDbModelDocViewStyle
 70
     0
  3

290
     0
100
AcDbDetailViewStyle
 70
     0
 71
     0
 90
        3
 71
     1
340
23
 62
     2
 40
3.5
340
0
 62
     3
 40
3.5
300

 40
0.0
280
     0
 71
     2
340
28
 90
       25
 62
   256
 71
     3
340
23
 62
     2
 40
3.5
 90
        0
 40
0.0
 90
        1
300
%<\AcVar ViewDetailId>% (%<\AcVar ViewScale \f "%sn">%)
 71
     4
340
28
 90
       25
 62
   256
340
28
 90
       25
 62
   256
280
     0
  0
ACDBDETAILVIEWSTYLE
  5
2B6C
102
{ACAD_XDICTIONARY
360
4A35
102
}
102
{ACAD_REACTORS
330
2B6B
330
2BF7
102
}
330
2B6B
100
AcDbModelDocViewStyle
 70
     0
  3
Metric50
290
     0
100
AcDbDetailViewStyle
 70
     0
 71
     0
 90
        3
 71
     1
340
23
 62
   256
 40
5.0
340
0
 62
   256
 40
5.0
300

 40
0.0
280
     1
 71
     2
340
28
 90
       25
 62
   256
 71
     3
340
23
 62
   256
 40
5.0
 90
        0
 40
15.0
 90
        1
300
%<\AcVar ViewDetailId>% (%<\AcVar ViewScale \f "%sn">%)
 71
     4
340
28
 90
       25
 62
   256
340
28
 90
       25
 62
   256
280
     0
  0
ACDBDETAILVIEWSTYLE
  5
2C4D
102
{ACAD_XDICTIONARY
360
4A42
102
}
102
{ACAD_REACTORS
330
2E15
330
2B6B
102
}
330
2B6B
100
AcDbModelDocViewStyle
 70
     0
  3

290
     0
100
AcDbDetailViewStyle
 70
     0
 71
     0
 90
        3
 71
     1
340
2C2E
 62
     7
 40
4.5
340
2C23
 62
   256
 40
4.5
300

 40
0.0
280
     0
 71
     2
340
28
 90
       25
 62
   256
 71
     3
340
2C2E
 62
     7
 40
4.5
 90
        0
 40
0.0
 90
        1
300
%<\AcVar ViewDetailId>% (%<\AcVar ViewScale \f "%sn">%)
 71
     4
340
28
 90
       25
 62
   256
340
28
 90
       25
 62
   256
280
     0
  0
LAYOUT
  5
149F
102
{ACAD_XDICTIONARY
360
21E0
102
}
102
{ACAD_REACTORS
330
149D
102
}
330
149D
100
AcDbPlotSettings
  1

  2
iR C4580
  4

  6

 40
0.0
 41
0.0
 42
0.0
 43
0.0
 44
0.0
 45
0.0
 46
0.0
 47
0.0
 48
0.0
 49
0.0
140
0.0
141
0.0
142
1.0
143
1.0
 70
  1712
 72
     0
 73
     0
 74
     0
  7

 75
     0
147
1.0
 76
     0
 77
     2
 78
   300
148
0.0
149
0.0
100
AcDbLayout
  1
Model
 70
     1
 71
     0
 10
0.0
 20
0.0
 11
12.0
 21
9.0
 12
0.0
 22
0.0
 32
0.0
 14
0.0
 24
0.0
 34
0.0
 15
0.0
 25
0.0
 35
0.0
146
0.0
 13
0.0
 23
0.0
 33
0.0
 16
1.0
 26
0.0
 36
0.0
 17
0.0
 27
1.0
 37
0.0
 76
     0
330
D1
331
14A6
  0
LAYOUT
  5
14A0
102
{ACAD_REACTORS
330
149D
102
}
330
149D
100
AcDbPlotSettings
  1

  2
iR C4580
  4

  6

 40
0.0
 41
0.0
 42
0.0
 43
0.0
 44
0.0
 45
0.0
 46
0.0
 47
0.0
 48
0.0
 49
0.0
140
0.0
141
0.0
142
1.0
143
1.0
 70
   688
 72
     0
 73
     0
 74
     5
  7

 75
    16
147
1.0
 76
     0
 77
     2
 78
   300
148
0.0
149
0.0
100
AcDbLayout
  1
レイアウト1
 70
     1
 71
     1
 10
-2550.0
 20
0.0
 11
0.0
 21
1800.0
 12
0.0
 22
0.0
 32
0.0
 14
-2550.0
 24
0.0
 34
0.0
 15
0.0
 25
1800.0
 35
0.0
146
0.0
 13
0.0
 23
0.0
 33
0.0
 16
1.0
 26
0.0
 36
0.0
 17
0.0
 27
1.0
 37
0.0
 76
     0
330
D2
  0
MATERIAL
  5
145C
102
{ACAD_XDICTIONARY
360
145D
102
}
102
{ACAD_REACTORS
330
1453
102
}
330
1453
100
AcDbMaterial
  1
ByBlock
 72
     0
 43
0.0208333333333333
 43
0.0
 43
0.0
 43
0.0
 43
0.0
 43
0.0208333333333333
 43
0.0
 43
0.0
 43
0.0
 43
0.0
 43
1.0
 43
0.0
 43
0.0
 43
0.0
 43
0.0
 43
1.0
 77
     0
 47
0.0208333333333333
 47
0.0
 47
0.0
 47
0.0
 47
0.0
 47
0.0208333333333333
 47
0.0
 47
0.0
 47
0.0
 47
0.0
 47
1.0
 47
0.0
 47
0.0
 47
0.0
 47
0.0
 47
1.0
171
     0
 49
0.0208333333333333
 49
0.0
 49
0.0
 49
0.0
 49
0.0
 49
0.0208333333333333
 49
0.0
 49
0.0
 49
0.0
 49
0.0
 49
1.0
 49
0.0
 49
0.0
 49
0.0
 49
0.0
 49
1.0
175
     0
142
0.0208333333333333
142
0.0
142
0.0
142
0.0
142
0.0
142
0.0208333333333333
142
0.0
142
0.0
142
0.0
142
0.0
142
1.0
142
0.0
142
0.0
142
0.0
142
0.0
142
1.0
179
     0
144
0.0208333333333333
144
0.0
144
0.0
144
0.0
144
0.0
144
0.0208333333333333
144
0.0
144
0.0
144
0.0
144
0.0
144
1.0
144
0.0
144
0.0
144
0.0
144
0.0
144
1.0
147
0.0208333333333333
147
0.0
147
0.0
147
0.0
147
0.0
147
0.0208333333333333
147
0.0
147
0.0
147
0.0
147
0.0
147
1.0
147
0.0
147
0.0
147
0.0
147
0.0
147
1.0
  0
MATERIAL
  5
1454
102
{ACAD_XDICTIONARY
360
1455
102
}
102
{ACAD_REACTORS
330
1453
102
}
330
1453
100
AcDbMaterial
  1
ByLayer
 72
     0
 43
0.0208333333333333
 43
0.0
 43
0.0
 43
0.0
 43
0.0
 43
0.0208333333333333
 43
0.0
 43
0.0
 43
0.0
 43
0.0
 43
1.0
 43
0.0
 43
0.0
 43
0.0
 43
0.0
 43
1.0
 77
     0
 47
0.0208333333333333
 47
0.0
 47
0.0
 47
0.0
 47
0.0
 47
0.0208333333333333
 47
0.0
 47
0.0
 47
0.0
 47
0.0
 47
1.0
 47
0.0
 47
0.0
 47
0.0
 47
0.0
 47
1.0
171
     0
 49
0.0208333333333333
 49
0.0
 49
0.0
 49
0.0
 49
0.0
 49
0.0208333333333333
 49
0.0
 49
0.0
 49
0.0
 49
0.0
 49
1.0
 49
0.0
 49
0.0
 49
0.0
 49
0.0
 49
1.0
175
     0
142
0.0208333333333333
142
0.0
142
0.0
142
0.0
142
0.0
142
0.0208333333333333
142
0.0
142
0.0
142
0.0
142
0.0
142
1.0
142
0.0
142
0.0
142
0.0
142
0.0
142
1.0
179
     0
144
0.0208333333333333
144
0.0
144
0.0
144
0.0
144
0.0
144
0.0208333333333333
144
0.0
144
0.0
144
0.0
144
0.0
144
1.0
144
0.0
144
0.0
144
0.0
144
0.0
144
1.0
147
0.0208333333333333
147
0.0
147
0.0
147
0.0
147
0.0
147
0.0208333333333333
147
0.0
147
0.0
147
0.0
147
0.0
147
1.0
147
0.0
147
0.0
147
0.0
147
0.0
147
1.0
  0
MATERIAL
  5
1464
102
{ACAD_XDICTIONARY
360
1465
102
}
102
{ACAD_REACTORS
330
1453
102
}
330
1453
100
AcDbMaterial
  1
Global
 72
     0
 43
0.0208333333333333
 43
0.0
 43
0.0
 43
0.0
 43
0.0
 43
0.0208333333333333
 43
0.0
 43
0.0
 43
0.0
 43
0.0
 43
1.0
 43
0.0
 43
0.0
 43
0.0
 43
0.0
 43
1.0
 77
     0
 47
0.0208333333333333
 47
0.0
 47
0.0
 47
0.0
 47
0.0
 47
0.0208333333333333
 47
0.0
 47
0.0
 47
0.0
 47
0.0
 47
1.0
 47
0.0
 47
0.0
 47
0.0
 47
0.0
 47
1.0
171
     0
 49
0.0208333333333333
 49
0.0
 49
0.0
 49
0.0
 49
0.0
 49
0.0208333333333333
 49
0.0
 49
0.0
 49
0.0
 49
0.0
 49
1.0
 49
0.0
 49
0.0
 49
0.0
 49
0.0
 49
1.0
175
     0
142
0.0208333333333333
142
0.0
142
0.0
142
0.0
142
0.0
142
0.0208333333333333
142
0.0
142
0.0
142
0.0
142
0.0
142
1.0
142
0.0
142
0.0
142
0.0
142
0.0
142
1.0
179
     0
144
0.0208333333333333
144
0.0
144
0.0
144
0.0
144
0.0
144
0.0208333333333333
144
0.0
144
0.0
144
0.0
144
0.0
144
1.0
144
0.0
144
0.0
144
0.0
144
0.0
144
1.0
147
0.0208333333333333
147
0.0
147
0.0
147
0.0
147
0.0
147
0.0208333333333333
147
0.0
147
0.0
147
0.0
147
0.0
147
1.0
147
0.0
147
0.0
147
0.0
147
0.0
147
1.0
  0
MLEADERSTYLE
  5
149B
102
{ACAD_REACTORS
330
149A
102
}
330
149A
100
AcDbMLeaderStyle
179
     2
170
     2
171
     1
172
     0
 90
        2
 40
0.0
 41
0.0
173
     1
 91
-1056964608
340
26
 92
       -2
290
     1
 42
2.0
291
     1
 43
0.36
  3
Standard
 44
4.0
300

342
23
174
     1
178
     6
175
     1
176
     0
 93
-1056964608
 45
4.0
292
     0
297
     0
 46
4.0
 94
-1056964608
 47
1.0
 49
1.0
140
1.0
293
     1
141
0.0
294
     1
177
     0
142
1.0
295
     0
296
     0
143
0.125
271
     0
272
     9
273
     9
298
     1
  0
MLINESTYLE
  5
144E
102
{ACAD_REACTORS
330
144D
102
}
330
144D
100
AcDbMlineStyle
  2
STANDARD
 70
     0
  3

 62
     0
 51
90.0
 52
90.0
 71
     2
 49
0.5
 62
   256
  6
BYLAYER
 49
-0.5
 62
   256
  6
BYLAYER
  0
ACDBPLACEHOLDER
  5
1452
102
{ACAD_REACTORS
330
1451
102
}
330
1451
  0
SCALE
  5
1489
102
{ACAD_REACTORS
330
1488
102
}
330
1488
100
AcDbScale
 70
     0
300
1:1
140
1.0
141
1.0
290
     1
  0
SCALE
  5
148A
102
{ACAD_REACTORS
330
1488
102
}
330
1488
100
AcDbScale
 70
     0
300
1:2
140
1.0
141
2.0
290
     0
  0
SCALE
  5
148B
102
{ACAD_REACTORS
330
1488
102
}
330
1488
100
AcDbScale
 70
     0
300
1:4
140
1.0
141
4.0
290
     0
  0
SCALE
  5
148C
102
{ACAD_REACTORS
330
1488
102
}
330
1488
100
AcDbScale
 70
     0
300
1:5
140
1.0
141
5.0
290
     0
  0
SCALE
  5
148D
102
{ACAD_REACTORS
330
1488
102
}
330
1488
100
AcDbScale
 70
     0
300
1:8
140
1.0
141
8.0
290
     0
  0
SCALE
  5
148E
102
{ACAD_REACTORS
330
1488
102
}
330
1488
100
AcDbScale
 70
     0
300
1:10
140
1.0
141
10.0
290
     0
  0
SCALE
  5
148F
102
{ACAD_REACTORS
330
1488
102
}
330
1488
100
AcDbScale
 70
     0
300
1:16
140
1.0
141
16.0
290
     0
  0
SCALE
  5
1490
102
{ACAD_REACTORS
330
1488
102
}
330
1488
100
AcDbScale
 70
     0
300
1:20
140
1.0
141
20.0
290
     0
  0
SCALE
  5
1491
102
{ACAD_REACTORS
330
1488
102
}
330
1488
100
AcDbScale
 70
     0
300
1:30
140
1.0
141
30.0
290
     0
  0
SCALE
  5
1492
102
{ACAD_REACTORS
330
1488
102
}
330
1488
100
AcDbScale
 70
     0
300
1:40
140
1.0
141
40.0
290
     0
  0
SCALE
  5
1493
102
{ACAD_REACTORS
330
1488
102
}
330
1488
100
AcDbScale
 70
     0
300
1:50
140
1.0
141
50.0
290
     0
  0
SCALE
  5
1494
102
{ACAD_REACTORS
330
1488
102
}
330
1488
100
AcDbScale
 70
     0
300
1:100
140
1.0
141
100.0
290
     0
  0
SCALE
  5
1495
102
{ACAD_REACTORS
330
1488
102
}
330
1488
100
AcDbScale
 70
     0
300
2:1
140
2.0
141
1.0
290
     0
  0
SCALE
  5
1496
102
{ACAD_REACTORS
330
1488
102
}
330
1488
100
AcDbScale
 70
     0
300
4:1
140
4.0
141
1.0
290
     0
  0
SCALE
  5
1497
102
{ACAD_REACTORS
330
1488
102
}
330
1488
100
AcDbScale
 70
     0
300
8:1
140
8.0
141
1.0
290
     0
  0
SCALE
  5
1498
102
{ACAD_REACTORS
330
1488
102
}
330
1488
100
AcDbScale
 70
     0
300
10:1
140
10.0
141
1.0
290
     0
  0
SCALE
  5
1499
102
{ACAD_REACTORS
330
1488
102
}
330
1488
100
AcDbScale
 70
     0
300
100:1
140
100.0
141
1.0
290
     0
  0
ACDBSECTIONVIEWSTYLE
  5
2C3E
102
{ACAD_XDICTIONARY
360
4A3A
102
}
102
{ACAD_REACTORS
330
2E1B
330
2B69
330
2E28
102
}
330
2B69
100
AcDbModelDocViewStyle
 70
     0
  3
Imperial24
290
     0
100
AcDbSectionViewStyle
 70
     0
 71
     0
 90
       78
 71
     1
340
23
 62
   256
 40
0.24
340
0
340
0
 62
   256
 40
0.24
300
I, O, Q, S, X, Z
 40
0.48
 90
        3
 40
0.18
 90
        1
 71
     2
340
28
 90
       25
 62
   256
340
28
 90
       50
 62
   256
 40
0.24
 40
0.0
 40
0.24
 71
     3
340
23
 62
   256
 40
0.24
 90
        1
 40
0.75
 90
        1
300
%<\AcVar ViewType \f "%tc1">% %<\AcVar ViewSectionStartId>%-%<\AcVar ViewSectionEndId>%\PSCALE %<\AcVar ViewScale \f "%sn">%
 71
     4
 62
   256
 62
   257
300
ANSI31
 40
1.0
 90
        0
290
     0
290
     0
 90
        6
 40
0.0
 40
1.570796326794896
 40
0.2617993877991494
 40
1.308996938995747
 40
-0.2617993877991494
 40
1.832595714594046
  0
ACDBSECTIONVIEWSTYLE
  5
2BFE
102
{ACAD_XDICTIONARY
360
2BFF
102
}
102
{ACAD_REACTORS
330
2BD7
330
2B69
102
}
330
2B69
100
AcDbModelDocViewStyle
 70
     0
  3

290
     0
100
AcDbSectionViewStyle
 70
     0
 71
     0
 90
      102
 71
     1
340
23
 62
     7
 40
5.0
340
0
340
0
 62
     7
 40
5.0
300
I,O,Q,S,X,Z
 40
10.0
 90
        0
 40
2.5
 90
        0
 71
     2
340
2BE3
 90
       50
 62
     1
340
2BE3
 90
       50
 62
     7
 40
10.0
 40
5.0
 40
10.0
 71
     3
340
23
 62
     7
 40
5.0
 90
        0
 40
5.25
 90
        1
300
%<\AcVar ViewSectionStartId>%-%<\AcVar ViewSectionEndId>%
 71
     4
 62
   256
 62
   257
300
ANSI31
 40
1.0
 90
        0
290
     0
290
     0
 90
        6
 40
0.0
 40
1.570796326794896
 40
0.2617993877991494
 40
1.308996938995747
 40
-0.2617993877991494
 40
1.832595714594046
  0
ACDBSECTIONVIEWSTYLE
  5
2C3F
102
{ACAD_XDICTIONARY
360
2C40
102
}
102
{ACAD_REACTORS
330
2E1C
330
2B69
330
2E29
102
}
330
2B69
100
AcDbModelDocViewStyle
 70
     0
  3

290
     0
100
AcDbSectionViewStyle
 70
     0
 71
     0
 90
      102
 71
     1
340
23
 62
     2
 40
3.5
340
0
340
0
 62
     7
 40
3.5
300
I,O,Q,S,X,Z
 40
10.0
 90
        0
 40
1.75
 90
        0
 71
     2
340
2BE3
 90
       50
 62
     1
340
2BE3
 90
       50
 62
     7
 40
10.0
 40
5.0
 40
10.0
 71
     3
340
23
 62
     2
 40
3.5
 90
        0
 40
5.25
 90
        1
300
%<\AcVar ViewSectionStartId>%-%<\AcVar ViewSectionEndId>%
 71
     4
 62
   256
 62
   257
300
ANSI31
 40
1.0
 90
        0
290
     0
290
     0
 90
        6
 40
0.0
 40
1.570796326794896
 40
0.2617993877991494
 40
1.308996938995747
 40
-0.2617993877991494
 40
1.832595714594046
  0
ACDBSECTIONVIEWSTYLE
  5
2B6A
102
{ACAD_XDICTIONARY
360
4A33
102
}
102
{ACAD_REACTORS
330
2B69
330
2BF6
102
}
330
2B69
100
AcDbModelDocViewStyle
 70
     0
  3
Metric50
290
     0
100
AcDbSectionViewStyle
 70
     0
 71
     0
 90
      102
 71
     1
340
23
 62
   256
 40
5.0
340
0
340
0
 62
   256
 40
5.0
300
I, O, Q, S, X, Z
 40
10.0
 90
        0
 40
2.5
 90
        0
 71
     2
340
28
 90
       25
 62
   256
340
28
 90
       50
 62
   256
 40
5.0
 40
2.5
 40
5.0
 71
     3
340
23
 62
   256
 40
5.0
 90
        0
 40
15.0
 90
        1
300
%<\AcVar ViewSectionStartId>%-%<\AcVar ViewSectionEndId>% (%<\AcVar ViewScale \f "%sn">%)
 71
     4
 62
   256
 62
   257
300
ANSI31
 40
1.0
 90
        0
290
     0
290
     0
 90
        6
 40
0.0
 40
1.570796326794896
 40
0.2617993877991494
 40
1.308996938995747
 40
-0.2617993877991494
 40
1.832595714594046
  0
ACDBSECTIONVIEWSTYLE
  5
2C45
102
{ACAD_XDICTIONARY
360
2C46
102
}
102
{ACAD_REACTORS
330
2E19
330
2B69
102
}
330
2B69
100
AcDbModelDocViewStyle
 70
     0
  3

290
     0
100
AcDbSectionViewStyle
 70
     0
 71
     0
 90
      110
 71
     1
340
2C2E
 62
     7
 40
4.5
340
2C23
340
2C23
 62
     7
 40
4.5
300
I,O,Q,S,X,Z
 40
10.0
 90
        4
 40
2.25
 90
        0
 71
     2
340
2BE3
 90
       -1
 62
     1
340
2BE3
 90
       -1
 62
     7
 40
10.0
 40
5.0
 40
10.0
 71
     3
340
2C2E
 62
     7
 40
4.5
 90
        1
 40
4.724999999999999
 90
        1
300
%<\AcVar ViewSectionStartId>%-%<\AcVar ViewSectionEndId>%
 71
     4
 62
   256
 62
   257
300
ANSI31
 40
1.0
 90
        0
290
     0
290
     0
 90
        6
 40
0.0
 40
1.570796326794896
 40
0.2617993877991494
 40
1.308996938995747
 40
-0.2617993877991494
 40
1.832595714594046
  0
TABLESTYLE
  5
1487
102
{ACAD_XDICTIONARY
360
1A28
102
}
102
{ACAD_REACTORS
330
1486
102
}
330
1486
100
AcDbTableStyle
280
     0
  3
Standard
 70
     0
 71
     0
 40
1.5
 41
1.5
280
     0
281
     0
  7
STANDARD
140
4.5
170
     2
 62
     0
 63
     7
283
     0
 90
      512
 91
        0
  1

274
    -2
284
     1
 64
     0
275
    -2
285
     1
 65
     0
276
    -2
286
     1
 66
     0
277
    -2
287
     1
 67
     0
278
    -2
288
     1
 68
     0
279
    -2
289
     1
 69
     0
  7
STANDARD
140
6.0
170
     5
 62
     0
 63
     7
283
     0
 90
      512
 91
        0
  1

274
    -2
284
     1
 64
     0
275
    -2
285
     1
 65
     0
276
    -2
286
     1
 66
     0
277
    -2
287
     1
 67
     0
278
    -2
288
     1
 68
     0
279
    -2
289
     1
 69
     0
  7
STANDARD
140
4.5
170
     5
 62
     0
 63
     7
283
     0
 90
      512
 91
        0
  1

274
    -2
284
     1
 64
     0
275
    -2
285
     1
 65
     0
276
    -2
286
     1
 66
     0
277
    -2
287
     1
 67
     0
278
    -2
288
     1
 68
     0
279
    -2
289
     1
 69
     0
  0
VISUALSTYLE
  5
1472
102
{ACAD_REACTORS
330
146C
102
}
330
146C
100
AcDbVisualStyle
  2
2dWireframe
 70
     4
177
     3
291
     0
 70
    58
 90
        0
176
     1
 90
        2
176
     1
 90
        0
176
     1
 90
        0
176
     1
 40
0.6
176
     1
 40
30.0
176
     1
 62
     7
176
     1
 90
        1
176
     1
 90
        4
176
     1
 62
     7
176
     1
 62
   257
176
     1
 90
        1
176
     1
 90
        1
176
     1
 40
1.0
176
     1
 90
        0
176
     1
 62
   257
176
     1
 40
1.0
176
     1
 90
        1
176
     1
 90
        6
176
     1
 90
        2
176
     1
 62
     7
176
     1
 90
        5
176
     1
 90
        0
176
     1
 90
        0
176
     1
290
     0
176
     1
 90
        1
176
     1
 40
0.0
176
     1
 90
        0
176
     1
290
     1
176
     1
290
     1
176
     1
290
     0
176
     1
290
     0
176
     1
290
     0
176
     1
290
     0
176
     1
290
     0
176
     1
290
     0
176
     1
290
     0
176
     1
 90
       50
176
     1
 40
0.0
176
     1
 40
1.0
176
     1
 90
        0
176
     1
 62
    18
420
        0
176
     1
 90
       50
176
     1
 90
        3
176
     1
 62
     5
420
      255
176
     1
290
     0
176
     1
 90
       50
176
     1
 90
       50
176
     1
 90
       50
176
     1
290
     0
176
     1
 90
       50
176
     1
 62
   256
176
     0
 40
1.0
176
     0
 90
        2
176
     1
  1
strokes_ogs.tif
176
     1
290
     0
176
     1
 40
1.0
176
     1
 40
1.0
176
     1
1001
ACAD
1000
AcDbSavedByObjectVersion
1070
     0
  0
VISUALSTYLE
  5
2B5D
102
{ACAD_REACTORS
330
146C
102
}
330
146C
100
AcDbVisualStyle
  2
3D Hidden
 70
     6
177
     3
291
     0
 70
    58
 90
        1
176
     1
 90
        2
176
     1
 90
        2
176
     1
 90
        0
176
     1
 40
0.6
176
     1
 40
30.0
176
     1
 62
     7
420
 16777215
176
     1
 90
        2
176
     1
 90
        2
176
     1
 62
     7
176
     1
 62
   257
176
     1
 90
        2
176
     1
 90
        1
176
     1
 40
179.0
176
     1
 90
        0
176
     1
 62
   257
176
     1
 40
1.0
176
     1
 90
        1
176
     1
 90
        6
176
     1
 90
        2
176
     1
 62
     7
176
     1
 90
        3
176
     1
 90
        0
176
     1
 90
        0
176
     1
290
     0
176
     1
 90
        1
176
     1
 40
0.0
176
     1
 90
        0
176
     1
290
     0
176
     1
290
     1
176
     1
290
     1
176
     1
290
     0
176
     1
290
     0
176
     1
290
     0
176
     1
290
     0
176
     1
290
     0
176
     1
290
     0
176
     1
 90
       50
176
     1
 40
0.0
176
     1
 40
1.0
176
     1
 90
        0
176
     1
 62
    18
420
        0
176
     1
 90
       50
176
     1
 90
        3
176
     1
 62
     5
420
      255
176
     1
290
     0
176
     1
 90
       50
176
     1
 90
       50
176
     1
 90
       50
176
     1
290
     0
176
     1
 90
       50
176
     1
 62
   256
176
     0
 40
1.0
176
     0
 90
        2
176
     1
  1
strokes_ogs.tif
176
     1
290
     0
176
     1
 40
1.0
176
     1
 40
1.0
176
     1
1001
ACAD
1000
AcDbSavedByObjectVersion
1070
     0
  0
VISUALSTYLE
  5
2B5C
102
{ACAD_REACTORS
330
146C
102
}
330
146C
100
AcDbVisualStyle
  2
3dWireframe
 70
     5
177
     3
291
     0
 70
    58
 90
        0
176
     1
 90
        2
176
     1
 90
        0
176
     1
 90
        0
176
     1
 40
0.6
176
     1
 40
30.0
176
     1
 62
     7
420
 16777215
176
     1
 90
        1
176
     1
 90
        4
176
     1
 62
     7
176
     1
 62
   257
176
     1
 90
        1
176
     1
 90
        1
176
     1
 40
1.0
176
     1
 90
        0
176
     1
 62
   257
176
     1
 40
1.0
176
     1
 90
        1
176
     1
 90
        6
176
     1
 90
        2
176
     1
 62
     7
176
     1
 90
        5
176
     1
 90
        0
176
     1
 90
        0
176
     1
290
     0
176
     1
 90
        1
176
     1
 40
0.0
176
     1
 90
        0
176
     1
290
     0
176
     1
290
     1
176
     1
290
     1
176
     1
290
     0
176
     1
290
     0
176
     1
290
     0
176
     1
290
     0
176
     1
290
     0
176
     1
290
     0
176
     1
 90
       50
176
     1
 40
0.0
176
     1
 40
1.0
176
     1
 90
        0
176
     1
 62
    18
420
        0
176
     1
 90
       50
176
     1
 90
        3
176
     1
 62
     5
420
      255
176
     1
290
     0
176
     1
 90
       50
176
     1
 90
       50
176
     1
 90
       50
176
     1
290
     0
176
     1
 90
       50
176
     1
 62
   256
176
     0
 40
1.0
176
     0
 90
        2
176
     1
  1
strokes_ogs.tif
176
     1
290
     0
176
     1
 40
1.0
176
     1
 40
1.0
176
     1
1001
ACAD
1000
AcDbSavedByObjectVersion
1070
     0
  0
VISUALSTYLE
  5
1471
102
{ACAD_REACTORS
330
146C
102
}
330
146C
100
AcDbVisualStyle
  2
Basic
 70
     7
177
     3
291
     1
 70
    58
 90
        1
176
     1
 90
        0
176
     1
 90
        1
176
     1
 90
        0
176
     1
 40
0.6
176
     1
 40
30.0
176
     1
 62
     7
176
     1
 90
        0
176
     1
 90
        4
176
     1
 62
     7
176
     1
 62
   257
176
     1
 90
        1
176
     1
 90
        1
176
     1
 40
1.0
176
     1
 90
        8
176
     1
 62
     7
176
     1
 40
1.0
176
     1
 90
        1
176
     1
 90
        6
176
     1
 90
        2
176
     1
 62
     7
176
     1
 90
        5
176
     1
 90
        0
176
     1
 90
        0
176
     1
290
     0
176
     1
 90
        1
176
     1
 40
0.0
176
     1
 90
        0
176
     1
290
     0
176
     1
290
     1
176
     1
290
     1
176
     1
290
     0
176
     1
290
     0
176
     1
290
     0
176
     1
290
     0
176
     1
290
     0
176
     1
290
     0
176
     1
 90
       50
176
     1
 40
0.0
176
     1
 40
1.0
176
     1
 90
        0
176
     1
 62
    18
420
        0
176
     1
 90
       50
176
     1
 90
        3
176
     1
 62
     5
420
      255
176
     1
290
     0
176
     1
 90
       50
176
     1
 90
       50
176
     1
 90
       50
176
     1
290
     0
176
     1
 90
       50
176
     1
 62
   256
176
     0
 40
1.0
176
     0
 90
        2
176
     1
  1
strokes_ogs.tif
176
     1
290
     0
176
     1
 40
1.0
176
     1
 40
1.0
176
     1
1001
ACAD
1000
AcDbSavedByObjectVersion
1070
     0
  0
VISUALSTYLE
  5
1478
102
{ACAD_REACTORS
330
146C
102
}
330
146C
100
AcDbVisualStyle
  2
Brighten
 70
    12
177
     3
291
     1
 70
    58
 90
        2
176
     1
 90
        2
176
     1
 90
        0
176
     1
 90
        0
176
     1
 40
0.6
176
     1
 40
30.0
176
     1
 62
     7
176
     1
 90
        1
176
     1
 90
        4
176
     1
 62
     7
176
     1
 62
   257
176
     1
 90
        1
176
     1
 90
        1
176
     1
 40
1.0
176
     1
 90
        8
176
     1
 62
     7
176
     1
 40
1.0
176
     1
 90
        1
176
     1
 90
        6
176
     1
 90
        2
176
     1
 62
     7
176
     1
 90
        5
176
     1
 90
        0
176
     1
 90
        0
176
     1
290
     0
176
     1
 90
        1
176
     1
 40
50.0
176
     1
 90
        0
176
     1
290
     0
176
     1
290
     1
176
     1
290
     1
176
     1
290
     0
176
     1
290
     0
176
     1
290
     0
176
     1
290
     0
176
     1
290
     0
176
     1
290
     0
176
     1
 90
       50
176
     1
 40
0.0
176
     1
 40
1.0
176
     1
 90
        0
176
     1
 62
    18
420
        0
176
     1
 90
       50
176
     1
 90
        3
176
     1
 62
     5
420
      255
176
     1
290
     0
176
     1
 90
       50
176
     1
 90
       50
176
     1
 90
       50
176
     1
290
     0
176
     1
 90
       50
176
     1
 62
   256
176
     0
 40
1.0
176
     0
 90
        2
176
     1
  1
strokes_ogs.tif
176
     1
290
     0
176
     1
 40
1.0
176
     1
 40
1.0
176
     1
1001
ACAD
1000
AcDbSavedByObjectVersion
1070
     0
  0
VISUALSTYLE
  5
147C
102
{ACAD_REACTORS
330
146C
102
}
330
146C
100
AcDbVisualStyle
  2
ColorChange
 70
    16
177
     3
291
     1
 70
    58
 90
        2
176
     1
 90
        2
176
     1
 90
        3
176
     1
 90
        0
176
     1
 40
0.6
176
     1
 40
30.0
176
     1
 62
     8
176
     1
 90
        1
176
     1
 90
        4
176
     1
 62
     7
176
     1
 62
   257
176
     1
 90
        1
176
     1
 90
        1
176
     1
 40
1.0
176
     1
 90
        8
176
     1
 62
     8
176
     1
 40
1.0
176
     1
 90
        1
176
     1
 90
        6
176
     1
 90
        2
176
     1
 62
     7
176
     1
 90
        5
176
     1
 90
        0
176
     1
 90
        0
176
     1
290
     0
176
     1
 90
        1
176
     1
 40
0.0
176
     1
 90
        0
176
     1
290
     0
176
     1
290
     1
176
     1
290
     1
176
     1
290
     0
176
     1
290
     0
176
     1
290
     0
176
     1
290
     0
176
     1
290
     0
176
     1
290
     0
176
     1
 90
       50
176
     1
 40
0.0
176
     1
 40
1.0
176
     1
 90
        0
176
     1
 62
    18
420
        0
176
     1
 90
       50
176
     1
 90
        3
176
     1
 62
     5
420
      255
176
     1
290
     0
176
     1
 90
       50
176
     1
 90
       50
176
     1
 90
       50
176
     1
290
     0
176
     1
 90
       50
176
     1
 62
   256
176
     0
 40
1.0
176
     0
 90
        2
176
     1
  1
strokes_ogs.tif
176
     1
290
     0
176
     1
 40
1.0
176
     1
 40
1.0
176
     1
1001
ACAD
1000
AcDbSavedByObjectVersion
1070
     0
  0
VISUALSTYLE
  5
1475
102
{ACAD_REACTORS
330
146C
102
}
330
146C
100
AcDbVisualStyle
  2
Conceptual
 70
     9
177
     3
291
     0
 70
    58
 90
        3
176
     1
 90
        2
176
     1
 90
        0
176
     1
 90
        0
176
     1
 40
0.6
176
     1
 40
30.0
176
     1
 62
     7
176
     1
 90
        2
176
     1
 90
        2
176
     1
 62
     7
176
     1
 62
   257
176
     1
 90
        1
176
     1
 90
        1
176
     1
 40
179.0
176
     1
 90
        8
176
     1
 62
     7
176
     1
 40
1.0
176
     1
 90
        1
176
     1
 90
        6
176
     1
 90
        2
176
     1
 62
     7
176
     1
 90
        3
176
     1
 90
        0
176
     1
 90
        0
176
     1
290
     0
176
     1
 90
        1
176
     1
 40
0.0
176
     1
 90
        0
176
     1
290
     0
176
     1
290
     1
176
     1
290
     1
176
     1
290
     0
176
     1
290
     0
176
     1
290
     0
176
     1
290
     0
176
     1
290
     0
176
     1
290
     0
176
     1
 90
       50
176
     1
 40
0.0
176
     1
 40
1.0
176
     1
 90
        0
176
     1
 62
    18
420
        0
176
     1
 90
       50
176
     1
 90
        3
176
     1
 62
     5
420
      255
176
     1
290
     0
176
     1
 90
       50
176
     1
 90
       50
176
     1
 90
       50
176
     1
290
     0
176
     1
 90
       50
176
     1
 62
   256
176
     0
 40
1.0
176
     0
 90
        2
176
     1
  1
strokes_ogs.tif
176
     1
290
     0
176
     1
 40
1.0
176
     1
 40
1.0
176
     1
1001
ACAD
1000
AcDbSavedByObjectVersion
1070
     0
  0
VISUALSTYLE
  5
1477
102
{ACAD_REACTORS
330
146C
102
}
330
146C
100
AcDbVisualStyle
  2
Dim
 70
    11
177
     3
291
     1
 70
    58
 90
        2
176
     1
 90
        2
176
     1
 90
        0
176
     1
 90
        0
176
     1
 40
0.6
176
     1
 40
30.0
176
     1
 62
     7
176
     1
 90
        1
176
     1
 90
        4
176
     1
 62
     7
176
     1
 62
   257
176
     1
 90
        1
176
     1
 90
        1
176
     1
 40
1.0
176
     1
 90
        8
176
     1
 62
     7
176
     1
 40
1.0
176
     1
 90
        1
176
     1
 90
        6
176
     1
 90
        2
176
     1
 62
     7
176
     1
 90
        5
176
     1
 90
        0
176
     1
 90
        0
176
     1
290
     0
176
     1
 90
        1
176
     1
 40
-50.0
176
     1
 90
        0
176
     1
290
     0
176
     1
290
     1
176
     1
290
     1
176
     1
290
     0
176
     1
290
     0
176
     1
290
     0
176
     1
290
     0
176
     1
290
     0
176
     1
290
     0
176
     1
 90
       50
176
     1
 40
0.0
176
     1
 40
1.0
176
     1
 90
        0
176
     1
 62
    18
420
        0
176
     1
 90
       50
176
     1
 90
        3
176
     1
 62
     5
420
      255
176
     1
290
     0
176
     1
 90
       50
176
     1
 90
       50
176
     1
 90
       50
176
     1
290
     0
176
     1
 90
       50
176
     1
 62
   256
176
     0
 40
1.0
176
     0
 90
        2
176
     1
  1
strokes_ogs.tif
176
     1
290
     0
176
     1
 40
1.0
176
     1
 40
1.0
176
     1
1001
ACAD
1000
AcDbSavedByObjectVersion
1070
     0
  0
VISUALSTYLE
  5
1484
102
{ACAD_REACTORS
330
146C
102
}
330
146C
100
AcDbVisualStyle
  2
EdgeColorOff
 70
    22
177
     3
291
     1
 70
    58
 90
        2
176
     0
 90
        2
176
     0
 90
        0
176
     0
 90
        0
176
     0
 40
0.6
176
     0
 40
30.0
176
     0
 62
     7
176
     0
 90
        1
176
     0
 90
        4
176
     0
 62
     7
176
     0
 62
   257
176
     0
 90
        1
176
     0
 90
        1
176
     0
 40
1.0
176
     0
 90
        8
176
     2
 62
     7
176
     0
 40
1.0
176
     0
 90
        1
176
     0
 90
        6
176
     0
 90
        2
176
     0
 62
     7
176
     0
 90
        5
176
     0
 90
        0
176
     0
 90
        0
176
     0
290
     0
176
     0
 90
        1
176
     0
 40
0.0
176
     0
 90
        0
176
     0
290
     0
176
     1
290
     1
176
     1
290
     1
176
     1
290
     0
176
     1
290
     0
176
     1
290
     0
176
     1
290
     0
176
     1
290
     0
176
     1
290
     0
176
     1
 90
       50
176
     1
 40
0.0
176
     1
 40
1.0
176
     1
 90
        0
176
     1
 62
    18
420
        0
176
     1
 90
       50
176
     1
 90
        3
176
     1
 62
     5
420
      255
176
     1
290
     0
176
     1
 90
       50
176
     1
 90
       50
176
     1
 90
       50
176
     1
290
     0
176
     1
 90
       50
176
     1
 62
   256
176
     0
 40
1.0
176
     0
 90
        2
176
     1
  1
strokes_ogs.tif
176
     1
290
     0
176
     1
 40
1.0
176
     1
 40
1.0
176
     1
1001
ACAD
1000
AcDbSavedByObjectVersion
1070
     0
  0
VISUALSTYLE
  5
147B
102
{ACAD_REACTORS
330
146C
102
}
330
146C
100
AcDbVisualStyle
  2
Facepattern
 70
    15
177
     3
291
     1
 70
    58
 90
        2
176
     1
 90
        2
176
     1
 90
        0
176
     1
 90
        0
176
     1
 40
0.6
176
     1
 40
30.0
176
     1
 62
     7
176
     1
 90
        1
176
     1
 90
        4
176
     1
 62
     7
176
     1
 62
   257
176
     1
 90
        1
176
     1
 90
        1
176
     1
 40
1.0
176
     1
 90
        8
176
     1
 62
     7
176
     1
 40
1.0
176
     1
 90
        1
176
     1
 90
        6
176
     1
 90
        2
176
     1
 62
     7
176
     1
 90
        5
176
     1
 90
        0
176
     1
 90
        0
176
     1
290
     0
176
     1
 90
        1
176
     1
 40
0.0
176
     1
 90
        0
176
     1
290
     0
176
     1
290
     1
176
     1
290
     1
176
     1
290
     0
176
     1
290
     0
176
     1
290
     0
176
     1
290
     0
176
     1
290
     0
176
     1
290
     0
176
     1
 90
       50
176
     1
 40
0.0
176
     1
 40
1.0
176
     1
 90
        0
176
     1
 62
    18
420
        0
176
     1
 90
       50
176
     1
 90
        3
176
     1
 62
     5
420
      255
176
     1
290
     0
176
     1
 90
       50
176
     1
 90
       50
176
     1
 90
       50
176
     1
290
     0
176
     1
 90
       50
176
     1
 62
   256
176
     0
 40
1.0
176
     0
 90
        2
176
     1
  1
strokes_ogs.tif
176
     1
290
     0
176
     1
 40
1.0
176
     1
 40
1.0
176
     1
1001
ACAD
1000
AcDbSavedByObjectVersion
1070
     0
  0
VISUALSTYLE
  5
146D
102
{ACAD_REACTORS
330
146C
102
}
330
146C
100
AcDbVisualStyle
  2
Flat
 70
     0
177
     3
291
     1
 70
    58
 90
        2
176
     1
 90
        1
176
     1
 90
        1
176
     1
 90
        2
176
     1
 40
0.6
176
     1
 40
30.0
176
     1
 62
     7
176
     1
 90
        0
176
     1
 90
        0
176
     1
 62
     7
176
     1
 62
   257
176
     1
 90
        1
176
     1
 90
        1
176
     1
 40
1.0
176
     1
 90
        8
176
     1
 62
     7
176
     1
 40
1.0
176
     1
 90
        1
176
     1
 90
        6
176
     1
 90
        2
176
     1
 62
     7
176
     1
 90
        5
176
     1
 90
        0
176
     1
 90
        0
176
     1
290
     0
176
     1
 90
       13
176
     1
 40
0.0
176
     1
 90
        0
176
     1
290
     0
176
     1
290
     1
176
     1
290
     1
176
     1
290
     0
176
     1
290
     0
176
     1
290
     0
176
     1
290
     0
176
     1
290
     0
176
     1
290
     0
176
     1
 90
       50
176
     1
 40
0.0
176
     1
 40
1.0
176
     1
 90
        0
176
     1
 62
    18
420
        0
176
     1
 90
       50
176
     1
 90
        3
176
     1
 62
     5
420
      255
176
     1
290
     0
176
     1
 90
       50
176
     1
 90
       50
176
     1
 90
       50
176
     1
290
     0
176
     1
 90
       50
176
     1
 62
   256
176
     0
 40
1.0
176
     0
 90
        2
176
     1
  1
strokes_ogs.tif
176
     1
290
     0
176
     1
 40
1.0
176
     1
 40
1.0
176
     1
1001
ACAD
1000
AcDbSavedByObjectVersion
1070
     0
  0
VISUALSTYLE
  5
146E
102
{ACAD_REACTORS
330
146C
102
}
330
146C
100
AcDbVisualStyle
  2
FlatWithEdges
 70
     1
177
     3
291
     1
 70
    58
 90
        2
176
     1
 90
        1
176
     1
 90
        1
176
     1
 90
        2
176
     1
 40
0.6
176
     1
 40
30.0
176
     1
 62
     7
176
     1
 90
        1
176
     1
 90
        0
176
     1
 62
     7
176
     1
 62
   257
176
     1
 90
        1
176
     1
 90
        1
176
     1
 40
1.0
176
     1
 90
        0
176
     1
 62
   257
176
     1
 40
1.0
176
     1
 90
        1
176
     1
 90
        6
176
     1
 90
        2
176
     1
 62
     7
176
     1
 90
        5
176
     1
 90
        0
176
     1
 90
        0
176
     1
290
     0
176
     1
 90
       13
176
     1
 40
0.0
176
     1
 90
        0
176
     1
290
     0
176
     1
290
     1
176
     1
290
     1
176
     1
290
     0
176
     1
290
     0
176
     1
290
     0
176
     1
290
     0
176
     1
290
     0
176
     1
290
     0
176
     1
 90
       50
176
     1
 40
0.0
176
     1
 40
1.0
176
     1
 90
        0
176
     1
 62
    18
420
        0
176
     1
 90
       50
176
     1
 90
        3
176
     1
 62
     5
420
      255
176
     1
290
     0
176
     1
 90
       50
176
     1
 90
       50
176
     1
 90
       50
176
     1
290
     0
176
     1
 90
       50
176
     1
 62
   256
176
     0
 40
1.0
176
     0
 90
        2
176
     1
  1
strokes_ogs.tif
176
     1
290
     0
176
     1
 40
1.0
176
     1
 40
1.0
176
     1
1001
ACAD
1000
AcDbSavedByObjectVersion
1070
     0
  0
VISUALSTYLE
  5
146F
102
{ACAD_REACTORS
330
146C
102
}
330
146C
100
AcDbVisualStyle
  2
Gouraud
 70
     2
177
     3
291
     1
 70
    58
 90
        2
176
     1
 90
        2
176
     1
 90
        1
176
     1
 90
        2
176
     1
 40
0.6
176
     1
 40
30.0
176
     1
 62
     7
176
     1
 90
        0
176
     1
 90
        0
176
     1
 62
     7
176
     1
 62
   257
176
     1
 90
        1
176
     1
 90
        1
176
     1
 40
1.0
176
     1
 90
        0
176
     1
 62
     7
176
     1
 40
1.0
176
     1
 90
        1
176
     1
 90
        6
176
     1
 90
        2
176
     1
 62
     7
176
     1
 90
        5
176
     1
 90
        0
176
     1
 90
        0
176
     1
290
     0
176
     1
 90
       13
176
     1
 40
0.0
176
     1
 90
        0
176
     1
290
     0
176
     1
290
     1
176
     1
290
     1
176
     1
290
     0
176
     1
290
     0
176
     1
290
     0
176
     1
290
     0
176
     1
290
     0
176
     1
290
     0
176
     1
 90
       50
176
     1
 40
0.0
176
     1
 40
1.0
176
     1
 90
        0
176
     1
 62
    18
420
        0
176
     1
 90
       50
176
     1
 90
        3
176
     1
 62
     5
420
      255
176
     1
290
     0
176
     1
 90
       50
176
     1
 90
       50
176
     1
 90
       50
176
     1
290
     0
176
     1
 90
       50
176
     1
 62
   256
176
     0
 40
1.0
176
     0
 90
        2
176
     1
  1
strokes_ogs.tif
176
     1
290
     0
176
     1
 40
1.0
176
     1
 40
1.0
176
     1
1001
ACAD
1000
AcDbSavedByObjectVersion
1070
     0
  0
VISUALSTYLE
  5
1470
102
{ACAD_REACTORS
330
146C
102
}
330
146C
100
AcDbVisualStyle
  2
GouraudWithEdges
 70
     3
177
     3
291
     1
 70
    58
 90
        2
176
     1
 90
        2
176
     1
 90
        1
176
     1
 90
        2
176
     1
 40
0.6
176
     1
 40
30.0
176
     1
 62
     7
176
     1
 90
        1
176
     1
 90
        0
176
     1
 62
     7
176
     1
 62
   257
176
     1
 90
        1
176
     1
 90
        1
176
     1
 40
1.0
176
     1
 90
        0
176
     1
 62
   257
176
     1
 40
1.0
176
     1
 90
        1
176
     1
 90
        6
176
     1
 90
        2
176
     1
 62
     7
176
     1
 90
        5
176
     1
 90
        0
176
     1
 90
        0
176
     1
290
     0
176
     1
 90
       13
176
     1
 40
0.0
176
     1
 90
        0
176
     1
290
     0
176
     1
290
     1
176
     1
290
     1
176
     1
290
     0
176
     1
290
     0
176
     1
290
     0
176
     1
290
     0
176
     1
290
     0
176
     1
290
     0
176
     1
 90
       50
176
     1
 40
0.0
176
     1
 40
1.0
176
     1
 90
        0
176
     1
 62
    18
420
        0
176
     1
 90
       50
176
     1
 90
        3
176
     1
 62
     5
420
      255
176
     1
290
     0
176
     1
 90
       50
176
     1
 90
       50
176
     1
 90
       50
176
     1
290
     0
176
     1
 90
       50
176
     1
 62
   256
176
     0
 40
1.0
176
     0
 90
        2
176
     1
  1
strokes_ogs.tif
176
     1
290
     0
176
     1
 40
1.0
176
     1
 40
1.0
176
     1
1001
ACAD
1000
AcDbSavedByObjectVersion
1070
     0
  0
VISUALSTYLE
  5
1474
102
{ACAD_REACTORS
330
146C
102
}
330
146C
100
AcDbVisualStyle
  2
Hidden
 70
     6
177
     3
291
     0
 70
    58
 90
        1
176
     1
 90
        2
176
     1
 90
        2
176
     1
 90
        0
176
     1
 40
0.6
176
     1
 40
30.0
176
     1
 62
     7
176
     1
 90
        2
176
     1
 90
        2
176
     1
 62
     7
176
     1
 62
   257
176
     1
 90
        2
176
     1
 90
        1
176
     1
 40
40.0
176
     1
 90
        0
176
     1
 62
   257
176
     1
 40
1.0
176
     1
 90
        1
176
     1
 90
        6
176
     1
 90
        2
176
     1
 62
     7
176
     1
 90
        3
176
     1
 90
        0
176
     1
 90
        0
176
     1
290
     0
176
     1
 90
        1
176
     1
 40
0.0
176
     1
 90
        0
176
     1
290
     0
176
     1
290
     1
176
     1
290
     1
176
     1
290
     0
176
     1
290
     0
176
     1
290
     0
176
     1
290
     0
176
     1
290
     0
176
     1
290
     0
176
     1
 90
       50
176
     1
 40
0.0
176
     1
 40
1.0
176
     1
 90
        0
176
     1
 62
    18
420
        0
176
     1
 90
       50
176
     1
 90
        3
176
     1
 62
     5
420
      255
176
     1
290
     0
176
     1
 90
       50
176
     1
 90
       50
176
     1
 90
       50
176
     1
290
     0
176
     1
 90
       50
176
     1
 62
   256
176
     0
 40
1.0
176
     0
 90
        2
176
     1
  1
strokes_ogs.tif
176
     1
290
     0
176
     1
 40
1.0
176
     1
 40
1.0
176
     1
1001
ACAD
1000
AcDbSavedByObjectVersion
1070
     0
  0
VISUALSTYLE
  5
1482
102
{ACAD_REACTORS
330
146C
102
}
330
146C
100
AcDbVisualStyle
  2
JitterOff
 70
    20
177
     3
291
     1
 70
    58
 90
        2
176
     0
 90
        2
176
     0
 90
        0
176
     0
 90
        0
176
     0
 40
0.6
176
     0
 40
30.0
176
     0
 62
     7
176
     0
 90
        1
176
     0
 90
        4
176
     0
 62
     7
176
     0
 62
   257
176
     0
 90
        1
176
     0
 90
        1
176
     0
 40
1.0
176
     0
 90
       10
176
     2
 62
     7
176
     0
 40
1.0
176
     0
 90
        1
176
     0
 90
        6
176
     0
 90
        2
176
     0
 62
     7
176
     0
 90
        5
176
     0
 90
        0
176
     0
 90
        0
176
     0
290
     0
176
     0
 90
        1
176
     0
 40
0.0
176
     0
 90
        0
176
     0
290
     0
176
     1
290
     1
176
     1
290
     1
176
     1
290
     0
176
     1
290
     0
176
     1
290
     0
176
     1
290
     0
176
     1
290
     0
176
     1
290
     0
176
     1
 90
       50
176
     1
 40
0.0
176
     1
 40
1.0
176
     1
 90
        0
176
     1
 62
    18
420
        0
176
     1
 90
       50
176
     1
 90
        3
176
     1
 62
     5
420
      255
176
     1
290
     0
176
     1
 90
       50
176
     1
 90
       50
176
     1
 90
       50
176
     1
290
     0
176
     1
 90
       50
176
     1
 62
   256
176
     0
 40
1.0
176
     0
 90
        2
176
     1
  1
strokes_ogs.tif
176
     1
290
     0
176
     1
 40
1.0
176
     1
 40
1.0
176
     1
1001
ACAD
1000
AcDbSavedByObjectVersion
1070
     0
  0
VISUALSTYLE
  5
147A
102
{ACAD_REACTORS
330
146C
102
}
330
146C
100
AcDbVisualStyle
  2
Linepattern
 70
    14
177
     3
291
     1
 70
    58
 90
        2
176
     1
 90
        2
176
     1
 90
        0
176
     1
 90
        0
176
     1
 40
0.6
176
     1
 40
30.0
176
     1
 62
     7
176
     1
 90
        1
176
     1
 90
        4
176
     1
 62
     7
176
     1
 62
   257
176
     1
 90
        7
176
     1
 90
        7
176
     1
 40
1.0
176
     1
 90
        8
176
     1
 62
     7
176
     1
 40
1.0
176
     1
 90
        1
176
     1
 90
        6
176
     1
 90
        2
176
     1
 62
     7
176
     1
 90
        5
176
     1
 90
        0
176
     1
 90
        0
176
     1
290
     0
176
     1
 90
        1
176
     1
 40
0.0
176
     1
 90
        0
176
     1
290
     0
176
     1
290
     1
176
     1
290
     1
176
     1
290
     0
176
     1
290
     0
176
     1
290
     0
176
     1
290
     0
176
     1
290
     0
176
     1
290
     0
176
     1
 90
       50
176
     1
 40
0.0
176
     1
 40
1.0
176
     1
 90
        0
176
     1
 62
    18
420
        0
176
     1
 90
       50
176
     1
 90
        3
176
     1
 62
     5
420
      255
176
     1
290
     0
176
     1
 90
       50
176
     1
 90
       50
176
     1
 90
       50
176
     1
290
     0
176
     1
 90
       50
176
     1
 62
   256
176
     0
 40
1.0
176
     0
 90
        2
176
     1
  1
strokes_ogs.tif
176
     1
290
     0
176
     1
 40
1.0
176
     1
 40
1.0
176
     1
1001
ACAD
1000
AcDbSavedByObjectVersion
1070
     0
  0
VISUALSTYLE
  5
1483
102
{ACAD_REACTORS
330
146C
102
}
330
146C
100
AcDbVisualStyle
  2
OverhangOff
 70
    21
177
     3
291
     1
 70
    58
 90
        2
176
     0
 90
        2
176
     0
 90
        0
176
     0
 90
        0
176
     0
 40
0.6
176
     0
 40
30.0
176
     0
 62
     7
176
     0
 90
        1
176
     0
 90
        4
176
     0
 62
     7
176
     0
 62
   257
176
     0
 90
        1
176
     0
 90
        1
176
     0
 40
1.0
176
     0
 90
        9
176
     2
 62
     7
176
     0
 40
1.0
176
     0
 90
        1
176
     0
 90
        6
176
     0
 90
        2
176
     0
 62
     7
176
     0
 90
        5
176
     0
 90
        0
176
     0
 90
        0
176
     0
290
     0
176
     0
 90
        1
176
     0
 40
0.0
176
     0
 90
        0
176
     0
290
     0
176
     1
290
     1
176
     1
290
     1
176
     1
290
     0
176
     1
290
     0
176
     1
290
     0
176
     1
290
     0
176
     1
290
     0
176
     1
290
     0
176
     1
 90
       50
176
     1
 40
0.0
176
     1
 40
1.0
176
     1
 90
        0
176
     1
 62
    18
420
        0
176
     1
 90
       50
176
     1
 90
        3
176
     1
 62
     5
420
      255
176
     1
290
     0
176
     1
 90
       50
176
     1
 90
       50
176
     1
 90
       50
176
     1
290
     0
176
     1
 90
       50
176
     1
 62
   256
176
     0
 40
1.0
176
     0
 90
        2
176
     1
  1
strokes_ogs.tif
176
     1
290
     0
176
     1
 40
1.0
176
     1
 40
1.0
176
     1
1001
ACAD
1000
AcDbSavedByObjectVersion
1070
     0
  0
VISUALSTYLE
  5
1476
102
{ACAD_REACTORS
330
146C
102
}
330
146C
100
AcDbVisualStyle
  2
Realistic
 70
     8
177
     3
291
     0
 70
    58
 90
        2
176
     1
 90
        2
176
     1
 90
        0
176
     1
 90
        2
176
     1
 40
0.6
176
     1
 40
30.0
176
     1
 62
     7
176
     1
 90
        0
176
     1
 90
        0
176
     1
 62
     7
176
     1
 62
   257
176
     1
 90
        1
176
     1
 90
        1
176
     1
 40
1.0
176
     1
 90
        8
176
     1
 62
   257
176
     1
 40
1.0
176
     1
 90
        1
176
     1
 90
        6
176
     1
 90
        2
176
     1
 62
     7
176
     1
 90
        3
176
     1
 90
        0
176
     1
 90
        0
176
     1
290
     0
176
     1
 90
       13
176
     1
 40
0.0
176
     1
 90
        0
176
     1
290
     0
176
     1
290
     1
176
     1
290
     1
176
     1
290
     0
176
     1
290
     0
176
     1
290
     0
176
     1
290
     0
176
     1
290
     0
176
     1
290
     0
176
     1
 90
       50
176
     1
 40
0.0
176
     1
 40
1.0
176
     1
 90
        0
176
     1
 62
    18
420
        0
176
     1
 90
       50
176
     1
 90
        3
176
     1
 62
     5
420
      255
176
     1
290
     0
176
     1
 90
       50
176
     1
 90
       50
176
     1
 90
       50
176
     1
290
     0
176
     1
 90
       50
176
     1
 62
   256
176
     0
 40
1.0
176
     0
 90
        2
176
     1
  1
strokes_ogs.tif
176
     1
290
     0
176
     1
 40
1.0
176
     1
 40
1.0
176
     1
1001
ACAD
1000
AcDbSavedByObjectVersion
1070
     0
  0
VISUALSTYLE
  5
1481
102
{ACAD_REACTORS
330
146C
102
}
330
146C
100
AcDbVisualStyle
  2
Shaded
 70
    27
177
     3
291
     0
 70
    58
 90
        2
176
     1
 90
        2
176
     1
 90
        1
176
     1
 90
        2
176
     1
 40
0.6
176
     1
 40
30.0
176
     1
 62
     7
176
     1
 90
        0
176
     1
 90
        4
176
     1
 62
     7
176
     1
 62
   257
176
     1
 90
        1
176
     1
 90
        1
176
     1
 40
1.0
176
     1
 90
        8
176
     1
 62
   257
176
     1
 40
1.0
176
     1
 90
        1
176
     1
 90
        6
176
     1
 90
        2
176
     1
 62
     8
176
     1
 90
        3
176
     1
 90
        0
176
     1
 90
        0
176
     1
290
     0
176
     1
 90
        5
176
     1
 40
0.0
176
     1
 90
        0
176
     1
290
     0
176
     1
290
     1
176
     1
290
     1
176
     1
290
     0
176
     1
290
     0
176
     1
290
     0
176
     1
290
     0
176
     1
290
     0
176
     1
290
     0
176
     1
 90
       50
176
     1
 40
0.0
176
     1
 40
1.0
176
     1
 90
        0
176
     1
 62
    18
420
        0
176
     1
 90
       50
176
     1
 90
        3
176
     1
 62
     5
420
      255
176
     1
290
     0
176
     1
 90
       50
176
     1
 90
       50
176
     1
 90
       50
176
     1
290
     0
176
     1
 90
       50
176
     1
 62
   256
176
     0
 40
1.0
176
     0
 90
        2
176
     1
  1
strokes_ogs.tif
176
     1
290
     0
176
     1
 40
1.0
176
     1
 40
1.0
176
     1
1001
ACAD
1000
AcDbSavedByObjectVersion
1070
     0
  0
VISUALSTYLE
  5
1480
102
{ACAD_REACTORS
330
146C
102
}
330
146C
100
AcDbVisualStyle
  2
Shaded with edges
 70
    26
177
     3
291
     0
 70
    58
 90
        2
176
     1
 90
        2
176
     1
 90
        1
176
     1
 90
        2
176
     1
 40
0.6
176
     1
 40
30.0
176
     1
 62
     7
176
     1
 90
        1
176
     1
 90
        2
176
     1
 62
     7
176
     1
 62
   257
176
     1
 90
        2
176
     1
 90
        1
176
     1
 40
1.0
176
     1
 90
        8
176
     1
 62
   257
176
     1
 40
1.0
176
     1
 90
        1
176
     1
 90
        6
176
     1
 90
        2
176
     1
 62
     7
176
     1
 90
        3
176
     1
 90
        0
176
     1
 90
        0
176
     1
290
     0
176
     1
 90
        5
176
     1
 40
0.0
176
     1
 90
        0
176
     1
290
     0
176
     1
290
     1
176
     1
290
     1
176
     1
290
     0
176
     1
290
     0
176
     1
290
     0
176
     1
290
     0
176
     1
290
     0
176
     1
290
     0
176
     1
 90
       50
176
     1
 40
0.0
176
     1
 40
1.0
176
     1
 90
        0
176
     1
 62
    18
420
        0
176
     1
 90
       50
176
     1
 90
        3
176
     1
 62
     5
420
      255
176
     1
290
     0
176
     1
 90
       50
176
     1
 90
       50
176
     1
 90
       50
176
     1
290
     0
176
     1
 90
       50
176
     1
 62
   256
176
     0
 40
1.0
176
     0
 90
        2
176
     1
  1
strokes_ogs.tif
176
     1
290
     0
176
     1
 40
1.0
176
     1
 40
1.0
176
     1
1001
ACAD
1000
AcDbSavedByObjectVersion
1070
     0
  0
VISUALSTYLE
  5
147D
102
{ACAD_REACTORS
330
146C
102
}
330
146C
100
AcDbVisualStyle
  2
Shades of Gray
 70
    23
177
     3
291
     0
 70
    58
 90
        2
176
     1
 90
        2
176
     1
 90
        3
176
     1
 90
        0
176
     1
 40
0.6
176
     1
 40
30.0
176
     1
 62
     7
176
     1
 90
        2
176
     1
 90
        2
176
     1
 62
     7
176
     1
 62
     7
176
     1
 90
        1
176
     1
 90
        1
176
     1
 40
40.0
176
     1
 90
        8
176
     1
 62
     7
176
     1
 40
1.0
176
     1
 90
        1
176
     1
 90
        6
176
     1
 90
        2
176
     1
 62
     7
176
     1
 90
        3
176
     1
 90
        0
176
     1
 90
        0
176
     1
290
     0
176
     1
 90
        1
176
     1
 40
0.0
176
     1
 90
        0
176
     1
290
     0
176
     1
290
     1
176
     1
290
     1
176
     1
290
     0
176
     1
290
     0
176
     1
290
     0
176
     1
290
     0
176
     1
290
     0
176
     1
290
     0
176
     1
 90
       50
176
     1
 40
0.0
176
     1
 40
1.0
176
     1
 90
        0
176
     1
 62
    18
420
        0
176
     1
 90
       50
176
     1
 90
        3
176
     1
 62
     5
420
      255
176
     1
290
     0
176
     1
 90
       50
176
     1
 90
       50
176
     1
 90
       50
176
     1
290
     0
176
     1
 90
       50
176
     1
 62
   256
176
     0
 40
1.0
176
     0
 90
        2
176
     1
  1
strokes_ogs.tif
176
     1
290
     0
176
     1
 40
1.0
176
     1
 40
1.0
176
     1
1001
ACAD
1000
AcDbSavedByObjectVersion
1070
     0
  0
VISUALSTYLE
  5
147E
102
{ACAD_REACTORS
330
146C
102
}
330
146C
100
AcDbVisualStyle
  2
Sketchy
 70
    24
177
     3
291
     0
 70
    58
 90
        1
176
     1
 90
        2
176
     1
 90
        2
176
     1
 90
        0
176
     1
 40
0.6
176
     1
 40
30.0
176
     1
 62
     7
176
     1
 90
        2
176
     1
 90
        2
176
     1
 62
     7
176
     1
 62
     7
176
     1
 90
        1
176
     1
 90
        1
176
     1
 40
40.0
176
     1
 90
       11
176
     1
 62
     7
176
     1
 40
1.0
176
     1
 90
        1
176
     1
 90
        6
176
     1
 90
        2
176
     1
 62
     7
176
     1
 90
        6
176
     1
 90
        0
176
     1
 90
        0
176
     1
290
     0
176
     1
 90
        1
176
     1
 40
0.0
176
     1
 90
        0
176
     1
290
     0
176
     1
290
     1
176
     1
290
     1
176
     1
290
     0
176
     1
290
     0
176
     1
290
     0
176
     1
290
     0
176
     1
290
     0
176
     1
290
     0
176
     1
 90
       50
176
     1
 40
0.0
176
     1
 40
1.0
176
     1
 90
        0
176
     1
 62
    18
420
        0
176
     1
 90
       50
176
     1
 90
        3
176
     1
 62
     5
420
      255
176
     1
290
     0
176
     1
 90
       50
176
     1
 90
       50
176
     1
 90
       50
176
     1
290
     0
176
     1
 90
       50
176
     1
 62
   256
176
     0
 40
1.0
176
     0
 90
        2
176
     1
  1
strokes_ogs.tif
176
     1
290
     0
176
     1
 40
1.0
176
     1
 40
1.0
176
     1
1001
ACAD
1000
AcDbSavedByObjectVersion
1070
     0
  0
VISUALSTYLE
  5
1479
102
{ACAD_REACTORS
330
146C
102
}
330
146C
100
AcDbVisualStyle
  2
Thicken
 70
    13
177
     3
291
     1
 70
    58
 90
        2
176
     1
 90
        2
176
     1
 90
        0
176
     1
 90
        0
176
     1
 40
0.6
176
     1
 40
30.0
176
     1
 62
     7
176
     1
 90
        1
176
     1
 90
        4
176
     1
 62
     7
176
     1
 62
   257
176
     1
 90
        1
176
     1
 90
        1
176
     1
 40
1.0
176
     1
 90
       12
176
     1
 62
     7
176
     1
 40
1.0
176
     1
 90
        1
176
     1
 90
        6
176
     1
 90
        2
176
     1
 62
     7
176
     1
 90
        5
176
     1
 90
        0
176
     1
 90
        0
176
     1
290
     0
176
     1
 90
        1
176
     1
 40
0.0
176
     1
 90
        0
176
     1
290
     0
176
     1
290
     1
176
     1
290
     1
176
     1
290
     0
176
     1
290
     0
176
     1
290
     0
176
     1
290
     0
176
     1
290
     0
176
     1
290
     0
176
     1
 90
       50
176
     1
 40
0.0
176
     1
 40
1.0
176
     1
 90
        0
176
     1
 62
    18
420
        0
176
     1
 90
       50
176
     1
 90
        3
176
     1
 62
     5
420
      255
176
     1
290
     0
176
     1
 90
       50
176
     1
 90
       50
176
     1
 90
       50
176
     1
290
     0
176
     1
 90
       50
176
     1
 62
   256
176
     0
 40
1.0
176
     0
 90
        2
176
     1
  1
strokes_ogs.tif
176
     1
290
     0
176
     1
 40
1.0
176
     1
 40
1.0
176
     1
1001
ACAD
1000
AcDbSavedByObjectVersion
1070
     0
  0
VISUALSTYLE
  5
1473
102
{ACAD_REACTORS
330
146C
102
}
330
146C
100
AcDbVisualStyle
  2
Wireframe
 70
     5
177
     3
291
     0
 70
    58
 90
        0
176
     1
 90
        2
176
     1
 90
        0
176
     1
 90
        0
176
     1
 40
0.6
176
     1
 40
30.0
176
     1
 62
     7
176
     1
 90
        1
176
     1
 90
        4
176
     1
 62
     7
176
     1
 62
   257
176
     1
 90
        1
176
     1
 90
        1
176
     1
 40
1.0
176
     1
 90
        0
176
     1
 62
   257
176
     1
 40
1.0
176
     1
 90
        1
176
     1
 90
        6
176
     1
 90
        2
176
     1
 62
     7
176
     1
 90
        3
176
     1
 90
        0
176
     1
 90
        0
176
     1
290
     0
176
     1
 90
        1
176
     1
 40
0.0
176
     1
 90
        0
176
     1
290
     0
176
     1
290
     1
176
     1
290
     1
176
     1
290
     0
176
     1
290
     0
176
     1
290
     0
176
     1
290
     0
176
     1
290
     0
176
     1
290
     0
176
     1
 90
       50
176
     1
 40
0.0
176
     1
 40
1.0
176
     1
 90
        0
176
     1
 62
    18
420
        0
176
     1
 90
       50
176
     1
 90
        3
176
     1
 62
     5
420
      255
176
     1
290
     0
176
     1
 90
       50
176
     1
 90
       50
176
     1
 90
       50
176
     1
290
     0
176
     1
 90
       50
176
     1
 62
   256
176
     0
 40
1.0
176
     0
 90
        2
176
     1
  1
strokes_ogs.tif
176
     1
290
     0
176
     1
 40
1.0
176
     1
 40
1.0
176
     1
1001
ACAD
1000
AcDbSavedByObjectVersion
1070
     0
  0
VISUALSTYLE
  5
147F
102
{ACAD_REACTORS
330
146C
102
}
330
146C
100
AcDbVisualStyle
  2
X-Ray
 70
    25
177
     3
291
     0
 70
    58
 90
        2
176
     1
 90
        2
176
     1
 90
        1
176
     1
 90
        1
176
     1
 40
0.5
176
     1
 40
30.0
176
     1
 62
     7
176
     1
 90
        1
176
     1
 90
        0
176
     1
 62
     7
176
     1
 62
   257
176
     1
 90
        1
176
     1
 90
        1
176
     1
 40
1.0
176
     1
 90
        8
176
     1
 62
     7
176
     1
 40
1.0
176
     1
 90
        1
176
     1
 90
        6
176
     1
 90
        2
176
     1
 62
     7
176
     1
 90
        3
176
     1
 90
        0
176
     1
 90
        0
176
     1
290
     0
176
     1
 90
       13
176
     1
 40
0.0
176
     1
 90
        0
176
     1
290
     0
176
     1
290
     1
176
     1
290
     1
176
     1
290
     0
176
     1
290
     0
176
     1
290
     0
176
     1
290
     0
176
     1
290
     0
176
     1
290
     0
176
     1
 90
       50
176
     1
 40
0.0
176
     1
 40
1.0
176
     1
 90
        0
176
     1
 62
    18
420
        0
176
     1
 90
       50
176
     1
 90
        3
176
     1
 62
     5
420
      255
176
     1
290
     0
176
     1
 90
       50
176
     1
 90
       50
176
     1
 90
       50
176
     1
290
     0
176
     1
 90
       50
176
     1
 62
   256
176
     0
 40
1.0
176
     0
 90
        2
176
     1
  1
strokes_ogs.tif
176
     1
290
     0
176
     1
 40
1.0
176
     1
 40
1.0
176
     1
1001
ACAD
1000
AcDbSavedByObjectVersion
1070
     0
  0
DICTIONARYVAR
  5
15F7
102
{ACAD_REACTORS
330
15F3
102
}
330
15F3
100
DictionaryVariables
280
     0
  1
1:1
  0
DICTIONARYVAR
  5
15F5
102
{ACAD_REACTORS
330
15F3
102
}
330
15F3
100
DictionaryVariables
280
     0
  1
STANDARD
  0
DICTIONARYVAR
  5
15F4
102
{ACAD_REACTORS
330
15F3
102
}
330
15F3
100
DictionaryVariables
280
     0
  1
STANDARD
  0
DICTIONARYVAR
  5
2B81
102
{ACAD_REACTORS
330
15F3
102
}
330
15F3
100
DictionaryVariables
280
     0
  1
ISO 128-34_2001
  0
DICTIONARYVAR
  5
2B82
102
{ACAD_REACTORS
330
15F3
102
}
330
15F3
100
DictionaryVariables
280
     0
  1
ISO 128-40_2001(E)
  0
DICTIONARYVAR
  5
1A68
102
{ACAD_REACTORS
330
15F3
102
}
330
15F3
100
DictionaryVariables
280
     0
  1
1
  0
DICTIONARYVAR
  5
1A67
102
{ACAD_REACTORS
330
15F3
102
}
330
15F3
100
DictionaryVariables
280
     0
  1
0
  0
DICTIONARYVAR
  5
15F9
102
{ACAD_REACTORS
330
15F3
102
}
330
15F3
100
DictionaryVariables
280
     0
  1
1
  0
DICTIONARYVAR
  5
15FA
102
{ACAD_REACTORS
330
15F3
102
}
330
15F3
100
DictionaryVariables
280
     0
  1
15
  0
DICTIONARYVAR
  5
15F8
102
{ACAD_REACTORS
330
15F3
102
}
330
15F3
100
DictionaryVariables
280
     0
  1
0
  0
DICTIONARYVAR
  5
15F6
102
{ACAD_REACTORS
330
15F3
102
}
330
15F3
100
DictionaryVariables
280
     0
  1
0
  0
DICTIONARYVAR
  5
2B83
102
{ACAD_REACTORS
330
15F3
102
}
330
15F3
100
DictionaryVariables
280
     0
  1
1
  0
DICTIONARYVAR
  5
1A66
102
{ACAD_REACTORS
330
15F3
102
}
330
15F3
100
DictionaryVariables
280
     0
  1
127
  0
DICTIONARY
  5
4A32
102
{ACAD_REACTORS
330
4A30
102
}
330
4A30
100
AcDbDictionary
281
     1
  0
DICTIONARY
  5
4A31
102
{ACAD_REACTORS
330
4A30
102
}
330
4A30
100
AcDbDictionary
281
     1
  3
2494712986672
350
4A2B
  3
2494712986688
350
4A2C
  3
2494712986704
350
4A2D
  3
2494712986720
350
4A2E
  3
2494712986736
350
4A2F
  0
ACAD_PROXY_OBJECT
  5
2BC8
102
{ACAD_REACTORS
330
151A
102
}
330
151A
100
AcDbProxyObject
 90
      499
 91
      568
 95
 11534369
 70
     0
162
                 0
161
                84
310
90100057356C1DD0422AAC
 94
        0
  0
DICTIONARY
  5
151B
102
{ACAD_REACTORS
330
151A
102
}
330
151A
100
AcDbDictionary
281
     1
  3
ISO
350
2BCE
  3
TSK
350
2E0E
  0
ACAD_PROXY_OBJECT
  5
2BA9
330
0
100
AcDbProxyObject
 90
      499
 91
      509
 95
 11534369
 70
     0
162
               234
311
43904010C01340114014C016401340108013C0130014C01240168011400C
161
                34
310
000101420C
330
2BA6
 94
        0
  0
ACAD_PROXY_OBJECT
  5
2BB7
330
0
100
AcDbProxyObject
 90
      499
 91
      560
 95
 11534369
 70
     0
162
               196
311
421040134010C01540148014C015001100103490053004F00C
161
                32
310
0001010100
330
2BA6
 94
        0
  0
ACAD_PROXY_OBJECT
  5
2BBA
330
0
100
AcDbProxyObject
 90
      499
 91
      560
 95
 11534369
 70
     0
162
               276
311
431040104010C013C01340140011001180138010401340114010443004F004D005000C
161
                32
310
0001010100
330
2BA6
 94
        0
  0
ACAD_PROXY_OBJECT
  5
2BBB
330
0
100
AcDbProxyObject
 90
      499
 91
      560
 95
 11534369
 70
     0
162
               308
311
4390401040118013C01300110011401480110011801380104013401140104D530A930EB30C030C
161
                32
310
0001010100
330
2BA6
 94
        0
  0
ACAD_PROXY_OBJECT
  5
2BBC
330
0
100
AcDbProxyObject
 90
      499
 91
      560
 95
 11534369
 70
     0
162
               260
311
431040104010401380138013C01100118013801040134011401035F0041005600C
161
                32
310
0001010100
330
2BA6
 94
        0
  0
ACAD_PROXY_OBJECT
  5
2BBD
330
0
100
AcDbProxyObject
 90
      499
 91
      560
 95
 11534369
 70
     0
162
               564
311
439040104010C013C01340140015801240114015C01300124014C01500114735E62970A00636B62970A00F353745062970A00E65D745062970A000B4E62970A00DC88A9523100C
161
                32
310
0001010100
330
2BA6
 94
        0
  0
ACAD_PROXY_OBJECT
  5
2BBE
330
0
100
AcDbProxyObject
 90
      499
 91
      509
 95
 11534369
 70
     0
162
               234
311
439040134014C014C0150014801040130015C01040164014C013C013800C
161
                26
310
0001018C
330
2BA6
 94
        0
  0
ACAD_PROXY_OBJECT
  5
2BC3
330
0
100
AcDbProxyObject
 90
      499
 91
      563
 95
 11534369
 70
     0
162
                 0
161
                32
310
0001000000
330
2BA6
340
2BC0
330
2BC4
330
2BC0
 94
        0
  0
ACAD_PROXY_OBJECT
  5
2BC4
330
0
100
AcDbProxyObject
 90
      499
 91
      564
 95
 11534369
 70
     0
162
               202
311
430C801340104011800B400D000C000B400C800C000C800C800C
161
                80
310
0001014140155005540000
330
2BA6
330
2BC3
330
0
 94
        0
  0
ACAD_PROXY_OBJECT
  5
2BC5
330
0
100
AcDbProxyObject
 90
      499
 91
      565
 95
 11534369
 70
     0
162
                 0
161
               178
310
000100AAAAAA854756201854C550EF74FC3D42123F164C
330
2BA6
330
2BC4
 94
        0
  0
ACAD_PROXY_OBJECT
  5
2BC6
330
0
100
AcDbProxyObject
 90
      499
 91
      566
 95
 11534369
 70
     0
162
                 0
161
               108
310
000190140A000000000000AAAAAC
330
2BA6
330
2BC7
330
2BC7
330
2BC7
330
2BC7
330
2BC7
330
0
 94
        0
  0
ACAD_PROXY_OBJECT
  5
2BC7
330
0
100
AcDbProxyObject
 90
      499
 91
      567
 95
 11534369
 70
     0
162
                 0
161
                51
310
00010000AAAA8C
330
2BA6
330
2BC6
330
2BC4
 94
        0
  0
DICTIONARY
  5
2BA2
102
{ACAD_REACTORS
330
14A9
102
}
330
14A9
100
AcDbDictionary
281
     1
  3
DWGSETTINGS
350
2BA3
  3
TRANSSETTINGS
350
2BA4
  0
ACAD_PROXY_OBJECT
  5
2BE1
102
{ACAD_REACTORS
330
14A9
102
}
330
14A9
100
AcDbProxyObject
 90
      499
 91
      513
 95
 11534369
 70
     0
162
             15940
311
404C0010441004D005F0030009013100411040134017C00C402404C8010441004D005F0032009013300411040134017C00CC02404D0010441004D005F0034009013500411040134017C00D402404D8010441004D005F0036009013700411040134017C00DC02404E0010441004D005F0038009013900411040134017C00E40
311
2408C80104010541004D005F003100300090234004100415040134017C00C400C402409240140010541004D005F003100320090230004E00415040134017C00C0013802408C40138010541004D005F0031004E0090232004E00415040134017C00C8013802408CC0138010541004D005F0033004E0090234004E0041504013
311
4017C00D0013802408D40138010541004D005F0035004E0090236004E00415040134017C00D8013802408DC0138010541004D005F0037004E0090238004E00415040134017C00E0013802408E40138010541004D005F0039004E00903320041004E00419040134017C00C400C001380240CD001040138010641004D005F003
311
10031004E00903490050004E00419040134017C00C400C80138024112C013001240138010541004D005F0043004C0090449004E0046004F00421040134017C01400104014801140118024154801040120013400D4010641004D005F0042004F0052009045600490045005700421040134017C015801240114015C014C02419
311
0801140120012401380110010641004D005F0049004E00560090554005200410049004C00415040134017C015001480240D2001240110010641004D005F00480049004400903560049005300419040134017C01580124014C024194001040148011001240134010941004D005F00500041005200440049004D009065200450
311
04600440049004D00425040134017C01480114011801100124013402411080120013801580101390041508012001380158014C010642004500480049004E00440041108013C014800C801055200410048004D00350041108013C014800CC01055200410048004D00350041108013C014800D401055200410048004D0035004
311
110C0104013000C8010134004110C0104013000CC010134004110C0104013000D4010134004110C0104013000DC010134004110C011401380138010137004110C01140138015C010137004110C01300124013801044B004C0049004E004110C013C013800C4010130004110C013C013800C8010131004110C013C013800CC0
311
10132004110C013C013800D00101320041110011401500104010134004111001240104011C010135004111001240130012401013500411100124013401400106500041005200440049004D00411100124013401480106520045004600440049004D00411180114013401380101380041518011401340140013801013800415
311
1801140134014C01400102340041004151801140134014C015001023400410041518011401340158013801013200415180114013401580150010132004112001040150010C0101380041120012401100138010133004112001240110015C01013300411200130012401380101340041120013C010C01380101370041120013
311
C010C015C010137004112401380118013C010449004E0046004F00411300114010401100101350041938017C0108012001380158010239004E0041938017C010C013C013800C4010230004E0041938017C010C013C013800C8010231004E0041938017C010C013C013800CC010232004E0041938017C010C013C013800D001
311
0232004E0041938017C010C011401380138010237004E0041938017C010C01140138015C010237004E0041938017C0110012401300124010235004E0041938017C012001040150010C010238004E0041938017C0120012401100138010233004E0041938017C012001240110015C010233004E0041938017C0130011401040
311
110010235004E0041938017C0138011C012401400103490050004E0041938017C01400120010401380103340041004E0041938017C0150010C013C0138010230004E0041938017C0150012001300124010234004E0041938017C0150013001140138010230004E0041938017C01580140013001240103320041004E0041138
311
011C01240140010249005000411400104013000C801055200410048004D003500411400104013000CC01055200410048004D003500411400104013000D401055200410048004D0035004114001200104013801023400410041140013C014C01380101350041148010C011C01380101370041148010C011C015C01013700411
311
4C01080148012C010134004114C0114010C0150010134004114C0164010800CC0101350041134014C016401340101350041150010C013C0138010130004115001200130012401013400411500124015000C801055200410048004D003500411500124015000CC01055200410048004D003500411500124015000D401055200
311
410048004D0035004115001300114013801013000415500148010401240130010554005200410049004C004115001480130012401013400411500160015000C401013600411500160015000C801013600411500160015000CC01013600411500160015000D401013600411500160015000DC010136004115801240114015C0
311
10456004900450057004115801140110012001034800490044004115801140110015801035600490053004115801400130012401023200410041168012401680104010134004114C014001300124010232004100404FC02C
161
              8972
310
4250249201C00030C01325C203800030C01325C201400030C01325C201800030C0119A00C00030C0119A00C00030C0119A00800030C0123A01000030C0119A00400030C0119A3F400030C0241201C00030C0132A00C00030C0119A01C00030C013240A01C00030C0132A03800030C0132A01400030C0132A01800030C0119A
310
00C00030C0119A00C00030C0119A00800030C0123A01000030C0119A00400030C0119A3F400030C0241201C00030C0132A00C00030C0119A01C00030C013240A00400030C011942601000030C011942E01C00030C013242600400030C011942E3F400030C0243600C00030C011942601C00030C011942601C00030C0132426
310
00C00030C011942601000030C0119425548000000C0003FFFFFFFE8000000C0003FFFFFFFE8010000C3004668020000C30048E8000000C0003FFFFFFFE8000000C0003FFFFFFFE8020000C30048E8070000C3004CA81E0000C30051A8000000C0003FFFFFFFE8000000C0003FFFFFFFE8000000C0003FFFFFFFE8000000C00
310
03FFFFFFFD038000000C0003FFFFFFFD038000000C0003FFFFFFFD038000000C0003FFFFFFFD038030000C3004668000000C0003FFFFFFFE8000000C0003FFFFFFFE8000000C0003FFFFFFFE8000000C0003FFFFFFFE8000000C0003FFFFFFFE8030000C3003FFFFFFFE8000000C0003FFFFFFFE8030000C3004668000000C
310
0003FFFFFFFE8030000C3004668000000C0003FFFFFFFD018000000C0003FFFFFFFD038000000C0003FFFFFFFD038000000C0003FFFFFFFD018000000C0003FFFFFFFE8000000C0003FFFFFFFE8000000C0003FFFFFFFE8000000C0003FFFFFFFE8000000C0003FFFFFFFE8000000C0003FFFFFFFD038000000C0003FFFFFF
310
FD038000000C0003FFFFFFFD038000000C0003FFFFFFFD038000000C0003FFFFFFFE8000000C0003FFFFFFFE8000000C0003FFFFFFFE8000000C0003FFFFFFFD018000000C0003FFFFFFFD038000000C0003FFFFFFFD038000000C0003FFFFFFFE8000000C0003FFFFFFFE8000000C0003FFFFFFFE8000000C0003FFFFFFFD
310
038000000C0003FFFFFFFD018000000C0003FFFFFFFD038000000C0003FFFFFFFE8000000C0003FFFFFFFE8010000C3003FFFFFFFE8020000C3003FFFFFFFE8070000C3003FFFFFFFE8000000C0003FFFFFFFE8000000C0003FFFFFFFE8000000C0003FFFFFFFE8000000C0003FFFFFFFE8000000C0003FFFFFFFD01800000
310
0C0003FFFFFFFD018020000C30048E8020000C3003FFFFFFFE8000000C0003FFFFFFFD038000000C0003FFFFFFFD018010000C3004668020000C30048E8000000C0003FFFFFFFE8000000C0003FFFFFFFD038000000C0003FFFFFFFE8000000C0003FFFFFFFD018030000C3004668030000C3004668000000C0003FFFFFFFE
310
8070000C3004CA81E0000C30051A8000000C0003FFFFFFFE8000000C0003FFFFFFFD028000000C0003FFFFFFFD028070000C3004CA8000000C0003FFFFFFFD018010000C3004CAAAA3F400030C010A4393241532409234794641D3241119405197F64191940D1980200C
340
28
340
28
340
28
340
2BE2
340
28
340
28
340
28
340
2BE3
340
28
340
28
340
2BE3
340
2BE4
340
28
340
28
340
28
340
28
340
2BE2
340
28
340
28
340
28
340
2BE3
340
28
340
28
340
2BE3
340
2BE4
340
28
340
2BE5
340
28
340
28
340
28
340
28
340
28
340
2BE2
340
28
340
28
340
28
340
27
340
27
340
27
340
27
340
27
340
27
340
27
340
27
340
27
340
2BE6
340
27
340
27
340
27
340
27
340
27
340
27
340
28
340
27
340
27
340
27
340
27
340
27
340
27
340
28
340
27
340
27
340
27
340
27
340
2BE7
340
27
340
27
340
2BE6
340
27
340
27
340
27
340
27
340
27
340
27
340
27
340
27
340
2BE6
340
27
340
27
340
27
340
2BE7
340
27
340
27
340
27
340
27
340
27
340
27
340
27
340
27
340
27
340
28
340
28
340
28
340
27
340
27
340
2BE6
340
27
340
27
340
27
340
27
340
27
340
27
340
27
340
27
340
27
340
27
340
27
340
27
340
27
340
27
340
27
340
27
340
27
340
27
340
27
340
27
340
27
340
2BE3
340
2BEA
340
2BE3
 94
        0
  0
DICTIONARY
  5
4A3E
330
2C4B
100
AcDbDictionary
280
     1
281
     1
  3
ACAD_XREC_ROUNDTRIP
360
4A3F
  0
DICTIONARY
  5
4A37
330
2BFD
100
AcDbDictionary
280
     1
281
     1
  3
ACAD_XREC_ROUNDTRIP
360
4A38
  0
DICTIONARY
  5
4A40
330
2C4C
100
AcDbDictionary
280
     1
281
     1
  3
ACAD_XREC_ROUNDTRIP
360
4A41
  0
DICTIONARY
  5
4A35
330
2B6C
100
AcDbDictionary
280
     1
281
     1
  3
ACAD_XREC_ROUNDTRIP
360
4A36
  0
DICTIONARY
  5
4A42
330
2C4D
100
AcDbDictionary
280
     1
281
     1
  3
ACAD_XREC_ROUNDTRIP
360
4A43
  0
DICTIONARY
  5
21E0
330
149F
100
AcDbDictionary
280
     1
281
     1
  0
DICTIONARY
  5
145D
330
145C
100
AcDbDictionary
280
     1
281
     1
  3
BUMPTILE
360
145F
  3
DIFFUSETILE
360
145E
  3
OPACITYTILE
360
1462
  3
REFLECTIONTILE
360
1461
  3
REFRACTIONTILE
360
1463
  3
SPECULARTILE
360
1460
  0
DICTIONARY
  5
1455
330
1454
100
AcDbDictionary
280
     1
281
     1
  3
BUMPTILE
360
1457
  3
DIFFUSETILE
360
1456
  3
OPACITYTILE
360
145A
  3
REFLECTIONTILE
360
1459
  3
REFRACTIONTILE
360
145B
  3
SPECULARTILE
360
1458
  0
DICTIONARY
  5
1465
330
1464
100
AcDbDictionary
280
     1
281
     1
  3
BUMPTILE
360
1467
  3
DIFFUSETILE
360
1466
  3
OPACITYTILE
360
146A
  3
REFLECTIONTILE
360
1469
  3
REFRACTIONTILE
360
146B
  3
SPECULARTILE
360
1468
  0
DICTIONARY
  5
4A3A
330
2C3E
100
AcDbDictionary
280
     1
281
     1
  3
ACAD_XREC_ROUNDTRIP
360
4A3B
  0
DICTIONARY
  5
2BFF
330
2BFE
100
AcDbDictionary
280
     1
281
     1
  3
ACAD_FIELD
360
2C00
  3
ACAD_XREC_ROUNDTRIP
360
4A39
  0
DICTIONARY
  5
2C40
330
2C3F
100
AcDbDictionary
280
     1
281
     1
  3
ACAD_FIELD
360
2C41
  3
ACAD_XREC_ROUNDTRIP
360
4A3C
  0
DICTIONARY
  5
4A33
330
2B6A
100
AcDbDictionary
280
     1
281
     1
  3
ACAD_XREC_ROUNDTRIP
360
4A34
  0
DICTIONARY
  5
2C46
330
2C45
100
AcDbDictionary
280
     1
281
     1
  3
ACAD_FIELD
360
2C47
  3
ACAD_XREC_ROUNDTRIP
360
4A3D
  0
DICTIONARY
  5
1A28
330
1487
100
AcDbDictionary
280
     1
281
     1
  3
ACAD_ROUNDTRIP_2008_TABLESTYLE_CELLSTYLEMAP
360
4A29
  0
XRECORD
  5
4A2B
102
{ACAD_REACTORS
330
4A31
102
}
330
4A31
100
AcDbXrecord
280
     1
  1
AcDb_Thumbnail_Schema
102
{ATTRRECORD
341
4A2C
  2
AcDbDs::TreatedAsObjectData
280
     1
291
     1
102
ATTRRECORD}
102
{ATTRRECORD
341
4A2D
  2
AcDbDs::Legacy
280
     1
291
     1
102
ATTRRECORD}
  2
AcDbDs::ID
280
    10
 91
        8
102
{ATTRRECORD
341
4A2E
  2
AcDs:Indexable
280
     1
291
     1
102
ATTRRECORD}
102
{ATTRRECORD
341
4A2F
  2
AcDbDs::HandleAttribute
280
     7
282
     1
102
ATTRRECORD}
  2
Thumbnail_Data
280
    15
 91
        0
  0
XRECORD
  5
4A2C
102
{ACAD_REACTORS
330
4A31
102
}
330
4A31
100
AcDbXrecord
280
     1
  1
AcDbDs::TreatedAsObjectDataSchema
  2
AcDbDs::TreatedAsObjectData
280
     1
 91
        0
  0
XRECORD
  5
4A2D
102
{ACAD_REACTORS
330
4A31
102
}
330
4A31
100
AcDbXrecord
280
     1
  1
AcDbDs::LegacySchema
  2
AcDbDs::Legacy
280
     1
 91
        0
  0
XRECORD
  5
4A2E
102
{ACAD_REACTORS
330
4A31
102
}
330
4A31
100
AcDbXrecord
280
     1
  1
AcDbDs::IndexedPropertySchema
  2
AcDs:Indexable
280
     1
 91
        0
  0
XRECORD
  5
4A2F
102
{ACAD_REACTORS
330
4A31
102
}
330
4A31
100
AcDbXrecord
280
     1
  1
AcDbDs::HandleAttributeSchema
  2
AcDbDs::HandleAttribute
280
     7
 91
        1
284
     1
  0
ACAD_PROXY_OBJECT
  5
2BCE
102
{ACAD_REACTORS
330
151B
102
}
330
151B
100
AcDbProxyObject
 90
      499
 91
      523
 95
 11534369
 70
     0
162
              3904
311
40D24014C013C0242D0401B4019001D001140190019C0194014C01D00190010E410063006D005300750072006600540065007800740053007400640042504018C01B40118010C0118014C01D00190010D410063006D00570065006C00640069006E00670053007400640042104018C01B401240190014C01D00190010B4100
311
63006D0044006100740075006D0053007400640042504018C01B40108013C0134014C01D00190011041006D0064007400440065007400610069006C00530079006D005300740064004450401B4019001D0014C0194018C01D001A401BC01B8014C01E401B4014C01D00190011141006D0064007400430065006E0074006500
311
72004C0069006E0065005300740064004450401B4019001D0015001A001C8019401840190013001A401B80194014C01D00190010B41006D00640074004E006F007400650053007400640042D04018C01B40150018401C0019401C8014C01D00190010D41006D006400740041006E00560069006500770053007400640042D0
311
4018C010401B4019C0130018401E4014C01D00190010D4100630041006D0067005400690074006C00650053007400640042D04018C010401B4019C011001A401B4014C01D0019001114100630041006D00670048006F006C0065004300680061007200740053007400640029
161
               737
310
7400000000000000C408000000C00040540600800030C02000000300000000000000000C40C95224812028120281202812028120281202812028120881208812028120281202812028120281202812028120281203204809FFFE7FFFCC
340
23
360
2BCF
360
2BD0
360
2BD1
360
2BD2
360
2BD3
360
2BD4
360
2BD5
360
2BD6
360
2BF7
360
2E2A
360
2E2B
360
2BD7
360
2BF6
360
2E28
360
2E29
360
2BD8
360
2BD9
360
2BDA
360
2BDB
360
2BDC
360
2BDD
360
2BDE
360
2BDF
360
2BF5
340
2BE0
340
0
340
27
340
27
 94
        0
  0
ACAD_PROXY_OBJECT
  5
2E0E
102
{ACAD_REACTORS
330
151B
102
}
330
151B
100
AcDbProxyObject
 90
      499
 91
      543
 95
 11534369
 70
     0
162
              3904
311
40D50014C012C0243904018C01B4014C01D401C801980150019401E001D0014C01D001900109410063006D0046004300460053007400640043504018C01B4015C019401B0019001A401B8019C014C01D001900108410063006D004900640053007400640042D04018C01B40110018401D001D401B4014C01D0019001094100
311
63006D0042004F004D005300740064004410401B4019001D00110019401D0018401A401B0014C01E401B4014C01D00190011141006D0064007400530065006300740069006F006E00530079006D005300740064004450401B4019001D0010C019401B801D0019401C8013001A401B80194014C01D00190010B41006D006400
311
74004E006F007400650053007400640042D04018C010401B4019C0130018401E4014C01D00190010B4100630041006D006700440069006D0053007400640044504018C010401B4019C012001BC01B00194010C01A0018401C801D0014C01D00190010D4100630041006D0067005400690074006C0065005300740064004450
311
401B4019001D0015001A001C8019401840190013001A401B80194014C01D00190010B410063006D00540061007000650072005300740064004350401B4019001D0010401B8015801A4019401DC014C01D00190010B41006D0064007400450064006700650053007400640000
161
               745
310
74033333333333309408030000C30040540600800030C0200800030C003333333333330940C8122481202812028120281202812028120281208812088120281202812028120281202812028120281202812028120280A04809FFFE7FFFCC
340
2C2E
360
2E0F
360
2E10
360
2E11
360
2E12
360
2E13
360
2E14
360
2E15
360
2E16
360
2E17
360
2E18
360
2E19
360
2E1A
360
2E1B
360
2E1C
360
2E1D
360
2E1E
360
2E1F
360
2E20
360
2E21
360
2E22
360
2E23
360
2E24
360
2E25
360
2E26
340
0
340
0
340
28
340
28
 94
        0
  0
ACAD_PROXY_OBJECT
  5
2BA3
102
{ACAD_REACTORS
330
2BA2
102
}
330
2BA2
100
AcDbProxyObject
 90
      499
 91
      511
 95
 11534369
 70
     0
162
              3996
311
42D10015C011C014C01140150015001240138011C014C0109430041004E00470041005200520041005900420CC00C001F000D000D401F000D800C00106430045004E0041004E004700424D000D401F000E400C001F000C400CC00D40106430045004E0044004900410041D0C01140138011001240104014C0108310030007C
311
00320030007C003300300041D0C0114013801100124014C01500106430045004E004C0045004E004190C01140138013C01180118010E4300480041004D00460045005200440049004D004D004F00440045004550C0120010401340118011401480110012401340134013C01100114011001140118010401540130015001094
311
3004C0049004E0041005200520041005900420C400C001F000C800C001F000CC00C0010843004C0049004E004500540059005000415600130012401380114010944005700470055005300430041004C00450041D300104014C0150013C0108012801013000421340104012C0114015801240114015C0106500053004300410
311
04C00450041948011401580124014C0124010130004154C010C010401300114010331003A00310042550012401340114014C01500104013401400107560045005200530049004F004E00414C400D400B800C000C001107B00440057004700530045005400540049004E004700530045004E0044007D00C
161
               572
310
40682A0A940000000000000488082A5000000000000004202500000000000001220250000000000000122027F27F20A82A50A0A9FA040C0080001054152818B7334CA8121CD0505C
 94
        0
  0
ACAD_PROXY_OBJECT
  5
2BA4
102
{ACAD_REACTORS
330
2BA2
102
}
330
2BA2
100
AcDbProxyObject
 90
      499
 91
      511
 95
 11534369
 70
     0
162
              1382
311
43550014801040138014C014C01140150015001240138011C014C0112440052004100570049004E0047005400520041004E0053004C004100540049004F004E004353C01480124011C012401380104013001300164017C013C0138010A53004F0055005200430045004C0041004E00470040D2801400138010955005000520
311
0450053004500520056004500441EC0110015C011C014C01140150015001240138011C014C01140138011001F400
161
               126
310
4060C00800041801000020A0C0080000
 94
        0
  0
XRECORD
  5
4A3F
102
{ACAD_REACTORS
330
4A3E
102
}
330
4A3E
100
AcDbXrecord
280
     1
102
DISPLAYNAME
  1
Imperial24
102
FLAGS
 90
        0
  0
XRECORD
  5
4A38
102
{ACAD_REACTORS
330
4A37
102
}
330
4A37
100
AcDbXrecord
280
     1
102
DISPLAYNAME
  1
ISO 128-34:2001
102
FLAGS
 90
        1
  0
XRECORD
  5
4A41
102
{ACAD_REACTORS
330
4A40
102
}
330
4A40
100
AcDbXrecord
280
     1
102
DISPLAYNAME
  1
ISO 128-34:2001(1)
102
FLAGS
 90
        0
  0
XRECORD
  5
4A36
102
{ACAD_REACTORS
330
4A35
102
}
330
4A35
100
AcDbXrecord
280
     1
102
DISPLAYNAME
  1
Metric50
102
FLAGS
 90
        0
  0
XRECORD
  5
4A43
102
{ACAD_REACTORS
330
4A42
102
}
330
4A42
100
AcDbXrecord
280
     1
102
DISPLAYNAME
  1
TSK: JIS Z 8316 : 1999
102
FLAGS
 90
        1
  0
XRECORD
  5
145F
102
{ACAD_REACTORS
330
145D
102
}
330
145D
100
AcDbXrecord
280
     1
270
     1
271
     1
  0
XRECORD
  5
145E
102
{ACAD_REACTORS
330
145D
102
}
330
145D
100
AcDbXrecord
280
     1
270
     1
271
     1
  0
XRECORD
  5
1462
102
{ACAD_REACTORS
330
145D
102
}
330
145D
100
AcDbXrecord
280
     1
270
     1
271
     1
  0
XRECORD
  5
1461
102
{ACAD_REACTORS
330
145D
102
}
330
145D
100
AcDbXrecord
280
     1
270
     1
271
     1
  0
XRECORD
  5
1463
102
{ACAD_REACTORS
330
145D
102
}
330
145D
100
AcDbXrecord
280
     1
270
     1
271
     1
  0
XRECORD
  5
1460
102
{ACAD_REACTORS
330
145D
102
}
330
145D
100
AcDbXrecord
280
     1
270
     1
271
     1
  0
XRECORD
  5
1457
102
{ACAD_REACTORS
330
1455
102
}
330
1455
100
AcDbXrecord
280
     1
270
     1
271
     1
  0
XRECORD
  5
1456
102
{ACAD_REACTORS
330
1455
102
}
330
1455
100
AcDbXrecord
280
     1
270
     1
271
     1
  0
XRECORD
  5
145A
102
{ACAD_REACTORS
330
1455
102
}
330
1455
100
AcDbXrecord
280
     1
270
     1
271
     1
  0
XRECORD
  5
1459
102
{ACAD_REACTORS
330
1455
102
}
330
1455
100
AcDbXrecord
280
     1
270
     1
271
     1
  0
XRECORD
  5
145B
102
{ACAD_REACTORS
330
1455
102
}
330
1455
100
AcDbXrecord
280
     1
270
     1
271
     1
  0
XRECORD
  5
1458
102
{ACAD_REACTORS
330
1455
102
}
330
1455
100
AcDbXrecord
280
     1
270
     1
271
     1
  0
XRECORD
  5
1467
102
{ACAD_REACTORS
330
1465
102
}
330
1465
100
AcDbXrecord
280
     1
270
     1
271
     1
  0
XRECORD
  5
1466
102
{ACAD_REACTORS
330
1465
102
}
330
1465
100
AcDbXrecord
280
     1
270
     1
271
     1
  0
XRECORD
  5
146A
102
{ACAD_REACTORS
330
1465
102
}
330
1465
100
AcDbXrecord
280
     1
270
     1
271
     1
  0
XRECORD
  5
1469
102
{ACAD_REACTORS
330
1465
102
}
330
1465
100
AcDbXrecord
280
     1
270
     1
271
     1
  0
XRECORD
  5
146B
102
{ACAD_REACTORS
330
1465
102
}
330
1465
100
AcDbXrecord
280
     1
270
     1
271
     1
  0
XRECORD
  5
1468
102
{ACAD_REACTORS
330
1465
102
}
330
1465
100
AcDbXrecord
280
     1
270
     1
271
     1
  0
XRECORD
  5
4A3B
102
{ACAD_REACTORS
330
4A3A
102
}
330
4A3A
100
AcDbXrecord
280
     1
102
DISPLAYNAME
  1
Imperial24
102
FLAGS
 90
        0
  0
DICTIONARY
  5
2C00
102
{ACAD_REACTORS
330
2BFF
102
}
330
2BFF
100
AcDbDictionary
280
     1
281
     1
  3
TEXT
360
2C01
  0
XRECORD
  5
4A39
102
{ACAD_REACTORS
330
2BFF
102
}
330
2BFF
100
AcDbXrecord
280
     1
102
DISPLAYNAME
  1
ISO 128-40:2001(E)
102
FLAGS
 90
        1
  0
DICTIONARY
  5
2C41
102
{ACAD_REACTORS
330
2C40
102
}
330
2C40
100
AcDbDictionary
280
     1
281
     1
  3
TEXT
360
2C42
  0
XRECORD
  5
4A3C
102
{ACAD_REACTORS
330
2C40
102
}
330
2C40
100
AcDbXrecord
280
     1
102
DISPLAYNAME
  1
ISO 128-40:2001(E)(1)
102
FLAGS
 90
        0
  0
XRECORD
  5
4A34
102
{ACAD_REACTORS
330
4A33
102
}
330
4A33
100
AcDbXrecord
280
     1
102
DISPLAYNAME
  1
Metric50
102
FLAGS
 90
        0
  0
DICTIONARY
  5
2C47
102
{ACAD_REACTORS
330
2C46
102
}
330
2C46
100
AcDbDictionary
280
     1
281
     1
  3
TEXT
360
2C48
  0
XRECORD
  5
4A3D
102
{ACAD_REACTORS
330
2C46
102
}
330
2C46
100
AcDbXrecord
280
     1
102
DISPLAYNAME
  1
TSK: JIS  B 0001 : 2000
102
FLAGS
 90
        1
  0
CELLSTYLEMAP
  5
4A29
102
{ACAD_REACTORS
330
1A28
102
}
330
1A28
100
AcDbCellStyleMap
 90
        3
300
CELLSTYLE
  1
TABLEFORMAT_BEGIN
 90
        5
170
     1
 91
        0
 92
    32768
 62
   257
 93
        1
300
CONTENTFORMAT
  1
CONTENTFORMAT_BEGIN
 90
        0
 91
        0
 92
      512
 93
        0
300

 40
0.0
140
1.0
 94
        5
 62
     0
340
23
144
6.0
309
CONTENTFORMAT_END
171
     1
301
MARGIN
  1
CELLMARGIN_BEGIN
 40
1.5
 40
1.5
 40
1.5
 40
1.5
 40
4.5
 40
4.5
309
CELLMARGIN_END
 94
        6
 95
        1
302
GRIDFORMAT
  1
GRIDFORMAT_BEGIN
 90
        0
 91
        1
 62
     0
 92
       -2
340
0
 93
        0
 40
1.125
309
GRIDFORMAT_END
 95
        2
302
GRIDFORMAT
  1
GRIDFORMAT_BEGIN
 90
        0
 91
        1
 62
     0
 92
       -2
340
0
 93
        0
 40
1.125
309
GRIDFORMAT_END
 95
        4
302
GRIDFORMAT
  1
GRIDFORMAT_BEGIN
 90
        0
 91
        1
 62
     0
 92
       -2
340
0
 93
        0
 40
1.125
309
GRIDFORMAT_END
 95
        8
302
GRIDFORMAT
  1
GRIDFORMAT_BEGIN
 90
        0
 91
        1
 62
     0
 92
       -2
340
0
 93
        0
 40
1.125
309
GRIDFORMAT_END
 95
       16
302
GRIDFORMAT
  1
GRIDFORMAT_BEGIN
 90
        0
 91
        1
 62
     0
 92
       -2
340
0
 93
        0
 40
1.125
309
GRIDFORMAT_END
 95
       32
302
GRIDFORMAT
  1
GRIDFORMAT_BEGIN
 90
        0
 91
        1
 62
     0
 92
       -2
340
0
 93
        0
 40
1.125
309
GRIDFORMAT_END
309
TABLEFORMAT_END
  1
CELLSTYLE_BEGIN
 90
        1
 91
        1
300
_TITLE
309
CELLSTYLE_END
300
CELLSTYLE
  1
TABLEFORMAT_BEGIN
 90
        5
170
     1
 91
        0
 92
        0
 62
   257
 93
        1
300
CONTENTFORMAT
  1
CONTENTFORMAT_BEGIN
 90
        0
 91
        0
 92
      512
 93
        0
300

 40
0.0
140
1.0
 94
        5
 62
     0
340
23
144
4.5
309
CONTENTFORMAT_END
171
     1
301
MARGIN
  1
CELLMARGIN_BEGIN
 40
1.5
 40
1.5
 40
1.5
 40
1.5
 40
4.5
 40
4.5
309
CELLMARGIN_END
 94
        6
 95
        1
302
GRIDFORMAT
  1
GRIDFORMAT_BEGIN
 90
        0
 91
        1
 62
     0
 92
       -2
340
0
 93
        0
 40
1.125
309
GRIDFORMAT_END
 95
        2
302
GRIDFORMAT
  1
GRIDFORMAT_BEGIN
 90
        0
 91
        1
 62
     0
 92
       -2
340
0
 93
        0
 40
1.125
309
GRIDFORMAT_END
 95
        4
302
GRIDFORMAT
  1
GRIDFORMAT_BEGIN
 90
        0
 91
        1
 62
     0
 92
       -2
340
0
 93
        0
 40
1.125
309
GRIDFORMAT_END
 95
        8
302
GRIDFORMAT
  1
GRIDFORMAT_BEGIN
 90
        0
 91
        1
 62
     0
 92
       -2
340
0
 93
        0
 40
1.125
309
GRIDFORMAT_END
 95
       16
302
GRIDFORMAT
  1
GRIDFORMAT_BEGIN
 90
        0
 91
        1
 62
     0
 92
       -2
340
0
 93
        0
 40
1.125
309
GRIDFORMAT_END
 95
       32
302
GRIDFORMAT
  1
GRIDFORMAT_BEGIN
 90
        0
 91
        1
 62
     0
 92
       -2
340
0
 93
        0
 40
1.125
309
GRIDFORMAT_END
309
TABLEFORMAT_END
  1
CELLSTYLE_BEGIN
 90
        2
 91
        1
300
_HEADER
309
CELLSTYLE_END
300
CELLSTYLE
  1
TABLEFORMAT_BEGIN
 90
        5
170
     1
 91
        0
 92
        0
 62
   257
 93
        1
300
CONTENTFORMAT
  1
CONTENTFORMAT_BEGIN
 90
        0
 91
        0
 92
      512
 93
        0
300

 40
0.0
140
1.0
 94
        2
 62
     0
340
23
144
4.5
309
CONTENTFORMAT_END
171
     1
301
MARGIN
  1
CELLMARGIN_BEGIN
 40
1.5
 40
1.5
 40
1.5
 40
1.5
 40
4.5
 40
4.5
309
CELLMARGIN_END
 94
        6
 95
        1
302
GRIDFORMAT
  1
GRIDFORMAT_BEGIN
 90
        0
 91
        1
 62
     0
 92
       -2
340
0
 93
        0
 40
1.125
309
GRIDFORMAT_END
 95
        2
302
GRIDFORMAT
  1
GRIDFORMAT_BEGIN
 90
        0
 91
        1
 62
     0
 92
       -2
340
0
 93
        0
 40
1.125
309
GRIDFORMAT_END
 95
        4
302
GRIDFORMAT
  1
GRIDFORMAT_BEGIN
 90
        0
 91
        1
 62
     0
 92
       -2
340
0
 93
        0
 40
1.125
309
GRIDFORMAT_END
 95
        8
302
GRIDFORMAT
  1
GRIDFORMAT_BEGIN
 90
        0
 91
        1
 62
     0
 92
       -2
340
0
 93
        0
 40
1.125
309
GRIDFORMAT_END
 95
       16
302
GRIDFORMAT
  1
GRIDFORMAT_BEGIN
 90
        0
 91
        1
 62
     0
 92
       -2
340
0
 93
        0
 40
1.125
309
GRIDFORMAT_END
 95
       32
302
GRIDFORMAT
  1
GRIDFORMAT_BEGIN
 90
        0
 91
        1
 62
     0
 92
       -2
340
0
 93
        0
 40
1.125
309
GRIDFORMAT_END
309
TABLEFORMAT_END
  1
CELLSTYLE_BEGIN
 90
        3
 91
        2
300
_DATA
309
CELLSTYLE_END
  0
ACAD_PROXY_OBJECT
  5
2BCF
330
2BCE
100
AcDbProxyObject
 90
      499
 91
      601
 95
 11534369
 70
     0
162
                 0
161
               249
310
7400000000000000C400000000000000310200800030C02000000300012AFBCC
 94
        0
  0
ACAD_PROXY_OBJECT
  5
2BD0
330
2BCE
100
AcDbProxyObject
 90
      499
 91
      602
 95
 11534369
 70
     0
162
              2608
311
415480184008000D400C001055200610020003200350041D480184008000C400C800B800D4010652006100200036002E003300419480184008000CC00B800C8010652006100200031002E003600419480184008000C000B800E0010652006100200030002E003400419480184008000C000B800C8010652006100200030002
311
E00310041D480184008000C000B800C000D4010852006100200030002E00300032003500415480184008000D400C001055200610020003200350041D480184008000C400C800B800D4010652006100200036002E003300419480184008000CC00B800C8010652006100200031002E003600419480184008000C000B800E001
311
0652006100200030002E003400419480184008000C000B800C8010652006100200030002E00310041D480184008000C000B800C000D4010852006100200030002E0030003200350073
161
               517
310
7400000000000000C400000000000000310200800030C02000000300012AFD41D01405014050140501E83C80A0481A0882A0C86219555400000000000006205214
 94
        0
  0
ACAD_PROXY_OBJECT
  5
2BD1
330
2BCE
100
AcDbProxyObject
 90
      499
 91
      603
 95
 11534369
 70
     0
162
                 0
161
               806
310
7400000000000000C400000000000000310200800030C02000000300012AFA1E80A0280A0280A0280A0280A0280A0280A0280A3080A0280A0280A0280A0280A0280A0280A0280A0280A0280A0280A0280A0258000000000000008000000000000006205214
340
2BF9
 94
        0
  0
ACAD_PROXY_OBJECT
  5
2BD2
330
2BCE
100
AcDbProxyObject
 90
      499
 91
      604
 95
 11534369
 70
     0
162
                 0
161
               840
310
7400000000000000C400000000000000310200800030C02000000300012AFD0CCCCCCCCCCCF4CFC333333333333D33FA4C80A0280A0280A0280A0280A0280A0280A0280A0280A0280A0280A0280A0280A0280A0280A0280A0280A0280A0280A024CDCCCCCCCCCCF03F00
340
2BFA
340
2BF9
 94
        0
  0
ACAD_PROXY_OBJECT
  5
2BD3
330
2BCE
100
AcDbProxyObject
 90
      499
 91
      605
 95
 11534369
 70
     0
162
                 0
161
               323
310
7400000000000000C400000000000000310200800030C02000000300012AFA4200000000000003102C
340
2BFB
 94
        0
  0
ACAD_PROXY_OBJECT
  5
2BD4
330
2BCE
100
AcDbProxyObject
 90
      499
 91
      606
 95
 11534369
 70
     0
162
                 0
161
               493
310
7400000000000000C400000000000000310200800030C02000000300012AFC521D4454FB21E93F00000000000002102800000000000008408020000C300C
340
2BFC
340
2BFB
 94
        0
  0
ACAD_PROXY_OBJECT
  5
2BD5
330
2BCE
100
AcDbProxyObject
 90
      499
 91
      530
 95
 11534369
 70
     0
162
             22438
311
4112401500114013401020598EE764C51C01140138015001480104010C013C00B001280140013800B000C000B0001663B9D8B0011C011401380150014801040150016000B0009401CC00B000A0011C011401380134014C011C0080019C019401B8019001DC019C008000C800C800C800A402903510054005900409C1973E45
311
31470045004E0054005200410043004F002C004A0050004E002C0030002C007065CF912C00470045004E00540052004100540058002C00250073002C002800470045004E004D00530047002000670065006E0064007700670020003200320033002900A4113801040134011401020D544D524C51C011401380150014801040
311
10C013C00B001280140013800B000C000B00035513548B0011C011401380150014801040150016000B0009401CC00B000A0011C011401380134014C011C0080019C019401B8019001DC019C008000C800C800D800A4012C3D004900460028004900530042004C0041004E004B00280050004100520054003A004E0041004D0
311
0450029002C0042004C004F0043004B003A004E0041004D0045002C0050004100520054003A004E0041004D00450029009054400450053004300520040AB228399931470045004E0054005200410043004F002C004A0050004E002C0030002C00AC8A0E662C00470045004E00540052004100540058002C00250073002C002
311
800470045004E004D00530047002000670065006E0064007700670020003200310037002900A4214C015001040138011001040148011001028F893C684C51C01140138015001480104010C013C00B001280140013800B000C000B0023E24F1A0B0011C011401380150014801040150016000B0009401CC00B000A0011C0114
311
01380134014C011C0080019C019401B8019001DC019C008000C800C400E000A4029084D004100540045005200490041004C00409419E659531470045004E0054005200410043004F002C004A0050004E002C0030002C00506799652C00470045004E00540052004100540058002C00250073002C002800470045004E004D00
311
530047002000670065006E0064007700670020003200320031002900A41138013C015001140102E86C188A4C51C01140138015001480104010C013C00B001280140013800B000C000B003A1B06228B0011C011401380150014801040150016000B0009401CC00B000A0011C011401380134014C011C0080019C019401B8019
311
001DC019C008000C800C800D400A402906560045004E0044004F00520041364C3CCC300C3F0C133470045004E0054005200410043004F002C004A0050004E002C0030002C00D930F330C030FC302C00470045004E00540052004100540058002C00250073002C002800470045004E004D00530047002000670065006E00640
311
07700670020003200320034002900A419100114014C010C014800C80104AC8A0E66200032004C91C01140138015001480104010C013C00B001280140013800B000C000B002B22839988000C800B0011C011401380150014801040150016000B0009401CC00B000A0011C011401380134014C011C0080019C019401B8019001
311
DC019C008000CC00D800A4029095300540041004E00440041005200440032004123E24F1A08000C80133470045004E0054005200410043004F002C004A0050004E002C0030002C008F893C68200032002C00470045004E00540052004100540058002C00250073002C002800470045004E004D00530047002000670065006E
311
0064007700670020003200320030002900A42534010401500114014801240104013000C8010450679965200032004C91C01140138015001480104010C013C00B001280140013800B000C000B001419E65948000C800B0011C011401380150014801040150016000B0009401CC00B000A0011C011401380134014C011C00800
311
19C019401B8019001DC019C008000D000C000A4029044D0041005300530040BAA333E4530470045004E0054005200410043004F002C004A0050004E002C0030002C00EA8CCF912C00470045004E00540052004100540058002C00250073002C002800470045004E004D00530047002000670065006E0064007700670020003
311
40032002900A42950013C015001040130017C01340104014C014C0103CF7DEA8CCF914C91C01140138015001480104010C013C00B001280140013800B000C000B0033DF7AA333E44B0011C011401380150014801040150016000B0009401CC00B000A0011C011401380134014C011C0080019C019401B8019001DC019C0080
311
00C800C800E000A401213D004900460028004900530042004C0041004E004B0028004D0041005300530029002C0042004C0041004E004B002C005100540059002A004D0041005300530029009055000520049004300450040A853CF1A130470045004E0054005200410043004F002C004A0050004E002C0030002C00A14F3C
311
682C00470045004E00540052004100540058002C00250073002C002800470045004E004D00530047002000670065006E006400770067002000340033002900A40D10012401340102F85BD56C4C11C01140138015001480104010C013C00B001280140013800B000C000B003E16F55B0B0011C0114013801500148010401500
311
16000B0009401CC00B000A0011C011401380134014C011C0080019C019401B8019001DC019C008000D000D000A40290942004F004D005F0055004E00490054005300409614D353D31470045004E0054005200410043004F002C004A0050004E002C0030002C0058534D4F2C00470045004E00540052004100540058002C002
311
50073002C002800470045004E004D00530047002000670065006E0064007700670020003200340033002900A41CF400F0012401500114013400F801073D003C004900540045004D003E0041CF400F0012401500114013400F801073D003C004900540045004D003E0041CF400F0012401500114013400F801063D003C00510
311
0540059003E0041CF400F0012401500114013400F801073D003C004900540045004D003E00903E890C1546888420B7FCCFFC8000C3FED0C2DCC30CC2BCC1082DFF33FF200030FFB430B730C330AF30420B7FCCFFC8000C3FED0C2DCC30CC2BCC290131009086500610009006500610009002D000A0043DCC01C401B4002401
311
CC01C401B4002401CD7AE59784C3F0C320C3ACC02801147300710063006D0009007300710063006D000900735EB965BB30F330C130E130FC30C830EB300A00445CC01C4019801D0002401CC01C4019801D0002401CD7AE59754C28CC3F0C320C02801107300710069006E0009007300710069006E000900735EB965A430F33
311
0C1300A004319C018401B00024019C018401B0002402B0C3B4C3CCC028010B710074000900710074000900AF30A930FC30C8300A00451B001C40190017C01BC01E8002401B001C40190017C01BC01E8002402C9B73E46A8C3CCC2E4C02801096C0009006C000900EA30C330C830EB300A00435B401B0002401B401B0002403
311
7CC3A8C3A8C30CC320C3ACC028010A790064000900790064000900E430FC30C9300A0042D9801D00024019801D000240354C28CC3F0C320C028010A69006E00090069006E000900A430F330C1300A00425B4002401B400240384C3F0C320C3ACC028010E63006D00090063006D000900BB30F330C130E130FC30C830EB300A
311
00435B401B4002401B401B40024037CC3A8C384C3F0C320C3ACC028010A6C00620009006C0062000900DD30F330C9300A00429BC01E8002401BC01E8002402A8C3CCC2E4C02801086700090067000900B030E930E0300A00431B4019C002401B4019C0024037CC3A8C2C0C3A4C380C028010A620078000900620078000900C
311
030FC30B9300A00404B400
161
              6686
310
7400000000000000C400000000000000310200800030C02000000300012AFA2080A0280A0280A0280D20200000000000012202032024050140501409014050140501901000000000000091010190120280A0280A3880C80C81500000000000009C8080C80901405014051D40640640E8000000000080514040640480A0280A
310
028EA03203209400000000000024A0203202405014050147501901905A0000000000000E5010190120280A0280A3A80C80C83500000000000007C8080880901405014051D40640641E80000000000003E4040440480A0280A028EA03203211400000000004028A0202202405014050147501901909A0000000000001250101
310
10120280A0280A3A80C80C8550E27A15AF46E08A8080880901405014051D405024050242D034080000000000003E4040440480A0280A028EA02812028121881A040000000000002020202202405014050147501409014090D409020000000000000F9010110120280A0280A3A80A0480A04872068100000000000007C8080C
310
80901405014051E40640643E80000000000003E4040640480A0288254810000000000000288100E000186000080C0000000000001F2000000000000007C8080A0300000000000007C800000000000001F2020280C0000000000001A200000000000000688080A03000000000000068800000000000001A2020281480800000
310
00000007C800000000000001F2020280A0300000000000007C800000000000001F2020280C0000000000001A200000000000000688080A02000000000000001F2000000000000007C8148400000000000010408000000C000B4FFFF4110340D024090140510429084410190A4064229014290A4290A40A000000000000785F
310
8000000000001E17E80C0100006180403800061801353333333333EA7E4D4CCCCCCCCCFA9F9353333333333EA7E199999999999F99F99B9999999999B87E199999999999F99F9353333333333EA7E199999999999F99F99B9999999999B87E199999999999F99F80000000000001880405014090590140D0441501A0000000
310
000000620401000061804010000618040080006180148A205FCFFFF3FFFCFFFF20280A028AA0280A0280A0280A0280A0280A0280A0280A0280A0280A0280A032034190240D044150E43C
340
27
340
0
340
23
340
23
340
28
340
28
340
28
 94
        0
  0
ACAD_PROXY_OBJECT
  5
2BD6
330
2BCE
100
AcDbProxyObject
 90
      499
 91
      531
 95
 11534369
 70
     0
162
                 0
161
               279
310
74000000000000014400000000000000510201C00030C0200C00030C012AE9FE3E0000
340
2BFD
 94
        0
  0
ACAD_PROXY_OBJECT
  5
2BF7
330
2BCE
100
AcDbProxyObject
 90
      499
 91
      609
 95
 11534369
 70
     0
162
                 0
161
               247
310
74000000000000014400000000000000510200000030002000000300012A04
340
2B6C
 94
        0
  0
ACAD_PROXY_OBJECT
  5
2E2A
330
2BCE
100
AcDbProxyObject
 90
      499
 91
      609
 95
 11534369
 70
     0
162
                 0
161
               247
310
740B81E85EB51B8CE3F2E07A17AD46E338FE00000030002000000300012A04
340
2C4B
 94
        0
  0
ACAD_PROXY_OBJECT
  5
2E2B
330
2BCE
100
AcDbProxyObject
 90
      499
 91
      609
 95
 11534369
 70
     0
162
                 0
161
               247
310
7400000000000000C400000000000000310200800030C0200C00030C012A04
340
2C4C
 94
        0
  0
ACAD_PROXY_OBJECT
  5
2BD7
330
2BCE
100
AcDbProxyObject
 90
      499
 91
      607
 95
 11534369
 70
     0
162
                 0
161
               279
310
74000000000000014400000000000000510201C00030C0201C00030C012AE9FE0E0000
340
2BFE
 94
        0
  0
ACAD_PROXY_OBJECT
  5
2BF6
330
2BCE
100
AcDbProxyObject
 90
      499
 91
      608
 95
 11534369
 70
     0
162
                 0
161
               247
310
74000000000000014400000000000000510200000030002000000300012A04
340
2B6A
 94
        0
  0
ACAD_PROXY_OBJECT
  5
2E28
330
2BCE
100
AcDbProxyObject
 90
      499
 91
      608
 95
 11534369
 70
     0
162
                 0
161
               247
310
740B81E85EB51B8CE3F2E07A17AD46E338FE00000030002000000300012A04
340
2C3E
 94
        0
  0
ACAD_PROXY_OBJECT
  5
2E29
330
2BCE
100
AcDbProxyObject
 90
      499
 91
      608
 95
 11534369
 70
     0
162
                 0
161
               247
310
7400000000000000C400000000000000310200800030C0201C00030C012A04
340
2C3F
 94
        0
  0
ACAD_PROXY_OBJECT
  5
2BD8
330
2BCE
100
AcDbProxyObject
 90
      499
 91
      533
 95
 11534369
 70
     0
162
                 0
161
               388
310
7400000000000000C400000000000000310200800030C02000000300012AFD000000000000010814333333333333F33F2C
 94
        0
  0
ACAD_PROXY_OBJECT
  5
2BD9
330
2BCE
100
AcDbProxyObject
 90
      499
 91
      540
 95
 11534369
 70
     0
162
                 0
161
               249
310
7400000000000000C400000000000000310200800030C02000000300012AFC4C
340
0
 94
        0
  0
ACAD_PROXY_OBJECT
  5
2BDA
330
2BCE
100
AcDbProxyObject
 90
      499
 91
      534
 95
 11534369
 70
     0
162
             21036
311
42318C3CCC35CC3B0C3F0C320C08000C4003A013D002500250063003C0048006F006C0065003A00630074006400690061003E002000780020003C0048006F006C0065003A0063007400640065007000740068003E00200055005C0050003C0069006600280065007100750061006C00280048006F006C0065003A007400610
311
070007000650064002C0022003000220029002C00220025002500630022002C0048006F006C0065003A006E006F006D0069006E0061006C0020002200200078002000220029003E003C0069006600280065007100750061006C00280048006F006C0065003A007400610070007000650064002C0022003000220029002C004
311
8006F006C0065003A006400690061002C0048006F006C0065003A0070006900740063006800640065007300630029003E003C0069006600280065007100750061006C00280048006F006C0065003A007400610070007000650064002C0022003100220029002C00220020007800200022002C002200220029003E003C00690
311
06600280065007100750061006C00280048006F006C0065003A007400610070007000650064002C0022003100220029002C0048006F006C0065003A00740061007000640065007000740068002C002200220029003E0020003C0069006600280065007100750061006C00280048006F006C0065003A007400650072006D006
311
9006E006100740069006F006E002C0022003000220029002C00220020002F00200022002C002200220029003E003C0069006600280065007100750061006C00280048006F006C0065003A007400650072006D0069006E006100740069006F006E002C0022003000220029002C0048006F006C0065003A00640065007000740
311
068002C002200220029003E0042318C3CCC35CC3B0C3F0C320C08000C4003B013D002500250063003C0048006F006C0065003A00630074006400690061003E002000780020003C0048006F006C0065003A006300740061006E0067006C0065003E002500250064005C0050003C0069006600280065007100750061006C0028
311
0048006F006C0065003A007400610070007000650064002C0022003000220029002C00220025002500630022002C0048006F006C0065003A006E006F006D0069006E0061006C0020002200200078002000220029003E003C0069006600280065007100750061006C00280048006F006C0065003A0074006100700070006500
311
64002C0022003000220029002C0048006F006C0065003A006400690061002C0048006F006C0065003A0070006900740063006800640065007300630029003E003C0069006600280065007100750061006C00280048006F006C0065003A007400610070007000650064002C0022003100220029002C00220020007800200022
311
002C002200220029003E003C0069006600280065007100750061006C00280048006F006C0065003A007400610070007000650064002C0022003100220029002C0048006F006C0065003A00740061007000640065007000740068002C002200220029003E0020003C0069006600280065007100750061006C00280048006F00
311
6C0065003A007400650072006D0069006E006100740069006F006E002C0022003000220029002C00220020002F00200022002C002200220029003E003C0069006600280065007100750061006C00280048006F006C0065003A007400650072006D0069006E006100740069006F006E002C0022003000220029002C0048006F
311
006C0065003A00640065007000740068002C002200220029003E0042318C3CCC35CC3B0C3F0C320C08000C40016013D003C0069006600280065007100750061006C00280048006F006C0065003A007400610070007000650064002C0022003000220029002C00220025002500630022002C0048006F006C0065003A006E006
311
F006D0069006E0061006C0020002200200078002000220029003E003C0069006600280065007100750061006C00280048006F006C0065003A007400610070007000650064002C0022003000220029002C0048006F006C0065003A006400690061002C0048006F006C0065003A0070006900740063006800640065007300630
311
029003E003C0069006600280065007100750061006C00280048006F006C0065003A007400610070007000650064002C0022003100220029002C00220020007800200022002C002200220029003E003C0069006600280065007100750061006C00280048006F006C0065003A007400610070007000650064002C00220031002
311
20029002C0048006F006C0065003A00740061007000640065007000740068002C002200220029003E0020003C0069006600280065007100750061006C00280048006F006C0065003A007400650072006D0069006E006100740069006F006E002C0022003000220029002C00220020002F00200022002C002200220029003E0
311
03C0069006600280065007100750061006C00280048006F006C0065003A007400650072006D0069006E006100740069006F006E002C0022003000220029002C0048006F006C0065003A00640065007000740068002C002200220029003E0042318C3CCC35CC3B0C3F0C320C08000C40027013D002500250063003C0048006F
311
006C0065003A00630074006400690061003E005C0050003C0069006600280065007100750061006C00280048006F006C0065003A007400610070007000650064002C0022003000220029002C00220025002500630022002C0048006F006C0065003A006E006F006D0069006E0061006C002000220020007800200022002900
311
3E003C0069006600280065007100750061006C00280048006F006C0065003A007400610070007000650064002C0022003000220029002C0048006F006C0065003A006400690061002C0048006F006C0065003A0070006900740063006800640065007300630029003E003C0069006600280065007100750061006C00280048
311
006F006C0065003A007400610070007000650064002C0022003100220029002C00220020007800200022002C002200220029003E003C0069006600280065007100750061006C00280048006F006C0065003A007400610070007000650064002C0022003100220029002C0048006F006C0065003A0074006100700064006500
311
7000740068002C002200220029003E0020003C0069006600280065007100750061006C00280048006F006C0065003A007400650072006D0069006E006100740069006F006E002C0022003000220029002C00220020002F00200022002C002200220029003E003C0069006600280065007100750061006C00280048006F006C
311
0065003A007400650072006D0069006E006100740069006F006E002C0022003000220029002C0048006F006C0065003A00640065007000740068002C002200220029003E0042318C3CCC35CC3B0C3F0C320C08000C801173D003C0053005400440050003A0044004500530043003E0020003C0053005400440050003A00530
311
0540044003E0042318C3CCC35CC3B0C3F0C320C08000C4010C3D003C0053005400440050003A0044004500530043003E0042318C3CCC35CC3B0C3F0C320C08000CC010B3D003C0053005400440050003A005300540044003E00C
161
               732
310
7400000000000000C400000000000000310200800030C02000000300012AFA1280A17480A15480A0480A0280E9014050340501407480A0280A0280A03A4050141D0140501D20280A3C81A0280E901405480A02A40D01456AABA1509C
360
2C09
330
2C09
360
2C0A
330
2C0A
360
2C08
330
2C08
360
2C0B
330
2C0B
360
2C06
360
2C05
360
2C07
330
2C06
330
2C05
330
2C07
 94
        0
  0
ACAD_PROXY_OBJECT
  5
2BDB
330
2BCE
100
AcDbProxyObject
 90
      499
 91
      541
 95
 11534369
 70
     0
162
                26
311
404E800C
161
               305
310
7400000000000000C400000000000000310200800030C02000000300012AFA175203480A03554C
 94
        0
  0
ACAD_PROXY_OBJECT
  5
2BDC
330
2BCE
100
AcDbProxyObject
 90
      499
 91
      542
 95
 11534369
 70
     0
162
              1002
311
4F8F400F0014C015001480154010C015000E8010C013C01340140017C013801040134011400F8008000F0014C015001480154010C015000E8015801240114015C017C013801040134011400F80080034CC394C3F0C08000A000F0014C015001480154010C015000E8014C0158017C014C010C01040130011400F800A400C
161
               332
310
74000000000000014400000000000000310201C00030C02000000300012AFA028100000000000006881C
340
23
 94
        0
  0
ACAD_PROXY_OBJECT
  5
2BDD
330
2BCE
100
AcDbProxyObject
 90
      499
 91
      536
 95
 11534369
 70
     0
162
                 0
161
               261
310
7400000000000000C400000000000000310200800030C02000000300012AFA0754
340
2BE1
 94
        0
  0
ACAD_PROXY_OBJECT
  5
2BDE
330
2BCE
100
AcDbProxyObject
 90
      499
 91
      539
 95
 11534369
 70
     0
162
             12884
311
40D24014C013C0106490053004F005F004100330042924014C013C017C0150012401500130011401040113490053004F005F00420052005F005200650076006900730069006F006E006C006900730074004450400D001E000D8008000A000C800E400DC01E000C400C800D800C401B401B400A40108490053004F005F00410
311
03400780036004410400D001E000CC008000A000C800E400DC01E000D800CC00C001B401B400A40108490053004F005F0041003400780033004410400C0008000A000E000D000C001E000C400C400E000E401B401B400A400800106490053004F005F00410030004450400C801E000D0008000A000D400E400D001E000C400
311
D800E000C801B401B400A40108490053004F005F0041003200780034004390400D0008000A000C800E400DC01E000C800C400C001B401B400A40106490053004F005F00410034004490400C001E000CC008000A000C400C400E000E401E000C800D400C800CC01B401B400A40108490053004F005F00410030007800330044
311
50400CC01E000DC008000A000D000C800C001E000C800C000E000C001B401B400A40108490053004F005F0041003300780037004450400C401E000CC008000A000E000D000C401E000C400DC00E000CC01B401B400A40108490053004F005F0041003100780033004390400CC008000A000C800E400DC01E000D000C800C00
311
1B401B400A40106490053004F005F00410033004450400D001E000DC008000A000C800E400DC01E000C400D000DC00C401B401B400A40108490053004F005F0041003400780037004450400D001E000E0008000A000C800E400DC01E000C400D800E000C801B401B400A40108490053004F005F00410034007800380044504
311
00C801E000D4008000A000D400E400D001E000C800C400C000C801B401B400A40108490053004F005F0041003200780035004450400D001E000D4008000A000C800E400DC01E000C400C000D400C401B401B400A40108490053004F005F0041003400780035004390400C4008000A000D400E400D001E000E000D000C401B4
311
01B400A40106490053004F005F00410031004490400C001E000C8008000A000C400C400E000E401E000C400D800E000C801B401B400A40108490053004F005F0041003000780032004410400CC01E000CC008000A000D000C800C001E000E000E400C401B401B400A40108490053004F005F0041003300780033004450400D
311
001E000E4008000A000C800E400DC01E000C400E000E400C801B401B400A40108490053004F005F0041003400780039004450400D001E000D0008000A000C800E400DC01E000E000D000C401B401B400A400800108490053004F005F0041003400780034004450400C801E000CC008000A000D400E400D001E000C400C800D
311
800C401B401B400A40108490053004F005F0041003200780033004450400CC01E000D8008000A000D000C800C001E000C400DC00E000CC01B401B400A40108490053004F005F0041003300780036004450400CC01E000D4008000A000D000C800C001E000C400D000E000D801B401B400A40108490053004F005F004100330
311
0780035004450400CC01E000D0008000A000D000C800C001E000C400C400E000E401B401B400A40108490053004F005F0041003300780034004390400C8008000A000D000C800C001E000D400E400D001B401B400A40106490053004F005F00410032004450400C401E000D0008000A000E000D000C401E000C800CC00DC00
311
E001B401B400A40108490053004F005F00410031007800340042524014C013C008001A221326011AC800104010A490053004F005F005400490054004C004500410042524014C013C008001A221326011AC800108010A490053004F005F005400490054004C00450042004259571D1AFA8C2E4C320C17C01500130017C01134
311
90053004F005F0054004C005F005200650076006900730069006F006E006C006900730074004259571D1AFA8C2E4C320C17C01500148017C0113490053004F005F00540052005F005200650076006900730069006F006E006C006900730074004259571D1AFA8C2E4C320C17C01080130017C0113490053004F005F0042004
311
C005F005200650076006900730069006F006E006C006900730074004259571D1AFA8C2E4C320C17C01080148017C0113490053004F005F00420052005F005200650076006900730069006F006E006C00690073007400AC
161
               498
310
7400000000000000C400000000000000310200800030C02000000300012AFB2E8C20482205400000000002015900000000000000324000000000000007100C
 94
        0
  0
ACAD_PROXY_OBJECT
  5
2BDF
330
2BCE
100
AcDbProxyObject
 90
      499
 91
      537
 95
 11534369
 70
     0
162
               126
311
408F000F801023C003E00409A000DC00
161
               408
310
7400000000000000C400000000000000310200800030C02000000300012AFA080000000000001420000000000000048807FFFC00
340
2BE0
340
0
340
0
340
2BEB
340
2BEC
340
2BED
340
2BEE
340
2BEF
340
2BF4
340
0
340
2BEC
340
0
 94
        0
  0
ACAD_PROXY_OBJECT
  5
2BF5
330
2BCE
100
AcDbProxyObject
 90
      499
 91
      538
 95
 11534369
 70
     0
162
             18980
311
41A9D7865A9B8C3A8C2E4C320C135470045004E0054005200410043004F002C004A0050004E002C0030002C00A75E196A6E30EA30B930C8302C00470045004E00540052004100540058002C00250073002C002800470045004E004D00530047002000670065006E00640069006D007A00200033003000290043CF400F00110
311
01940198018401D401B001D0015001A401D001B0019400F80105747AC630FC30D630EB304D11C01140138015001480104010C013C00B001280140013800B000C000B001D1EB18C3F0C358C3ACC0B0011C011401380150014801040150016000B0009401CC00B000A0011C011401380134014C011C0080019C019401B801900
311
1A401B401E8008000CC00C400A4010F3D003C00440065006600610075006C0074005400690074006C0065003E0040A7D4EE5C130470045004E0054005200410043004F002C004A0050004E002C0030002C009F53B9702C00470045004E00540052004100540058002C00250073002C002800470045004E004D005300470020
311
00670065006E00640069006D007A00200031002900405D1E92F470045004E0054005200410043004F002C004A0050004E002C0030002C00747A2C00470045004E00540052004100540058002C00250073002C002800470045004E004D00530047002000670065006E00640069006D007A002000320029004FCF400F0013C01
311
C801A4019C01A401B800F800F00124011800A0013C014800A00124014C0108013001040138012C00A0013C01C801A4019C01A401B800A400B00124014C0108013001040138012C00A0012401B80190019401E000A400A400B00088008800B0008800B8008800A400F800F0012401B80190019401E000F8010158004BD1C011
311
40138015001480104010C013C00B001280140013800B000C000B0016000B0011C011401380150014801040150016000B0009401CC00B000A0011C011401380134014C011C0080019C019401B8019001A401B401E8008000CC00A4010159004BD1C01140138015001480104010C013C00B001280140013800B000C000B00164
311
00B0011C011401380150014801040150016000B0009401CC00B000A0011C011401380134014C011C0080019C019401B8019001A401B401E8008000D000A4010152004BD1C01140138015001480104010C013C00B001280140013800B000C000B0014800B0011C011401380150014801040150016000B0009401CC00B000A00
311
11C011401380134014C011C0080019C019401B8019001A401B401E8008000D800A40101C6034BD1C01140138015001480104010C013C00B001280140013800B000C000B003180CB0011C011401380150014801040150016000B0009401CC00B000A0011C011401380134014C011C0080019C019401B8019001A401B401E800
311
8000DC00A40101C6034BD1C01140138015001480104010C013C00B001280140013800B000C000B003180CB0011C011401380150014801040150016000B0009401CC00B000A0011C011401380134014C011C0080019C019401B8019001A401B401E8008000E000A40102AC8A0E664C51C01140138015001480104010C013C00
311
B001280140013800B000C000B002B2283998B0011C011401380150014801040150016000B0009401CC00B000A0011C011401380134014C011C0080019C019401B8019001A401B401E8008000C800C000A401028F893C684C51C01140138015001480104010C013C00B001280140013800B000C000B0023E24F1A0B0011C011
311
401380150014801040150016000B0009401CC00B000A0011C011401380134014C011C0080019C019401B8019001A401B401E8008000C800C400A401029F53B9704C11C01140138015001480104010C013C00B001280140013800B000C000B0027D4EE5C0B0011C011401380150014801040150016000B0009401CC00B000A0
311
011C011401380134014C011C0080019C019401B8019001A401B401E8008000C400A4010131004081663B9D931470045004E0054005200410043004F002C004A0050004E002C0030002C000598EE762C00470045004E00540052004100540058002C00250073002C002800470045004E004D00530047002000670065006E006
311
40069006D007A00200031003400290041A90C3CCC31CC30CC2BCC2E4C135470045004E0054005200410043004F002C004A0050004E002C0030002C00A430F330C730C330AF30B9302C00470045004E00540052004100540058002C00250073002C002800470045004E004D00530047002000670065006E00640069006D007A
311
00200031003500290041DD1EA90C3CCC31CC30CC2BCC2E4C136470045004E0054005200410043004F002C004A0050004E002C0030002C00747AA430F330C730C330AF30B9302C00470045004E00540052004100540058002C00250073002C002800470045004E004D00530047002000670065006E00640069006D007A00200
311
031003700290041798C3F0C2D8C01663B9D934470045004E0054005200410043004F002C004A0050004E002C0030002C00E630FC30B6300598EE762C00470045004E00540052004100540058002C00250073002C002800470045004E004D00530047002000670065006E00640069006D007A002000320032002900405D1E93
311
0470045004E0054005200410043004F002C004A0050004E002C0030002C00747A2C00470045004E00540052004100540058002C00250073002C002800470045004E004D00530047002000670065006E00640069006D007A002000310036002900409C1973E4531470045004E0054005200410043004F002C004A0050004E00
311
2C0030002C007065CF912C00470045004E00540052004100540058002C00250073002C002800470045004E004D00530047002000670065006E00640069006D007A0020003100390029004FCF400F0013C01C801A4019C01A401B800F800F00124011800A0013C014800A00124014C0108013001040138012C00A0013C01C80
311
1A4019C01A401B800A400B00124014C0108013001040138012C00A0012401B80190019401E000A400A400B00088008800B0008800B8008800A400F800F0012401B80190019401E000F801453D003C004F0072006900670069006E003E003C004900460028004F00520028004900530042004C0041004E004B0028004F00720
311
06900670069006E0029002C004900530042004C0041004E004B00280055007300650072004900740065006D00290029002C00220022002C0022002E00220029003E003C0055007300650072004900740065006D003E00C
161
              7153
310
7400000000000000C400000000000000310200800030C02000000300012AFA46307FFFFFFFA0606000600000000000006204010000618068181800180000000000001881004000186018080F02018000000000000000000000000000000020000000000000620401000061802000000000000062040100006180403F8080F0
310
2018000000000000000000000000000000020000000000000620401000061802000000000000062040100006180403FA1C88222812068220A83A1886A1E80A1C89A2A81A2483A28880000808000808200110A00010101010104002234000202000202000040A8000404000404000081D0000808000808000104A0001010001
310
01030020B4000202000202020041E80004040004001000865000080800080020010DA000101010101040021F40002020002020A01406800040400040414028750000808000808280113A000101000101050022B4000202000202080044A800040400040418008A5220000000000000001CA04FFFFFFFF030000000000000D1
310
027FFFFFFF80800000000000068813FFFFFFFC0400000000000034409FFFFFFFE040000000000001A204FFFFFFFF020000000000000D1027FFFFFFF81800000000000072813FFFFFFFC0C00000000000049409FFFFFFFE0600000000004028A04FFFFFFFF000000000000000D1027FFFFFFF80000000000000048813FFFFFF
310
FC0000000000000034409FFFFFFFE000000000000001A204FFFFFFFF000000000000000D1027FFFFFFF80000000000000068813FFFFFFFC0C00000000000028409FFFFFFFE8800000000000000072813FFFFFFFC0C00000000000034409FFFFFFFE060000000000001A204FFFFFFFF030000000000000D1027FFFFFFF81800
310
000000000068813FFFFFFFC0C00000000000034409FFFFFFFE060000000000001CA04FFFFFFFF03000000000000125027FFFFFFF818000000000100A2813FFFFFFFC0000000000000034409FFFFFFFE0000000000000012204FFFFFFFF000000000000000D1027FFFFFFF80000000000000068813FFFFFFFC0000000000000
310
034409FFFFFFFE060000000000001A204FFFFFFFF030000000000000A1027FFFFFFFA0E8800000021E000000810000002060000008200000020A00000083800000202890000001FFFFFFFE81202000283A2000000087800000204000000818000002080000008280000020E000000810000A068800000021E0000008A80000
310
01FFFFFFFF4C
340
0
340
0
340
0
340
0
340
23
340
23
 94
        0
  0
ACAD_PROXY_OBJECT
  5
2E0F
330
2E0E
100
AcDbProxyObject
 90
      499
 91
      544
 95
 11534369
 70
     0
162
              3576
311
410C400D800C000C0010338003000300040CD000C000C0010332003000300040CC400C000C0010235003000408C800D40104310032002E00350040CD800B800CC010333002E00320040CC400B800D8010430002E0038003000410C000B800D000C0010430002E0032003000414C000B800C400C000C0010530002E00300035
311
003000414C000B800C000C800D4010231003000408C400D4010232003000408C800D4010233003000408D000C0010235003000408D800C0010237003000408E000C001023900300040CD000C000C0010332003000300040CC400C000C0010235003000408C800D40104310032002E00350040CD800B800CC010333002E0032
311
0040CC400B800D8010330002E00380040CC000B800D0010330002E00320040CC000B800C4010430002E0030003500414C000B800C000C800D4010530002E0030003100320040CD000C000C0010332003000300040CC400C000C0010235003000408C800D40104310032002E00350040CD800B800CC010333002E00320040CC
311
400B800D8010330002E00380040CC000B800D0010330002E00320040CC000B800C4010430002E0030003500414C000B800C000C800D4010530002E0030003100320000
161
               505
310
74033333333333309400CCCCCCCCCCCC250200800030C0200C00030C0102FD419014050140501406A0D202812068220A88A1722088554000000000000785FA4C
 94
        0
  0
ACAD_PROXY_OBJECT
  5
2E10
330
2E0E
100
AcDbProxyObject
 90
      499
 91
      559
 95
 11534369
 70
     0
162
                 0
161
               596
310
74033333333333309400CCCCCCCCCCCC250200800030C0200C00030C0102FA1C80A0280A0280A0280A0280A0280A0280A028220280A028090000000000000002006666666666661281485C
340
2C2F
 94
        0
  0
ACAD_PROXY_OBJECT
  5
2E11
330
2E0E
100
AcDbProxyObject
 90
      499
 91
      546
 95
 11534369
 70
     0
162
                 0
161
               626
310
74033333333333309400CCCCCCCCCCCC250200800030C0200C00030C0102F98DBB66DDBB66DDB3F22E80A0280A0280A0280A0280A0280A0280A0280A0280A0280A0280A028092666666666667D4FCC
340
0
340
0
 94
        0
  0
ACAD_PROXY_OBJECT
  5
2E12
330
2E0E
100
AcDbProxyObject
 90
      499
 91
      547
 95
 11534369
 70
     0
162
                 0
161
               315
310
74033333333333309400CCCCCCCCCCCC250200800030C0200C00030C0102FC0000000000003C2FCC
340
0
 94
        0
  0
ACAD_PROXY_OBJECT
  5
2E13
330
2E0E
100
AcDbProxyObject
 90
      499
 91
      548
 95
 11534369
 70
     0
162
                 0
161
               493
310
74033333333333309400CCCCCCCCCCCC250200800030C0200C00030C0102FC182D4454FB21E93F00000000000002102800000000000008408020000C3004
340
2C29
340
2C2A
 94
        0
  0
ACAD_PROXY_OBJECT
  5
2E14
330
2E0E
100
AcDbProxyObject
 90
      499
 91
      549
 95
 11534369
 70
     0
162
             11098
311
411240150011401340102C1546A754C51C01140138015001480104010C013C00B001280140013800B000C000B0001663B9D8B0011C011401380150014801040150016000B0009401CC00B000A0011C011401380134014C011C0080019C019401B8019001DC019C008000C800C800C800A4029044E0041004D0045004083551
311
354931470045004E0054005200410043004F002C004A0050004E002C0030002C000D544D522C00470045004E00540052004100540058002C00250073002C002800470045004E004D00530047002000670065006E00640077006700200032003200360029004B0F40124011800A00124014C0108013001040138012C00A0014
311
001040148015000E8013801040134011400A400B001080130013C010C012C00E8013801040134011400B0014001040148015000E8013801040134011400A40242134010401500114014801240104013001025067EA8C4C51C01140138015001480104010C013C00B001280140013800B000C000B001419E6594B0011C01140
311
1380150014801040150016000B0009401CC00B000A0011C011401380134014C011C0080019C019401B8019001DC019C008000C800C800C400A402906460049004E0049005300480040B5538293AA41D1801240150015001240138011C0102A17BEF7AA904530049005A00450040ED4C290C2E8C2418F40154014C011401480
311
0C4024110C013C011001140104C1540D548B570F5F90D3D003C00550053004500520032003E003C00440049004D003E009054C004500560045004C004053002A40D440150016401027065CF914C51C01140138015001480104010C013C00B001280140013800B000C000B001C1973E44B0011C011401380150014801040150
311
016000B0009401CC00B000A0011C011401380134014C011C0080019C019401B8019001DC019C008000C800C800CC00A40290942004F004D005F0055004E00490054005300409614D353EA4150801040130017C00D401073D003C004900540045004D003E0041CF400F0012401500114013400F801073D003C0049005400450
311
04D003E0041CF400F0012401500114013400F801063D003C005100540059003E0041CF400F0012401500114013400F801073D003C004900540045004D003E004150801040130017C00D402AA90131009086500610009006500610009002D000A0043DCC01C401B4002401CC01C401B4002401CD7AE59784C3F0C320C3ACC02
311
801147300710063006D0009007300710063006D000900735EB965BB30F330C130E130FC30C830EB300A00445CC01C4019801D0002401CC01C4019801D0002401CD7AE59754C28CC3F0C320C02801107300710069006E0009007300710069006E000900735EB965A430F330C1300A004319C018401B00024019C018401B0002
311
402B0C3B4C3CCC028010B710074000900710074000900AF30A930FC30C8300A00451B001C40190017C01BC01E8002401B001C40190017C01BC01E8002402C9B73E46A8C3CCC2E4C02801096C0009006C000900EA30C330C830EB300A00435B401B0002401B401B00024037CC3A8C3A8C30CC320C3ACC028010A79006400090
311
0790064000900E430FC30C9300A0042D9801D00024019801D000240354C28CC3F0C320C028010A69006E00090069006E000900A430F330C1300A00425B4002401B400240384C3F0C320C3ACC028010E63006D00090063006D000900BB30F330C130E130FC30C830EB300A00435B401B4002401B401B40024037CC3A8C384C3
311
F0C320C3ACC028010A6C00620009006C0062000900DD30F330C9300A00429BC01E8002401BC01E8002402A8C3CCC2E4C02801086700090067000900B030E930E0300A00431B4019C002401B4019C0024037CC3A8C2C0C3A4C380C028010A620078000900620078000900C030FC30B9300A00404B400C
161
              5614
310
74033333333333309400CCCCCCCCCCCC250200800030C0200C00030C0102FA1480A0280A0280A0280D2020000000000000C20203202405014050147101901902A0000000000000F9010190120280A0280A3A80C80C82D0000000000000608080C80901405014051D405014050143A8000000000000284040640480A0280A02
310
8EA0280A0280A2140000000000001420203202405014050147501405014050FA0000000000000C1010190120280A0280A3A80A0280A0288D0000000000000788080C80901405014051D405014050144A8000000000000104040640480A0280A028120280A0280A032020000000000000C20203202405014050147901901913
310
A0000000000000F9010190120280A28811D0060000000000000920403800061800020200000000000000172000000000000005C8080C000000000000172000000000000005C8080A0300000000000006480000000000000192020280C00000000000019200000000000000648080A052020000000000001DA0000000000000
310
0768080A0280C0000000000001DA00000000000000768080C00000000000005A00000000000001E17E80A0200000000000000172000000000000005C8140800000000000010408030000C300BCFFFF4110340D024090140510429084410190A4064229014290A4290A408000000000000785F8000000000001E17E80C01000
310
06180403800061800666666666667E67E4D4CCCCCCCCCF49F8666666666667E67E4D4CCCCCCCCCF49F9353333333333B27E4D4CCCCCCCCCF49F9353333333333D27E4D4CCCCCCCCCF49F9353333333333D27E4D4CCCCCCCCCF49F935333333333212804069099024150E4410F4451240501A4D4CCCCCCCCC84A04010000618
310
04010000618040200006180148A20404FFFF3FFFCFFFF20280A028AA0280A0280A0280A0280A0280A0280A0280A0280A0280A0280A03203421024150E4410F4451244C
340
27
340
0
340
2C31
340
2C31
340
27
340
27
340
27
 94
        0
  0
ACAD_PROXY_OBJECT
  5
2E15
330
2E0E
100
AcDbProxyObject
 90
      499
 91
      550
 95
 11534369
 70
     0
162
                 0
161
               255
310
74000000000000012400000000000000490201C00030C020000003000102EA3A
340
2C4D
 94
        0
  0
ACAD_PROXY_OBJECT
  5
2E16
330
2E0E
100
AcDbProxyObject
 90
      499
 91
      609
 95
 11534369
 70
     0
162
                 0
161
               247
310
74000000000000014400000000000000510200000030002000000300012A04
340
2B6C
 94
        0
  0
ACAD_PROXY_OBJECT
  5
2E17
330
2E0E
100
AcDbProxyObject
 90
      499
 91
      609
 95
 11534369
 70
     0
162
                 0
161
               247
310
740B81E85EB51B8CE3F2E07A17AD46E338FE00000030002000000300012A04
340
2C4B
 94
        0
  0
ACAD_PROXY_OBJECT
  5
2E18
330
2E0E
100
AcDbProxyObject
 90
      499
 91
      609
 95
 11534369
 70
     0
162
                 0
161
               247
310
7400000000000000C400000000000000310200800030C0200C00030C012A04
340
2C4C
 94
        0
  0
ACAD_PROXY_OBJECT
  5
2E19
330
2E0E
100
AcDbProxyObject
 90
      499
 91
      551
 95
 11534369
 70
     0
162
                 0
161
               279
310
74000000000000012400000000000000490201C00030C0201C00030C0102E03E080000
340
2C45
 94
        0
  0
ACAD_PROXY_OBJECT
  5
2E1A
330
2E0E
100
AcDbProxyObject
 90
      499
 91
      608
 95
 11534369
 70
     0
162
                 0
161
               247
310
74000000000000014400000000000000510200000030002000000300012A04
340
2B6A
 94
        0
  0
ACAD_PROXY_OBJECT
  5
2E1B
330
2E0E
100
AcDbProxyObject
 90
      499
 91
      608
 95
 11534369
 70
     0
162
                 0
161
               247
310
740B81E85EB51B8CE3F2E07A17AD46E338FE00000030002000000300012A04
340
2C3E
 94
        0
  0
ACAD_PROXY_OBJECT
  5
2E1C
330
2E0E
100
AcDbProxyObject
 90
      499
 91
      608
 95
 11534369
 70
     0
162
                 0
161
               247
310
7400000000000000C400000000000000310200800030C0201C00030C012A04
340
2C3F
 94
        0
  0
ACAD_PROXY_OBJECT
  5
2E1D
330
2E0E
100
AcDbProxyObject
 90
      499
 91
      552
 95
 11534369
 70
     0
162
                 0
161
               388
310
74033333333333309400CCCCCCCCCCCC250200800030C0200C00030C0102FD04E62115838B40C8147A14AE47E17A3E401C
 94
        0
  0
ACAD_PROXY_OBJECT
  5
2E1E
330
2E0E
100
AcDbProxyObject
 90
      499
 91
      554
 95
 11534369
 70
     0
162
             10032
311
4260FFE77FE33FE7FFE6BFDC3FE13FC8000C4018E3D003C0048006F006C0065003A006400690061003E003C0069006600280065007100750061006C00280048006F006C0065003A007400650072006D0069006E006100740069006F006E002C0022003000220029002C0022002000F16D5530200022002C002200200084FF9
311
EFF98FF99FF220029003E003C0069006600280065007100750061006C00280048006F006C0065003A007400650072006D0069006E006100740069006F006E002C0022003000220029002C0048006F006C0065003A00640065007000740068002C002200220029003E002C0020003C0048006F006C0065003A0063007400640
311
0690061003E002000563050308A306E30F16D553020003C0048006F006C0065003A0063007400640065007000740068003E004260FFE77FE33FE7FFE6BFDC3FE13FC8000C401EB3D003C0048006F006C0065003A006300740061006E0067006C0065003E0025002500640020002500250063003C0048006F006C0065003A00
311
630074006400690061003E002000BF76747A2C0020003C0069006600280065007100750061006C00280048006F006C0065003A007400610070007000650064002C0022003000220029002C00220025002500630022002C0048006F006C0065003A006E006F006D0069006E0061006C0020002200200078002000220029003E
311
003C0069006600280065007100750061006C00280048006F006C0065003A007400610070007000650064002C0022003000220029002C0048006F006C0065003A006400690061002C0048006F006C0065003A0070006900740063006800640065007300630029003E0020003C0069006600280065007100750061006C002800
311
48006F006C0065003A007400650072006D0069006E006100740069006F006E002C0022003000220029002C002200F16D5530200022002C0022002000220029003E003C0069006600280065007100750061006C00280048006F006C0065003A007400650072006D0069006E006100740069006F006E002C0022003000220029
311
002C0048006F006C0065003A00640065007000740068002C002200220029003E004260FFE77FE33FE7FFE6BFDC3FE13FC8000C401C53D003C0069006600280065007100750061006C00280048006F006C0065003A007400610070007000650064002C0022003000220029002C00220025002500630022002C0048006F006C0
311
065003A006E006F006D0069006E0061006C0020002200200078002000220029003E003C0069006600280065007100750061006C00280048006F006C0065003A007400610070007000650064002C0022003000220029002C0048006F006C0065003A006400690061002C0048006F006C0065003A00700069007400630068006
311
40065007300630029003E0020003C0069006600280065007100750061006C00280048006F006C0065003A007400650072006D0069006E006100740069006F006E002C0022003000220029002C002200F16D5530200022002C0022002000220029003E003C0069006600280065007100750061006C00280048006F006C00650
311
03A007400650072006D0069006E006100740069006F006E002C0022003000220029002C0048006F006C0065003A00640065007000740068002C002200220029003E004260FFE77FE33FE7FFE6BFDC3FE13FC8000C4010C3D003C0053005400440050003A0044004500530043003E0000
161
               585
310
74033333333333309400CCCCCCCCCCCC250200800030C0200C00030C0102FA1080A17480A15480A0480A0280EA4050340501407520280A0280A03A9014790140501D480A2B5515CA84CC
360
0
360
0
360
0
360
0
 94
        0
  0
ACAD_PROXY_OBJECT
  5
2E1F
330
2E0E
100
AcDbProxyObject
 90
      499
 91
      536
 95
 11534369
 70
     0
162
             16520
311
404C0010741004D005F0030005F0054003300901310041D040134017C00C4017C015000D402404C8010741004D005F0032005F00540037009013300421040134017C00CC017C01200114011002404D0010741004D005F0034005F00540032009013500421040134017C00D4017C01100124013402404D8010941004D005F00
311
36005F0054004500580054009013700421040134017C00DC017C010C0114013802404E0010941004D005F0038005F0048004100540043009013900411040134017C00E402408C80104010541004D005F003100300090234004100415040134017C00C400C402409240140010941004D005F00310032005F004E00500052009
311
0230004E00415040134017C00C0013802408C40138010541004D005F0031004E0090232004E00415040134017C00C8013802408CC0138010541004D005F0033004E0090234004E00415040134017C00D0013802408D40138010541004D005F0035004E0090236004E00415040134017C00D8013802408DC0138010541004D0
311
05F0037004E0090238004E00415040134017C00E0013802408E40138010541004D005F0039004E00903320041004E00419040134017C00C400C001380240CD001040138010641004D005F00310031004E00903490050004E00419040134017C00C400C80138024112C013001240138010541004D005F0043004C0090449004
311
E0046004F00421040134017C01400104014801140118024154801040120013400D4010641004D005F0042004F0052009045600490045005700421040134017C015801240114015C014C024190801140120012401380110010641004D005F0049004E00560090554005200410049004C00415040134017C015001480240D200
311
1240110010641004D005F00480049004400903560049005300419040134017C01580124014C024194001040148011001240134010941004D005F00500041005200440049004D00906520045004600440049004D00425040134017C01480114011801100124013402411080120013801580101390041508012001380158014C
311
010642004500480049004E00440041108013C014800C801055200410048004D00350041108013C014800CC01055200410048004D00350041108013C014800D401055200410048004D0035004110C0104013000C8010134004110C0104013000CC010134004110C0104013000D4010134004110C0104013000DC01013400411
311
0C011401380138010137004110C01140138015C010137004110C01300124013801044B004C0049004E004110C013C013800C4010130004110C013C013800C8010131004110C013C013800CC010132004110C013C013800D00101320041110011401500104010134004111001240104011C0101350041110012401300124010
311
13500411100124013401400106500041005200440049004D00411100124013401480106520045004600440049004D004111801140134013801013800415180114013401400138010138004151801140134014C01400102340041004151801140134014C0150010234004100415180114013401580138010132004151801140
311
13401580150010132004112001040150010C0101380041120012401100138010133004112001240110015C01013300411200130012401380101340041120013C010C01380101370041120013C010C015C010137004112401380118013C010449004E0046004F00411300114010401100101350041938017C01080120013801
311
58010239004E0041938017C010C013C013800C4010230004E0041938017C010C013C013800C8010231004E0041938017C010C013C013800CC010232004E0041938017C010C013C013800D0010232004E0041938017C010C011401380138010237004E0041938017C010C01140138015C010237004E0041938017C011001240
311
1300124010235004E0041938017C012001040150010C010238004E0041938017C0120012401100138010233004E0041938017C012001240110015C010233004E0041938017C0130011401040110010235004E0041938017C0138011C012401400103490050004E0041938017C01400120010401380103340041004E0041938
311
017C0150010C013C0138010230004E0041938017C0150012001300124010234004E0041938017C0150013001140138010230004E0041938017C01580140013001240103320041004E0041138011C01240140010249005000411400104013000C801055200410048004D003500411400104013000CC01055200410048004D00
311
3500411400104013000D401055200410048004D0035004114001200104013801023400410041140013C014C01380101350041148010C011C01380101370041148010C011C015C010137004114C01080148012C010134004114C0114010C0150010134004114C0164010800CC0101350041134014C016401340101350041150
311
010C013C0138010130004115001200130012401013400411500124015000C801055200410048004D003500411500124015000CC01055200410048004D003500411500124015000D401055200410048004D0035004115001300114013801013000415500148010401240130010554005200410049004C004115001480130012
311
401013400411500160015000C401013600411500160015000C801013600411500160015000CC01013600411500160015000D401013600411500160015000DC010136004115801240114015C0104560049004500570041158011401100120010348004900440041158011401100158010356004900530041158014001300124
311
01023200410041168012401680104010134004114C014001300124010232004100CC
161
              9181
310
74033333333333309400CCCCCCCCCCCC250200800030C0200C00030C0102FA06924038000618023C8840700006180264884028000618028C8840300006180229401800061802294018000618021F401000061802294020000618021F4008000618023347E8000618048240380006180265401800061802334040000618028C
310
8140380006180265407000061802654028000618026540300006180233401800061802334018000618023340100006180247402000061802334008000618023347E80006180482403800061802654018000618023340380006180264814008000618023284C020000618023285C038000618026484C008000618023285C7E8
310
0006180486C018000618023284C038000618023284C038000618026484C018000618023284C020000618023284AA9000000180007FFFFFFFD000000180007FFFFFFFD0040001860091D0040001860091D000000180007FFFFFFFD000000180007FFFFFFFD0040001860091D00E0001860099503C00018600A3500000018000
310
7FFFFFFFD000000180007FFFFFFFD000000180007FFFFFFFD000000180007FFFFFFFA07000000180007FFFFFFFA07000000180007FFFFFFFA07000000180007FFFFFFFA07000000180007FFFFFFFD000000180007FFFFFFFD000000180007FFFFFFFD000000180007FFFFFFFD000000180007FFFFFFFD000000180007FFFFF
310
FFD006000186007FFFFFFFD000000180007FFFFFFFD006000186008CD000000180007FFFFFFFD006000186008CD000000180007FFFFFFFA03000000180007FFFFFFFA07000000180007FFFFFFFA07000000180007FFFFFFFA03000000180007FFFFFFFD000000180007FFFFFFFD000000180007FFFFFFFD000000180007FFF
310
FFFFD000000180007FFFFFFFD000000180007FFFFFFFA07000000180007FFFFFFFA07000000180007FFFFFFFA07000000180007FFFFFFFA07000000180007FFFFFFFD000000180007FFFFFFFD000000180007FFFFFFFD000000180007FFFFFFFA03000000180007FFFFFFFA07000000180007FFFFFFFA07000000180007FFF
310
FFFFD000000180007FFFFFFFD000000180007FFFFFFFD000000180007FFFFFFFA07000000180007FFFFFFFA03000000180007FFFFFFFA07000000180007FFFFFFFD000000180007FFFFFFFD008000186007FFFFFFFD004000186007FFFFFFFD00E000186007FFFFFFFD000000180007FFFFFFFD006000186007FFFFFFFD000
310
000180007FFFFFFFD000000180007FFFFFFFD000000180007FFFFFFFA03000000180007FFFFFFFA030040001860091D004000186007FFFFFFFD000000180007FFFFFFFA07000000180007FFFFFFFA03002000186008CD0040001860091D000000180007FFFFFFFD000000180007FFFFFFFA07000000180007FFFFFFFD00000
310
0180007FFFFFFFA030040001860091D0040001860091D004000186008CD00E0001860099503C00018600A35000000180007FFFFFFFD000000180007FFFFFFFA05000000180007FFFFFFFA0500E000186007FFFFFFFD000000180007FFFFFFFA03002000186007FFFFFFFC8521C9920A9920491A3CA320E992088CA028CBFB2
310
0C8CA068CC
340
0
340
28
340
28
340
28
340
2BE2
340
28
340
28
340
28
340
2BE3
340
28
340
28
340
2BE3
340
2BE4
340
28
340
28
340
28
340
28
340
2BE2
340
28
340
28
340
28
340
2BE3
340
28
340
28
340
2BE3
340
2BE4
340
28
340
2BE5
340
28
340
28
340
28
340
28
340
28
340
2BE2
340
28
340
28
340
28
340
27
340
27
340
27
340
27
340
27
340
27
340
27
340
27
340
27
340
2BE6
340
27
340
27
340
27
340
27
340
27
340
27
340
27
340
27
340
27
340
27
340
27
340
27
340
27
340
28
340
27
340
27
340
27
340
27
340
2BE7
340
27
340
27
340
2BE6
340
27
340
27
340
28
340
27
340
27
340
27
340
27
340
27
340
2BE6
340
27
340
27
340
27
340
2BE7
340
27
340
27
340
27
340
27
340
27
340
27
340
27
340
27
340
27
340
27
340
27
340
27
340
27
340
27
340
2BE6
340
27
340
27
340
27
340
27
340
28
340
27
340
27
340
27
340
27
340
27
340
27
340
27
340
27
340
27
340
27
340
27
340
27
340
27
340
27
340
27
340
27
340
2BE3
340
2BEA
340
2BE3
 94
        0
  0
ACAD_PROXY_OBJECT
  5
2E20
330
2E0E
100
AcDbProxyObject
 90
      499
 91
      537
 95
 11534369
 70
     0
162
               126
311
408F000F801023C003E00409A000DC00
161
               408
310
74033333333333309400CCCCCCCCCCCC250200800030C0200C00030C0102FA0800000000000024A0000000000000028807FFFC00
340
2C32
340
0
340
0
340
2C33
340
2C34
340
2C35
340
2C36
340
2C37
340
2C38
340
0
340
0
340
0
 94
        0
  0
ACAD_PROXY_OBJECT
  5
2E21
330
2E0E
100
AcDbProxyObject
 90
      499
 91
      555
 95
 11534369
 70
     0
162
             17962
311
41A9D7865A9B8C263FDF7FE13FD35470045004E0054005200410043004F002C004A0050004E002C0030002C00A75E196A6E3098FF7DFF84FF2C00470045004E00540052004100540058002C00250073002C002800470045004E004D00530047002000670065006E00640069006D007A00200033003000290043CF400F00110
311
01940198018401D401B001D0015001A401D001B0019400F80106747A83FF70FF8CFF9EFF99FF4D51C01140138015001480104010C013C00B001280140013800B000C000B001D1EA0FFDC3FE33FE7BFE67FCB0011C011401380150014801040150016000B0009401CC00B000A0011C011401380134014C011C0080019C01940
311
1B8019001A401B401E8008000CC00C400A4010F3D003C00440065006600610075006C0074005400690074006C0065003E0040A7D4EE5C130470045004E0054005200410043004F002C004A0050004E002C0030002C009F53B9702C00470045004E00540052004100540058002C00250073002C002800470045004E004D0053
311
0047002000670065006E00640069006D007A00200031002900405D1E92F470045004E0054005200410043004F002C004A0050004E002C0030002C00747A2C00470045004E00540052004100540058002C00250073002C002800470045004E004D00530047002000670065006E00640069006D007A002000320029004FCF400
311
F0013C01C801A4019C01A401B800F800F00124011800A0013C014800A00124014C0108013001040138012C00A0013C01C801A4019C01A401B800A400B00124014C0108013001040138012C00A0012401B80190019401E000A400A400B00088008800B0008800B8008800A400F800F0012401B80190019401E000F801015800
311
4BD1C01140138015001480104010C013C00B001280140013800B000C000B0016000B0011C011401380150014801040150016000B0009401CC00B000A0011C011401380134014C011C0080019C019401B8019001A401B401E8008000CC00A4010159004BD1C01140138015001480104010C013C00B001280140013800B000C0
311
00B0016400B0011C011401380150014801040150016000B0009401CC00B000A0011C011401380134014C011C0080019C019401B8019001A401B401E8008000D000A4010152004BD1C01140138015001480104010C013C00B001280140013800B000C000B0014800B0011C011401380150014801040150016000B0009401CC0
311
0B000A0011C011401380134014C011C0080019C019401B8019001A401B401E8008000D800A40101C6034BD1C01140138015001480104010C013C00B001280140013800B000C000B003180CB0011C011401380150014801040150016000B0009401CC00B000A0011C011401380134014C011C0080019C019401B8019001A401
311
B401E8008000DC00A40101C6034BD1C01140138015001480104010C013C00B001280140013800B000C000B003180CB0011C011401380150014801040150016000B0009401CC00B000A0011C011401380134014C011C0080019C019401B8019001A401B401E8008000E000A40102AC8A0E664C51C0114013801500148010401
311
0C013C00B001280140013800B000C000B002B2283998B0011C011401380150014801040150016000B0009401CC00B000A0011C011401380134014C011C0080019C019401B8019001A401B401E8008000C800C000A401028F893C684C51C01140138015001480104010C013C00B001280140013800B000C000B0023E24F1A0B
311
0011C011401380150014801040150016000B0009401CC00B000A0011C011401380134014C011C0080019C019401B8019001A401B401E8008000C800C400A401029F53B9704C11C01140138015001480104010C013C00B001280140013800B000C000B0027D4EE5C0B0011C011401380150014801040150016000B0009401CC
311
00B000A0011C011401380134014C011C0080019C019401B8019001A401B401E8008000C400A4010131004081663B9D931470045004E0054005200410043004F002C004A0050004E002C0030002C000598EE762C00470045004E00540052004100540058002C00250073002C002800470045004E004D0053004700200067006
311
5006E00640069006D007A00200031003400290041DCBFE77FE0FFE7BFDBFFDE3FDF7FD36470045004E0054005200410043004F002C004A0050004E002C0030002C0072FF9DFF83FF9EFF6FFF78FF7DFF2C00470045004E00540052004100540058002C00250073002C002800470045004E004D00530047002000670065006E
311
00640069006D007A002000310035002900421D1E9CBFE77FE0FFE7BFDBFFDE3FDF7FD37470045004E0054005200410043004F002C004A0050004E002C0030002C00747A72FF9DFF83FF9EFF6FFF78FF7DFF2C00470045004E00540052004100540058002C00250073002C002800470045004E004D005300470020006700650
311
06E00640069006D007A002000310037002900405D1E930470045004E0054005200410043004F002C004A0050004E002C0030002C00747A2C00470045004E00540052004100540058002C00250073002C002800470045004E004D00530047002000670065006E00640069006D007A002000310036002900409C1973E4531470
311
045004E0054005200410043004F002C004A0050004E002C0030002C007065CF912C00470045004E00540052004100540058002C00250073002C002800470045004E004D00530047002000670065006E00640069006D007A00200031003900290041798C3F0C2D8C01663B9D934470045004E0054005200410043004F002C00
311
4A0050004E002C0030002C00E630FC30B6300598EE762C00470045004E00540052004100540058002C00250073002C002800470045004E004D00530047002000670065006E00640069006D007A0020003200320029004FCF400F0013C01C801A4019C01A401B800F800F00124011800A0013C014800A00124014C010801300
311
1040138012C00A0013C01C801A4019C01A401B800A400B00124014C0108013001040138012C00A0012401B80190019401E000A400A400B00088008800B0008800B8008800A400F800F0012401B80190019401E000F800C
161
              7153
310
74033333333333309400CCCCCCCCCCCC250200800030C0200C00030C0102FA46007FFFFFFFA0606000619999999999984A04010000618068181800186666666666661281004000186018080F020180000000000000000000000000000000219999999999984A040100006180219999999999984A040100006180402F8080F0
310
00180000000000000000000000000000000219999999999984A040100006180219999999999984A0401000061804027A1C88222812068220A83A1886A1E80A1C89A2A81A2483A28880000808000808280110A00010101010104002234000202000202000040A8000404000404000081D0000808000808000104A0001010001
310
01030020B4000202000202020041E80004040004001000865000080800080020010DA000101010101050021F40002020002020A00406800040400040410008750000808000808280113A000101000101040022540002020002020C00452800040400040414008AD220000000000000001CA04FFFFFFFF030000000000000D1
310
027FFFFFFF80800000000000068813FFFFFFFC0400000000000034409FFFFFFFE040000000000001A204FFFFFFFF020000000000000D1027FFFFFFF81800000000000072813FFFFFFFC0C00000000000049409FFFFFFFE0600000000004028A04FFFFFFFF000000000000000D1027FFFFFFF80000000000000048813FFFFFF
310
FC0000000000000034409FFFFFFFE000000000000001A204FFFFFFFF000000000000000D1027FFFFFFF81800000000000050813FFFFFFFC0000000000000034409FFFFFFFE8800000000000000072813FFFFFFFC0C00000000000034409FFFFFFFE060000000000001A204FFFFFFFF030000000000000D1027FFFFFFF81800
310
000000000068813FFFFFFFC0C00000000000034409FFFFFFFE060000000000001CA04FFFFFFFF03000000000000125027FFFFFFF818000000000100A2813FFFFFFFC0000000000000034409FFFFFFFE0000000000000012204FFFFFFFF000000000000000D1027FFFFFFF80000000000000068813FFFFFFFC0C00000000000
310
034409FFFFFFFE0600000000000014204FFFFFFFF000000000000000D1027FFFFFFFA0E8800000021E000000810000002060000008200000020A00000083800000202890000001FFFFFFFE81202000283A2000000087800000204000000818000002080000008280000020E0000008100002068800000021E0000008A80000
310
01FFFFFFFF4C
340
0
340
0
340
0
340
0
340
0
340
0
 94
        0
  0
ACAD_PROXY_OBJECT
  5
2E22
330
2E0E
100
AcDbProxyObject
 90
      499
 91
      539
 95
 11534369
 70
     0
162
              8400
311
40D280124014C0296943003A005C00550073006500720073005C005000750062006C00690063005C0044006F00630075006D0065006E00740073005C004100750074006F006400650073006B005C004100750074006F0043004100440020004D0065006300680061006E006900630061006C00200032003000310039005C00
311
41006300610064006D005C00470065006E005C004400770067005C005200650076006900730069006F006E006C006900730074005C00540053004B005F00740072005F007200650076006900730069006F006E006C0069007300740043D0400C0008000A000E000D000C401E000C400C400E000E401B401B400A401064A004
311
90053005F004100300043D0400D00148008000A000C800E400DC01E000C800C400C001B401B400A401074A00490053005F004100340052004390400CC008000A000C800E400DC01E000D000C800C001B401B400A401064A00490053005F00410033004390400C4008000A000D400E400D001E000E000D000C401B401B400A4
311
01064A00490053005F004100310043D0400D00130008000A000C800C400C001E000C800E400DC01B401B400A401074A00490053005F00410034004C004390400C8008000A000D000C800C001E000D400E400D001B401B400A401064A00490053005F0041003200425280124014C008001A221326011AC800104010A4A00490
311
053005F005400490054004C0045004100425280124014C008001A221326011AC800108010A4A00490053005F005400490054004C004500420044D50014C012C017C01D001C8017C01C8019401D801A401CC01A401BC01B801B001A401CC01D0016943003A005C00550073006500720073005C005000750062006C006900630
311
05C0044006F00630075006D0065006E00740073005C004100750074006F006400650073006B005C004100750074006F0043004100440020004D0065006300680061006E006900630061006C00200032003000310039005C0041006300610064006D005C00470065006E005C004400770067005C00520065007600690073006
311
9006F006E006C006900730074005C00540053004B005F00740072005F007200650076006900730069006F006E006C006900730074004259571D1AE63FDF7FE13FD7C01500148017C01134A00490053005F00540052005F005200650076006900730069006F006E006C006900730074004259571D1AE63FDF7FE13FD7C01080
311
130017C01134A00490053005F0042004C005F005200650076006900730069006F006E006C006900730074004259571D1AE63FDF7FE13FD7C01500130017C01134A00490053005F0054004C005F005200650076006900730069006F006E006C006900730074004259571D1AE63FDF7FE13FD7C01080148017C01134A0049005
311
3005F00420052005F005200650076006900730069006F006E006C00690073007400A44
161
               498
310
74033333333333309400CCCCCCCCCCCC250200800030C0200C00030C0102FB2E8320482A05400000000002015900000000000000324000000000000008900C
 94
        0
  0
ACAD_PROXY_OBJECT
  5
2E23
330
2E0E
100
AcDbProxyObject
 90
      499
 91
      553
 95
 11534369
 70
     0
162
                 0
161
               249
310
74033333333333309400CCCCCCCCCCCC250200800030C0200C00030C0102FC4C
340
0
 94
        0
  0
ACAD_PROXY_OBJECT
  5
2E24
330
2E0E
100
AcDbProxyObject
 90
      499
 91
      556
 95
 11534369
 70
     0
162
                26
311
404E800C
161
               305
310
74033333333333309400CCCCCCCCCCCC250200800030C0200C00030C0102FA17520280A035554C
 94
        0
  0
ACAD_PROXY_OBJECT
  5
2E25
330
2E0E
100
AcDbProxyObject
 90
      499
 91
      557
 95
 11534369
 70
     0
162
              1002
311
4F8F400F0014C015001480154010C015000E8010C013C01340140017C013801040134011400F8008000F0014C015001480154010C015000E8015801240114015C017C013801040134011400F80080034CC394C3F0C08000A000F0014C015001480154010C015000E8014C0158017C014C010C01040130011400F800A400C
161
               332
310
74000000000000012400CCCCCCCCCCCC250201C00030C0200C00030C0102FA028100000000000006881C
340
2C2E
 94
        0
  0
ACAD_PROXY_OBJECT
  5
2E26
330
2E0E
100
AcDbProxyObject
 90
      499
 91
      558
 95
 11534369
 70
     0
162
                 0
161
               249
310
74033333333333309400CCCCCCCCCCCC250200800030C0200C00030C0102FBCC
 94
        0
  0
FIELD
  5
2C01
102
{ACAD_REACTORS
330
2C00
102
}
330
2C00
100
AcDbField
  1
_text
  2
%<\_FldIdx 0>%-%<\_FldIdx 1>%
 90
        2
360
2C02
360
2C04
 97
        0
 91
       63
 92
        0
 94
        9
 95
        2
 96
        0
300

 93
        0
  7
ACFD_FIELD_VALUE
 93
        3
 90
        0
 94
        0
300

302

304
ACVALUE_END
301

 98
        0
  0
FIELD
  5
2C42
102
{ACAD_REACTORS
330
2C41
102
}
330
2C41
100
AcDbField
  1
_text
  2
%<\_FldIdx 0>%-%<\_FldIdx 1>%
 90
        2
360
2C43
360
2C44
 97
        0
 91
       63
 92
        0
 94
        9
 95
        2
 96
        0
300

 93
        0
  7
ACFD_FIELD_VALUE
 93
        3
 90
        0
 94
        0
300

302

304
ACVALUE_END
301

 98
        0
  0
FIELD
  5
2C48
102
{ACAD_REACTORS
330
2C47
102
}
330
2C47
100
AcDbField
  1
_text
  2
%<\_FldIdx 0>%-%<\_FldIdx 1>%
 90
        2
360
2C49
360
2C4A
 97
        0
 91
       63
 92
        0
 94
        9
 95
        2
 96
        0
300

 93
        0
  7
ACFD_FIELD_VALUE
 93
        3
 90
        0
 94
        0
300

302

304
ACVALUE_END
301

 98
        0
  0
ACAD_PROXY_OBJECT
  5
2C09
330
0
100
AcDbProxyObject
 90
      499
 91
      535
 95
 11534369
 70
     0
162
              5180
311
42318C3CCC35CC3B0C3F0C320C08000C4003A013D002500250063003C0048006F006C0065003A00630074006400690061003E002000780020003C0048006F006C0065003A0063007400640065007000740068003E00200055005C0050003C0069006600280065007100750061006C00280048006F006C0065003A007400610
311
070007000650064002C0022003000220029002C00220025002500630022002C0048006F006C0065003A006E006F006D0069006E0061006C0020002200200078002000220029003E003C0069006600280065007100750061006C00280048006F006C0065003A007400610070007000650064002C0022003000220029002C004
311
8006F006C0065003A006400690061002C0048006F006C0065003A0070006900740063006800640065007300630029003E003C0069006600280065007100750061006C00280048006F006C0065003A007400610070007000650064002C0022003100220029002C00220020007800200022002C002200220029003E003C00690
311
06600280065007100750061006C00280048006F006C0065003A007400610070007000650064002C0022003100220029002C0048006F006C0065003A00740061007000640065007000740068002C002200220029003E0020003C0069006600280065007100750061006C00280048006F006C0065003A007400650072006D006
311
9006E006100740069006F006E002C0022003000220029002C00220020002F00200022002C002200220029003E003C0069006600280065007100750061006C00280048006F006C0065003A007400650072006D0069006E006100740069006F006E002C0022003000220029002C0048006F006C0065003A00640065007000740
311
068002C002200220029003E00C
161
                29
310
7420101C
 94
        0
  0
ACAD_PROXY_OBJECT
  5
2C0A
330
0
100
AcDbProxyObject
 90
      499
 91
      535
 95
 11534369
 70
     0
162
              5196
311
42318C3CCC35CC3B0C3F0C320C08000C4003B013D002500250063003C0048006F006C0065003A00630074006400690061003E002000780020003C0048006F006C0065003A006300740061006E0067006C0065003E002500250064005C0050003C0069006600280065007100750061006C00280048006F006C0065003A00740
311
0610070007000650064002C0022003000220029002C00220025002500630022002C0048006F006C0065003A006E006F006D0069006E0061006C0020002200200078002000220029003E003C0069006600280065007100750061006C00280048006F006C0065003A007400610070007000650064002C0022003000220029002
311
C0048006F006C0065003A006400690061002C0048006F006C0065003A0070006900740063006800640065007300630029003E003C0069006600280065007100750061006C00280048006F006C0065003A007400610070007000650064002C0022003100220029002C00220020007800200022002C002200220029003E003C0
311
069006600280065007100750061006C00280048006F006C0065003A007400610070007000650064002C0022003100220029002C0048006F006C0065003A00740061007000640065007000740068002C002200220029003E0020003C0069006600280065007100750061006C00280048006F006C0065003A007400650072006
311
D0069006E006100740069006F006E002C0022003000220029002C00220020002F00200022002C002200220029003E003C0069006600280065007100750061006C00280048006F006C0065003A007400650072006D0069006E006100740069006F006E002C0022003000220029002C0048006F006C0065003A0064006500700
311
0740068002C002200220029003E00C
161
                29
310
7420101C
 94
        0
  0
ACAD_PROXY_OBJECT
  5
2C08
330
0
100
AcDbProxyObject
 90
      499
 91
      535
 95
 11534369
 70
     0
162
              4604
311
42318C3CCC35CC3B0C3F0C320C08000C40016013D003C0069006600280065007100750061006C00280048006F006C0065003A007400610070007000650064002C0022003000220029002C00220025002500630022002C0048006F006C0065003A006E006F006D0069006E0061006C0020002200200078002000220029003E0
311
03C0069006600280065007100750061006C00280048006F006C0065003A007400610070007000650064002C0022003000220029002C0048006F006C0065003A006400690061002C0048006F006C0065003A0070006900740063006800640065007300630029003E003C0069006600280065007100750061006C00280048006
311
F006C0065003A007400610070007000650064002C0022003100220029002C00220020007800200022002C002200220029003E003C0069006600280065007100750061006C00280048006F006C0065003A007400610070007000650064002C0022003100220029002C0048006F006C0065003A0074006100700064006500700
311
0740068002C002200220029003E0020003C0069006600280065007100750061006C00280048006F006C0065003A007400650072006D0069006E006100740069006F006E002C0022003000220029002C00220020002F00200022002C002200220029003E003C0069006600280065007100750061006C00280048006F006C006
311
5003A007400650072006D0069006E006100740069006F006E002C0022003000220029002C0048006F006C0065003A00640065007000740068002C002200220029003E00C
161
                29
310
7420101C
 94
        0
  0
ACAD_PROXY_OBJECT
  5
2C0B
330
0
100
AcDbProxyObject
 90
      499
 91
      535
 95
 11534369
 70
     0
162
              4876
311
42318C3CCC35CC3B0C3F0C320C08000C40027013D002500250063003C0048006F006C0065003A00630074006400690061003E005C0050003C0069006600280065007100750061006C00280048006F006C0065003A007400610070007000650064002C0022003000220029002C00220025002500630022002C0048006F006C0
311
065003A006E006F006D0069006E0061006C0020002200200078002000220029003E003C0069006600280065007100750061006C00280048006F006C0065003A007400610070007000650064002C0022003000220029002C0048006F006C0065003A006400690061002C0048006F006C0065003A00700069007400630068006
311
40065007300630029003E003C0069006600280065007100750061006C00280048006F006C0065003A007400610070007000650064002C0022003100220029002C00220020007800200022002C002200220029003E003C0069006600280065007100750061006C00280048006F006C0065003A0074006100700070006500640
311
02C0022003100220029002C0048006F006C0065003A00740061007000640065007000740068002C002200220029003E0020003C0069006600280065007100750061006C00280048006F006C0065003A007400650072006D0069006E006100740069006F006E002C0022003000220029002C00220020002F00200022002C002
311
200220029003E003C0069006600280065007100750061006C00280048006F006C0065003A007400650072006D0069006E006100740069006F006E002C0022003000220029002C0048006F006C0065003A00640065007000740068002C002200220029003E00C
161
                29
310
7420101C
 94
        0
  0
ACAD_PROXY_OBJECT
  5
2C06
330
0
100
AcDbProxyObject
 90
      499
 91
      535
 95
 11534369
 70
     0
162
               516
311
42318C3CCC35CC3B0C3F0C320C08000C801173D003C0053005400440050003A0044004500530043003E0020003C0053005400440050003A005300540044003E00C
161
                29
310
74201014
 94
        0
  0
ACAD_PROXY_OBJECT
  5
2C05
330
0
100
AcDbProxyObject
 90
      499
 91
      535
 95
 11534369
 70
     0
162
               340
311
42318C3CCC35CC3B0C3F0C320C08000C4010C3D003C0053005400440050003A0044004500530043003E00C
161
                29
310
7420101C
 94
        0
  0
ACAD_PROXY_OBJECT
  5
2C07
330
0
100
AcDbProxyObject
 90
      499
 91
      535
 95
 11534369
 70
     0
162
               324
311
42318C3CCC35CC3B0C3F0C320C08000CC010B3D003C0053005400440050003A005300540044003E00C
161
                29
310
74201014
 94
        0
  0
FIELD
  5
2C02
330
2C01
100
AcDbField
  1
AcVar
  2
\AcVar ViewSectionStartId
 90
        0
 97
        0
 91
       63
 92
        0
 94
       43
 95
        2
 96
        0
300

 93
        1
  6
Variable
 93
        2
 90
        4
  1
ViewSectionStartId
 94
        0
300

302

304
ACVALUE_END
  7
ACFD_FIELD_VALUE
 93
        1
 90
        0
 94
        0
300

302

304
ACVALUE_END
301
----
 98
        4
  0
FIELD
  5
2C04
330
2C01
100
AcDbField
  1
AcVar
  2
\AcVar ViewSectionEndId
 90
        0
 97
        0
 91
       63
 92
        0
 94
       43
 95
        2
 96
        0
300

 93
        1
  6
Variable
 93
        2
 90
        4
  1
ViewSectionEndId
 94
        0
300

302

304
ACVALUE_END
  7
ACFD_FIELD_VALUE
 93
        1
 90
        0
 94
        0
300

302

304
ACVALUE_END
301
----
 98
        4
  0
FIELD
  5
2C43
330
2C42
100
AcDbField
  1
AcVar
  2
\AcVar ViewSectionStartId
 90
        0
 97
        0
 91
       63
 92
        0
 94
       43
 95
        2
 96
        0
300

 93
        1
  6
Variable
 93
        2
 90
        4
  1
ViewSectionStartId
 94
        0
300

302

304
ACVALUE_END
  7
ACFD_FIELD_VALUE
 93
        1
 90
        0
 94
        0
300

302

304
ACVALUE_END
301
----
 98
        4
  0
FIELD
  5
2C44
330
2C42
100
AcDbField
  1
AcVar
  2
\AcVar ViewSectionEndId
 90
        0
 97
        0
 91
       63
 92
        0
 94
       43
 95
        2
 96
        0
300

 93
        1
  6
Variable
 93
        2
 90
        4
  1
ViewSectionEndId
 94
        0
300

302

304
ACVALUE_END
  7
ACFD_FIELD_VALUE
 93
        1
 90
        0
 94
        0
300

302

304
ACVALUE_END
301
----
 98
        4
  0
FIELD
  5
2C49
330
2C48
100
AcDbField
  1
AcVar
  2
\AcVar ViewSectionStartId
 90
        0
 97
        0
 91
       63
 92
        0
 94
       43
 95
        2
 96
        0
300

 93
        1
  6
Variable
 93
        2
 90
        4
  1
ViewSectionStartId
 94
        0
300

302

304
ACVALUE_END
  7
ACFD_FIELD_VALUE
 93
        1
 90
        0
 94
        0
300

302

304
ACVALUE_END
301
----
 98
        4
  0
FIELD
  5
2C4A
330
2C48
100
AcDbField
  1
AcVar
  2
\AcVar ViewSectionEndId
 90
        0
 97
        0
 91
       63
 92
        0
 94
       43
 95
        2
 96
        0
300

 93
        1
  6
Variable
 93
        2
 90
        4
  1
ViewSectionEndId
 94
        0
300

302

304
ACVALUE_END
  7
ACFD_FIELD_VALUE
 93
        1
 90
        0
 94
        0
300

302

304
ACVALUE_END
301
----
 98
        4
  0
ENDSEC
  0
SECTION
  2
ACDSDATA
 70
     2
 71
     8
  0
ACDSSCHEMA
 90
        0
  1
AcDb_Thumbnail_Schema
  2
AcDbDs::ID
280
    10
 91
        8
  2
Thumbnail_Data
280
    15
 91
        0
101
ACDSRECORD
 95
        0
 90
        1
  2
AcDbDs::TreatedAsObjectData
280
     1
291
     1
101
ACDSRECORD
 95
        0
 90
        2
  2
AcDbDs::Legacy
280
     1
291
     1
101
ACDSRECORD
  1
AcDbDs::ID
 90
        3
  2
AcDs:Indexable
280
     1
291
     1
101
ACDSRECORD
  1
AcDbDs::ID
 90
        4
  2
AcDbDs::HandleAttribute
280
     7
282
     1
  0
ACDSSCHEMA
 90
        1
  1
AcDbDs::TreatedAsObjectDataSchema
  2
AcDbDs::TreatedAsObjectData
280
     1
 91
        0
  0
ACDSSCHEMA
 90
        2
  1
AcDbDs::LegacySchema
  2
AcDbDs::Legacy
280
     1
 91
        0
  0
ACDSSCHEMA
 90
        3
  1
AcDbDs::IndexedPropertySchema
  2
AcDs:Indexable
280
     1
 91
        0
  0
ACDSSCHEMA
 90
        4
  1
AcDbDs::HandleAttributeSchema
  2
AcDbDs::HandleAttribute
280
     7
 91
        1
284
     1
  0
ACDSRECORD
 90
        0
  2
AcDbDs::ID
280
    10
320
149F
  2
Thumbnail_Data
280
    15
 94
     1515
310
89504E470D0A1A0A0000000D4948445200000100000000730803000000406D2C8F00000300504C5445000000FFFFFF0000000000000000000000000000000000000000000000000000000000330000660000990000CC0000FF0033000033330033660033990033CC0033FF0066000066330066660066990066CC0066FF0099
310
000099330099660099990099CC0099FF00CC0000CC3300CC6600CC9900CCCC00CCFF00FF0000FF3300FF6600FF9900FFCC00FFFF3300003300333300663300993300CC3300FF3333003333333333663333993333CC3333FF3366003366333366663366993366CC3366FF3399003399333399663399993399CC3399FF33CC00
310
33CC3333CC6633CC9933CCCC33CCFF33FF0033FF3333FF6633FF9933FFCC33FFFF6600006600336600666600996600CC6600FF6633006633336633666633996633CC6633FF6666006666336666666666996666CC6666FF6699006699336699666699996699CC6699FF66CC0066CC3366CC6666CC9966CCCC66CCFF66FF0066
310
FF3366FF6666FF9966FFCC66FFFF9900009900339900669900999900CC9900FF9933009933339933669933999933CC9933FF9966009966339966669966999966CC9966FF9999009999339999669999999999CC9999FF99CC0099CC3399CC6699CC9999CCCC99CCFF99FF0099FF3399FF6699FF9999FFCC99FFFFCC0000CC00
310
33CC0066CC0099CC00CCCC00FFCC3300CC3333CC3366CC3399CC33CCCC33FFCC6600CC6633CC6666CC6699CC66CCCC66FFCC9900CC9933CC9966CC9999CC99CCCC99FFCCCC00CCCC33CCCC66CCCC99CCCCCCCCCCFFCCFF00CCFF33CCFF66CCFF99CCFFCCCCFFFFFF0000FF0033FF0066FF0099FF00CCFF00FFFF3300FF3333
310
FF3366FF3399FF33CCFF33FFFF6600FF6633FF6666FF6699FF66CCFF66FFFF9900FF9933FF9966FF9999FF99CCFF99FFFFCC00FFCC33FFCC66FFCC99FFCCCCFFCCFFFFFF00FFFF33FFFF66FFFF99FFFFCCFFFFFF0000000D0D0D1A1A1A2828283535354343435050505D5D5D6B6B6B787878868686939393A1A1A1AEAEAEBB
310
BBBBC9C9C9D6D6D6E4E4E4F1F1F1FFFFFF0000000000000000000000000000000000000000000000000000000000003AE5ACE9000001134944415478DAEDDA4B8E83301005C0BEFF7D7B9F080361143E23CD6224BF2A455160E787EDB46DAA0000000000000080BFEAB75A3EEFAFE572B9BBFD084960A430AEC6CDAA98F66F
310
11AC011CBA45D810A87D18AC43C0F400405441981EC0B114CC0C602B8A738740572507D0FBC24000B9734065CE03FDADD223C81E02264101A804937B40FA62287D37D46E3000A805262EF97E55166606D0878D81C400F6A6CFBC1EB878BA294BE1CB76F6FEA6500734FF2481F15EDCECBD60DDF4386BE578F4936F887C367D
310
EF03983582DB8DFF9000D617024FBA801E10702EB46DFB9E3EE5AEF9CF05D287C08FD3EFC47F81CFE1673DD501D356024F95E0FCEB81BE5F0B041C8D5D3EE276240600000000000000FC97178C2E115C063C0BD30000000049454E44AE426082A9EE94314981DA63DD8E835100C9448069BD6FB3E0ADE9A8000F01EA8A77FB
310
427A65814F02C860021813DAB605E09E003F3F0F56FBD771BD36B6A103D4CFBF18CF0A092340391E43D32911D716380B2007015AFAA32125DABF069D04B8BDF1D5709B2C43A0CDFCFD2494ED10B014A09C10A3756BC84E8096D0CFED9D0702FC7822D46BFB1E7F7A900A1B3860D8EFAF7DB3C7B118AAE95F9D0F96419DF300
310
9F25917A5ADEBD86C8D00FB76989F56EDFBE775287805167F86EAB535FB1FD1F508FB0C5F11F19A70000000049454E44AE426082B6B233686302572A40E559F67CC86738EF5701AC498FC13BC57625B0FA2E04C90D81B961D34641B0E85F558D6F42608460CBF74E5C58E9B7F74BBD6640B54715F802CFCC0E135F70774A00
310
00000049454E44AE4260828095AA30D3F9013EF4F90B16F605CC1876C9EBE160FE90B0B5AD310E00B52AD062001637475D22141E8175B3FE617BDCF8E4ADFAF2893203B095B617E2A3126F2D5F9224499224499224499224499224499224E9AFF4054D3E83EBD54573E90000000049454E44AE426082
  0
ENDSEC
  0
EOF
