  0
SECTION
  2
HEADER
  9
$ACADVER
  1
AC1027
  9
$ACADMAINTVER
 70
   125
  9
$DWGCODEPAGE
  3
ANSI_932
  9
$LASTSAVEDBY
  1
t-kanatani
  9
$REQUIREDVERSIONS
160
                 0
  9
$INSBASE
 10
0.0
 20
0.0
 30
0.0
  9
$EXTMIN
 10
-345.8333333333332
 20
-62.3604128823099
 30
0.0
  9
$EXTMAX
 10
392.0004380972205
 20
709.1666666666666
 30
0.0
  9
$LIMMIN
 10
-2550.0
 20
0.0
  9
$LIMMAX
 10
0.0
 20
1800.0
  9
$ORTHOMODE
 70
     1
  9
$REGENMODE
 70
     1
  9
$FILLMODE
 70
     1
  9
$QTEXTMODE
 70
     0
  9
$MIRRTEXT
 70
     0
  9
$LTSCALE
 40
1.0
  9
$ATTMODE
 70
     1
  9
$TEXTSIZE
 40
0.2
  9
$TRACEWID
 40
0.05
  9
$TEXTSTYLE
  7
STANDARD
  9
$CLAYER
  8
0
  9
$CELTYPE
  6
CONTINUOUS
  9
$CECOLOR
 62
   256
  9
$CELTSCALE
 40
1.0
  9
$DISPSILH
 70
     0
  9
$DIMSCALE
 40
1.0
  9
$DIMASZ
 40
0.18
  9
$DIMEXO
 40
0.0625
  9
$DIMDLI
 40
0.38
  9
$DIMRND
 40
0.0
  9
$DIMDLE
 40
0.0
  9
$DIMEXE
 40
0.18
  9
$DIMTP
 40
0.0
  9
$DIMTM
 40
0.0
  9
$DIMTXT
 40
0.18
  9
$DIMCEN
 40
0.09
  9
$DIMTSZ
 40
0.0
  9
$DIMTOL
 70
     0
  9
$DIMLIM
 70
     0
  9
$DIMTIH
 70
     1
  9
$DIMTOH
 70
     1
  9
$DIMSE1
 70
     0
  9
$DIMSE2
 70
     0
  9
$DIMTAD
 70
     0
  9
$DIMZIN
 70
     0
  9
$DIMBLK
  1

  9
$DIMASO
 70
     1
  9
$DIMSHO
 70
     0
  9
$DIMPOST
  1

  9
$DIMAPOST
  1

  9
$DIMALT
 70
     0
  9
$DIMALTD
 70
     2
  9
$DIMALTF
 40
25.4
  9
$DIMLFAC
 40
1.0
  9
$DIMTOFL
 70
     0
  9
$DIMTVP
 40
0.0
  9
$DIMTIX
 70
     0
  9
$DIMSOXD
 70
     0
  9
$DIMSAH
 70
     0
  9
$DIMBLK1
  1

  9
$DIMBLK2
  1

  9
$DIMSTYLE
  2
Standard
  9
$DIMCLRD
 70
     0
  9
$DIMCLRE
 70
     0
  9
$DIMCLRT
 70
     0
  9
$DIMTFAC
 40
1.0
  9
$DIMGAP
 40
0.09
  9
$DIMJUST
 70
     0
  9
$DIMSD1
 70
     0
  9
$DIMSD2
 70
     0
  9
$DIMTOLJ
 70
     1
  9
$DIMTZIN
 70
     0
  9
$DIMALTZ
 70
     0
  9
$DIMALTTZ
 70
     0
  9
$DIMUPT
 70
     0
  9
$DIMDEC
 70
     4
  9
$DIMTDEC
 70
     4
  9
$DIMALTU
 70
     2
  9
$DIMALTTD
 70
     2
  9
$DIMTXSTY
  7
STANDARD
  9
$DIMAUNIT
 70
     0
  9
$DIMADEC
 70
     0
  9
$DIMALTRND
 40
0.0
  9
$DIMAZIN
 70
     0
  9
$DIMDSEP
 70
    46
  9
$DIMATFIT
 70
     3
  9
$DIMFRAC
 70
     0
  9
$DIMLDRBLK
  1

  9
$DIMLUNIT
 70
     2
  9
$DIMLWD
 70
    -2
  9
$DIMLWE
 70
    -2
  9
$DIMTMOVE
 70
     0
  9
$DIMFXL
 40
1.0
  9
$DIMFXLON
 70
     0
  9
$DIMJOGANG
 40
0.7853981633974483
  9
$DIMTFILL
 70
     1
  9
$DIMTFILLCLR
 70
     0
  9
$DIMARCSYM
 70
     1
  9
$DIMLTYPE
  6
CONTINUOUS
  9
$DIMLTEX1
  6
CONTINUOUS
  9
$DIMLTEX2
  6
CONTINUOUS
  9
$DIMTXTDIRECTION
 70
     0
  9
$LUNITS
 70
     2
  9
$LUPREC
 70
     8
  9
$SKETCHINC
 40
0.1
  9
$FILLETRAD
 40
0.0
  9
$AUNITS
 70
     0
  9
$AUPREC
 70
     0
  9
$MENU
  1
.
  9
$ELEVATION
 40
0.0
  9
$PELEVATION
 40
0.0
  9
$THICKNESS
 40
0.0
  9
$LIMCHECK
 70
     0
  9
$CHAMFERA
 40
0.0
  9
$CHAMFERB
 40
0.0
  9
$CHAMFERC
 40
0.0
  9
$CHAMFERD
 40
0.0
  9
$SKPOLY
 70
     0
  9
$TDCREATE
 40
2456143.683831019
  9
$TDUCREATE
 40
2456143.308840602
  9
$TDUPDATE
 40
2459713.428472222
  9
$TDUUPDATE
 40
2459713.053472222
  9
$TDINDWG
 40
0.0849660185
  9
$TDUSRTIMER
 40
0.0849660185
  9
$USRTIMER
 70
     1
  9
$ANGBASE
 50
0.0
  9
$ANGDIR
 70
     0
  9
$PDMODE
 70
     0
  9
$PDSIZE
 40
0.0
  9
$PLINEWID
 40
0.0
  9
$SPLFRAME
 70
     0
  9
$SPLINETYPE
 70
     6
  9
$SPLINESEGS
 70
     8
  9
$HANDSEED
  5
2CFE
  9
$SURFTAB1
 70
     6
  9
$SURFTAB2
 70
     6
  9
$SURFTYPE
 70
     6
  9
$SURFU
 70
     6
  9
$SURFV
 70
     6
  9
$UCSBASE
  2

  9
$UCSNAME
  2

  9
$UCSORG
 10
0.0
 20
0.0
 30
0.0
  9
$UCSXDIR
 10
1.0
 20
0.0
 30
0.0
  9
$UCSYDIR
 10
0.0
 20
1.0
 30
0.0
  9
$UCSORTHOREF
  2

  9
$UCSORTHOVIEW
 70
     0
  9
$UCSORGTOP
 10
0.0
 20
0.0
 30
0.0
  9
$UCSORGBOTTOM
 10
0.0
 20
0.0
 30
0.0
  9
$UCSORGLEFT
 10
0.0
 20
0.0
 30
0.0
  9
$UCSORGRIGHT
 10
0.0
 20
0.0
 30
0.0
  9
$UCSORGFRONT
 10
0.0
 20
0.0
 30
0.0
  9
$UCSORGBACK
 10
0.0
 20
0.0
 30
0.0
  9
$PUCSBASE
  2

  9
$PUCSNAME
  2

  9
$PUCSORG
 10
0.0
 20
0.0
 30
0.0
  9
$PUCSXDIR
 10
1.0
 20
0.0
 30
0.0
  9
$PUCSYDIR
 10
0.0
 20
1.0
 30
0.0
  9
$PUCSORTHOREF
  2

  9
$PUCSORTHOVIEW
 70
     0
  9
$PUCSORGTOP
 10
0.0
 20
0.0
 30
0.0
  9
$PUCSORGBOTTOM
 10
0.0
 20
0.0
 30
0.0
  9
$PUCSORGLEFT
 10
0.0
 20
0.0
 30
0.0
  9
$PUCSORGRIGHT
 10
0.0
 20
0.0
 30
0.0
  9
$PUCSORGFRONT
 10
0.0
 20
0.0
 30
0.0
  9
$PUCSORGBACK
 10
0.0
 20
0.0
 30
0.0
  9
$USERI1
 70
     0
  9
$USERI2
 70
     0
  9
$USERI3
 70
     0
  9
$USERI4
 70
     0
  9
$USERI5
 70
     0
  9
$USERR1
 40
0.0
  9
$USERR2
 40
0.0
  9
$USERR3
 40
0.0
  9
$USERR4
 40
0.0
  9
$USERR5
 40
0.0
  9
$WORLDVIEW
 70
     1
  9
$SHADEDGE
 70
     3
  9
$SHADEDIF
 70
    70
  9
$TILEMODE
 70
     1
  9
$MAXACTVP
 70
    64
  9
$PINSBASE
 10
0.0
 20
0.0
 30
0.0
  9
$PLIMCHECK
 70
     0
  9
$PEXTMIN
 10
-2550.0
 20
0.0
 30
0.0
  9
$PEXTMAX
 10
0.0
 20
1800.0
 30
0.0
  9
$PLIMMIN
 10
-2550.0
 20
0.0
  9
$PLIMMAX
 10
0.0
 20
1800.0
  9
$UNITMODE
 70
     0
  9
$VISRETAIN
 70
     1
  9
$PLINEGEN
 70
     0
  9
$PSLTSCALE
 70
     1
  9
$TREEDEPTH
 70
  3020
  9
$CMLSTYLE
  2
STANDARD
  9
$CMLJUST
 70
     0
  9
$CMLSCALE
 40
1.0
  9
$PROXYGRAPHICS
 70
     1
  9
$MEASUREMENT
 70
     1
  9
$CELWEIGHT
370
    -1
  9
$ENDCAPS
280
     0
  9
$JOINSTYLE
280
     0
  9
$LWDISPLAY
290
     0
  9
$INSUNITS
 70
     0
  9
$HYPERLINKBASE
  1

  9
$STYLESHEET
  1

  9
$XEDIT
290
     1
  9
$CEPSNTYPE
380
     0
  9
$PSTYLEMODE
290
     1
  9
$FINGERPRINTGUID
  2
{BB9BFA00-F76C-44F8-8090-B0A6A8DEAECD}
  9
$VERSIONGUID
  2
{55835E33-5BE3-1543-9293-6FF26DBFB9EA}
  9
$EXTNAMES
290
     1
  9
$PSVPSCALE
 40
0.0
  9
$OLESTARTUP
290
     0
  9
$SORTENTS
280
   127
  9
$INDEXCTL
280
     0
  9
$HIDETEXT
280
     0
  9
$XCLIPFRAME
280
     2
  9
$HALOGAP
280
     0
  9
$OBSCOLOR
 70
   257
  9
$OBSLTYPE
280
     0
  9
$INTERSECTIONDISPLAY
280
     0
  9
$INTERSECTIONCOLOR
 70
   257
  9
$DIMASSOC
280
     1
  9
$PROJECTNAME
  1

  9
$CAMERADISPLAY
290
     0
  9
$LENSLENGTH
 40
50.0
  9
$CAMERAHEIGHT
 40
0.0
  9
$STEPSPERSEC
 40
2.0
  9
$STEPSIZE
 40
6.0
  9
$3DDWFPREC
 40
2.0
  9
$PSOLWIDTH
 40
0.25
  9
$PSOLHEIGHT
 40
4.0
  9
$LOFTANG1
 40
1.570796326794896
  9
$LOFTANG2
 40
1.570796326794896
  9
$LOFTMAG1
 40
0.0
  9
$LOFTMAG2
 40
0.0
  9
$LOFTPARAM
 70
     7
  9
$LOFTNORMALS
280
     1
  9
$LATITUDE
 40
37.795
  9
$LONGITUDE
 40
-122.394
  9
$NORTHDIRECTION
 40
0.0
  9
$TIMEZONE
 70
 -8000
  9
$LIGHTGLYPHDISPLAY
280
     1
  9
$TILEMODELIGHTSYNCH
280
     1
  9
$CMATERIAL
347
1454
  9
$SOLIDHIST
280
     0
  9
$SHOWHIST
280
     1
  9
$DWFFRAME
280
     2
  9
$DGNFRAME
280
     0
  9
$REALWORLDSCALE
290
     1
  9
$INTERFERECOLOR
 62
     1
  9
$INTERFEREOBJVS
345
1476
  9
$INTERFEREVPVS
346
1473
  9
$CSHADOW
280
     0
  9
$SHADOWPLANELOCATION
 40
0.0
  0
ENDSEC
  0
SECTION
  2
CLASSES
  0
CLASS
  1
ACDBDICTIONARYWDFLT
  2
AcDbDictionaryWithDefault
  3
ObjectDBX Classes
 90
        0
 91
        1
280
     0
281
     0
  0
CLASS
  1
MATERIAL
  2
AcDbMaterial
  3
ObjectDBX Classes
 90
     1153
 91
        3
280
     0
281
     0
  0
CLASS
  1
VISUALSTYLE
  2
AcDbVisualStyle
  3
ObjectDBX Classes
 90
     4095
 91
       24
280
     0
281
     0
  0
CLASS
  1
TABLESTYLE
  2
AcDbTableStyle
  3
ObjectDBX Classes
 90
     4095
 91
        1
280
     0
281
     0
  0
CLASS
  1
SCALE
  2
AcDbScale
  3
ObjectDBX Classes
 90
     1153
 91
       17
280
     0
281
     0
  0
CLASS
  1
MLEADERSTYLE
  2
AcDbMLeaderStyle
  3
ACDB_MLEADERSTYLE_CLASS
 90
     4095
 91
        1
280
     0
281
     0
  0
CLASS
  1
ACMESCOPE
  2
AcMeScope
  3
AcMeServices
 90
     1024
 91
        1
280
     0
281
     0
  0
CLASS
  1
ACMECOMMANDHISTORY
  2
AcMeCommandHistory
  3
AcMeServices
 90
     1024
 91
        1
280
     0
281
     0
  0
CLASS
  1
ACIMSYSVARMAN
  2
AcImSysVarManager
  3
AcMeServices
 90
     1024
 91
        3
280
     0
281
     0
  0
CLASS
  1
ACIMINTSYSVAR
  2
AcImIntSysVar
  3
AcMeServices
 90
     1024
 91
        2
280
     0
281
     0
  0
CLASS
  1
ACMESTATEMGR
  2
AcMeStateMgr
  3
AcMeServices
 90
     1024
 91
        1
280
     0
281
     0
  0
CLASS
  1
AMGSETTINGSOBJ
  2
AmgSettingsObj
  3
"AcadM|Product Description: AutoCAD Mechanical|Company: Autodesk, Inc."
 90
     1024
 91
        2
280
     0
281
     0
  0
CLASS
  1
ACGREFMASTER
  2
AcGrefMaster
  3
AcAttribServices
 90
     1024
 91
        1
280
     0
281
     0
  0
CLASS
  1
AMGOBJPROPCFG
  2
AmgObjPropCfg
  3
"AmgLay|Product Description: AutoCAD Mechanical|Company: Autodesk, Inc."
 90
     1024
 91
        1
280
     0
281
     0
  0
CLASS
  1
ACME_DOCUMENT
  2
AcMeDbDoc
  3
AcMeServices
 90
     1024
 91
        0
280
     0
281
     0
  0
CLASS
  1
ACDBENTITYCACHE
  2
AcMeEntityCache
  3
AcMeServices
 90
     1024
 91
        0
280
     0
281
     0
  0
CLASS
  1
ACME_DATABASE
  2
AcMeDbDatabase
  3
AcMeServices
 90
     1024
 91
        0
280
     0
281
     0
  0
CLASS
  1
ACRFINSADJUSTERMGR
  2
AcRfInsAdjusterMgr
  3
AcMeServices
 90
     1024
 91
        0
280
     0
281
     0
  0
CLASS
  1
ACGREFACADMASTER
  2
AcGrefacadMaster
  3
AcGrefServices
 90
     1024
 91
        1
280
     0
281
     0
  0
CLASS
  1
AMDTMENUSTATEMGR
  2
AmdtMenuStateMgr
  3
McadcomServices
 90
     1024
 91
        0
280
     0
281
     0
  0
CLASS
  1
AMDTMCOMMENUSTATE
  2
AmdtMcomMenuState
  3
McadcomServices
 90
     1024
 91
        0
280
     0
281
     0
  0
CLASS
  1
AMIMASTER
  2
AmiMaster
  3
AmiServices
 90
     1024
 91
        1
280
     0
281
     0
  0
CLASS
  1
MAPIAMMOUDLE
  2
MApiAmModule
  3
MApiAmServices
 90
     1024
 91
        1
280
     0
281
     0
  0
CLASS
  1
ACMSTANDARDISO
  2
AcmStandardISO
  3
"Amdt_StdImp|Product Description: AutoCAD Mechanical|Company: Autodesk, Inc."
 90
     1024
 91
        1
280
     0
281
     0
  0
CLASS
  1
AMDTEDGESTANDARDISO
  2
AmdtEdgeStdISO
  3
"Amdt_StdImp|Product Description: AutoCAD Mechanical|Company: Autodesk, Inc."
 90
     1024
 91
        0
280
     0
281
     0
  0
CLASS
  1
ACMSURFSTANDARDISO
  2
AcmSurfTextStdISO
  3
"Amdt_StdImp|Product Description: AutoCAD Mechanical|Company: Autodesk, Inc."
 90
     1024
 91
        0
280
     0
281
     0
  0
CLASS
  1
ACMFCFSTANDARDISO
  2
AcmFCFStdISO
  3
"Amdt_StdImp|Product Description: AutoCAD Mechanical|Company: Autodesk, Inc."
 90
     1024
 91
        0
280
     0
281
     0
  0
CLASS
  1
ACMWELDSTANDARDISO
  2
AcmWeldingStdISO
  3
"Amdt_StdImp|Product Description: AutoCAD Mechanical|Company: Autodesk, Inc."
 90
     1024
 91
        0
280
     0
281
     0
  0
CLASS
  1
ACMIDSTANDARDISO
  2
AcmIdStdISO
  3
"Amdt_StdImp|Product Description: AutoCAD Mechanical|Company: Autodesk, Inc."
 90
     1024
 91
        0
280
     0
281
     0
  0
CLASS
  1
ACMDATUMSTANDARDISO
  2
AcmDatumStdISO
  3
"Amdt_StdImp|Product Description: AutoCAD Mechanical|Company: Autodesk, Inc."
 90
     1024
 91
        0
280
     0
281
     0
  0
CLASS
  1
ACMBOMSTANDARDISO
  2
AcmBOMStdISO
  3
"Amdt_StdImp|Product Description: AutoCAD Mechanical|Company: Autodesk, Inc."
 90
     1024
 91
        1
280
     0
281
     0
  0
CLASS
  1
ACMDETAILSTANDARDISO
  2
AmdtDetailSymStdISO
  3
"Amdt_StdImp|Product Description: AutoCAD Mechanical|Company: Autodesk, Inc."
 90
     1024
 91
        1
280
     0
281
     0
  0
CLASS
  1
ACMSECTIONSTANDARDISO
  2
AmdtSectionSymStdISO
  3
"Amdt_StdImp|Product Description: AutoCAD Mechanical|Company: Autodesk, Inc."
 90
     1024
 91
        0
280
     0
281
     0
  0
CLASS
  1
ACMCENTERLINESTANDARDISO
  2
AmdtCenterLineStdISO
  3
"Amdt_StdImp|Product Description: AutoCAD Mechanical|Company: Autodesk, Inc."
 90
     1024
 91
        1
280
     0
281
     0
  0
CLASS
  1
ACMNOTESTANDARDISO
  2
AmdtNoteStdISO
  3
"Amdt_StdImp|Product Description: AutoCAD Mechanical|Company: Autodesk, Inc."
 90
     1024
 91
        1
280
     0
281
     0
  0
CLASS
  1
AMDTNOTETEMPLATEDB
  2
AmdtNoteTemplateDB
  3
"AcmSymBB" "Product Description: AutoCAD Mechanical|Company: Autodesk, Inc."
 90
     1024
 91
        7
280
     0
281
     0
  0
CLASS
  1
ACAMGLAYSTD
  2
AcAmgLayStd
  3
"AmgLay|Product Description: AutoCAD Mechanical|Company: Autodesk, Inc."
 90
     1024
 91
        2
280
     0
281
     0
  0
CLASS
  1
ACAMGDIMSTD
  2
AcAmgDimStd
  3
"AmgDim|Product Description: AutoCAD Mechanical|Company: Autodesk, Inc."
 90
     1024
 91
        2
280
     0
281
     0
  0
CLASS
  1
ACAMGHOLECHARTSTDISO
  2
AcAmgHoleChartStdISO
  3
"AmgDim" "Product Description: AutoCAD Mechanical|Company: Autodesk, Inc."
 90
     1024
 91
        1
280
     0
281
     0
  0
CLASS
  1
ACAMGTITLESTD
  2
AcAmgTitleStd
  3
"AmgTitle|Product Description: AutoCAD Mechanical|Company: Autodesk, Inc."
 90
     1024
 91
        2
280
     0
281
     0
  0
CLASS
  1
ACMTHREADLINESTANDARDISO
  2
AmdtThreadLineStdISO
  3
"Amdt_StdImp|Product Description: AutoCAD Mechanical|Company: Autodesk, Inc."
 90
     1024
 91
        1
280
     0
281
     0
  0
CLASS
  1
ACMTAPERSTANDARDISO
  2
AcmTaperStdISO
  3
"Amdt_StdImp|Product Description: AutoCAD Mechanical|Company: Autodesk, Inc."
 90
     1024
 91
        1
280
     0
281
     0
  0
CLASS
  1
ACMANOOTATIONVIEWSTANDARDISO
  2
AmdtAnViewStdISO
  3
"Amdt_StdImp|Product Description: AutoCAD Mechanical|Company: Autodesk, Inc."
 90
     1024
 91
        1
280
     0
281
     0
  0
CLASS
  1
ACMSTANDARDJIS
  2
AcmStandardJIS
  3
"Amdt_StdImp|Product Description: AutoCAD Mechanical|Company: Autodesk, Inc."
 90
     1024
 91
        1
280
     0
281
     0
  0
CLASS
  1
ACMSURFSTANDARDJIS
  2
AcmSurfTextStdJIS
  3
"Amdt_StdImp|Product Description: AutoCAD Mechanical|Company: Autodesk, Inc."
 90
     1024
 91
        1
280
     0
281
     0
  0
CLASS
  1
ACMFCFSTANDARDJIS
  2
AcmFCFStdJIS
  3
"Amdt_StdImp|Product Description: AutoCAD Mechanical|Company: Autodesk, Inc."
 90
     1024
 91
        0
280
     0
281
     0
  0
CLASS
  1
ACMWELDSTANDARDJIS
  2
AcmWeldingStdJIS
  3
"Amdt_StdImp|Product Description: AutoCAD Mechanical|Company: Autodesk, Inc."
 90
     1024
 91
        1
280
     0
281
     0
  0
CLASS
  1
ACMIDSTANDARDJIS
  2
AcmIdStdJIS
  3
"Amdt_StdImp|Product Description: AutoCAD Mechanical|Company: Autodesk, Inc."
 90
     1024
 91
        1
280
     0
281
     0
  0
CLASS
  1
ACMDATUMSTANDARDJIS
  2
AcmDatumStdJIS
  3
"Amdt_StdImp|Product Description: AutoCAD Mechanical|Company: Autodesk, Inc."
 90
     1024
 91
        1
280
     0
281
     0
  0
CLASS
  1
ACMBOMSTANDARDJIS
  2
AcmBOMStdJIS
  3
"Amdt_StdImp|Product Description: AutoCAD Mechanical|Company: Autodesk, Inc."
 90
     1024
 91
        1
280
     0
281
     0
  0
CLASS
  1
ACMDETAILSTANDARDJIS
  2
AmdtDetailSymStdJIS
  3
"Amdt_StdImp|Product Description: AutoCAD Mechanical|Company: Autodesk, Inc."
 90
     1024
 91
        1
280
     0
281
     0
  0
CLASS
  1
ACMSECTIONSTANDARDJIS
  2
AmdtSectionSymStdJIS
  3
"Amdt_StdImp|Product Description: AutoCAD Mechanical|Company: Autodesk, Inc."
 90
     1024
 91
        1
280
     0
281
     0
  0
CLASS
  1
ACMCENTERLINESTANDARDJIS
  2
AmdtCenterLineStdJIS
  3
"Amdt_StdImp|Product Description: AutoCAD Mechanical|Company: Autodesk, Inc."
 90
     1024
 91
        1
280
     0
281
     0
  0
CLASS
  1
ACMTHREADLINESTANDARDJIS
  2
AmdtThreadLineStdJIS
  3
"Amdt_StdImp|Product Description: AutoCAD Mechanical|Company: Autodesk, Inc."
 90
     1024
 91
        1
280
     0
281
     0
  0
CLASS
  1
ACMNOTESTANDARDJIS
  2
AmdtNoteStdJIS
  3
"Amdt_StdImp|Product Description: AutoCAD Mechanical|Company: Autodesk, Inc."
 90
     1024
 91
        1
280
     0
281
     0
  0
CLASS
  1
ACAMGHOLECHARTSTDJIS
  2
AcAmgHoleChartStdJIS
  3
"AmgDim" "Product Description: AutoCAD Mechanical|Company: Autodesk, Inc."
 90
     1024
 91
        1
280
     0
281
     0
  0
CLASS
  1
ACMTAPERSTANDARDJIS
  2
AcmTaperStdJIS
  3
"Amdt_StdImp|Product Description: AutoCAD Mechanical|Company: Autodesk, Inc."
 90
     1024
 91
        1
280
     0
281
     0
  0
CLASS
  1
ACMANOOTATIONVIEWSTANDARDJIS
  2
AmdtAnViewStdJIS
  3
"Amdt_StdImp|Product Description: AutoCAD Mechanical|Company: Autodesk, Inc."
 90
     1024
 91
        1
280
     0
281
     0
  0
CLASS
  1
AMDTEDGESTANDARDJIS
  2
AmdtEdgeStdJIS
  3
"Amdt_StdImp|Product Description: AutoCAD Mechanical|Company: Autodesk, Inc."
 90
     1024
 91
        1
280
     0
281
     0
  0
CLASS
  1
ACMFCFSTANDARDJIS98
  2
AcmFCFStdJIS98
  3
"Amdt_StdImp|Product Description: AutoCAD Mechanical|Company: Autodesk, Inc."
 90
     1024
 91
        1
280
     0
281
     0
  0
CLASS
  1
ACIMSTRSYSVAR
  2
AcImStrSysVar
  3
AcMeServices
 90
     1024
 91
        5
280
     0
281
     0
  0
CLASS
  1
AMDTAMMENUSTATE
  2
AmdtAmMenuState
  3
DesignerAssemblies_arx
 90
     1024
 91
        0
280
     0
281
     0
  0
CLASS
  1
ACAMPROJECT
  2
AcAmProject
  3
DesignerAssemblies
 90
     1024
 91
        1
280
     0
281
     0
  0
CLASS
  1
ACAMGRCOMPDEF
  2
AcAmGrCompDef
  3
DesignerAssemblies
 90
     1024
 91
        1
280
     0
281
     0
  0
CLASS
  1
ACAMCOMPDEF
  2
AcAmCompDef
  3
DesignerAssemblies
 90
     1024
 91
        1
280
     0
281
     0
  0
CLASS
  1
ACAMCOMPDEFMGR
  2
AcAmCompDefMgr
  3
DesignerAssemblies
 90
     1024
 91
        1
280
     0
281
     0
  0
CLASS
  1
AMCONTEXTMGR
  2
AcAmContextMgr
  3
DesignerAssemblies
 90
     1024
 91
        1
280
     0
281
     0
  0
CLASS
  1
ACAMCONTEXTMODELER
  2
AcAmContextModeler
  3
DesignerAssemblies
 90
     1024
 91
        1
280
     0
281
     0
  0
CLASS
  1
ACMDATADICTIONARY
  2
AcmDataDictionary
  3
"AcmSymBB|Product Description: AutoCAD Mechanical|Company: Autodesk, Inc."
 90
     1024
 91
        1
280
     0
281
     0
  0
CLASS
  1
ACAMGRCOMPDEFSET
  2
AcAmGrCompDefSet
  3
DesignerAssemblies
 90
     1024
 91
        0
280
     0
281
     0
  0
CLASS
  1
AMDTBROWSERDBTAB
  2
AmdtBrowserDbTab
  3
McadcomServices
 90
     1024
 91
        0
280
     0
281
     0
  0
CLASS
  1
CBROWSERAPPOBJECT
  2
CBrowserAppObject
  3
McadcomServices
 90
     1024
 91
        0
280
     0
281
     0
  0
CLASS
  1
DM_PLACEHOLDER
  2
AcDmSelsetPlaceholder
  3
McadcomServices
 90
     1024
 91
        0
280
     0
281
     0
  0
CLASS
  1
EXACXREFPANELOBJECT
  2
ExAcXREFPanelObject
  3
EXAC_ESW
 90
     1025
 91
        0
280
     0
281
     0
  0
CLASS
  1
NPOCOLLECTION
  2
AcDbImpNonPersistentObjectsCollection
  3
ObjectDBX Classes
 90
     1153
 91
        0
280
     0
281
     0
  0
CLASS
  1
ACAMGFILTERDAT
  2
AcAmgFilterDat
  3
"AcadM|Product Description: AutoCAD Mechanical|Company: Autodesk, Inc."
 90
     1024
 91
        0
280
     0
281
     0
  0
CLASS
  1
DIMASSOC
  2
AcDbDimAssoc
  3
"AcDbDimAssoc|Product Desc:     AcDim ARX App For Dimension|Company:          Autodesk, Inc.|WEB Address:      www.autodesk.com"
 90
        0
 91
        0
280
     0
281
     0
  0
CLASS
  1
SOLID_BACKGROUND
  2
AcDbSolidBackground
  3
SCENEOE
 90
     4095
 91
        0
280
     0
281
     0
  0
CLASS
  1
CAMSSTRUCTBTNSTATE
  2
StructBtnState
  3
DesignerAssemblies_arx
 90
     1024
 91
        1
280
     0
281
     0
  0
CLASS
  1
DICTIONARYVAR
  2
AcDbDictionaryVar
  3
ObjectDBX Classes
 90
        0
 91
       12
280
     0
281
     0
  0
CLASS
  1
SORTENTSTABLE
  2
AcDbSortentsTable
  3
ObjectDBX Classes
 90
        0
 91
        1
280
     0
281
     0
  0
CLASS
  1
CELLSTYLEMAP
  2
AcDbCellStyleMap
  3
ObjectDBX Classes
 90
     1152
 91
        1
280
     0
281
     0
  0
CLASS
  1
ACDBPLACEHOLDER
  2
AcDbPlaceHolder
  3
ObjectDBX Classes
 90
        0
 91
        1
280
     0
281
     0
  0
CLASS
  1
LAYOUT
  2
AcDbLayout
  3
ObjectDBX Classes
 90
        0
 91
        2
280
     0
281
     0
  0
CLASS
  1
ACDBSECTIONVIEWSTYLE
  2
AcDbSectionViewStyle
  3
ObjectDBX Classes
 90
     1025
 91
        5
280
     0
281
     0
  0
CLASS
  1
ACDBDETAILVIEWSTYLE
  2
AcDbDetailViewStyle
  3
ObjectDBX Classes
 90
     1025
 91
        5
280
     0
281
     0
  0
CLASS
  1
AMDTEDGESTANDARDISO13715
  2
AmdtEdgeStdISO13715
  3
"Amdt_StdImp|Product Description: AutoCAD Mechanical|Company: Autodesk, Inc."
 90
     1024
 91
        1
280
     0
281
     0
  0
CLASS
  1
ACMSURFSTANDARDISO2002
  2
AcmSurfTextStdISO2002
  3
"Amdt_StdImp|Product Description: AutoCAD Mechanical|Company: Autodesk, Inc."
 90
     1024
 91
        1
280
     0
281
     0
  0
CLASS
  1
ACMFCFSTANDARDISO2012
  2
AcmFCFStdISO2012
  3
"Amdt_StdImp|Product Description: AutoCAD Mechanical|Company: Autodesk, Inc."
 90
     1024
 91
        1
280
     0
281
     0
  0
CLASS
  1
ACMWELDSTANDARDISO2013
  2
AcmWeldingStdISO2013
  3
"Amdt_StdImp|Product Description: AutoCAD Mechanical|Company: Autodesk, Inc."
 90
     1024
 91
        1
280
     0
281
     0
  0
CLASS
  1
ACMIDSTANDARDISO2012
  2
AcmIdStdISO2012
  3
"Amdt_StdImp|Product Description: AutoCAD Mechanical|Company: Autodesk, Inc."
 90
     1024
 91
        1
280
     0
281
     0
  0
CLASS
  1
ACMDATUMSTANDARDISO2012
  2
AcmDatumStdISO2012
  3
"Amdt_StdImp|Product Description: AutoCAD Mechanical|Company: Autodesk, Inc."
 90
     1024
 91
        1
280
     0
281
     0
  0
CLASS
  1
ACMSECTIONSTANDARDISO2001
  2
AmdtSectionSymStdISO2001
  3
"Amdt_StdImp|Product Description: AutoCAD Mechanical|Company: Autodesk, Inc."
 90
     1024
 91
        1
280
     0
281
     0
  0
CLASS
  1
ACMSECTIONSTANDARDCUSTOM
  2
AmdtSectionSymStdCustom
  3
"Amdt_StdImp|Product Description: AutoCAD Mechanical|Company: Autodesk, Inc."
 90
     1024
 91
        6
280
     0
281
     0
  0
CLASS
  1
ACMDETAILTANDARDCUSTOM
  2
AmdtDetailSymStdCustom
  3
"Amdt_StdImp|Product Description: AutoCAD Mechanical|Company: Autodesk, Inc."
 90
     1024
 91
        6
280
     0
281
     0
  0
CLASS
  1
FIELD
  2
AcDbField
  3
ObjectDBX Classes
 90
     1152
 91
        9
280
     0
281
     0
  0
CLASS
  1
FIELDLIST
  2
AcDbFieldList
  3
ObjectDBX Classes
 90
     1152
 91
        1
280
     0
281
     0
  0
CLASS
  1
ACMDATAENTRYBLOCK
  2
AcmDataEntryBlock
  3
"AcmSymBB" "Product Description: AutoCAD Mechanical|Company: Autodesk, Inc."
 90
     1024
 91
        0
280
     0
281
     0
  0
ENDSEC
  0
SECTION
  2
TABLES
  0
TABLE
  2
VPORT
  5
E2
102
{ACAD_XDICTIONARY
360
1A2C
102
}
330
0
100
AcDbSymbolTable
 70
     1
1001
ACAD
1000
DbSaveVer
1071
      247
  0
VPORT
  5
14A6
330
E2
100
AcDbSymbolTableRecord
100
AcDbViewportTableRecord
  2
*Active
 70
     0
 10
0.0
 20
0.0
 11
1.0
 21
1.0
 12
1941.059746689667
 22
-58.53158790485713
 13
0.0
 23
0.0
 14
1.0
 24
1.0
 15
0.0
 25
0.0
 16
0.0
 26
0.0
 36
13589.73119704388
 17
-1533.185437899534
 27
463.7850657233811
 37
0.0
 40
1110.488403811569
 41
2.463687150837988
 42
50.0
 43
0.0
 44
0.0
 50
0.0
 51
0.0
 71
     0
 72
  1000
 73
     1
 74
     3
 75
     0
 76
     0
 77
     0
 78
     0
281
     0
 65
     1
110
0.0
120
0.0
130
0.0
111
1.0
121
0.0
131
0.0
112
0.0
122
1.0
132
0.0
 79
     0
146
0.0
348
1472
 60
     3
 61
     5
292
     1
282
     1
141
0.0
142
0.0
 63
   250
421
  3355443
1001
ACAD_NAV_VCDISPLAY
1070
     1
  0
ENDTAB
  0
TABLE
  2
LTYPE
  5
25
330
0
100
AcDbSymbolTable
 70
    16
  0
LTYPE
  5
26
330
25
100
AcDbSymbolTableRecord
100
AcDbLinetypeTableRecord
  2
BYBLOCK
 70
     0
  3

 72
    65
 73
     0
 40
0.0
  0
LTYPE
  5
27
330
25
100
AcDbSymbolTableRecord
100
AcDbLinetypeTableRecord
  2
BYLAYER
 70
     0
  3

 72
    65
 73
     0
 40
0.0
  0
LTYPE
  5
28
330
25
100
AcDbSymbolTableRecord
100
AcDbLinetypeTableRecord
  2
CONTINUOUS
 70
     0
  3
Solid line
 72
    65
 73
     0
 40
0.0
  0
LTYPE
  5
2A
330
25
100
AcDbSymbolTableRecord
100
AcDbLinetypeTableRecord
  2
CENTER
 70
     0
  3
__ . __
 72
    65
 73
     4
 40
7.0
 49
4.0
 74
     0
 49
-1.0
 74
     0
 49
1.0
 74
     0
 49
-1.0
 74
     0
  0
LTYPE
  5
1E07
330
25
100
AcDbSymbolTableRecord
100
AcDbLinetypeTableRecord
  2
HIDDEN
 70
     0
  3
Hidden __ __ __ __ __ __ __ __ __ __ __ __ __ _
 72
    65
 73
     2
 40
9.524999999999998
 49
6.349999999999999
 74
     0
 49
-3.174999999999999
 74
     0
  0
LTYPE
  5
1E08
330
25
100
AcDbSymbolTableRecord
100
AcDbLinetypeTableRecord
  2
PHANTOM2
 70
     0
  3
Phantom (.5x) ___ _ _ ___ _ _ ___ _ _ ___ _ _
 72
    65
 73
     6
 40
31.75
 49
15.875
 74
     0
 49
-3.174999999999999
 74
     0
 49
3.174999999999999
 74
     0
 49
-3.174999999999999
 74
     0
 49
3.174999999999999
 74
     0
 49
-3.174999999999999
 74
     0
  0
LTYPE
  5
1E3E
330
25
100
AcDbSymbolTableRecord
100
AcDbLinetypeTableRecord
  2
AM_ISO02W050
 70
     0
  3
__ __ __ __ __ __ __ __ __ __ __ __ __ __ __
 72
    65
 73
     2
 40
7.5
 49
6.0
 74
     0
 49
-1.5
 74
     0
  0
LTYPE
  5
1E3F
330
25
100
AcDbSymbolTableRecord
100
AcDbLinetypeTableRecord
  2
AM_ISO08W050
 70
     0
  3
____ . ____ . ____ . ____ . ____ . ____ . ____
 72
    65
 73
     4
 40
18.0
 49
12.0
 74
     0
 49
-1.5
 74
     0
 49
3.0
 74
     0
 49
-1.5
 74
     0
  0
LTYPE
  5
1E40
330
25
100
AcDbSymbolTableRecord
100
AcDbLinetypeTableRecord
  2
AM_ISO09W050
 70
     0
  3
_____ . . _____ . . _____ . . ____ .. ____
 72
    65
 73
     6
 40
22.5
 49
12.0
 74
     0
 49
-1.5
 74
     0
 49
3.0
 74
     0
 49
-1.5
 74
     0
 49
3.0
 74
     0
 49
-1.5
 74
     0
  0
LTYPE
  5
1E41
330
25
100
AcDbSymbolTableRecord
100
AcDbLinetypeTableRecord
  2
Amconstr
 70
     0
  3
_______________________
 72
    65
 73
     2
 40
9999.0
 49
9999.0
 74
     0
 49
0.0
 74
     0
  0
LTYPE
  5
1E42
330
25
100
AcDbSymbolTableRecord
100
AcDbLinetypeTableRecord
  2
AM_ISO08W050x2
 70
     0
  3
__ . __ . __ . __ . __ . __
 72
    65
 73
     4
 40
9.0
 49
6.0
 74
     0
 49
-0.75
 74
     0
 49
1.5
 74
     0
 49
-0.75
 74
     0
  0
LTYPE
  5
1E43
330
25
100
AcDbSymbolTableRecord
100
AcDbLinetypeTableRecord
  2
AM_ISO02W050x2
 70
     0
  3
 _ _ _ _ _ _ _ _ _ _ _ _
 72
    65
 73
     2
 40
3.75
 49
3.0
 74
     0
 49
-0.75
 74
     0
  0
LTYPE
  5
1E46
330
25
100
AcDbSymbolTableRecord
100
AcDbLinetypeTableRecord
  2
Amzigzag
 70
     0
  3
/\/-/\/-/\/-/\/-/\/-/\/
 72
    65
 73
     2
 40
11.0001
 49
0.0001
 74
     4
 75
   136
340
1E45
 46
0.04
 50
0.0
 44
0.0
 45
0.0
 49
-11.0
 74
     0
  0
LTYPE
  5
1E56
330
25
100
AcDbSymbolTableRecord
100
AcDbLinetypeTableRecord
  2
ACISOWELD
 70
     0
  3
_ _ _ _ _
 72
    65
 73
     2
 40
2.0
 49
2.0
 74
     0
 49
-1.0
 74
     0
  0
LTYPE
  5
1E57
330
25
100
AcDbSymbolTableRecord
100
AcDbLinetypeTableRecord
  2
ACISOTGL
 70
     0
  3
_ _ _ _ _
 72
    65
 73
     2
 40
3.0
 49
2.0
 74
     0
 49
-1.0
 74
     0
  0
LTYPE
  5
1E58
330
25
100
AcDbSymbolTableRecord
100
AcDbLinetypeTableRecord
  2
ACISOTGB
 70
     0
  3
__ . . __ . .
 72
    65
 73
     6
 40
9.0
 49
4.0
 74
     0
 49
-1.0
 74
     0
 49
1.0
 74
     0
 49
-1.0
 74
     0
 49
1.0
 74
     0
 49
-1.0
 74
     0
  0
LTYPE
  5
1E82
330
25
100
AcDbSymbolTableRecord
100
AcDbLinetypeTableRecord
  2
ACJISTGB
 70
     0
  3
__ . . __ . .
 72
    65
 73
     6
 40
9.0
 49
4.0
 74
     0
 49
-1.0
 74
     0
 49
1.0
 74
     0
 49
-1.0
 74
     0
 49
1.0
 74
     0
 49
-1.0
 74
     0
  0
LTYPE
  5
1E83
330
25
100
AcDbSymbolTableRecord
100
AcDbLinetypeTableRecord
  2
ACJISTGL
 70
     0
  3
_ _ _ _ _
 72
    65
 73
     2
 40
3.0
 49
2.0
 74
     0
 49
-1.0
 74
     0
  0
ENDTAB
  0
TABLE
  2
LAYER
  5
C8
102
{ACAD_XDICTIONARY
360
1A02
102
}
330
0
100
AcDbSymbolTable
 70
     4
  0
LAYER
  5
C9
102
{ACAD_XDICTIONARY
360
15EF
102
}
330
C8
100
AcDbSymbolTableRecord
100
AcDbLayerTableRecord
  2
0
 70
     0
 62
     7
  6
CONTINUOUS
370
    -3
390
1452
347
1464
348
0
  0
LAYER
  5
1E84
102
{ACAD_XDICTIONARY
360
1E85
102
}
330
C8
100
AcDbSymbolTableRecord
100
AcDbLayerTableRecord
  2
AM_0_T3
 70
     0
 62
     7
  6
CONTINUOUS
370
    30
390
1452
347
1464
348
0
  0
LAYER
  5
259C
330
C8
100
AcDbSymbolTableRecord
100
AcDbLayerTableRecord
  2
AM_0
 70
     0
 62
     7
  6
CONTINUOUS
370
    50
390
1452
347
1464
348
0
1001
AcAecLayerStandard
1000

1000

  0
LAYER
  5
25C0
102
{ACAD_XDICTIONARY
360
25C1
102
}
330
C8
100
AcDbSymbolTableRecord
100
AcDbLayerTableRecord
  2
AM_8_HATC
 70
     0
 62
     1
  6
CONTINUOUS
370
    25
390
1452
347
1464
348
0
  0
ENDTAB
  0
TABLE
  2
STYLE
  5
CA
330
0
100
AcDbSymbolTable
 70
     9
  0
STYLE
  5
23
330
CA
100
AcDbSymbolTableRecord
100
AcDbTextStyleTableRecord
  2
STANDARD
 70
     0
 40
0.0
 41
1.0
 50
0.0
 71
     0
 42
0.2
  3
txt.shx
  4

  0
STYLE
  5
1E45
330
CA
100
AcDbSymbolTableRecord
100
AcDbTextStyleTableRecord
  2

 70
     1
 40
0.0
 41
1.0
 50
0.0
 71
     0
 42
3.2
  3
genltshp.shx
  4

  0
STYLE
  5
1E54
330
CA
100
AcDbSymbolTableRecord
100
AcDbTextStyleTableRecord
  2
ACISOTS
 70
     0
 40
0.0
 41
1.0
 50
0.0
 71
     0
 42
3.2
  3
isocp.shx
  4

  0
STYLE
  5
1E55
330
CA
100
AcDbSymbolTableRecord
100
AcDbTextStyleTableRecord
  2
ACISOGDT
 70
     0
 40
0.0
 41
1.0
 50
0.0
 71
     0
 42
3.2
  3
amgdt.shx
  4

  0
STYLE
  5
1E88
330
CA
100
AcDbSymbolTableRecord
100
AcDbTextStyleTableRecord
  2

 70
     1
 40
0.0
 41
1.0
 50
0.0
 71
     0
 42
2.5
  3
ltypeshp.shx
  4

  0
STYLE
  5
1E89
330
CA
100
AcDbSymbolTableRecord
100
AcDbTextStyleTableRecord
  2
ACJISTS
 70
     0
 40
1.0
 41
1.0
 50
0.0
 71
     0
 42
2.5
  3

  4

1001
ACAD
1000
MS Gothic
1071
    32817
  0
STYLE
  5
1E8A
330
CA
100
AcDbSymbolTableRecord
100
AcDbTextStyleTableRecord
  2
ACJISGDT
 70
     0
 40
0.0
 41
1.0
 50
0.0
 71
     0
 42
2.5
  3
amgdt.shx
  4

  0
STYLE
  5
1E8B
330
CA
100
AcDbSymbolTableRecord
100
AcDbTextStyleTableRecord
  2
TSKDIM
 70
     0
 40
0.0
 41
1.0
 50
0.0
 71
     0
 42
4.0
  3

  4

1001
ACAD
1000
MS Gothic
1071
    32817
  0
STYLE
  5
1E8C
330
CA
100
AcDbSymbolTableRecord
100
AcDbTextStyleTableRecord
  2
ACTSKTS
 70
     0
 40
1.0
 41
0.8
 50
0.0
 71
     0
 42
1.0
  3

  4

1001
ACAD
1000
MS Gothic
1071
    32817
  0
ENDTAB
  0
TABLE
  2
VIEW
  5
CE
330
0
100
AcDbSymbolTable
 70
     0
  0
ENDTAB
  0
TABLE
  2
UCS
  5
CF
330
0
100
AcDbSymbolTable
 70
     0
  0
ENDTAB
  0
TABLE
  2
APPID
  5
CC
330
0
100
AcDbSymbolTable
 70
    85
  0
APPID
  5
CD
330
CC
100
AcDbSymbolTableRecord
100
AcDbRegAppTableRecord
  2
ACAD
 70
     0
  0
APPID
  5
14A5
330
CC
100
AcDbSymbolTableRecord
100
AcDbRegAppTableRecord
  2
ACAD_NAV_VCDISPLAY
 70
     0
  0
APPID
  5
14AC
330
CC
100
AcDbSymbolTableRecord
100
AcDbRegAppTableRecord
  2
MCAD_NO_VIS
 70
     0
  0
APPID
  5
14AD
330
CC
100
AcDbSymbolTableRecord
100
AcDbRegAppTableRecord
  2
ACAD_TEMP_GRAPHIC
 70
     0
  0
APPID
  5
14B3
330
CC
100
AcDbSymbolTableRecord
100
AcDbRegAppTableRecord
  2
ACATTRIBSERVICES
 70
     0
  0
APPID
  5
14B4
330
CC
100
AcDbSymbolTableRecord
100
AcDbRegAppTableRecord
  2
AD_DRAW
 70
     0
  0
APPID
  5
14B5
330
CC
100
AcDbSymbolTableRecord
100
AcDbRegAppTableRecord
  2
DESIGNERASSEMBLIES
 70
     0
  0
APPID
  5
14B6
330
CC
100
AcDbSymbolTableRecord
100
AcDbRegAppTableRecord
  2
ASURF_PCURVE_APPNAME
 70
     0
  0
APPID
  5
14B7
330
CC
100
AcDbSymbolTableRecord
100
AcDbRegAppTableRecord
  2
ACADM_DIM_EDIT
 70
     0
  0
APPID
  5
14B8
330
CC
100
AcDbSymbolTableRecord
100
AcDbRegAppTableRecord
  2
GENIUS_GENDIM_13
 70
     0
  0
APPID
  5
14B9
330
CC
100
AcDbSymbolTableRecord
100
AcDbRegAppTableRecord
  2
GENIUS_GENDTOL_13
 70
     0
  0
APPID
  5
14BA
330
CC
100
AcDbSymbolTableRecord
100
AcDbRegAppTableRecord
  2
GENIUS_GE3DTOL_13
 70
     0
  0
APPID
  5
14BB
330
CC
100
AcDbSymbolTableRecord
100
AcDbRegAppTableRecord
  2
AMG_3D2D_5.0
 70
     0
  0
APPID
  5
14BC
330
CC
100
AcDbSymbolTableRecord
100
AcDbRegAppTableRecord
  2
AMDT_DM_ADJ
 70
     0
  0
APPID
  5
14BD
330
CC
100
AcDbSymbolTableRecord
100
AcDbRegAppTableRecord
  2
CK_MATE-SERIES
 70
     0
  0
APPID
  5
14BE
330
CC
100
AcDbSymbolTableRecord
100
AcDbRegAppTableRecord
  2
GEVID1042077799
 70
     0
  0
APPID
  5
14BF
330
CC
100
AcDbSymbolTableRecord
100
AcDbRegAppTableRecord
  2
GEVMK
 70
     0
  0
APPID
  5
14C0
330
CC
100
AcDbSymbolTableRecord
100
AcDbRegAppTableRecord
  2
GEVDC
 70
     0
  0
APPID
  5
14C1
330
CC
100
AcDbSymbolTableRecord
100
AcDbRegAppTableRecord
  2
GENIUS_GENBH_13
 70
     0
  0
APPID
  5
14C2
330
CC
100
AcDbSymbolTableRecord
100
AcDbRegAppTableRecord
  2
GENIUS_GENOLIS_13
 70
     0
  0
APPID
  5
14C3
330
CC
100
AcDbSymbolTableRecord
100
AcDbRegAppTableRecord
  2
GENIUS_GENOENT_13
 70
     0
  0
APPID
  5
14C4
330
CC
100
AcDbSymbolTableRecord
100
AcDbRegAppTableRecord
  2
GENIUS_GENODEF_13
 70
     0
  0
APPID
  5
14C5
330
CC
100
AcDbSymbolTableRecord
100
AcDbRegAppTableRecord
  2
GENIUS_GENOBJ-NBEHI-BHF_13
 70
     0
  0
APPID
  5
14C6
330
CC
100
AcDbSymbolTableRecord
100
AcDbRegAppTableRecord
  2
GENIUS_GENOREF_13
 70
     0
  0
APPID
  5
14C7
330
CC
100
AcDbSymbolTableRecord
100
AcDbRegAppTableRecord
  2
GENIUS_GENOBJ-NBEHI-BHB_13
 70
     0
  0
APPID
  5
14C8
330
CC
100
AcDbSymbolTableRecord
100
AcDbRegAppTableRecord
  2
GEVID1042183772
 70
     0
  0
APPID
  5
14C9
330
CC
100
AcDbSymbolTableRecord
100
AcDbRegAppTableRecord
  2
GEVID1042183773
 70
     0
  0
APPID
  5
14CA
330
CC
100
AcDbSymbolTableRecord
100
AcDbRegAppTableRecord
  2
GEVID1042183774
 70
     0
  0
APPID
  5
14CB
330
CC
100
AcDbSymbolTableRecord
100
AcDbRegAppTableRecord
  2
DCO15
 70
     0
  0
APPID
  5
14CC
330
CC
100
AcDbSymbolTableRecord
100
AcDbRegAppTableRecord
  2
ACAD_DSTYLE_DIMARC_LENGTH_SYMBOL
 70
     0
  0
APPID
  5
14CD
330
CC
100
AcDbSymbolTableRecord
100
AcDbRegAppTableRecord
  2
ACAD_DSTYLE_DIMJOGGED_JOGANGLE_SYMBOL
 70
     0
  0
APPID
  5
14CE
330
CC
100
AcDbSymbolTableRecord
100
AcDbRegAppTableRecord
  2
ACAD_MLEADERVER
 70
     0
  0
APPID
  5
14CF
330
CC
100
AcDbSymbolTableRecord
100
AcDbRegAppTableRecord
  2
GENIUS_GENOBJ-N-FIL_13
 70
     0
  0
APPID
  5
14D0
330
CC
100
AcDbSymbolTableRecord
100
AcDbRegAppTableRecord
  2
AcadAnnoPO
 70
     0
  0
APPID
  5
14D1
330
CC
100
AcDbSymbolTableRecord
100
AcDbRegAppTableRecord
  2
GENIUS_GENOBJ-N-TIT_13
 70
     0
  0
APPID
  5
14D2
330
CC
100
AcDbSymbolTableRecord
100
AcDbRegAppTableRecord
  2
GENIUS_GENTITLE_13
 70
     0
  0
APPID
  5
14D3
330
CC
100
AcDbSymbolTableRecord
100
AcDbRegAppTableRecord
  2
GENIUS_GENSCREG_15
 70
     0
  0
APPID
  5
14D4
330
CC
100
AcDbSymbolTableRecord
100
AcDbRegAppTableRecord
  2
GENIUS_GENOBJ-N-SDF_13
 70
     0
  0
APPID
  5
14D5
330
CC
100
AcDbSymbolTableRecord
100
AcDbRegAppTableRecord
  2
ACAD_PSEXT
 70
     0
  0
APPID
  5
14D6
330
CC
100
AcDbSymbolTableRecord
100
AcDbRegAppTableRecord
  2
AcAecLayerStandard
 70
     0
  0
APPID
  5
14D7
330
CC
100
AcDbSymbolTableRecord
100
AcDbRegAppTableRecord
  2
ACAD_EXEMPT_FROM_CAD_STANDARDS
 70
     0
  0
APPID
  5
14D8
330
CC
100
AcDbSymbolTableRecord
100
AcDbRegAppTableRecord
  2
ACAD_DSTYLE_DIMINSPECT
 70
     0
  0
APPID
  5
14D9
330
CC
100
AcDbSymbolTableRecord
100
AcDbRegAppTableRecord
  2
GENIUS_GENDIMSH_14
 70
     0
  0
APPID
  5
14DA
330
CC
100
AcDbSymbolTableRecord
100
AcDbRegAppTableRecord
  2
GENIUS_GENOBJ-N-CEN_13
 70
     0
  0
APPID
  5
14DB
330
CC
100
AcDbSymbolTableRecord
100
AcDbRegAppTableRecord
  2
GENIUS_GENCEN_19
 70
     0
  0
APPID
  5
14DC
330
CC
100
AcDbSymbolTableRecord
100
AcDbRegAppTableRecord
  2
ACAD_DSTYLE_DIMJAG
 70
     0
  0
APPID
  5
14DD
330
CC
100
AcDbSymbolTableRecord
100
AcDbRegAppTableRecord
  2
ACAD_DSTYLE_DIMTALN
 70
     0
  0
APPID
  5
14DE
330
CC
100
AcDbSymbolTableRecord
100
AcDbRegAppTableRecord
  2
GENIUS_GENREC_14
 70
     0
  0
APPID
  5
14DF
330
CC
100
AcDbSymbolTableRecord
100
AcDbRegAppTableRecord
  2
GENIUS_GENOBJ-N-REC_13
 70
     0
  0
APPID
  5
14E0
330
CC
100
AcDbSymbolTableRecord
100
AcDbRegAppTableRecord
  2
ACAD_DIMASSOC_CALC_DIMLFAC
 70
     0
  0
APPID
  5
14E1
330
CC
100
AcDbSymbolTableRecord
100
AcDbRegAppTableRecord
  2
ACAD_DIMASSOC_DIMLFAC
 70
     0
  0
APPID
  5
14E2
330
CC
100
AcDbSymbolTableRecord
100
AcDbRegAppTableRecord
  2
ACAD_DIMASSOC_OVERRIDDEN_DIMLFAC
 70
     0
  0
APPID
  5
14E3
330
CC
100
AcDbSymbolTableRecord
100
AcDbRegAppTableRecord
  2
AcadAnnotative
 70
     0
  0
APPID
  5
14E4
330
CC
100
AcDbSymbolTableRecord
100
AcDbRegAppTableRecord
  2
ACAD_DSTYLE_DIMEXT_LENGTH
 70
     0
  0
APPID
  5
14E5
330
CC
100
AcDbSymbolTableRecord
100
AcDbRegAppTableRecord
  2
ACAD_DSTYLE_DIMEXT_ENABLED
 70
     0
  0
APPID
  5
14E6
330
CC
100
AcDbSymbolTableRecord
100
AcDbRegAppTableRecord
  2
ACAD_DSTYLE_DIMBREAK
 70
     0
  0
APPID
  5
14E7
330
CC
100
AcDbSymbolTableRecord
100
AcDbRegAppTableRecord
  2
ACAD_DSTYLE_DIMANGULAR_EXTENSION
 70
     0
  0
APPID
  5
14E8
330
CC
100
AcDbSymbolTableRecord
100
AcDbRegAppTableRecord
  2
ACCMTRANSPARENCY
 70
     0
  0
APPID
  5
14E9
330
CC
100
AcDbSymbolTableRecord
100
AcDbRegAppTableRecord
  2
GENIUS_GENBLLY_14
 70
     0
  0
APPID
  5
14EA
330
CC
100
AcDbSymbolTableRecord
100
AcDbRegAppTableRecord
  2
GENIUS_GENTRA_14
 70
     0
  0
APPID
  5
14EB
330
CC
100
AcDbSymbolTableRecord
100
AcDbRegAppTableRecord
  2
GENIUS_GENOBJ-N-REV_13
 70
     0
  0
APPID
  5
14EC
330
CC
100
AcDbSymbolTableRecord
100
AcDbRegAppTableRecord
  2
GENIUS_GENOBJ-N-RSSYM_13
 70
     0
  0
APPID
  5
14ED
330
CC
100
AcDbSymbolTableRecord
100
AcDbRegAppTableRecord
  2
GENIUS_GENSYMENT_13
 70
     0
  0
APPID
  5
14EE
330
CC
100
AcDbSymbolTableRecord
100
AcDbRegAppTableRecord
  2
GENIUS_GENSCSYM_13
 70
     0
  0
APPID
  5
14EF
330
CC
100
AcDbSymbolTableRecord
100
AcDbRegAppTableRecord
  2
AcDbBlockRepBTag
 70
     0
  0
APPID
  5
14F0
330
CC
100
AcDbSymbolTableRecord
100
AcDbRegAppTableRecord
  2
ACAUTHENVIRON
 70
     0
  0
APPID
  5
14F1
330
CC
100
AcDbSymbolTableRecord
100
AcDbRegAppTableRecord
  2
AcDbDynamicBlockTrueName
 70
     0
  0
APPID
  5
14F2
330
CC
100
AcDbSymbolTableRecord
100
AcDbRegAppTableRecord
  2
AcDbDynamicBlockGUID
 70
     0
  0
APPID
  5
14F3
330
CC
100
AcDbSymbolTableRecord
100
AcDbRegAppTableRecord
  2
AcDbBlockRepETag
 70
     0
  0
APPID
  5
14F4
330
CC
100
AcDbSymbolTableRecord
100
AcDbRegAppTableRecord
  2
GENIUS_GENOBJ-N-HTC_13
 70
     0
  0
APPID
  5
14F5
330
CC
100
AcDbSymbolTableRecord
100
AcDbRegAppTableRecord
  2
GENIUS_GENHATCH_13
 70
     0
  0
APPID
  5
14F6
330
CC
100
AcDbSymbolTableRecord
100
AcDbRegAppTableRecord
  2
GRADIENTCOLOR1ACI
 70
     0
  0
APPID
  5
14F7
330
CC
100
AcDbSymbolTableRecord
100
AcDbRegAppTableRecord
  2
GRADIENTCOLOR2ACI
 70
     0
  0
APPID
  5
14F8
330
CC
100
AcDbSymbolTableRecord
100
AcDbRegAppTableRecord
  2
GENIUS_GENFIL_13
 70
     0
  0
APPID
  5
14F9
330
CC
100
AcDbSymbolTableRecord
100
AcDbRegAppTableRecord
  2
GENIUS_GENOBJ-N-CHA_13
 70
     0
  0
APPID
  5
14FA
330
CC
100
AcDbSymbolTableRecord
100
AcDbRegAppTableRecord
  2
ACAD_DSTYLE_DIM_LINETYPE
 70
     0
  0
APPID
  5
14FB
330
CC
100
AcDbSymbolTableRecord
100
AcDbRegAppTableRecord
  2
ACAD_DSTYLE_DIM_EXT1_LINETYPE
 70
     0
  0
APPID
  5
14FC
330
CC
100
AcDbSymbolTableRecord
100
AcDbRegAppTableRecord
  2
ACAD_DSTYLE_DIM_EXT2_LINETYPE
 70
     0
  0
APPID
  5
14FD
330
CC
100
AcDbSymbolTableRecord
100
AcDbRegAppTableRecord
  2
AcDbAttr
 70
     0
  0
APPID
  5
14FE
330
CC
100
AcDbSymbolTableRecord
100
AcDbRegAppTableRecord
  2
ACAD_DSTYLE_DIMRADIAL_EXTENSION
 70
     0
  0
APPID
  5
14FF
330
CC
100
AcDbSymbolTableRecord
100
AcDbRegAppTableRecord
  2
ACADANNOAV
 70
     0
  0
APPID
  5
1500
330
CC
100
AcDbSymbolTableRecord
100
AcDbRegAppTableRecord
  2
ACAD_DSTYLE_DIMTEXT_FILL
 70
     0
  0
APPID
  5
1501
330
CC
100
AcDbSymbolTableRecord
100
AcDbRegAppTableRecord
  2
ACAD_DSTYLE_DIMFLIPARROW_WHICH_SYMBOL
 70
     0
  0
APPID
  5
1502
330
CC
100
AcDbSymbolTableRecord
100
AcDbRegAppTableRecord
  2
ACADBPTGRAPHNODEID
 70
     0
  0
APPID
  5
1503
330
CC
100
AcDbSymbolTableRecord
100
AcDbRegAppTableRecord
  2
PE_URL
 70
     0
  0
ENDTAB
  0
TABLE
  2
DIMSTYLE
  5
CB
330
0
100
AcDbSymbolTable
 70
    20
100
AcDbDimStyleTable
 71
     0
  0
DIMSTYLE
105
1A1F
330
CB
100
AcDbSymbolTableRecord
100
AcDbDimStyleTableRecord
  2
Standard
 70
     0
340
23
  0
DIMSTYLE
105
1E3C
102
{ACAD_REACTORS
330
1E2A
102
}
330
CB
100
AcDbSymbolTableRecord
100
AcDbDimStyleTableRecord
  2
AM_ISO
 70
     0
  4
"
 41
3.5
 42
1.0
 43
10.0
 44
1.0
 47
0.1
 48
0.1
 73
     0
 74
     0
 77
     1
 78
     8
 79
     2
 90
        1
140
3.5
141
0.0
143
0.0393701
146
0.71
147
1.5
172
     1
176
   256
177
   256
178
     2
271
     2
272
     3
274
     4
283
     0
284
     8
340
23
345
26
346
26
347
26
371
    -1
372
    -1
1001
ACAD_DSTYLE_DIMJAG
1070
   388
1040
1.5
1001
ACAD_DSTYLE_DIMBREAK
1070
   391
1040
3.75
  0
DIMSTYLE
105
1E47
330
CB
100
AcDbSymbolTableRecord
100
AcDbDimStyleTableRecord
  2
AM_ISO$3
 70
     0
  4
"
 41
3.5
 42
1.0
 43
10.0
 44
1.0
 47
0.1
 48
0.1
 73
     0
 77
     1
 78
     8
 79
     2
 90
        1
140
3.5
141
0.0
143
0.0393701
146
0.71
147
1.5
176
   256
177
   256
178
     2
271
     2
272
     3
274
     4
283
     0
284
     8
288
     1
289
     0
340
23
345
26
346
26
347
26
371
    -1
372
    -1
1001
ACAD_DSTYLE_DIMBREAK
1070
   391
1040
3.75
1001
ACAD_DSTYLE_DIMJAG
1070
   388
1040
1.5
  0
DIMSTYLE
105
1E48
330
CB
100
AcDbSymbolTableRecord
100
AcDbDimStyleTableRecord
  2
AM_ISO$4
 70
     0
  4
"
 41
3.5
 42
1.0
 43
10.0
 44
1.0
 47
0.1
 48
0.1
 73
     0
 77
     1
 78
     8
 79
     2
 90
        1
140
3.5
141
0.0
143
0.0393701
146
0.71
147
1.5
176
   256
177
   256
178
     2
271
     2
272
     3
274
     4
283
     0
284
     8
288
     1
289
     0
340
23
345
26
346
26
347
26
371
    -1
372
    -1
1001
ACAD_DSTYLE_DIMBREAK
1070
   391
1040
3.75
1001
ACAD_DSTYLE_DIMJAG
1070
   388
1040
1.5
  0
DIMSTYLE
105
1E49
330
CB
100
AcDbSymbolTableRecord
100
AcDbDimStyleTableRecord
  2
AM_ISO$6
 70
     0
  4
"
 41
3.5
 42
1.0
 43
10.0
 44
1.0
 47
0.1
 48
0.1
 73
     0
 74
     0
 78
     8
 79
     2
 90
        1
140
3.5
141
0.0
143
0.0393701
146
0.71
147
1.5
172
     1
176
   256
177
   256
178
     2
271
     2
272
     3
274
     4
283
     0
284
     8
340
23
345
26
346
26
347
26
371
    -1
372
    -1
1001
ACAD_DSTYLE_DIMBREAK
1070
   391
1040
3.75
1001
ACAD_DSTYLE_DIMJAG
1070
   388
1040
1.5
  0
DIMSTYLE
105
1E4A
330
CB
100
AcDbSymbolTableRecord
100
AcDbDimStyleTableRecord
  2
AM_ISO$7
 70
     0
  4
"
 41
3.5
 42
1.0
 43
10.0
 44
1.0
 47
0.1
 48
0.1
 73
     0
 74
     0
 77
     1
 78
     8
 79
     2
 90
        1
140
3.5
141
0.0
143
0.0393701
146
0.71
147
1.5
172
     1
176
   256
177
   256
178
     2
271
     2
272
     3
274
     4
283
     0
284
     8
340
23
345
26
346
26
347
26
371
    -1
372
    -1
1001
ACAD_DSTYLE_DIMBREAK
1070
   391
1040
3.75
1001
ACAD_DSTYLE_DIMJAG
1070
   388
1040
1.5
  0
DIMSTYLE
105
1E4B
330
CB
100
AcDbSymbolTableRecord
100
AcDbDimStyleTableRecord
  2
AM_ISO$SF
 70
     0
  4
"
 41
3.5
 42
1.0
 43
10.0
 44
1.0
 47
0.1
 48
0.1
 73
     0
 74
     0
 75
     1
 76
     1
 77
     1
 78
     8
 79
     2
 90
        1
140
3.5
141
0.0
143
0.0393701
146
0.71
147
1.5
172
     1
176
   256
177
   256
178
     2
271
     2
272
     3
274
     4
283
     0
284
     8
340
23
345
26
346
26
347
26
371
    -1
372
    -1
1001
ACAD_DSTYLE_DIMBREAK
1070
   391
1040
3.75
1001
ACAD_DSTYLE_DIMJAG
1070
   388
1040
1.5
  0
DIMSTYLE
105
1E50
330
CB
100
AcDbSymbolTableRecord
100
AcDbDimStyleTableRecord
  2
AM_ISO$SH
 70
     0
  4
"
 41
3.5
 42
1.0
 43
10.0
 44
1.0
 47
0.1
 48
0.1
 73
     0
 74
     0
 75
     1
 76
     1
 77
     1
 78
     8
 79
     2
 90
        1
140
3.5
141
0.0
143
0.0393701
144
2.0
146
0.71
147
1.5
172
     1
173
     1
176
   256
177
   256
178
     2
271
     2
272
     3
274
     4
283
     0
284
     8
340
23
343
1E4C
345
26
346
26
347
26
371
    -1
372
    -1
1001
ACAD_DSTYLE_DIMBREAK
1070
   391
1040
3.75
1001
ACAD_DSTYLE_DIMJAG
1070
   388
1040
1.5
  0
DIMSTYLE
105
1E8D
330
CB
100
AcDbSymbolTableRecord
100
AcDbDimStyleTableRecord
  2
TSK
 70
     0
  4
"
 41
3.0
 42
1.0
 43
10.0
 44
1.0
 47
0.1
 48
0.1
 73
     0
 74
     0
 77
     3
 78
     8
 79
     2
 90
        1
140
3.0
141
0.0
143
0.0393701
146
0.71
147
1.5
172
     1
176
   256
177
   256
178
     2
271
     2
272
     2
284
     8
340
1E8B
341
1E6F
342
1E6F
371
    -1
372
    -1
1001
ACAD_DSTYLE_DIMJOGGED_JOGANGLE_SYMBOL
1070
   384
1040
0.7853981633974483
1001
ACAD_DSTYLE_DIMJAG
1070
   388
1040
1.5
1001
ACAD_DSTYLE_DIMTALN
1070
   392
1070
     0
  0
DIMSTYLE
105
1E8E
330
CB
100
AcDbSymbolTableRecord
100
AcDbDimStyleTableRecord
  2
TSK$3
 70
     0
  4
"
 41
3.0
 42
1.0
 43
10.0
 44
1.0
 47
0.1
 48
0.1
 73
     0
 74
     0
 77
     3
 78
     8
 79
     2
 90
        1
140
3.0
141
0.0
143
0.0393701
146
0.71
147
1.5
172
     1
176
   256
177
   256
178
     2
271
     2
272
     2
284
     8
288
     1
340
23
341
1E69
342
1E6F
371
    -1
372
    -1
1001
ACAD_DSTYLE_DIMJOGGED_JOGANGLE_SYMBOL
1070
   384
1040
0.7853981633974483
1001
ACAD_DSTYLE_DIMBREAK
1070
   391
1040
3.75
1001
ACAD_DSTYLE_DIMJAG
1070
   388
1040
1.5
1001
ACAD_DSTYLE_DIMTALN
1070
   392
1070
     0
  0
DIMSTYLE
105
1E8F
330
CB
100
AcDbSymbolTableRecord
100
AcDbDimStyleTableRecord
  2
TSK$4
 70
     0
  4
"
 41
3.0
 42
1.0
 43
10.0
 44
1.0
 47
0.1
 48
0.1
 73
     0
 74
     0
 77
     3
 78
     8
 79
     2
 90
        1
140
3.0
141
0.0
143
0.0393701
146
0.71
147
1.5
173
     1
176
   256
177
   256
178
     2
271
     2
272
     2
284
     8
288
     1
340
23
341
1E69
343
1E69
344
1E6F
371
    -1
372
    -1
1001
ACAD_DSTYLE_DIMJOGGED_JOGANGLE_SYMBOL
1070
   384
1040
0.7853981633974483
1001
ACAD_DSTYLE_DIMBREAK
1070
   391
1040
3.75
1001
ACAD_DSTYLE_DIMJAG
1070
   388
1040
1.5
1001
ACAD_DSTYLE_DIMTALN
1070
   392
1070
     0
  0
DIMSTYLE
105
1E90
330
CB
100
AcDbSymbolTableRecord
100
AcDbDimStyleTableRecord
  2
TSK$6
 70
     0
  4
"
 41
3.0
 42
1.0
 43
10.0
 44
1.0
 47
0.1
 48
0.1
 73
     0
 74
     0
 78
     8
 79
     2
 90
        1
140
3.0
141
0.0
143
0.0393701
146
0.71
147
1.5
172
     1
176
   256
177
   256
178
     2
271
     2
272
     3
274
     4
284
     8
340
23
341
1E69
342
1E69
343
1E69
344
1E69
371
    -1
372
    -1
1001
ACAD_DSTYLE_DIMJOGGED_JOGANGLE_SYMBOL
1070
   384
1040
0.7853981633974483
1001
ACAD_DSTYLE_DIMBREAK
1070
   391
1040
3.75
1001
ACAD_DSTYLE_DIMJAG
1070
   388
1040
1.5
1001
ACAD_DSTYLE_DIMTALN
1070
   392
1070
     0
  0
DIMSTYLE
105
1E91
330
CB
100
AcDbSymbolTableRecord
100
AcDbDimStyleTableRecord
  2
TSK$7
 70
     0
  4
"
 41
2.0
 42
1.0
 43
10.0
 44
1.0
 47
0.1
 48
0.1
 73
     0
 74
     0
 77
     3
 78
     8
 79
     2
 90
        1
140
3.0
141
0.0
143
0.0393701
146
0.71
147
1.0
172
     1
176
   256
177
   256
178
     2
271
     2
272
     2
284
     8
340
23
341
1E6F
342
1E69
371
    -1
372
    -1
1001
ACAD_DSTYLE_DIMJOGGED_JOGANGLE_SYMBOL
1070
   384
1040
0.7853981633974483
1001
ACAD_DSTYLE_DIMBREAK
1070
   391
1040
3.75
1001
ACAD_DSTYLE_DIMJAG
1070
   388
1040
1.5
1001
ACAD_DSTYLE_DIMTALN
1070
   392
1070
     0
  0
DIMSTYLE
105
1E92
330
CB
100
AcDbSymbolTableRecord
100
AcDbDimStyleTableRecord
  2
TSK$SF
 70
     0
  4
"
 41
2.5
 42
1.0
 43
10.0
 44
1.0
 47
0.1
 48
0.1
 73
     0
 74
     0
 75
     1
 76
     1
 77
     3
 78
     8
 79
     2
 90
        1
140
3.5
141
0.0
143
0.0393701
146
0.71
147
1.5
172
     1
176
   256
177
   256
178
     2
271
     2
272
     2
283
     0
284
     8
340
23
341
1E6F
342
1E6F
343
1E6F
344
1E75
371
    -1
372
    -1
1001
ACAD_DSTYLE_DIMJOGGED_JOGANGLE_SYMBOL
1070
   384
1040
0.7853981633974483
1001
ACAD_DSTYLE_DIMBREAK
1070
   391
1040
3.75
1001
ACAD_DSTYLE_DIMJAG
1070
   388
1040
1.5
1001
ACAD_DSTYLE_DIMTALN
1070
   392
1070
     0
  0
DIMSTYLE
105
1E93
330
CB
100
AcDbSymbolTableRecord
100
AcDbDimStyleTableRecord
  2
TSK$SH
 70
     0
  4
"
 41
2.5
 42
1.0
 43
10.0
 44
1.0
 47
0.1
 48
0.1
 73
     0
 74
     0
 75
     1
 76
     1
 77
     3
 78
     8
 79
     2
 90
        1
140
3.5
141
0.0
143
0.0393701
144
2.0
146
0.71
147
1.5
172
     1
173
     1
176
   256
177
   256
178
     2
271
     2
272
     2
283
     0
284
     8
340
23
341
1E75
343
1E4C
344
1E6F
371
    -1
372
    -1
1001
ACAD_DSTYLE_DIMJOGGED_JOGANGLE_SYMBOL
1070
   384
1040
0.7853981633974483
1001
ACAD_DSTYLE_DIMBREAK
1070
   391
1040
3.75
1001
ACAD_DSTYLE_DIMJAG
1070
   388
1040
1.5
1001
ACAD_DSTYLE_DIMTALN
1070
   392
1070
     0
  0
DIMSTYLE
105
1E94
330
CB
100
AcDbSymbolTableRecord
100
AcDbDimStyleTableRecord
  2
1-1
 70
     0
  4
"
 41
3.0
 42
1.0
 43
10.0
 44
1.0
 47
0.1
 48
0.1
 73
     0
 74
     0
 77
     3
 78
     8
 79
     2
140
3.5
141
0.0
143
0.0393701
146
0.71
147
1.5
172
     1
176
   256
177
   256
178
     2
179
     1
271
     2
272
     2
279
     2
284
     8
340
1E8B
341
1E6F
342
1E6F
371
    15
372
    15
  0
DIMSTYLE
105
1E95
330
CB
100
AcDbSymbolTableRecord
100
AcDbDimStyleTableRecord
  2
1-2
 70
     0
  4
"
 41
3.0
 42
1.0
 43
10.0
 44
1.0
 47
0.1
 48
0.1
 73
     0
 74
     0
 77
     3
 78
     8
 79
     2
140
3.5
141
0.0
143
0.0393701
144
2.0
146
0.71
147
1.5
172
     1
176
   256
177
   256
178
     2
179
     1
271
     2
272
     2
279
     2
284
     8
340
1E8B
341
1E6F
342
1E6F
371
    15
372
    15
  0
DIMSTYLE
105
1E96
330
CB
100
AcDbSymbolTableRecord
100
AcDbDimStyleTableRecord
  2
1-10
 70
     0
  4
"
 41
3.0
 42
1.0
 43
10.0
 44
1.0
 47
0.1
 48
0.1
 73
     0
 74
     0
 77
     3
 78
     8
 79
     2
140
3.5
141
0.0
143
0.0393701
144
10.0
146
0.71
147
1.5
172
     1
176
   256
177
   256
178
     2
179
     1
271
     2
272
     2
279
     2
284
     8
340
1E8B
341
1E6F
342
1E6F
371
    15
372
    15
  0
DIMSTYLE
105
1E97
330
CB
100
AcDbSymbolTableRecord
100
AcDbDimStyleTableRecord
  2
1-15
 70
     0
  4
"
 41
3.0
 42
1.0
 43
10.0
 44
1.0
 47
0.1
 48
0.1
 73
     0
 74
     0
 77
     3
 78
     8
 79
     2
140
3.5
141
0.0
143
0.0393701
144
15.0
146
0.71
147
1.5
172
     1
176
   256
177
   256
178
     2
179
     1
271
     2
272
     2
279
     2
284
     8
340
1E8B
341
1E6F
342
1E6F
371
    15
372
    15
  0
DIMSTYLE
105
1E98
330
CB
100
AcDbSymbolTableRecord
100
AcDbDimStyleTableRecord
  2
1-20
 70
     0
  4
"
 41
3.0
 42
1.0
 43
10.0
 44
1.0
 47
0.1
 48
0.1
 73
     0
 74
     0
 77
     3
 78
     8
 79
     2
140
3.5
141
0.0
143
0.0393701
144
20.0
146
0.71
147
1.5
172
     1
176
   256
177
   256
178
     2
179
     1
271
     2
272
     2
279
     2
284
     8
340
1E8B
341
1E6F
342
1E6F
371
    15
372
    15
  0
ENDTAB
  0
TABLE
  2
BLOCK_RECORD
  5
D0
330
0
100
AcDbSymbolTable
 70
     6
  0
BLOCK_RECORD
  5
D1
102
{ACAD_XDICTIONARY
360
179F
102
}
330
D0
100
AcDbSymbolTableRecord
100
AcDbBlockTableRecord
  2
*MODEL_SPACE
340
149F
 70
     0
280
     1
281
     0
  0
BLOCK_RECORD
  5
D2
330
D0
100
AcDbSymbolTableRecord
100
AcDbBlockTableRecord
  2
*PAPER_SPACE
340
14A0
 70
     0
280
     1
281
     0
  0
BLOCK_RECORD
  5
1E1C
330
D0
100
AcDbSymbolTableRecord
100
AcDbBlockTableRecord
  2
*U0
340
0
 70
     0
280
     1
281
     0
  0
BLOCK_RECORD
  5
1E4C
330
D0
100
AcDbSymbolTableRecord
100
AcDbBlockTableRecord
  2
GENAXEH
340
0
 70
     0
280
     1
281
     0
  0
BLOCK_RECORD
  5
1E69
330
D0
100
AcDbSymbolTableRecord
100
AcDbBlockTableRecord
  2
_Open30
340
0
 70
     0
280
     1
281
     0
  0
BLOCK_RECORD
  5
1E6F
330
D0
100
AcDbSymbolTableRecord
100
AcDbBlockTableRecord
  2
_Open
340
0
 70
     0
280
     1
281
     0
  0
BLOCK_RECORD
  5
1E75
330
D0
100
AcDbSymbolTableRecord
100
AcDbBlockTableRecord
  2
_Closed
340
0
 70
     0
280
     1
281
     0
  0
BLOCK_RECORD
  5
1E7C
330
D0
100
AcDbSymbolTableRecord
100
AcDbBlockTableRecord
  2
_ACMOPEN15
340
0
 70
     0
280
     1
281
     0
  0
ENDTAB
  0
ENDSEC
  0
SECTION
  2
BLOCKS
  0
BLOCK
  5
E3
330
D1
100
AcDbEntity
  8
0
100
AcDbBlockBegin
  2
*MODEL_SPACE
 70
     0
 10
0.0
 20
0.0
 30
0.0
  3
*MODEL_SPACE
  1

  0
ENDBLK
  5
E4
330
D1
100
AcDbEntity
  8
0
100
AcDbBlockEnd
  0
BLOCK
  5
E5
330
D2
100
AcDbEntity
 67
     1
  8
0
100
AcDbBlockBegin
  2
*PAPER_SPACE
 70
     0
 10
0.0
 20
0.0
 30
0.0
  3
*PAPER_SPACE
  1

  0
ENDBLK
  5
E6
330
D2
100
AcDbEntity
 67
     1
  8
0
100
AcDbBlockEnd
  0
BLOCK
  5
1E1D
330
1E1C
100
AcDbEntity
  8
0
100
AcDbBlockBegin
  2
*U0
 70
     1
 10
0.0
 20
0.0
 30
0.0
  3
*U0
  1

  0
ENDBLK
  5
1E1E
330
1E1C
100
AcDbEntity
  8
0
100
AcDbBlockEnd
  0
BLOCK
  5
1E4E
330
1E4C
100
AcDbEntity
  8
0
100
AcDbBlockBegin
  2
GENAXEH
 70
     0
 10
0.0
 20
0.0
 30
0.0
  3
GENAXEH
  1

  0
LINE
  5
1E4D
330
1E4C
100
AcDbEntity
  8
0
100
AcDbLine
 10
-1.0
 20
0.0
 30
0.0
 11
1.0
 21
0.0
 31
0.0
  0
ENDBLK
  5
1E4F
330
1E4C
100
AcDbEntity
  8
0
100
AcDbBlockEnd
  0
BLOCK
  5
1E6A
330
1E69
100
AcDbEntity
  8
0
100
AcDbBlockBegin
  2
_Open30
 70
     0
 10
0.0
 20
0.0
 30
0.0
  3
_Open30
  1

  0
LINE
  5
1E6B
330
1E69
100
AcDbEntity
  8
0
  6
ByBlock
 62
     0
370
    -2
100
AcDbLine
 10
-1.0
 20
0.26794919
 30
0.0
 11
0.0
 21
0.0
 31
0.0
  0
LINE
  5
1E6C
330
1E69
100
AcDbEntity
  8
0
  6
ByBlock
 62
     0
370
    -2
100
AcDbLine
 10
0.0
 20
0.0
 30
0.0
 11
-1.0
 21
-0.26794919
 31
0.0
  0
LINE
  5
1E6D
330
1E69
100
AcDbEntity
  8
0
  6
ByBlock
 62
     0
370
    -2
100
AcDbLine
 10
0.0
 20
0.0
 30
0.0
 11
-1.0
 21
0.0
 31
0.0
  0
ENDBLK
  5
1E6E
330
1E69
100
AcDbEntity
  8
0
100
AcDbBlockEnd
  0
BLOCK
  5
1E70
330
1E6F
100
AcDbEntity
  8
0
100
AcDbBlockBegin
  2
_Open
 70
     0
 10
0.0
 20
0.0
 30
0.0
  3
_Open
  1

  0
LINE
  5
1E71
330
1E6F
100
AcDbEntity
  8
0
  6
ByBlock
 62
     0
370
    -2
100
AcDbLine
 10
-1.0
 20
0.1666666666666666
 30
0.0
 11
0.0
 21
0.0
 31
0.0
  0
LINE
  5
1E72
330
1E6F
100
AcDbEntity
  8
0
  6
ByBlock
 62
     0
370
    -2
100
AcDbLine
 10
-1.0
 20
-0.1666666666666666
 30
0.0
 11
0.0
 21
0.0
 31
0.0
  0
LINE
  5
1E73
330
1E6F
100
AcDbEntity
  8
0
  6
ByBlock
 62
     0
370
    -2
100
AcDbLine
 10
0.0
 20
0.0
 30
0.0
 11
-1.0
 21
0.0
 31
0.0
  0
ENDBLK
  5
1E74
330
1E6F
100
AcDbEntity
  8
0
100
AcDbBlockEnd
  0
BLOCK
  5
1E76
330
1E75
100
AcDbEntity
  8
0
100
AcDbBlockBegin
  2
_Closed
 70
     0
 10
0.0
 20
0.0
 30
0.0
  3
_Closed
  1

  0
LINE
  5
1E77
330
1E75
100
AcDbEntity
  8
0
  6
ByBlock
 62
     0
370
    -2
100
AcDbLine
 10
-1.0
 20
0.1666666666666666
 30
0.0
 11
0.0
 21
0.0
 31
0.0
  0
LINE
  5
1E78
330
1E75
100
AcDbEntity
  8
0
  6
ByBlock
 62
     0
370
    -2
100
AcDbLine
 10
0.0
 20
0.0
 30
0.0
 11
-1.0
 21
-0.1666666666666666
 31
0.0
  0
LINE
  5
1E79
330
1E75
100
AcDbEntity
  8
0
  6
ByBlock
 62
     0
370
    -2
100
AcDbLine
 10
-1.0
 20
0.1666666666666666
 30
0.0
 11
-1.0
 21
-0.1666666666666666
 31
0.0
  0
LINE
  5
1E7A
330
1E75
100
AcDbEntity
  8
0
  6
ByBlock
 62
     0
370
    -2
100
AcDbLine
 10
0.0
 20
0.0
 30
0.0
 11
-1.0
 21
0.0
 31
0.0
  0
ENDBLK
  5
1E7B
330
1E75
100
AcDbEntity
  8
0
100
AcDbBlockEnd
  0
BLOCK
  5
1E7D
330
1E7C
100
AcDbEntity
  8
0
100
AcDbBlockBegin
  2
_ACMOPEN15
 70
     0
 10
0.0
 20
0.0
 30
0.0
  3
_ACMOPEN15
  1

  0
LINE
  5
1E7E
330
1E7C
100
AcDbEntity
  8
AM_0_T3
 62
     0
100
AcDbLine
 10
-1.0
 20
0.0
 30
0.0
 11
0.0
 21
0.0
 31
0.0
  0
LINE
  5
1E7F
330
1E7C
100
AcDbEntity
  8
AM_0_T3
 62
     0
100
AcDbLine
 10
-1.0
 20
-0.131652497
 30
0.0
 11
0.0
 21
0.0
 31
0.0
  0
LINE
  5
1E80
330
1E7C
100
AcDbEntity
  8
AM_0_T3
 62
     0
100
AcDbLine
 10
0.0
 20
0.0
 30
0.0
 11
-1.0
 21
0.131652497
 31
0.0
  0
ENDBLK
  5
1E81
330
1E7C
100
AcDbEntity
  8
0
100
AcDbBlockEnd
  0
ENDSEC
  0
SECTION
  2
ENTITIES
  0
TEXT
  5
1DEC
330
D1
100
AcDbEntity
  8
0
100
AcDbText
 10
-345.8333333333332
 20
659.1666666666666
 30
0.0
 40
50.0
  1
2MAT_T2000F  1S
 72
     4
 11
0.0
 21
680.0
 31
0.0
100
AcDbText
  0
LINE
  5
2929
330
D1
100
AcDbEntity
  8
0
  6
Continuous
100
AcDbLine
 10
-0.9960099457157411
 20
-24.39848382221408
 30
0.0
 11
-0.9960099457157411
 21
-34.99848382221444
 31
0.0
  0
LINE
  5
292A
330
D1
100
AcDbEntity
  8
0
  6
Continuous
100
AcDbLine
 10
-31.00000739127973
 20
-35.69848194533733
 30
0.0
 11
-27.99999389052391
 21
-35.6984821355627
 31
0.0
  0
LINE
  5
292B
330
D1
100
AcDbEntity
  8
0
  6
Continuous
100
AcDbLine
 10
-6.000033290522878
 20
-35.69848353054295
 30
0.0
 11
-1.400155134148008
 21
-35.69848382221426
 31
0.0
  0
LINE
  5
292C
330
D1
100
AcDbEntity
  8
0
  6
Continuous
100
AcDbLine
 10
-31.00000649037702
 20
-23.69848160000038
 30
0.0
 11
-27.99999389052391
 21
-23.69848182522674
 31
0.0
  0
LINE
  5
292D
330
D1
100
AcDbEntity
  8
0
  6
Continuous
100
AcDbLine
 10
-6.000033290522878
 20
-23.6984834768773
 30
0.0
 11
-1.400155134148008
 21
-23.69848382221426
 31
0.0
  0
LINE
  5
292E
330
D1
100
AcDbEntity
  8
0
  6
Continuous
100
AcDbLine
 10
-31.00000654293035
 20
-24.39848194533715
 30
0.0
 11
-27.99999389052391
 21
-24.39848213300047
 31
0.0
  0
LINE
  5
292F
330
D1
100
AcDbEntity
  8
0
  6
Continuous
100
AcDbLine
 10
-6.000033290523788
 20
-24.39848350919147
 30
0.0
 11
-0.9960099457157411
 21
-24.39848382221408
 31
0.0
  0
LINE
  5
2930
330
D1
100
AcDbEntity
  8
0
  6
Continuous
100
AcDbLine
 10
-31.00000733872639
 20
-34.99848194533661
 30
0.0
 11
-27.99999389052391
 21
-34.99848213300083
 31
0.0
  0
LINE
  5
2931
330
D1
100
AcDbEntity
  8
0
  6
Continuous
100
AcDbLine
 10
-6.000033290522878
 20
-34.99848350919092
 30
0.0
 11
-0.9960099457157411
 21
-34.99848382221353
 31
0.0
  0
LINE
  5
2932
330
D1
100
AcDbEntity
  8
0
  6
Continuous
100
AcDbLine
 10
-0.9960099457157411
 20
-34.99848382221444
 30
0.0
 11
-1.400155134148008
 21
-35.69848382221426
 31
0.0
  0
LINE
  5
2933
330
D1
100
AcDbEntity
  8
0
  6
Continuous
100
AcDbLine
 10
-1.400155134148008
 20
-23.69848382221426
 30
0.0
 11
-1.400155134148008
 21
-35.69848382221426
 31
0.0
  0
LINE
  5
2934
330
D1
100
AcDbEntity
  8
0
  6
Continuous
100
AcDbLine
 10
30.29409694249717
 20
96.49943128658652
 30
0.0
 11
30.29409696231869
 21
104.9994618041646
 31
0.0
  0
LINE
  5
2935
330
D1
100
AcDbEntity
  8
0
  6
Continuous
100
AcDbLine
 10
18.16012091099128
 20
95.99941742789543
 30
0.0
 11
17.29408890384275
 21
96.49942124932387
 31
0.0
  0
LINE
  5
2936
330
D1
100
AcDbEntity
  8
0
  6
Continuous
100
AcDbLine
 10
17.29412747756487
 20
103.9994313169027
 30
0.0
 11
30.29409695998675
 21
103.9994312865874
 31
0.0
  0
LINE
  5
2937
330
D1
100
AcDbEntity
  8
0
  6
Continuous
100
AcDbLine
 10
17.29412747465085
 20
102.749461834479
 30
0.0
 11
30.29409695707272
 21
102.7494618041637
 31
0.0
  0
LINE
  5
2938
330
D1
100
AcDbEntity
  8
0
  6
Continuous
100
AcDbLine
 10
17.29412746007801
 20
96.49943131689907
 30
0.0
 11
30.29409694249989
 21
96.49943128658378
 31
0.0
  0
LINE
  5
2939
330
D1
100
AcDbEntity
  8
0
  6
Continuous
100
AcDbLine
 10
29.42808323756981
 20
95.9994474136447
 30
0.0
 11
30.29408220847017
 21
96.49943216158682
 31
0.0
  0
LINE
  5
293A
330
D1
100
AcDbEntity
  8
0
  6
Continuous
100
AcDbLine
 10
18.16012477336608
 20
95.9994618324572
 30
0.0
 11
29.42806910930358
 21
95.99946180618099
 31
0.0
  0
LINE
  5
293B
330
D1
100
AcDbEntity
  8
0
  6
Continuous
100
AcDbLine
 10
17.29412746007529
 20
96.49943131690179
 30
0.0
 11
17.29412747989681
 21
104.9994618344799
 31
0.0
  0
LINE
  5
293C
330
D1
100
AcDbEntity
  8
0
  6
Continuous
100
AcDbLine
 10
-30.29422092859659
 20
96.49943142787471
 30
0.0
 11
-30.29422090877506
 21
104.9994619454528
 31
0.0
  0
LINE
  5
293D
330
D1
100
AcDbEntity
  8
0
  6
Continuous
100
AcDbLine
 10
-18.16024027146068
 20
95.99942616940097
 30
0.0
 11
-17.29421487156196
 21
96.49942617613124
 31
0.0
  0
LINE
  5
293E
330
D1
100
AcDbEntity
  8
0
  6
Continuous
100
AcDbLine
 10
-17.29422091110882
 20
103.9994313975621
 30
0.0
 11
-30.29422091110883
 21
103.9994314278765
 31
0.0
  0
LINE
  5
293F
330
D1
100
AcDbEntity
  8
0
  6
Continuous
100
AcDbLine
 10
-17.29422091402193
 20
102.7494619151384
 30
0.0
 11
-30.29422091402194
 21
102.7494619454537
 31
0.0
  0
LINE
  5
2940
330
D1
100
AcDbEntity
  8
0
  6
Continuous
100
AcDbLine
 10
-17.29422092859477
 20
96.49943139755851
 30
0.0
 11
-30.29422092859477
 21
96.49943142787378
 31
0.0
  0
LINE
  5
2941
330
D1
100
AcDbEntity
  8
0
  6
Continuous
100
AcDbLine
 10
-29.42818836139577
 20
95.99944807194152
 30
0.0
 11
-30.29420054679486
 21
96.49944044927725
 31
0.0
  0
LINE
  5
2942
330
D1
100
AcDbEntity
  8
0
  6
Continuous
100
AcDbLine
 10
-18.16021824421386
 20
95.99946191715572
 30
0.0
 11
-29.42816258015137
 21
95.99946194343283
 31
0.0
  0
LINE
  5
2943
330
D1
100
AcDbEntity
  8
0
  6
Continuous
100
AcDbLine
 10
-17.29422092859477
 20
96.49943139755761
 30
0.0
 11
-17.29422090877324
 21
104.9994619151357
 31
0.0
  0
LINE
  5
2944
330
D1
100
AcDbEntity
  8
0
  6
Continuous
100
AcDbLine
 10
32.49999872149601
 20
107.9999040002549
 30
0.0
 11
32.49999872149601
 21
104.9999040002549
 31
0.0
  0
LINE
  5
2945
330
D1
100
AcDbEntity
  8
0
  6
Continuous
100
AcDbLine
 10
-32.50000127850399
 20
107.9999040002549
 30
0.0
 11
-32.50000127850399
 21
104.9999040002549
 31
0.0
  0
LINE
  5
2946
330
D1
100
AcDbEntity
  8
0
  6
Continuous
100
AcDbLine
 10
-16.50000127850399
 20
104.9999040002549
 30
0.0
 11
-32.50000127850399
 21
104.9999040002549
 31
0.0
  0
LINE
  5
2947
330
D1
100
AcDbEntity
  8
0
  6
Continuous
100
AcDbLine
 10
-0.0000012785039871
 20
108.9999040002549
 30
0.0
 11
-31.50000127850399
 21
108.9999040002549
 31
0.0
  0
LINE
  5
2948
330
D1
100
AcDbEntity
  8
0
  6
Continuous
100
AcDbLine
 10
16.49999872149601
 20
104.9999040002549
 30
0.0
 11
32.49999872149601
 21
104.9999040002549
 31
0.0
  0
LINE
  5
2949
330
D1
100
AcDbEntity
  8
0
  6
Continuous
100
AcDbLine
 10
-0.0000012785039871
 20
108.9999040002549
 30
0.0
 11
31.49999872149602
 21
108.9999040002549
 31
0.0
  0
LINE
  5
294A
330
D1
100
AcDbEntity
  8
0
  6
Continuous
100
AcDbLine
 10
-32.49999487903461
 20
107.9998959999566
 30
0.0
 11
-31.49999375818425
 21
108.9998970365141
 31
0.0
  0
LINE
  5
294B
330
D1
100
AcDbEntity
  8
0
  6
Continuous
100
AcDbLine
 10
31.49999867300266
 20
108.9999051708555
 30
0.0
 11
32.49999970956015
 21
107.9999040500042
 31
0.0
  0
LINE
  5
294C
330
D1
100
AcDbEntity
  8
0
  6
Continuous
100
AcDbLine
 10
6.100012730950766
 20
215.4998975212838
 30
0.0
 11
6.100012730950766
 21
213.9998975212839
 31
0.0
  0
LINE
  5
294D
330
D1
100
AcDbEntity
  8
0
  6
Continuous
100
AcDbLine
 10
-6.099999476080483
 20
215.4998975212838
 30
0.0
 11
-6.099999476080483
 21
213.9998975212839
 31
0.0
  0
LINE
  5
294E
330
D1
100
AcDbEntity
  8
0
  6
Continuous
100
AcDbLine
 10
-6.099999476080483
 20
215.4998975212838
 30
0.0
 11
6.100012730950766
 21
215.4998975212838
 31
0.0
  0
LINE
  5
294F
330
D1
100
AcDbEntity
  8
0
  6
Continuous
100
AcDbLine
 10
-5.249993372564858
 20
217.0269055779245
 30
0.0
 11
-5.249993372564858
 21
215.4998975212838
 31
0.0
  0
LINE
  5
2950
330
D1
100
AcDbEntity
  8
0
  6
Continuous
100
AcDbLine
 10
5.250006627435141
 20
217.0269055779245
 30
0.0
 11
5.250006627435141
 21
215.4998975212838
 31
0.0
  0
ARC
  5
2951
330
D1
100
AcDbEntity
  8
0
  6
Continuous
100
AcDbCircle
 10
0.0000066274351411
 20
205.3998914177682
 30
0.0
 40
14.0
100
AcDbArc
 50
73.92713987789818
 51
106.0728583008945
  0
ARC
  5
2952
330
D1
100
AcDbEntity
  8
0
  6
Continuous
100
AcDbCircle
 10
-3.349999476080483
 20
217.0269055779245
 30
0.0
 40
1.899999976158142
100
AcDbArc
 50
106.0728583008945
 51
180.0000050089374
  0
ARC
  5
2953
330
D1
100
AcDbEntity
  8
0
  6
Continuous
100
AcDbCircle
 10
3.350012730950766
 20
217.0269055779245
 30
0.0
 40
1.899999976158142
100
AcDbArc
 50
0.0
 51
73.92713304773998
  0
LINE
  5
2954
330
D1
100
AcDbEntity
  8
0
  6
Continuous
100
AcDbLine
 10
-29.99997727935988
 20
213.9998975212839
 30
0.0
 11
30.00002272064012
 21
213.9998975212839
 31
0.0
  0
LINE
  5
2955
330
D1
100
AcDbEntity
  8
0
  6
Continuous
100
AcDbLine
 10
-29.99997727935988
 20
188.9999051506784
 30
0.0
 11
30.00002272064012
 21
188.9999051506784
 31
0.0
  0
LINE
  5
2956
330
D1
100
AcDbEntity
  8
0
  6
Continuous
100
AcDbLine
 10
30.00002272064012
 20
213.9998975212839
 30
0.0
 11
30.00002272064012
 21
188.9999051506784
 31
0.0
  0
LINE
  5
2957
330
D1
100
AcDbEntity
  8
0
  6
Continuous
100
AcDbLine
 10
-29.99997727935988
 20
213.9998975212839
 30
0.0
 11
-29.99997727935988
 21
188.9999051506784
 31
0.0
  0
LINE
  5
2958
330
D1
100
AcDbEntity
  8
0
  6
Continuous
100
AcDbLine
 10
-6.099999476080483
 20
213.9998975212839
 30
0.0
 11
6.100012730950766
 21
213.9998975212839
 31
0.0
  0
LINE
  5
2959
330
D1
100
AcDbEntity
  8
0
  6
Continuous
100
AcDbLine
 10
-27.99999389052391
 20
48.49999994668905
 30
0.0
 11
-27.99999389052391
 21
11.99999994668906
 31
0.0
  0
LINE
  5
295A
330
D1
100
AcDbEntity
  8
0
  6
Continuous
100
AcDbLine
 10
-27.99999389052391
 20
-12.00000009702307
 30
0.0
 11
-27.99999389052391
 21
-35.00000005331094
 31
0.0
  0
LINE
  5
295B
330
D1
100
AcDbEntity
  8
0
  6
Continuous
100
AcDbLine
 10
-13.99999389052391
 20
-28.99907633248586
 30
0.0
 11
-13.99999389052391
 21
-34.99907633248586
 31
0.0
  0
LINE
  5
295C
330
D1
100
AcDbEntity
  8
0
  6
Continuous
100
AcDbLine
 10
-27.99999389052391
 20
-49.00000005331094
 30
0.0
 11
-27.99999215957178
 21
-54.00000198946418
 31
0.0
  0
LINE
  5
295D
330
D1
100
AcDbEntity
  8
0
  6
Continuous
100
AcDbLine
 10
-13.99999389052391
 20
-36.69907633248568
 30
0.0
 11
-13.99999539856435
 21
-54.00000025561531
 31
0.0
  0
LINE
  5
295E
330
D1
100
AcDbEntity
  8
0
  6
Continuous
100
AcDbLine
 10
-31.00000065715267
 20
53.99999996241968
 30
0.0
 11
-31.00000065715631
 21
20.49999428505907
 31
0.0
  0
LINE
  5
295F
330
D1
100
AcDbEntity
  8
0
  6
Continuous
100
AcDbLine
 10
-27.43868367458345
 20
-54.00000026281214
 30
0.0
 11
-27.49999006288817
 21
-54.00000026227189
 31
0.0
  0
LINE
  5
2960
330
D1
100
AcDbEntity
  8
0
  6
Continuous
100
AcDbLine
 10
-30.99999233187646
 20
-54.00000023143184
 30
0.0
 11
-53.00000876526883
 21
-54.00000003758214
 31
0.0
  0
LINE
  5
2961
330
D1
100
AcDbEntity
  8
0
  6
Continuous
100
AcDbLine
 10
-13.99999539856435
 20
-54.00000015844034
 30
0.0
 11
-27.99999215956996
 21
-54.00000500510214
 31
0.0
  0
LINE
  5
2962
330
D1
100
AcDbEntity
  8
0
  6
Continuous
100
AcDbLine
 10
-30.99999233187737
 20
-54.00000016057674
 30
0.0
 11
-53.00000876526883
 21
-54.00000003758577
 31
0.0
  0
LINE
  5
2963
330
D1
100
AcDbEntity
  8
0
  6
Continuous
100
AcDbLine
 10
-53.00000876526883
 20
-52.50001529637666
 30
0.0
 11
-53.00000876526883
 21
52.50001522120328
 31
0.0
  0
LINE
  5
2964
330
D1
100
AcDbEntity
  8
0
  6
Continuous
100
AcDbLine
 10
-31.00000876526883
 20
53.99999996241604
 30
0.0
 11
-53.00000876526883
 21
53.99999996241786
 31
0.0
  0
LINE
  5
2965
330
D1
100
AcDbEntity
  8
0
  6
Continuous
100
AcDbLine
 10
-31.00000876526883
 20
53.99999996241968
 30
0.0
 11
-53.00000876526883
 21
53.9999999624215
 31
0.0
  0
LINE
  5
2966
330
D1
100
AcDbEntity
  8
0
  6
Continuous
100
AcDbLine
 10
-31.00000065715631
 20
-18.49999436025609
 30
0.0
 11
-31.00000065715631
 21
18.49999428505907
 31
0.0
  0
LINE
  5
2967
330
D1
100
AcDbEntity
  8
0
  6
Continuous
100
AcDbLine
 10
-30.99999389052391
 20
35.99999996241604
 30
0.0
 11
-30.99999389052391
 21
20.99999996241604
 31
0.0
  0
LINE
  5
2968
330
D1
100
AcDbEntity
  8
0
  6
Continuous
100
AcDbLine
 10
-27.99999389052391
 20
35.99999996241604
 30
0.0
 11
-27.99999389052391
 21
20.99999996241604
 31
0.0
  0
LINE
  5
2969
330
D1
100
AcDbEntity
  8
0
  6
Continuous
100
AcDbLine
 10
-13.99999389052391
 20
-40.66872849066931
 30
0.0
 11
-13.99999389052391
 21
-23.69937386920446
 31
0.0
  0
LINE
  5
296A
330
D1
100
AcDbEntity
  8
0
  6
Continuous
100
AcDbLine
 10
-13.99999389052391
 20
-31.03001924774071
 30
0.0
 11
-13.99999389052391
 21
-35.99937386920465
 31
0.0
  0
LINE
  5
296B
330
D1
100
AcDbEntity
  8
0
  6
Continuous
100
AcDbLine
 10
-27.99999389052391
 20
9.999999946689058
 30
0.0
 11
-27.99999389052391
 21
-10.00000009702307
 31
0.0
  0
LINE
  5
296C
330
D1
100
AcDbEntity
  8
0
  6
Continuous
100
AcDbLine
 10
-30.99999233187737
 20
-54.00000003758941
 30
0.0
 11
-31.00001310735661
 21
-47.99999328920239
 31
0.0
  0
LINE
  5
296D
330
D1
100
AcDbEntity
  8
0
  6
Continuous
100
AcDbLine
 10
-27.00000126757641
 20
52.00001222809987
 30
0.0
 11
-27.00000160428044
 21
48.50001275484828
 31
0.0
  0
LINE
  5
296E
330
D1
100
AcDbEntity
  8
0
  6
Continuous
100
AcDbLine
 10
15.50000663210085
 20
186.9998974851387
 30
0.0
 11
-15.49999336789915
 21
186.999897557429
 31
0.0
  0
LINE
  5
296F
330
D1
100
AcDbEntity
  8
0
  6
Continuous
100
AcDbLine
 10
-30.8000116831081
 20
184.9998975931066
 30
0.0
 11
-30.80001173062374
 21
164.6239820657629
 31
0.0
  0
LINE
  5
2970
330
D1
100
AcDbEntity
  8
0
  6
Continuous
100
AcDbLine
 10
30.79999442040389
 20
184.999897449461
 30
0.0
 11
30.79999437288825
 21
164.6239819221173
 31
0.0
  0
LINE
  5
2971
330
D1
100
AcDbEntity
  8
0
  6
Continuous
100
AcDbLine
 10
30.79999424784182
 20
110.999897449461
 30
0.0
 11
30.79999429535746
 21
131.3758434943829
 31
0.0
  0
LINE
  5
2972
330
D1
100
AcDbEntity
  8
0
  6
Continuous
100
AcDbLine
 10
-30.8000118556738
 20
110.9998975931084
 30
0.0
 11
-30.80001180815816
 21
131.3758436380303
 31
0.0
  0
LINE
  5
2973
330
D1
100
AcDbEntity
  8
0
  6
Continuous
100
AcDbLine
 10
-17.99999336790097
 20
186.9998975632588
 30
0.0
 11
-28.80001167844785
 21
186.9998975884446
 31
0.0
  0
LINE
  5
2974
330
D1
100
AcDbEntity
  8
0
  6
Continuous
100
AcDbLine
 10
16.00000662743514
 20
184.9998974839745
 30
0.0
 11
-15.99999337256486
 21
184.9998975585949
 31
0.0
  0
LINE
  5
2975
330
D1
100
AcDbEntity
  8
0
  6
Continuous
100
AcDbLine
 10
16.00000645487125
 20
110.9998974839745
 30
0.0
 11
-15.99999354512874
 21
110.9998975585958
 31
0.0
  0
LINE
  5
2976
330
D1
100
AcDbEntity
  8
0
  6
Continuous
100
AcDbLine
 10
17.99998718784445
 20
108.9999048587997
 30
0.0
 11
15.99998637913631
 21
110.9999056675078
 31
0.0
  0
LINE
  5
2977
330
D1
100
AcDbEntity
  8
0
  6
Continuous
100
AcDbLine
 10
-16.0000144219066
 20
184.9999086157368
 30
0.0
 11
-18.00001118451655
 21
186.9999053783467
 31
0.0
  0
LINE
  5
2978
330
D1
100
AcDbEntity
  8
0
  6
Continuous
100
AcDbLine
 10
17.99998449044688
 20
186.9999053783467
 30
0.0
 11
15.99998233303813
 21
184.9999032209398
 31
0.0
  0
LINE
  5
2979
330
D1
100
AcDbEntity
  8
0
  6
Continuous
100
AcDbLine
 10
-16.00000902710962
 20
110.999909713606
 30
0.0
 11
-18.00001118451655
 21
108.9999075561973
 31
0.0
  0
LINE
  5
297A
330
D1
100
AcDbEntity
  8
0
  6
Continuous
100
AcDbLine
 10
28.79999442507506
 20
186.9998974541195
 30
0.0
 11
18.0000066321063
 21
186.9998974793052
 31
0.0
  0
LINE
  5
297B
330
D1
100
AcDbEntity
  8
0
  6
Continuous
100
AcDbLine
 10
-15.49999354511601
 20
110.9998975574199
 30
0.0
 11
-15.4999935497799
 21
108.9998975574199
 31
0.0
  0
LINE
  5
297C
330
D1
100
AcDbEntity
  8
0
  6
Continuous
100
AcDbLine
 10
15.50000645488398
 20
110.9998974851296
 30
0.0
 11
15.5000064502201
 21
108.9998974851296
 31
0.0
  0
LINE
  5
297D
330
D1
100
AcDbEntity
  8
0
  6
Continuous
100
AcDbLine
 10
15.50000663212631
 20
186.9998974851205
 30
0.0
 11
15.50000662746242
 21
184.9998974851205
 31
0.0
  0
LINE
  5
297E
330
D1
100
AcDbEntity
  8
0
  6
Continuous
100
AcDbLine
 10
-15.49999336792098
 20
186.9998975574435
 30
0.0
 11
-15.49999337258487
 21
184.9998975574435
 31
0.0
  0
LINE
  5
297F
330
D1
100
AcDbEntity
  8
0
  6
Continuous
100
AcDbLine
 10
-23.99998228208096
 20
184.7734650266357
 30
0.0
 11
-29.00003167833893
 21
181.886685480682
 31
0.0
  0
LINE
  5
2980
330
D1
100
AcDbEntity
  8
0
  6
Continuous
100
AcDbLine
 10
-24.00003817820652
 20
173.2264660743894
 30
0.0
 11
-29.00003455592923
 21
176.1132153808266
 31
0.0
  0
LINE
  5
2981
330
D1
100
AcDbEntity
  8
0
  6
Continuous
100
AcDbLine
 10
-24.00003448862299
 20
184.773469379812
 30
0.0
 11
-19.00003976271364
 21
181.8867210270491
 31
0.0
  0
LINE
  5
2982
330
D1
100
AcDbEntity
  8
0
  6
Continuous
100
AcDbLine
 10
-18.99998269638854
 20
176.1132107495905
 30
0.0
 11
-24.00003209264651
 21
173.2264312036386
 31
0.0
  0
LINE
  5
2983
330
D1
100
AcDbEntity
  8
0
  6
Continuous
100
AcDbLine
 10
-29.00000863861715
 20
181.8866773740683
 30
0.0
 11
-29.00000865207949
 21
176.113178838912
 31
0.0
  0
LINE
  5
2984
330
D1
100
AcDbEntity
  8
0
  6
Continuous
100
AcDbLine
 10
-18.99999337983354
 20
181.8866773507543
 30
0.0
 11
-18.99999339329588
 21
176.113178815598
 31
0.0
  0
LINE
  5
2985
330
D1
100
AcDbEntity
  8
0
  6
Continuous
100
AcDbLine
 10
24.00000531285696
 20
184.7734731875789
 30
0.0
 11
18.99995591659899
 21
181.8866936416252
 31
0.0
  0
LINE
  5
2986
330
D1
100
AcDbEntity
  8
0
  6
Continuous
100
AcDbLine
 10
23.99995869793929
 20
173.2264675049009
 30
0.0
 11
18.99996562384149
 21
176.1132149039895
 31
0.0
  0
LINE
  5
2987
330
D1
100
AcDbEntity
  8
0
  6
Continuous
100
AcDbLine
 10
23.99996569114774
 20
184.7734689029748
 30
0.0
 11
28.99995876524372
 21
181.8867215038863
 31
0.0
  0
LINE
  5
2988
330
D1
100
AcDbEntity
  8
0
  6
Continuous
100
AcDbLine
 10
29.00001252794391
 20
176.1132056960341
 30
0.0
 11
23.99996313168594
 21
173.2264261500822
 31
0.0
  0
LINE
  5
2989
330
D1
100
AcDbEntity
  8
0
  6
Continuous
100
AcDbLine
 10
19.0000066201701
 20
181.8866772621386
 30
0.0
 11
19.00000660670776
 21
176.1131787269824
 31
0.0
  0
LINE
  5
298A
330
D1
100
AcDbEntity
  8
0
  6
Continuous
100
AcDbLine
 10
29.0000066201701
 20
181.8866772388192
 30
0.0
 11
29.00000660670776
 21
176.1131787036629
 31
0.0
  0
LINE
  5
298B
330
D1
100
AcDbEntity
  8
0
  6
Continuous
100
AcDbLine
 10
24.00000895787162
 20
122.7734617368169
 30
0.0
 11
18.99995956161547
 21
119.8866821908632
 31
0.0
  0
LINE
  5
298C
330
D1
100
AcDbEntity
  8
0
  6
Continuous
100
AcDbLine
 10
23.9999592343811
 20
111.2264692686385
 30
0.0
 11
18.99996285665838
 21
114.1132185750757
 31
0.0
  0
LINE
  5
298D
330
D1
100
AcDbEntity
  8
0
  6
Continuous
100
AcDbLine
 10
23.99996292396463
 20
122.7734725740611
 30
0.0
 11
28.99995930168552
 21
119.8867232676239
 31
0.0
  0
LINE
  5
298E
330
D1
100
AcDbEntity
  8
0
  6
Continuous
100
AcDbLine
 10
29.00000854356404
 20
114.1132074597726
 30
0.0
 11
23.99995914730789
 21
111.2264279138189
 31
0.0
  0
LINE
  5
298F
330
D1
100
AcDbEntity
  8
0
  6
Continuous
100
AcDbLine
 10
19.00000647558772
 20
119.8866772621404
 30
0.0
 11
19.00000646212538
 21
114.1131787269842
 31
0.0
  0
LINE
  5
2990
330
D1
100
AcDbEntity
  8
0
  6
Continuous
100
AcDbLine
 10
29.00000647558773
 20
119.8866772388219
 30
0.0
 11
29.00000646212538
 21
114.1131787036656
 31
0.0
  0
LINE
  5
2991
330
D1
100
AcDbEntity
  8
0
  6
Continuous
100
AcDbLine
 10
-23.99998626646084
 20
122.7734667903733
 30
0.0
 11
-29.00003566271698
 21
119.8866872444196
 31
0.0
  0
LINE
  5
2992
330
D1
100
AcDbEntity
  8
0
  6
Continuous
100
AcDbLine
 10
-24.00003929357627
 20
111.2264687918014
 30
0.0
 11
-29.00003567129898
 21
114.1132180982386
 31
0.0
  0
LINE
  5
2993
330
D1
100
AcDbEntity
  8
0
  6
Continuous
100
AcDbLine
 10
-24.00003560399273
 20
122.7734720972239
 30
0.0
 11
-19.00003922627184
 21
119.8867227907867
 31
0.0
  0
LINE
  5
2994
330
D1
100
AcDbEntity
  8
0
  6
Continuous
100
AcDbLine
 10
-18.99998668076841
 20
114.1132125133281
 30
0.0
 11
-24.00003607702456
 21
111.2264329673753
 31
0.0
  0
LINE
  5
2995
330
D1
100
AcDbEntity
  8
0
  6
Continuous
100
AcDbLine
 10
-29.00000878319406
 20
119.8866773740683
 30
0.0
 11
-29.00000879665822
 21
114.113178838912
 31
0.0
  0
LINE
  5
2996
330
D1
100
AcDbEntity
  8
0
  6
Continuous
100
AcDbLine
 10
-18.99999352441227
 20
119.8866773507543
 30
0.0
 11
-18.99999353787461
 21
114.1131788155981
 31
0.0
  0
LINE
  5
2997
330
D1
100
AcDbEntity
  8
0
  6
Continuous
100
AcDbLine
 10
24.49993071207245
 20
144.2471378837499
 30
0.0
 11
17.9999831869427
 21
140.4943909156809
 31
0.0
  0
LINE
  5
2998
330
D1
100
AcDbEntity
  8
0
  6
Continuous
100
AcDbLine
 10
11.50000654990253
 20
151.7527051116576
 30
0.0
 11
11.50000653240022
 21
144.2471509124389
 31
0.0
  0
LINE
  5
2999
330
D1
100
AcDbEntity
  8
0
  6
Continuous
100
AcDbLine
 10
17.99991784155645
 20
155.5054843278594
 30
0.0
 11
11.49996972030385
 21
151.7527383923079
 31
0.0
  0
LINE
  5
299A
330
D1
100
AcDbEntity
  8
0
  6
Continuous
100
AcDbLine
 10
17.9999168983577
 20
140.4943538092575
 30
0.0
 11
11.49991632151977
 21
144.2471309593838
 31
0.0
  0
LINE
  5
299B
330
D1
100
AcDbEntity
  8
0
  6
Continuous
100
AcDbLine
 10
24.50000654990799
 20
151.7527050813369
 30
0.0
 11
24.50000653240568
 21
144.2471508821181
 31
0.0
  0
LINE
  5
299C
330
D1
100
AcDbEntity
  8
0
  6
Continuous
100
AcDbLine
 10
17.9999164090168
 20
155.5054611580635
 30
0.0
 11
24.49991698585473
 21
151.7526840079381
 31
0.0
  0
LINE
  5
299D
330
D1
100
AcDbEntity
  8
0
  6
Continuous
100
AcDbLine
 10
-13.50365643157602
 20
108.5999042793564
 30
0.0
 11
13.50363726959585
 21
108.5999042793564
 31
0.0
  0
LINE
  5
299E
330
D1
100
AcDbEntity
  8
0
  6
Continuous
100
AcDbLine
 10
-13.50365643157602
 20
107.3999225899033
 30
0.0
 11
13.50363726959585
 21
107.3999225899033
 31
0.0
  0
LINE
  5
299F
330
D1
100
AcDbEntity
  8
0
  6
Continuous
100
AcDbLine
 10
-13.50365643157602
 20
107.3999225899033
 30
0.0
 11
-13.50365643157602
 21
108.5999042793564
 31
0.0
  0
LINE
  5
29A0
330
D1
100
AcDbEntity
  8
0
  6
Continuous
100
AcDbLine
 10
-10.90368084563852
 20
108.5999042793564
 30
0.0
 11
-10.90368084563852
 21
108.9998981758408
 31
0.0
  0
LINE
  5
29A1
330
D1
100
AcDbEntity
  8
0
  6
Continuous
100
AcDbLine
 10
13.50363726959585
 20
107.3999225899033
 30
0.0
 11
13.50363726959585
 21
108.5999042793564
 31
0.0
  0
LINE
  5
29A2
330
D1
100
AcDbEntity
  8
0
  6
Continuous
100
AcDbLine
 10
10.90366168365835
 20
108.5999042793564
 30
0.0
 11
10.90366168365835
 21
108.9998981758408
 31
0.0
  0
LINE
  5
29A3
330
D1
100
AcDbEntity
  8
0
  6
Continuous
100
AcDbLine
 10
-13.50365643157602
 20
187.3999225899024
 30
0.0
 11
13.50363726959585
 21
187.3999225899024
 31
0.0
  0
LINE
  5
29A4
330
D1
100
AcDbEntity
  8
0
  6
Continuous
100
AcDbLine
 10
-13.50365643157602
 20
188.5999042793555
 30
0.0
 11
13.50363726959585
 21
188.5999042793555
 31
0.0
  0
LINE
  5
29A5
330
D1
100
AcDbEntity
  8
0
  6
Continuous
100
AcDbLine
 10
-13.50365643157602
 20
188.5999042793555
 30
0.0
 11
-13.50365643157602
 21
187.3999225899024
 31
0.0
  0
LINE
  5
29A6
330
D1
100
AcDbEntity
  8
0
  6
Continuous
100
AcDbLine
 10
-11.40368084563852
 20
188.9998981758399
 30
0.0
 11
-11.40368084563852
 21
188.5999042793555
 31
0.0
  0
LINE
  5
29A7
330
D1
100
AcDbEntity
  8
0
  6
Continuous
100
AcDbLine
 10
-10.90368084563852
 20
187.3999225899024
 30
0.0
 11
-10.90368084563852
 21
186.9998981758399
 31
0.0
  0
LINE
  5
29A8
330
D1
100
AcDbEntity
  8
0
  6
Continuous
100
AcDbLine
 10
13.50363726959585
 20
188.5999042793555
 30
0.0
 11
13.50363726959585
 21
187.3999225899024
 31
0.0
  0
LINE
  5
29A9
330
D1
100
AcDbEntity
  8
0
  6
Continuous
100
AcDbLine
 10
10.90366168365835
 20
187.3999225899024
 30
0.0
 11
10.90366168365835
 21
186.9998981758399
 31
0.0
  0
LINE
  5
29AA
330
D1
100
AcDbEntity
  8
0
  6
Continuous
100
AcDbLine
 10
11.40366168365835
 20
188.9998981758399
 30
0.0
 11
11.40366168365835
 21
188.5999042793555
 31
0.0
  0
ARC
  5
29AB
330
D1
100
AcDbEntity
  8
0
  6
Continuous
100
AcDbCircle
 10
0.0000056777989812
 20
147.9998981758408
 30
0.0
 40
35.0
100
AcDbArc
 50
331.6423625473049
 51
28.35763574513892
  0
ARC
  5
29AC
330
D1
100
AcDbEntity
  8
0
  6
Continuous
100
AcDbCircle
 10
-28.8000126327479
 20
184.9998981758399
 30
0.0
 40
2.0
100
AcDbArc
 50
90.00000250446868
 51
180.0000050089374
  0
ARC
  5
29AD
330
D1
100
AcDbEntity
  8
0
  6
Continuous
100
AcDbCircle
 10
28.79999347076773
 20
184.9998981758399
 30
0.0
 40
2.0
100
AcDbArc
 50
359.9999998663894
 51
90.00000250446868
  0
ARC
  5
29AE
330
D1
100
AcDbEntity
  8
0
  6
Continuous
100
AcDbCircle
 10
28.79999347076773
 20
110.9998981758408
 30
0.0
 40
2.0
100
AcDbArc
 50
269.9999974955313
 51
359.9999998663894
  0
ARC
  5
29AF
330
D1
100
AcDbEntity
  8
0
  6
Continuous
100
AcDbCircle
 10
-28.8000126327479
 20
110.9998981758408
 30
0.0
 40
2.0
100
AcDbArc
 50
180.0000050089374
 51
270.0000006832169
  0
CIRCLE
  5
29B0
330
D1
100
AcDbEntity
  8
0
  6
Continuous
100
AcDbCircle
 10
-23.99999432220102
 20
178.9998981758399
 30
0.0
 40
6.0
  0
CIRCLE
  5
29B1
330
D1
100
AcDbEntity
  8
0
  6
Continuous
100
AcDbCircle
 10
-23.99999432220102
 20
178.9998981758399
 30
0.0
 40
5.0
  0
CIRCLE
  5
29B2
330
D1
100
AcDbEntity
  8
0
  6
Continuous
100
AcDbCircle
 10
24.00000567779898
 20
178.9998981758399
 30
0.0
 40
6.0
  0
CIRCLE
  5
29B3
330
D1
100
AcDbEntity
  8
0
  6
Continuous
100
AcDbCircle
 10
24.00000567779898
 20
178.9998981758399
 30
0.0
 40
5.0
  0
CIRCLE
  5
29B4
330
D1
100
AcDbEntity
  8
0
  6
Continuous
100
AcDbCircle
 10
24.00000567779898
 20
116.9998981758408
 30
0.0
 40
6.0
  0
CIRCLE
  5
29B5
330
D1
100
AcDbEntity
  8
0
  6
Continuous
100
AcDbCircle
 10
24.00000567779898
 20
116.9998981758408
 30
0.0
 40
5.0
  0
CIRCLE
  5
29B6
330
D1
100
AcDbEntity
  8
0
  6
Continuous
100
AcDbCircle
 10
-23.99999432220102
 20
116.9998981758408
 30
0.0
 40
6.0
  0
CIRCLE
  5
29B7
330
D1
100
AcDbEntity
  8
0
  6
Continuous
100
AcDbCircle
 10
-23.99999432220102
 20
116.9998981758408
 30
0.0
 40
5.0
  0
CIRCLE
  5
29B8
330
D1
100
AcDbEntity
  8
0
  6
Continuous
100
AcDbCircle
 10
18.00000567779898
 20
147.9998981758408
 30
0.0
 40
7.5
  0
CIRCLE
  5
29B9
330
D1
100
AcDbEntity
  8
0
  6
Continuous
100
AcDbCircle
 10
18.00000567779898
 20
147.9998981758408
 30
0.0
 40
6.5
  0
CIRCLE
  5
29BA
330
D1
100
AcDbEntity
  8
0
  6
Continuous
100
AcDbCircle
 10
-17.99999432220102
 20
147.9998981758408
 30
0.0
 40
4.863999843597412
  0
CIRCLE
  5
29BB
330
D1
100
AcDbEntity
  8
0
  6
Continuous
100
AcDbCircle
 10
-17.99999432220102
 20
147.9998981758408
 30
0.0
 40
4.282999992370605
  0
ARC
  5
29BC
330
D1
100
AcDbEntity
  8
0
  6
Continuous
100
AcDbCircle
 10
0.0000056777989812
 20
147.9998981758408
 30
0.0
 40
35.0
100
AcDbArc
 50
151.642357310995
 51
208.357639046492
  0
LINE
  5
29BD
330
D1
100
AcDbEntity
  8
0
  6
Continuous
100
AcDbLine
 10
-28.80001260889912
 20
108.9998981758408
 30
0.0
 11
-18.00001118451655
 21
108.9999075561973
 31
0.0
  0
LINE
  5
29BE
330
D1
100
AcDbEntity
  8
0
  6
Continuous
100
AcDbLine
 10
28.79999338334528
 20
108.9998981758408
 30
0.0
 11
17.99999387080333
 21
108.9998981758408
 31
0.0
  0
LINE
  5
29BF
330
D1
100
AcDbEntity
  8
0
  6
Continuous
100
AcDbLine
 10
22.200017316507
 20
-27.00000003758396
 30
0.0
 11
-0.9960099457157411
 21
-27.00000003758396
 31
0.0
  0
LINE
  5
29C0
330
D1
100
AcDbEntity
  8
0
  6
Continuous
100
AcDbLine
 10
22.200017316507
 20
39.99999996241604
 30
0.0
 11
39.20001931650768
 21
39.99999996241604
 31
0.0
  0
LINE
  5
29C1
330
D1
100
AcDbEntity
  8
0
  6
Continuous
100
AcDbLine
 10
22.200017316507
 20
-40.00000003758396
 30
0.0
 11
22.200017316507
 21
-15.00000003758396
 31
0.0
  0
LINE
  5
29C2
330
D1
100
AcDbEntity
  8
0
  6
Continuous
100
AcDbLine
 10
39.20001931650768
 20
-40.00000003758396
 30
0.0
 11
39.20001931650768
 21
-15.00000003758396
 31
0.0
  0
LINE
  5
29C3
330
D1
100
AcDbEntity
  8
0
  6
Continuous
100
AcDbLine
 10
33.55001031650772
 20
-40.00000003758396
 30
0.0
 11
39.20001931650768
 21
-40.00000003758396
 31
0.0
  0
LINE
  5
29C4
330
D1
100
AcDbEntity
  8
0
  6
Continuous
100
AcDbLine
 10
22.200017316507
 20
-40.00000003758396
 30
0.0
 11
27.85001131650825
 21
-40.00000003758396
 31
0.0
  0
LINE
  5
29C5
330
D1
100
AcDbEntity
  8
0
  6
Continuous
100
AcDbLine
 10
14.75000645487125
 20
104.5967711637695
 30
0.0
 11
14.75000645487125
 21
75.00001166065158
 31
0.0
  0
LINE
  5
29C6
330
D1
100
AcDbEntity
  8
0
  6
Continuous
100
AcDbLine
 10
-14.74999354512874
 20
104.5967711637695
 30
0.0
 11
-14.74999354512874
 21
74.99989752128477
 31
0.0
  0
LINE
  5
29C7
330
D1
100
AcDbEntity
  8
0
  6
Continuous
100
AcDbLine
 10
32.50000645487125
 20
108.9998975212847
 30
0.0
 11
32.50000645487125
 21
104.9998975212847
 31
0.0
  0
LINE
  5
29C8
330
D1
100
AcDbEntity
  8
0
  6
Continuous
100
AcDbLine
 10
-32.49999354512875
 20
108.9998975212847
 30
0.0
 11
-32.49999354512875
 21
104.9998975212847
 31
0.0
  0
LINE
  5
29C9
330
D1
100
AcDbEntity
  8
0
  6
Continuous
100
AcDbLine
 10
12.50000645487125
 20
100.9998975212847
 30
0.0
 11
12.50000652016751
 21
65.99989752128476
 31
0.0
  0
LINE
  5
29CA
330
D1
100
AcDbEntity
  8
0
  6
Continuous
100
AcDbLine
 10
-32.49999354512875
 20
104.9998975212847
 30
0.0
 11
32.50000645487125
 21
104.9998975212847
 31
0.0
  0
LINE
  5
29CB
330
D1
100
AcDbEntity
  8
0
  6
Continuous
100
AcDbLine
 10
39.20001931650768
 20
39.99999996241604
 30
0.0
 11
39.20001931650768
 21
14.99999996241604
 31
0.0
  0
LINE
  5
29CC
330
D1
100
AcDbEntity
  8
0
  6
Continuous
100
AcDbLine
 10
22.200017316507
 20
39.99999996241604
 30
0.0
 11
22.200017316507
 21
14.99999996241604
 31
0.0
  0
LINE
  5
29CD
330
D1
100
AcDbEntity
  8
0
  6
Continuous
100
AcDbLine
 10
26.450017316507
 20
-12.85759003758357
 30
0.0
 11
34.95001931650768
 21
-12.85759003758357
 31
0.0
  0
LINE
  5
29CE
330
D1
100
AcDbEntity
  8
0
  6
Continuous
100
AcDbLine
 10
34.95001931650768
 20
-15.00000003758396
 30
0.0
 11
34.95001931650768
 21
-4.000000037583959
 31
0.0
  0
LINE
  5
29CF
330
D1
100
AcDbEntity
  8
0
  6
Continuous
100
AcDbLine
 10
26.450017316507
 20
-15.00000003758396
 30
0.0
 11
26.450017316507
 21
-4.000000037583959
 31
0.0
  0
LINE
  5
29D0
330
D1
100
AcDbEntity
  8
0
  6
Continuous
100
AcDbLine
 10
38.21407331650699
 20
-28.99998503758434
 30
0.0
 11
38.20001931650768
 21
-28.99998503758434
 31
0.0
  0
LINE
  5
29D1
330
D1
100
AcDbEntity
  8
0
  6
Continuous
100
AcDbLine
 10
34.70001931650768
 20
-30.24720803758464
 30
0.0
 11
34.70001931650768
 21
-34.42819203758336
 31
0.0
  0
LINE
  5
29D2
330
D1
100
AcDbEntity
  8
0
  6
Continuous
100
AcDbLine
 10
26.700017316507
 20
-30.24720803758464
 30
0.0
 11
26.700017316507
 21
-34.42819203758336
 31
0.0
  0
LINE
  5
29D3
330
D1
100
AcDbEntity
  8
0
  6
Continuous
100
AcDbLine
 10
28.85001131650824
 20
-52.85759003758357
 30
0.0
 11
32.55001031650773
 21
-52.85759003758357
 31
0.0
  0
LINE
  5
29D4
330
D1
100
AcDbEntity
  8
0
  6
Continuous
100
AcDbLine
 10
33.55001031650772
 20
-32.05758703758329
 30
0.0
 11
33.55001031650772
 21
-51.85759003758358
 31
0.0
  0
LINE
  5
29D5
330
D1
100
AcDbEntity
  8
0
  6
Continuous
100
AcDbLine
 10
26.700017316507
 20
14.42819996241633
 30
0.0
 11
26.700017316507
 21
-12.85759003758357
 31
0.0
  0
LINE
  5
29D6
330
D1
100
AcDbEntity
  8
0
  6
Continuous
100
AcDbLine
 10
34.70001931650768
 20
14.42819996241633
 30
0.0
 11
34.70001931650768
 21
-12.85759003758357
 31
0.0
  0
LINE
  5
29D7
330
D1
100
AcDbEntity
  8
0
  6
Continuous
100
AcDbLine
 10
21.200017316507
 20
14.99999996241604
 30
0.0
 11
26.450017316507
 21
14.99999996241604
 31
0.0
  0
LINE
  5
29D8
330
D1
100
AcDbEntity
  8
0
  6
Continuous
100
AcDbLine
 10
21.200017316507
 20
3.99999996241604
 30
0.0
 11
26.450017316507
 21
3.99999996241604
 31
0.0
  0
LINE
  5
29D9
330
D1
100
AcDbEntity
  8
0
  6
Continuous
100
AcDbLine
 10
21.200017316507
 20
-4.000000037583959
 30
0.0
 11
26.450017316507
 21
-4.000000037583959
 31
0.0
  0
LINE
  5
29DA
330
D1
100
AcDbEntity
  8
0
  6
Continuous
100
AcDbLine
 10
21.200017316507
 20
-15.00000003758396
 30
0.0
 11
26.450017316507
 21
-15.00000003758396
 31
0.0
  0
LINE
  5
29DB
330
D1
100
AcDbEntity
  8
0
  6
Continuous
100
AcDbLine
 10
26.450017316507
 20
14.99999996241604
 30
0.0
 11
26.450017316507
 21
3.99999996241604
 31
0.0
  0
LINE
  5
29DC
330
D1
100
AcDbEntity
  8
0
  6
Continuous
100
AcDbLine
 10
21.200017316507
 20
14.99999996241604
 30
0.0
 11
21.200017316507
 21
3.99999996241604
 31
0.0
  0
LINE
  5
29DD
330
D1
100
AcDbEntity
  8
0
  6
Continuous
100
AcDbLine
 10
40.20001931650767
 20
14.99999996241604
 30
0.0
 11
40.20001931650767
 21
3.99999996241604
 31
0.0
  0
LINE
  5
29DE
330
D1
100
AcDbEntity
  8
0
  6
Continuous
100
AcDbLine
 10
21.200017316507
 20
-4.000000037583959
 30
0.0
 11
21.200017316507
 21
-15.00000003758396
 31
0.0
  0
LINE
  5
29DF
330
D1
100
AcDbEntity
  8
0
  6
Continuous
100
AcDbLine
 10
34.95001931650768
 20
3.99999996241604
 30
0.0
 11
40.20001931650767
 21
3.99999996241604
 31
0.0
  0
LINE
  5
29E0
330
D1
100
AcDbEntity
  8
0
  6
Continuous
100
AcDbLine
 10
34.95001931650768
 20
14.99999996241604
 30
0.0
 11
34.95001931650768
 21
3.99999996241604
 31
0.0
  0
LINE
  5
29E1
330
D1
100
AcDbEntity
  8
0
  6
Continuous
100
AcDbLine
 10
34.95001931650768
 20
14.99999996241604
 30
0.0
 11
40.20001931650767
 21
14.99999996241604
 31
0.0
  0
LINE
  5
29E2
330
D1
100
AcDbEntity
  8
0
  6
Continuous
100
AcDbLine
 10
40.20001931650767
 20
-15.00000003758396
 30
0.0
 11
34.95001931650768
 21
-15.00000003758396
 31
0.0
  0
LINE
  5
29E3
330
D1
100
AcDbEntity
  8
0
  6
Continuous
100
AcDbLine
 10
40.20001931650767
 20
-4.000000037583959
 30
0.0
 11
40.20001931650767
 21
-15.00000003758396
 31
0.0
  0
LINE
  5
29E4
330
D1
100
AcDbEntity
  8
0
  6
Continuous
100
AcDbLine
 10
24.950017316507
 20
-30.05758703758329
 30
0.0
 11
36.45001931650768
 21
-30.05758703758329
 31
0.0
  0
LINE
  5
29E5
330
D1
100
AcDbEntity
  8
0
  6
Continuous
100
AcDbLine
 10
22.950017316507
 20
-18.77894603758432
 30
0.0
 11
22.950017316507
 21
-28.05758703758329
 31
0.0
  0
LINE
  5
29E6
330
D1
100
AcDbEntity
  8
0
  6
Continuous
100
AcDbLine
 10
38.45001931650768
 20
-18.77894603758432
 30
0.0
 11
38.45001931650768
 21
-28.05758703758329
 31
0.0
  0
LINE
  5
29E7
330
D1
100
AcDbEntity
  8
0
  6
Continuous
100
AcDbLine
 10
40.20001931650767
 20
-4.000000037583959
 30
0.0
 11
34.95001931650768
 21
-4.000000037583959
 31
0.0
  0
LINE
  5
29E8
330
D1
100
AcDbEntity
  8
0
  6
Continuous
100
AcDbLine
 10
27.85001131650825
 20
-32.05758703758329
 30
0.0
 11
27.85001131650825
 21
-51.85759003758358
 31
0.0
  0
LINE
  5
29E9
330
D1
100
AcDbEntity
  8
0
  6
Continuous
100
AcDbLine
 10
59.75000569541407
 20
24.723636962417
 30
0.0
 11
59.75000569541407
 21
-24.19482403758411
 31
0.0
  0
LINE
  5
29EA
330
D1
100
AcDbEntity
  8
0
  6
Continuous
100
AcDbLine
 10
62.59998169541359
 20
25.24999996241604
 30
0.0
 11
60.31015569541432
 21
25.24999996241604
 31
0.0
  0
LINE
  5
29EB
330
D1
100
AcDbEntity
  8
0
  6
Continuous
100
AcDbLine
 10
62.59998169541359
 20
25.24999996241604
 30
0.0
 11
62.59998169541359
 21
-25.25000003758396
 31
0.0
  0
LINE
  5
29EC
330
D1
100
AcDbEntity
  8
0
  6
Continuous
100
AcDbLine
 10
53.78174369541375
 20
12.69999696241666
 30
0.0
 11
40.20001931650767
 21
12.69999696241666
 31
0.0
  0
LINE
  5
29ED
330
D1
100
AcDbEntity
  8
0
  6
Continuous
100
AcDbLine
 10
53.78174369541375
 20
-12.69999703758367
 30
0.0
 11
40.20001931650767
 21
-12.69999703758367
 31
0.0
  0
LINE
  5
29EE
330
D1
100
AcDbEntity
  8
0
  6
Continuous
100
AcDbLine
 10
59.55842369541461
 20
-24.72361003758306
 30
0.0
 11
55.66115369541421
 21
-14.0159550375829
 31
0.0
  0
LINE
  5
29EF
330
D1
100
AcDbEntity
  8
0
  6
Continuous
100
AcDbLine
 10
62.59998169541359
 20
-25.25000003758396
 30
0.0
 11
60.31015569541432
 21
-25.25000003758396
 31
0.0
  0
LINE
  5
29F0
330
D1
100
AcDbEntity
  8
0
  6
Continuous
100
AcDbLine
 10
59.55840469541363
 20
24.723636962417
 30
0.0
 11
55.66113469541415
 21
14.0159779624164
 31
0.0
  0
LINE
  5
29F1
330
D1
100
AcDbEntity
  8
0
  6
Continuous
100
AcDbLine
 10
55.18216469541403
 20
-12.69999703758367
 30
0.0
 11
55.18216469541403
 21
12.69999696241666
 31
0.0
  0
LINE
  5
29F2
330
D1
100
AcDbEntity
  8
0
  6
Continuous
100
AcDbLine
 10
-12.49999354512874
 20
100.9998975212847
 30
0.0
 11
-12.49999354513056
 21
65.99989752128386
 31
0.0
  0
LINE
  5
29F3
330
D1
100
AcDbEntity
  8
0
  6
Continuous
100
AcDbLine
 10
32.50000645487125
 20
108.9998975212847
 30
0.0
 11
-32.49999354512875
 21
108.9998975212847
 31
0.0
  0
LINE
  5
29F4
330
D1
100
AcDbEntity
  8
0
  6
Continuous
100
AcDbLine
 10
15.79999445487192
 20
110.9998975212847
 30
0.0
 11
-15.79998154512941
 21
110.9998975212847
 31
0.0
  0
ARC
  5
29F5
330
D1
100
AcDbEntity
  8
0
  6
Continuous
100
AcDbCircle
 10
16.50000645487125
 20
100.9998975212847
 30
0.0
 40
4.0
100
AcDbArc
 50
90.0
 51
180.0
  0
ARC
  5
29F6
330
D1
100
AcDbEntity
  8
0
  6
Continuous
100
AcDbCircle
 10
-16.49999354512874
 20
100.9998975212847
 30
0.0
 40
4.0
100
AcDbArc
 50
0.0
 51
90.0
  0
ARC
  5
29F7
330
D1
100
AcDbEntity
  8
0
  6
Continuous
100
AcDbCircle
 10
30.700017316507
 20
-18.77894603758432
 30
0.0
 40
7.75
100
AcDbArc
 50
0.000014101022258
 51
29.18334700001351
  0
ARC
  5
29F8
330
D1
100
AcDbEntity
  8
0
  6
Continuous
100
AcDbCircle
 10
30.700017316507
 20
-27.50000003758396
 30
0.0
 40
8.0
100
AcDbArc
 50
239.9999999999922
 51
249.1299299999635
  0
ARC
  5
29F9
330
D1
100
AcDbEntity
  8
0
  6
Continuous
100
AcDbCircle
 10
32.55001031650773
 20
-51.85759003758358
 30
0.0
 40
1.0
100
AcDbArc
 50
270.0
 51
0.0
  0
ARC
  5
29FA
330
D1
100
AcDbEntity
  8
0
  6
Continuous
100
AcDbCircle
 10
28.85001131650824
 20
-51.85759003758358
 30
0.0
 40
1.0
100
AcDbArc
 50
180.0
 51
270.0
  0
ARC
  5
29FB
330
D1
100
AcDbEntity
  8
0
  6
Continuous
100
AcDbCircle
 10
35.55001031650772
 20
-32.05758703758329
 30
0.0
 40
2.0
100
AcDbArc
 50
90.0
 51
180.0
  0
ARC
  5
29FC
330
D1
100
AcDbEntity
  8
0
  6
Continuous
100
AcDbCircle
 10
25.85001131650825
 20
-32.05758703758329
 30
0.0
 40
2.0
100
AcDbArc
 50
0.0
 51
90.0
  0
ARC
  5
29FD
330
D1
100
AcDbEntity
  8
0
  6
Continuous
100
AcDbCircle
 10
30.700017316507
 20
-18.77894603758432
 30
0.0
 40
7.75
100
AcDbArc
 50
150.8166500000261
 51
179.999989999999
  0
ARC
  5
29FE
330
D1
100
AcDbEntity
  8
0
  6
Continuous
100
AcDbCircle
 10
36.45001931650768
 20
-28.05758703758329
 30
0.0
 40
2.0
100
AcDbArc
 50
270.0
 51
0.0
  0
ARC
  5
29FF
330
D1
100
AcDbEntity
  8
0
  6
Continuous
100
AcDbCircle
 10
24.950017316507
 20
-28.05758703758329
 30
0.0
 40
2.0
100
AcDbArc
 50
180.0
 51
270.0
  0
ARC
  5
2A00
330
D1
100
AcDbEntity
  8
0
  6
Continuous
100
AcDbCircle
 10
30.700017316507
 20
7.49999996241604
 30
0.0
 40
8.0
100
AcDbArc
 50
59.99998599996562
 51
120.0000000000078
  0
ARC
  5
2A01
330
D1
100
AcDbEntity
  8
0
  6
Continuous
100
AcDbCircle
 10
30.700017316507
 20
-27.50000003758396
 30
0.0
 40
8.0
100
AcDbArc
 50
290.8700800000019
 51
300.0000099999935
  0
ARC
  5
2A02
330
D1
100
AcDbEntity
  8
0
  6
Continuous
100
AcDbCircle
 10
53.78174369541375
 20
14.69999696241666
 30
0.0
 40
2.0
100
AcDbArc
 50
270.0
 51
340.0000199999614
  0
ARC
  5
2A03
330
D1
100
AcDbEntity
  8
0
  6
Continuous
100
AcDbCircle
 10
53.78174369541375
 20
-14.69999703758367
 30
0.0
 40
2.0
100
AcDbArc
 50
19.99997800001705
 51
90.0
  0
ARC
  5
2A04
330
D1
100
AcDbEntity
  8
0
  6
Continuous
100
AcDbCircle
 10
60.31015569541432
 20
24.44999696241666
 30
0.0
 40
0.8000000099999999
100
AcDbArc
 50
90.0
 51
159.9999699999938
  0
ARC
  5
2A05
330
D1
100
AcDbEntity
  8
0
  6
Continuous
100
AcDbCircle
 10
60.31015569541432
 20
-24.44999703758367
 30
0.0
 40
0.8000000099999999
100
AcDbArc
 50
200.0000300000062
 51
270.0
  0
LINE
  5
2A06
330
D1
100
AcDbEntity
  8
0
  6
Continuous
100
AcDbLine
 10
-27.99999389052391
 20
-49.00000005331094
 30
0.0
 11
-27.99999389052391
 21
48.49999994668905
 31
0.0
  0
LINE
  5
2A07
330
D1
100
AcDbEntity
  8
0
  6
Continuous
100
AcDbLine
 10
-27.99999389052391
 20
48.49999994668905
 30
0.0
 11
-27.00000126757641
 21
48.5000127548501
 31
0.0
  0
LINE
  5
2A08
330
D1
100
AcDbEntity
  8
0
  6
Continuous
100
AcDbLine
 10
-27.00000126757641
 20
48.5000127548501
 30
0.0
 11
-27.00000126757641
 21
52.00001222809987
 31
0.0
  0
LINE
  5
2A09
330
D1
100
AcDbEntity
  8
0
  6
Continuous
100
AcDbLine
 10
-27.00000126757641
 20
52.00001222809987
 30
0.0
 11
-26.50000126757641
 21
52.49990960443028
 31
0.0
  0
LINE
  5
2A0A
330
D1
100
AcDbEntity
  8
0
  6
Continuous
100
AcDbLine
 10
-26.50000126757641
 20
52.49990960443028
 30
0.0
 11
-26.00002997039428
 21
52.4999273962112
 31
0.0
  0
LINE
  5
2A0B
330
D1
100
AcDbEntity
  8
0
  6
Continuous
100
AcDbLine
 10
-26.00002997039428
 20
52.4999273962112
 30
0.0
 11
-26.00002997039428
 21
58.14712728073482
 31
0.0
  0
LINE
  5
2A0C
330
D1
100
AcDbEntity
  8
0
  6
Continuous
100
AcDbLine
 10
-26.00002997039428
 20
58.14712728073482
 30
0.0
 11
-25.3889622564393
 21
58.49992739621121
 31
0.0
  0
LINE
  5
2A0D
330
D1
100
AcDbEntity
  8
0
  6
Continuous
100
AcDbLine
 10
-25.3889622564393
 20
58.49992739621121
 30
0.0
 11
-16.61109985555413
 21
58.49992739621121
 31
0.0
  0
LINE
  5
2A0E
330
D1
100
AcDbEntity
  8
0
  6
Continuous
100
AcDbLine
 10
-16.61109988750741
 20
58.49992741465939
 30
0.0
 11
-16.00003217355424
 21
58.14712729918301
 31
0.0
  0
LINE
  5
2A0F
330
D1
100
AcDbEntity
  8
0
  6
Continuous
100
AcDbLine
 10
-16.00003214160097
 20
58.14712728073482
 30
0.0
 11
-16.00002997039428
 21
52.4999273962112
 31
0.0
  0
LINE
  5
2A10
330
D1
100
AcDbEntity
  8
0
  6
Continuous
100
AcDbLine
 10
-16.00002997039428
 20
52.4999273962112
 30
0.0
 11
-26.00002997039428
 21
52.49991122178016
 31
0.0
  0
LINE
  5
2A11
330
D1
100
AcDbEntity
  8
0
  6
Continuous
100
AcDbLine
 10
-26.00002997039428
 20
58.14712728073482
 30
0.0
 11
-16.00002997039428
 21
58.14712728073482
 31
0.0
  0
LINE
  5
2A12
330
D1
100
AcDbEntity
  8
0
  6
Continuous
100
AcDbLine
 10
-31.00000065715358
 20
53.9999983107682
 30
0.0
 11
-53.00000876526883
 21
53.9999999624215
 31
0.0
  0
LINE
  5
2A13
330
D1
100
AcDbEntity
  8
0
  6
Continuous
100
AcDbLine
 10
-53.00000876526883
 20
53.9999999624215
 30
0.0
 11
-53.00000876526883
 21
-54.00000003758214
 31
0.0
  0
LINE
  5
2A14
330
D1
100
AcDbEntity
  8
0
  6
Continuous
100
AcDbLine
 10
-31.00000876526883
 20
-54.00000003758941
 30
0.0
 11
-31.00000065715267
 21
53.99999996241968
 31
0.0
  0
LINE
  5
2A15
330
D1
100
AcDbEntity
  8
0
  6
Continuous
100
AcDbLine
 10
22.200017316507
 20
26.99999998427302
 30
0.0
 11
15.99999998907151
 21
26.99999998427302
 31
0.0
  0
LINE
  5
2A16
330
D1
100
AcDbEntity
  8
0
  6
Continuous
100
AcDbLine
 10
12.99999998907151
 20
58.99989752128476
 30
0.0
 11
12.99999998907151
 21
29.99999998427302
 31
0.0
  0
ARC
  5
2A17
330
D1
100
AcDbEntity
  8
0
  6
Continuous
100
AcDbCircle
 10
15.99999998907151
 20
29.99999998427302
 30
0.0
 40
3.0
100
AcDbArc
 50
180.0
 51
270.0
  0
LINE
  5
2A18
330
D1
100
AcDbEntity
  8
0
  6
Continuous
100
AcDbLine
 10
12.49998680918634
 20
71.00001103056911
 30
0.0
 11
41.50004784434258
 21
71.00001109819459
 31
0.0
  0
LINE
  5
2A19
330
D1
100
AcDbEntity
  8
0
  6
Continuous
100
AcDbLine
 10
12.49998680452245
 20
73.0000110305682
 30
0.0
 11
41.5000478396787
 21
73.0000110981955
 31
0.0
  0
LINE
  5
2A1A
330
D1
100
AcDbEntity
  8
0
  6
Continuous
100
AcDbLine
 10
41.50004783967415
 20
73.00001109819096
 30
0.0
 11
41.50004784433804
 21
71.00001109819095
 31
0.0
  0
LINE
  5
2A1B
330
D1
100
AcDbEntity
  8
0
  6
Continuous
100
AcDbLine
 10
12.49998680918634
 20
71.00001103056911
 30
0.0
 11
12.49998680452245
 21
73.0000110305682
 31
0.0
  0
LINE
  5
2A1C
330
D1
100
AcDbEntity
  8
0
  6
Continuous
100
AcDbLine
 10
-18.49972494031044
 20
52.49993548441671
 30
0.0
 11
-26.5000023531793
 21
52.49990960443028
 31
0.0
  0
LINE
  5
2A1D
330
D1
100
AcDbEntity
  8
0
  6
Continuous
100
AcDbLine
 10
12.5000065201657
 20
73.00001159419025
 30
0.0
 11
12.50000651550181
 21
71.00001159419026
 31
0.0
  0
LINE
  5
2A1E
330
D1
100
AcDbEntity
  8
0
  6
Continuous
100
AcDbLine
 10
12.49997600259485
 20
73.00001159418662
 30
0.0
 11
12.49997599793096
 21
71.00001159418662
 31
0.0
  0
LINE
  5
2A1F
330
D1
100
AcDbEntity
  8
0
  6
Continuous
100
AcDbLine
 10
14.99997342341794
 20
73.00001214965778
 30
0.0
 11
12.49997600259485
 21
73.00001215548764
 31
0.0
  0
LINE
  5
2A20
330
D1
100
AcDbEntity
  8
0
  6
Continuous
100
AcDbLine
 10
15.49997599792914
 20
71.00001158719078
 30
0.0
 11
12.50000651550181
 21
71.00001159418662
 31
0.0
  0
LINE
  5
2A21
330
D1
100
AcDbEntity
  8
0
  6
Continuous
100
AcDbLine
 10
12.99999998907151
 20
52.4999273962112
 30
0.0
 11
-26.00003105599717
 21
52.4999273962112
 31
0.0
  0
LINE
  5
2A22
330
D1
100
AcDbEntity
  8
0
  6
Continuous
100
AcDbLine
 10
-26.00003105599717
 20
53.44312829342744
 30
0.0
 11
-16.00003105599717
 21
53.44312829342744
 31
0.0
  0
LINE
  5
2A23
330
D1
100
AcDbEntity
  8
0
  6
Continuous
100
AcDbLine
 10
20.00000645487125
 20
69.99989752128477
 30
0.0
 11
20.00000645487125
 21
59.99989752128477
 31
0.0
  0
LINE
  5
2A24
330
D1
100
AcDbEntity
  8
0
  6
Continuous
100
AcDbLine
 10
-19.99999354512874
 20
69.99989752128477
 30
0.0
 11
-19.99999354512874
 21
59.99989752128477
 31
0.0
  0
LINE
  5
2A25
330
D1
100
AcDbEntity
  8
0
  6
Continuous
100
AcDbLine
 10
19.00000645487125
 20
70.99989752128476
 30
0.0
 11
20.00000645487125
 21
69.99989752128477
 31
0.0
  0
LINE
  5
2A26
330
D1
100
AcDbEntity
  8
0
  6
Continuous
100
AcDbLine
 10
-18.99999354512874
 20
70.99989752128476
 30
0.0
 11
-19.99999354512874
 21
69.99989752128477
 31
0.0
  0
LINE
  5
2A27
330
D1
100
AcDbEntity
  8
0
  6
Continuous
100
AcDbLine
 10
3.345305954870127
 20
69.69989852128492
 30
0.0
 11
5.654706754870858
 21
69.69989852128492
 31
0.0
  0
LINE
  5
2A28
330
D1
100
AcDbEntity
  8
0
  6
Continuous
100
AcDbLine
 10
5.654708154870604
 20
69.69989452128539
 30
0.0
 11
6.809407454870779
 21
67.69989852128492
 31
0.0
  0
LINE
  5
2A29
330
D1
100
AcDbEntity
  8
0
  6
Continuous
100
AcDbLine
 10
3.345304054870211
 20
69.69989452128539
 30
0.0
 11
2.190604654870185
 21
67.69989852128492
 31
0.0
  0
LINE
  5
2A2A
330
D1
100
AcDbEntity
  8
0
  6
Continuous
100
AcDbLine
 10
9.500006454871254
 20
67.69989852128492
 30
0.0
 11
9.500006454871254
 21
65.99989752128476
 31
0.0
  0
LINE
  5
2A2B
330
D1
100
AcDbEntity
  8
0
  6
Continuous
100
AcDbLine
 10
-0.4999935451287456
 20
67.69989852128492
 30
0.0
 11
-0.4999935451287456
 21
65.99989752128476
 31
0.0
  0
LINE
  5
2A2C
330
D1
100
AcDbEntity
  8
0
  6
Continuous
100
AcDbLine
 10
2.190606354870396
 20
67.69989452128538
 30
0.0
 11
3.345305654871481
 21
65.69989852128492
 31
0.0
  0
LINE
  5
2A2D
330
D1
100
AcDbEntity
  8
0
  6
Continuous
100
AcDbLine
 10
6.809406554870292
 20
67.69989452128538
 30
0.0
 11
5.654707254871027
 21
65.69989852128492
 31
0.0
  0
LINE
  5
2A2E
330
D1
100
AcDbEntity
  8
0
  6
Continuous
100
AcDbLine
 10
5.654706754870858
 20
65.69989852128492
 30
0.0
 11
3.345305954870127
 21
65.69989852128492
 31
0.0
  0
LINE
  5
2A2F
330
D1
100
AcDbEntity
  8
0
  6
Continuous
100
AcDbLine
 10
-18.99999354512874
 20
58.99989752128476
 30
0.0
 11
19.00000645487125
 21
58.99989752128476
 31
0.0
  0
CIRCLE
  5
2A30
330
D1
100
AcDbEntity
  8
0
  6
Continuous
100
AcDbCircle
 10
4.500006454871254
 20
67.69989852128492
 30
0.0
 40
4.25
  0
CIRCLE
  5
2A31
330
D1
100
AcDbEntity
  8
0
  6
Continuous
100
AcDbCircle
 10
4.500006454871254
 20
67.69989852128492
 30
0.0
 40
3.730384799999999
  0
ARC
  5
2A32
330
D1
100
AcDbEntity
  8
0
  6
Continuous
100
AcDbCircle
 10
4.500006454871254
 20
67.69989852128492
 30
0.0
 40
5.0
100
AcDbArc
 50
0.0
 51
180.0
  0
LINE
  5
2A33
330
D1
100
AcDbEntity
  8
0
  6
Continuous
100
AcDbLine
 10
19.00000845487102
 20
58.99989752128476
 30
0.0
 11
20.00000645487125
 21
59.99989752128477
 31
0.0
  0
LINE
  5
2A34
330
D1
100
AcDbEntity
  8
0
  6
Continuous
100
AcDbLine
 10
-19.99999354512874
 20
59.99989752128477
 30
0.0
 11
-18.99999554512942
 21
58.99989752128476
 31
0.0
  0
LINE
  5
2A35
330
D1
100
AcDbEntity
  8
0
  6
Continuous
100
AcDbLine
 10
-12.49999354512874
 20
70.99989752128476
 30
0.0
 11
-18.99999354512874
 21
70.99989752128476
 31
0.0
  0
LINE
  5
2A36
330
D1
100
AcDbEntity
  8
0
  6
Continuous
100
AcDbLine
 10
-12.49999354512874
 20
74.99989752128477
 30
0.0
 11
-14.99999354512874
 21
74.99989752128477
 31
0.0
  0
LINE
  5
2A37
330
D1
100
AcDbEntity
  8
0
  6
Continuous
100
AcDbLine
 10
-14.99999354512874
 20
74.99989752128477
 30
0.0
 11
-14.99999354512874
 21
72.99989752128476
 31
0.0
  0
LINE
  5
2A38
330
D1
100
AcDbEntity
  8
0
  6
Continuous
100
AcDbLine
 10
-17.49999354512874
 20
72.99989752128476
 30
0.0
 11
-12.49999354512874
 21
72.99989752128476
 31
0.0
  0
LINE
  5
2A39
330
D1
100
AcDbEntity
  8
0
  6
Continuous
100
AcDbLine
 10
-17.49999354512874
 20
72.99989752128476
 30
0.0
 11
-17.49999354512874
 21
70.99989752128476
 31
0.0
  0
LINE
  5
2A3A
330
D1
100
AcDbEntity
  8
0
  6
Continuous
100
AcDbLine
 10
15.0000452605127
 20
75.00001166065158
 30
0.0
 11
12.5000452605127
 21
75.00001166065158
 31
0.0
  0
LINE
  5
2A3B
330
D1
100
AcDbEntity
  8
0
  6
Continuous
100
AcDbLine
 10
15.0000452605127
 20
75.00001166065158
 30
0.0
 11
15.0000452605127
 21
73.00001166065158
 31
0.0
  0
LINE
  5
2A3C
330
D1
100
AcDbEntity
  8
0
  6
Continuous
100
AcDbLine
 10
-6.856003890523425
 20
-40.66872673746821
 30
0.0
 11
-13.99999389052391
 21
-40.66872673746821
 31
0.0
  0
LINE
  5
2A3D
330
D1
100
AcDbEntity
  8
0
  6
Continuous
100
AcDbLine
 10
-6.856003890523425
 20
-35.18389673746879
 30
0.0
 11
-13.99999389052391
 21
-35.18389673746879
 31
0.0
  0
LINE
  5
2A3E
330
D1
100
AcDbEntity
  8
0
  6
Continuous
100
AcDbLine
 10
-6.856003890523425
 20
-24.21425673746853
 30
0.0
 11
-13.99999389052391
 21
-24.21425673746853
 31
0.0
  0
LINE
  5
2A3F
330
D1
100
AcDbEntity
  8
0
  6
Continuous
100
AcDbLine
 10
-6.856003890523425
 20
-18.7294267374682
 30
0.0
 11
-13.99999389052391
 21
-18.7294267374682
 31
0.0
  0
ARC
  5
2A40
330
D1
100
AcDbEntity
  8
0
  6
Continuous
100
AcDbCircle
 10
-23.99999389052391
 20
-29.69909673746861
 30
0.0
 40
18.0
100
AcDbArc
 50
342.259119999999
 51
17.74086999999848
  0
ARC
  5
2A41
330
D1
100
AcDbEntity
  8
0
  6
Continuous
100
AcDbCircle
 10
-10.82103389052281
 20
-37.92632673746903
 30
0.0
 40
4.821000599999999
100
AcDbArc
 50
325.3301199999893
 51
34.66988999997634
  0
ARC
  5
2A42
330
D1
100
AcDbEntity
  8
0
  6
Continuous
100
AcDbCircle
 10
-10.82103389052281
 20
-21.47182673746829
 30
0.0
 40
4.821000599999999
100
AcDbArc
 50
325.3301199999893
 51
34.66988999997634
  0
LINE
  5
2A43
330
D1
100
AcDbEntity
  8
0
  6
Continuous
100
AcDbLine
 10
258.6999514607214
 20
-30.05760056509098
 30
0.0
 11
258.6999514607214
 21
-34.42819077505192
 31
0.0
  0
LINE
  5
2A44
330
D1
100
AcDbEntity
  8
0
  6
Continuous
100
AcDbLine
 10
259.5000002888464
 20
-30.32559067739567
 30
0.0
 11
259.5000002888464
 21
-34.42819077505192
 31
0.0
  0
LINE
  5
2A45
330
D1
100
AcDbEntity
  8
0
  6
Continuous
100
AcDbLine
 10
333.4899534694596
 20
-2.110384646193779
 30
0.0
 11
337.7111542972425
 21
-3.2414849087736
 31
0.0
  0
LINE
  5
2A46
330
D1
100
AcDbEntity
  8
0
  6
Continuous
100
AcDbLine
 10
333.4899708970879
 20
2.110412486635141
 30
0.0
 11
337.7140798128694
 21
3.242214881707695
 31
0.0
  0
LINE
  5
2A47
330
D1
100
AcDbEntity
  8
0
  6
Continuous
100
AcDbLine
 10
259.5000002888464
 20
-34.42819077505192
 30
0.0
 11
251.5000002888464
 21
-34.42819077505192
 31
0.0
  0
LINE
  5
2A48
330
D1
100
AcDbEntity
  8
0
  6
Continuous
100
AcDbLine
 10
251.5000002888464
 20
3.843110494479333
 30
0.0
 11
251.5000002888464
 21
-3.999998636380041
 31
0.0
  0
LINE
  5
2A49
330
D1
100
AcDbEntity
  8
0
  6
Continuous
100
AcDbLine
 10
259.5000002888464
 20
3.843110494479333
 30
0.0
 11
259.5000002888464
 21
-3.999998636380041
 31
0.0
  0
LINE
  5
2A4A
330
D1
100
AcDbEntity
  8
0
  6
Continuous
100
AcDbLine
 10
249.5000002888464
 20
15.00001662240902
 30
0.0
 11
260.9486697224402
 21
15.00001662240902
 31
0.0
  0
LINE
  5
2A4B
330
D1
100
AcDbEntity
  8
0
  6
Continuous
100
AcDbLine
 10
248.5000002888464
 20
-4.999998636380041
 30
0.0
 11
248.5000002888464
 21
-13.99999863638004
 31
0.0
  0
LINE
  5
2A4C
330
D1
100
AcDbEntity
  8
0
  6
Continuous
100
AcDbLine
 10
248.5000002888464
 20
14.00001662240902
 30
0.0
 11
248.5000002888464
 21
5.000001363619958
 31
0.0
  0
LINE
  5
2A4D
330
D1
100
AcDbEntity
  8
0
  6
Continuous
100
AcDbLine
 10
249.5000002888464
 20
-14.99999863638004
 30
0.0
 11
260.9486697224402
 21
-14.99999863638004
 31
0.0
  0
LINE
  5
2A4E
330
D1
100
AcDbEntity
  8
0
  6
Continuous
100
AcDbLine
 10
249.5000002888464
 20
-3.999998636380041
 30
0.0
 11
268.7749026325964
 21
-3.999998636380041
 31
0.0
  0
LINE
  5
2A4F
330
D1
100
AcDbEntity
  8
0
  6
Continuous
100
AcDbLine
 10
260.5000002888464
 20
-32.05760056509098
 30
0.0
 11
260.5000002888464
 21
-43.85749680532535
 31
0.0
  0
LINE
  5
2A50
330
D1
100
AcDbEntity
  8
0
  6
Continuous
100
AcDbLine
 10
249.5000002888464
 20
4.000001363619958
 30
0.0
 11
268.7749026325964
 21
4.000001363619958
 31
0.0
  0
LINE
  5
2A51
330
D1
100
AcDbEntity
  8
0
  6
Continuous
100
AcDbLine
 10
263.2500002888464
 20
-18.75759751333317
 30
0.0
 11
263.2500002888464
 21
-22.88769394888004
 31
0.0
  0
LINE
  5
2A52
330
D1
100
AcDbEntity
  8
0
  6
Continuous
100
AcDbLine
 10
247.7500002888464
 20
-18.75759751333317
 30
0.0
 11
247.7500002888464
 21
-22.88769394888004
 31
0.0
  0
LINE
  5
2A53
330
D1
100
AcDbEntity
  8
0
  6
Continuous
100
AcDbLine
 10
250.5000002888464
 20
-32.05760056509098
 30
0.0
 11
250.5000002888464
 21
-43.85749680532535
 31
0.0
  0
LINE
  5
2A54
330
D1
100
AcDbEntity
  8
0
  6
Continuous
100
AcDbLine
 10
251.5000002888464
 20
-30.32559067739567
 30
0.0
 11
251.5000002888464
 21
-34.42819077505192
 31
0.0
  0
LINE
  5
2A55
330
D1
100
AcDbEntity
  8
0
  6
Continuous
100
AcDbLine
 10
258.5000002888464
 20
-30.05760056509098
 30
0.0
 11
252.5000002888464
 21
-30.05760056509098
 31
0.0
  0
LINE
  5
2A56
330
D1
100
AcDbEntity
  8
0
  6
Continuous
100
AcDbLine
 10
239.5000002888464
 20
-48.85749680532535
 30
0.0
 11
239.5000002888464
 21
-50.85749680532535
 31
0.0
  0
LINE
  5
2A57
330
D1
100
AcDbEntity
  8
0
  6
Continuous
100
AcDbLine
 10
271.5000002888464
 20
-48.85749680532535
 30
0.0
 11
271.5000002888464
 21
-50.85749680532535
 31
0.0
  0
LINE
  5
2A58
330
D1
100
AcDbEntity
  8
0
  6
Continuous
100
AcDbLine
 10
269.5000002888464
 20
-52.85749680532536
 30
0.0
 11
241.5000002888464
 21
-52.85749680532536
 31
0.0
  0
LINE
  5
2A59
330
D1
100
AcDbEntity
  8
0
  6
Continuous
100
AcDbLine
 10
252.2999880818152
 20
-30.06759507192692
 30
0.0
 11
252.2999880818152
 21
-34.42819077505192
 31
0.0
  0
ARC
  5
2A5A
330
D1
100
AcDbEntity
  8
0
  6
Continuous
100
AcDbCircle
 10
269.5000002888464
 20
-50.85749680532535
 30
0.0
 40
2.0
100
AcDbArc
 50
269.999999316731
 51
359.9999949910105
  0
ARC
  5
2A5B
330
D1
100
AcDbEntity
  8
0
  6
Continuous
100
AcDbCircle
 10
300.0000002888464
 20
0.0000013636199583
 30
0.0
 40
32.0
100
AcDbArc
 50
172.8192462481554
 51
187.1807503367492
  0
ARC
  5
2A5C
330
D1
100
AcDbEntity
  8
0
  6
Continuous
100
AcDbCircle
 10
262.5000002888464
 20
3.843110494479333
 30
0.0
 40
3.0
100
AcDbArc
 50
177.0027746809102
 51
180.0
  0
ARC
  5
2A5D
330
D1
100
AcDbEntity
  8
0
  6
Continuous
100
AcDbCircle
 10
252.5000002888464
 20
-32.05760056509098
 30
0.0
 40
2.0
100
AcDbArc
 50
89.99999749558341
 51
180.0
  0
ARC
  5
2A5E
330
D1
100
AcDbEntity
  8
0
  6
Continuous
100
AcDbCircle
 10
258.5000002888464
 20
-32.05760056509098
 30
0.0
 40
2.0
100
AcDbArc
 50
359.9999949910105
 51
89.99999749558341
  0
ARC
  5
2A5F
330
D1
100
AcDbEntity
  8
0
  6
Continuous
100
AcDbCircle
 10
255.5000002888464
 20
-43.85749680532535
 30
0.0
 40
5.0
100
AcDbArc
 50
180.0
 51
270.0000025045208
  0
ARC
  5
2A60
330
D1
100
AcDbEntity
  8
0
  6
Continuous
100
AcDbCircle
 10
255.5000002888464
 20
-43.85749680532535
 30
0.0
 40
5.0
100
AcDbArc
 50
269.999999316731
 51
359.9999949910105
  0
ARC
  5
2A61
330
D1
100
AcDbEntity
  8
0
  6
Continuous
100
AcDbCircle
 10
255.5000002888464
 20
9.50001662240902
 30
0.0
 40
6.0
100
AcDbArc
 50
66.44324195390524
 51
113.5567598673931
  0
ARC
  5
2A62
330
D1
100
AcDbEntity
  8
0
  6
Continuous
100
AcDbCircle
 10
248.5000002888464
 20
3.843110494479333
 30
0.0
 40
3.0
100
AcDbArc
 50
359.9999949910105
 51
2.99723226299835
  0
ARC
  5
2A63
330
D1
100
AcDbEntity
  8
0
  6
Continuous
100
AcDbCircle
 10
300.0000002888464
 20
0.0000013636199583
 30
0.0
 40
32.0
100
AcDbArc
 50
356.4028895250585
 51
3.597114117429845
  0
ARC
  5
2A64
330
D1
100
AcDbEntity
  8
0
  6
Continuous
100
AcDbCircle
 10
255.5000002888464
 20
-27.49999863638004
 30
0.0
 40
8.0
100
AcDbArc
 50
240.0000699715673
 51
299.9999350374814
  0
ARC
  5
2A65
330
D1
100
AcDbEntity
  8
0
  6
Continuous
100
AcDbCircle
 10
241.5000002888464
 20
-50.85749680532535
 30
0.0
 40
2.0
100
AcDbArc
 50
180.0
 51
270.0000025045208
  0
ARC
  5
2A66
330
D1
100
AcDbEntity
  8
0
  6
Continuous
100
AcDbCircle
 10
255.5000002888464
 20
-18.77889878286442
 30
0.0
 40
7.75
100
AcDbArc
 50
148.8751250654846
 51
180.0
  0
ARC
  5
2A67
330
D1
100
AcDbEntity
  8
0
  6
Continuous
100
AcDbCircle
 10
255.5000002888464
 20
-18.77889878286442
 30
0.0
 40
7.75
100
AcDbArc
 50
359.9999949910105
 51
19.53246912694045
  0
ARC
  5
2A68
330
D1
100
AcDbEntity
  8
0
  6
Continuous
100
AcDbCircle
 10
274.5000002888464
 20
-48.85749680532535
 30
0.0
 40
35.0
100
AcDbArc
 50
144.7523955617053
 51
180.0
  0
ARC
  5
2A69
330
D1
100
AcDbEntity
  8
0
  6
Continuous
100
AcDbCircle
 10
237.7500002888464
 20
-22.88769394888004
 30
0.0
 40
10.0
100
AcDbArc
 50
324.7526535150474
 51
359.9999949910105
  0
ARC
  5
2A6A
330
D1
100
AcDbEntity
  8
0
  6
Continuous
100
AcDbCircle
 10
236.5000002888464
 20
-48.85749680532535
 30
0.0
 40
35.0
100
AcDbArc
 50
359.9999949910105
 51
35.24759601423035
  0
ARC
  5
2A6B
330
D1
100
AcDbEntity
  8
0
  6
Continuous
100
AcDbCircle
 10
273.2500002888464
 20
-22.88769394888004
 30
0.0
 40
10.0
100
AcDbArc
 50
180.0
 51
215.2473414760001
  0
ARC
  5
2A6C
330
D1
100
AcDbEntity
  8
0
  6
Continuous
100
AcDbCircle
 10
249.5000002888464
 20
14.00001662240902
 30
0.0
 40
1.0
100
AcDbArc
 50
89.99999749558341
 51
180.0
  0
ARC
  5
2A6D
330
D1
100
AcDbEntity
  8
0
  6
Continuous
100
AcDbCircle
 10
249.5000002888464
 20
5.000001363619958
 30
0.0
 40
1.0
100
AcDbArc
 50
180.0
 51
270.0000025045208
  0
ARC
  5
2A6E
330
D1
100
AcDbEntity
  8
0
  6
Continuous
100
AcDbCircle
 10
249.5000002888464
 20
-4.999998636380041
 30
0.0
 40
1.0
100
AcDbArc
 50
89.99999749558341
 51
180.0
  0
ARC
  5
2A6F
330
D1
100
AcDbEntity
  8
0
  6
Continuous
100
AcDbCircle
 10
249.5000002888464
 20
-13.99999863638004
 30
0.0
 40
1.0
100
AcDbArc
 50
180.0
 51
270.0000025045208
  0
ARC
  5
2A70
330
D1
100
AcDbEntity
  8
0
  6
Continuous
100
AcDbCircle
 10
300.0000002888464
 20
0.0000013636199583
 30
0.0
 40
29.0
100
AcDbArc
 50
192.63563993623
 51
349.5699509765187
  0
ARC
  5
2A71
330
D1
100
AcDbEntity
  8
0
  6
Continuous
100
AcDbCircle
 10
300.0000002888464
 20
0.0000013636199583
 30
0.0
 40
40.0
100
AcDbArc
 50
23.24326534038767
 51
155.253485269109
  0
ARC
  5
2A72
330
D1
100
AcDbEntity
  8
0
  6
Continuous
100
AcDbCircle
 10
260.9486697224402
 20
-17.99999863638004
 30
0.0
 40
3.0
100
AcDbArc
 50
24.74648069364461
 51
89.99999749558341
  0
ARC
  5
2A73
330
D1
100
AcDbEntity
  8
0
  6
Continuous
100
AcDbCircle
 10
260.9486697224402
 20
18.00001662240902
 30
0.0
 40
3.0
100
AcDbArc
 50
270.0000025045208
 51
335.2535193063554
  0
ARC
  5
2A74
330
D1
100
AcDbEntity
  8
0
  6
Continuous
100
AcDbCircle
 10
341.3476565388464
 20
17.75871413217464
 30
0.0
 40
5.0
100
AcDbArc
 50
203.2426692926547
 51
252.0989714447013
  0
ARC
  5
2A75
330
D1
100
AcDbEntity
  8
0
  6
Continuous
100
AcDbCircle
 10
300.0000002888464
 20
0.0000013636199583
 30
0.0
 40
40.0
100
AcDbArc
 50
204.7465096082877
 51
336.7567346596124
  0
ARC
  5
2A76
330
D1
100
AcDbEntity
  8
0
  6
Continuous
100
AcDbCircle
 10
341.3476565388464
 20
-17.75849778188785
 30
0.0
 40
5.0
100
AcDbArc
 50
107.9036923290927
 51
156.7573272921491
  0
ARC
  5
2A77
330
D1
100
AcDbEntity
  8
0
  6
Continuous
100
AcDbCircle
 10
268.7749026325964
 20
-6.999998636380041
 30
0.0
 40
3.0
100
AcDbArc
 50
12.63603620088478
 51
89.99999749558341
  0
ARC
  5
2A78
330
D1
100
AcDbEntity
  8
0
  6
Continuous
100
AcDbCircle
 10
300.0000002888464
 20
0.0000013636199583
 30
0.0
 40
29.0
100
AcDbArc
 50
10.42981679705842
 51
167.3643583562439
  0
ARC
  5
2A79
330
D1
100
AcDbEntity
  8
0
  6
Continuous
100
AcDbCircle
 10
332.4547732380652
 20
5.974000387057458
 30
0.0
 40
4.0
100
AcDbArc
 50
190.4299601173362
 51
284.998551506741
  0
ARC
  5
2A7A
330
D1
100
AcDbEntity
  8
0
  6
Continuous
100
AcDbCircle
 10
332.4547732380652
 20
-5.974089212551916
 30
0.0
 40
4.0
100
AcDbArc
 50
75.00144849337359
 51
169.5700373213327
  0
ARC
  5
2A7B
330
D1
100
AcDbEntity
  8
0
  6
Continuous
100
AcDbCircle
 10
340.0000002888464
 20
-8.504591531887854
 30
0.0
 40
4.5
100
AcDbArc
 50
180.0
 51
327.319120773957
  0
ARC
  5
2A7C
330
D1
100
AcDbEntity
  8
0
  6
Continuous
100
AcDbCircle
 10
340.0000002888464
 20
8.50459425912777
 30
0.0
 40
4.5
100
AcDbArc
 50
32.68087922604297
 51
180.0
  0
ARC
  5
2A7D
330
D1
100
AcDbEntity
  8
0
  6
Continuous
100
AcDbCircle
 10
340.0000002888464
 20
8.50459425912777
 30
0.0
 40
4.5
100
AcDbArc
 50
35.88818579610178
 51
215.8881908050853
  0
ARC
  5
2A7E
330
D1
100
AcDbEntity
  8
0
  6
Continuous
100
AcDbCircle
 10
340.0000002888464
 20
-8.495390482083166
 30
0.0
 40
4.5
100
AcDbArc
 50
144.1118057798008
 51
324.1118142038982
  0
ARC
  5
2A7F
330
D1
100
AcDbEntity
  8
0
  6
Continuous
100
AcDbCircle
 10
328.2526858357214
 20
0.0046095179168333
 30
0.0
 40
10.0
100
AcDbArc
 50
324.1115719595295
 51
35.88843168288958
  0
ARC
  5
2A80
330
D1
100
AcDbEntity
  8
0
  6
Continuous
100
AcDbCircle
 10
328.2526858357214
 20
0.0046095179168333
 30
0.0
 40
19.0
100
AcDbArc
 50
324.1116812425127
 51
35.88832239991047
  0
CIRCLE
  5
2A81
330
D1
100
AcDbEntity
  8
0
  6
Continuous
100
AcDbCircle
 10
340.0000002888464
 20
8.50459425912777
 30
0.0
 40
2.5
  0
CIRCLE
  5
2A82
330
D1
100
AcDbEntity
  8
0
  6
Continuous
100
AcDbCircle
 10
340.0000002888464
 20
-8.495390482083166
 30
0.0
 40
2.5
  0
CIRCLE
  5
2A83
330
D1
100
AcDbEntity
  8
0
  6
Continuous
100
AcDbCircle
 10
255.5000002888464
 20
9.50001662240902
 30
0.0
 40
3.099999904632568
  0
CIRCLE
  5
2A84
330
D1
100
AcDbEntity
  8
0
  6
Continuous
100
AcDbCircle
 10
299.8999932820734
 20
0.0000013748503989
 30
0.0
 40
25.25000003758385
  0
CIRCLE
  5
2A85
330
D1
100
AcDbEntity
  8
0
  6
Continuous
100
AcDbCircle
 10
300.0
 20
0.0
 30
0.0
 40
11.50000000000011
  0
LINE
  5
2A86
330
D1
100
AcDbEntity
  8
0
  6
Continuous
100
AcDbLine
 10
287.000000021857
 20
48.99999995628968
 30
0.0
 11
287.0000000218551
 21
37.82856210914997
 31
0.0
  0
ARC
  5
2A87
330
D1
100
AcDbEntity
  8
0
  6
Continuous
100
AcDbCircle
 10
287.500000021857
 20
49.0
 30
0.0
 40
0.5
100
AcDbArc
 50
90.00000250446868
 51
180.0000050089374
  0
LINE
  5
2A88
330
D1
100
AcDbEntity
  8
0
  6
Continuous
100
AcDbLine
 10
312.9999999781448
 20
48.99999995628968
 30
0.0
 11
312.9999999781448
 21
37.82856191062274
 31
0.0
  0
ARC
  5
2A89
330
D1
100
AcDbEntity
  8
0
  6
Continuous
100
AcDbCircle
 10
312.4999999781449
 20
49.0
 30
0.0
 40
0.5
100
AcDbArc
 50
359.9999949910626
 51
89.99999749553131
  0
LINE
  5
2A8A
330
D1
100
AcDbEntity
  8
0
  6
Continuous
100
AcDbLine
 10
312.4999999781449
 20
49.5
 30
0.0
 11
287.5000000000009
 21
49.5
 31
0.0
  0
LINE
  5
2A8B
330
D1
100
AcDbEntity
  8
0
  6
Continuous
100
AcDbLine
 10
243.9999996257202
 20
109.0001807972257
 30
0.0
 11
373.9999996137958
 21
109.0001807972257
 31
0.0
  0
LINE
  5
2A8C
330
D1
100
AcDbEntity
  8
0
  6
Continuous
100
AcDbLine
 10
243.9999996137958
 20
187.0001807972258
 30
0.0
 11
373.9999996137958
 21
187.0001807972258
 31
0.0
  0
LINE
  5
2A8D
330
D1
100
AcDbEntity
  8
0
  6
Continuous
100
AcDbLine
 10
247.4999996137958
 20
187.0001807972258
 30
0.0
 11
247.4999996137958
 21
109.0001807972257
 31
0.0
  0
LINE
  5
2A8E
330
D1
100
AcDbEntity
  8
0
  6
Continuous
100
AcDbLine
 10
370.4999996137958
 20
187.0001807972258
 30
0.0
 11
370.4999996137958
 21
109.0001807972257
 31
0.0
  0
LINE
  5
2A8F
330
D1
100
AcDbEntity
  8
0
  6
Continuous
100
AcDbLine
 10
374.9999996137958
 20
186.0001807972258
 30
0.0
 11
374.9999996137958
 21
110.0001807972257
 31
0.0
  0
LINE
  5
2A90
330
D1
100
AcDbEntity
  8
0
  6
Continuous
100
AcDbLine
 10
242.9999996137958
 20
186.0001807972258
 30
0.0
 11
242.9999996137958
 21
110.0001807972257
 31
0.0
  0
LINE
  5
2A91
330
D1
100
AcDbEntity
  8
0
  6
Continuous
100
AcDbLine
 10
242.9999996137958
 20
186.0001807972258
 30
0.0
 11
242.9999996137958
 21
110.0001807972257
 31
0.0
  0
LINE
  5
2A92
330
D1
100
AcDbEntity
  8
0
  6
Continuous
100
AcDbLine
 10
242.9999996137958
 20
164.624265269882
 30
0.0
 11
374.9999996137958
 21
164.624265269882
 31
0.0
  0
LINE
  5
2A93
330
D1
100
AcDbEntity
  8
0
  6
Continuous
100
AcDbLine
 10
242.9999996137958
 20
131.3760963245695
 30
0.0
 11
374.9999996137958
 21
131.3760963245695
 31
0.0
  0
LINE
  5
2A94
330
D1
100
AcDbEntity
  8
0
  6
Continuous
100
AcDbLine
 10
236.3999019575458
 20
154.5001807972257
 30
0.0
 11
236.3999019575458
 21
141.5000282093351
 31
0.0
  0
LINE
  5
2A95
330
D1
100
AcDbEntity
  8
0
  6
Continuous
100
AcDbLine
 10
236.9799800825458
 20
155.5055518909757
 30
0.0
 11
240.8193355512958
 21
155.5055518909757
 31
0.0
  0
LINE
  5
2A96
330
D1
100
AcDbEntity
  8
0
  6
Continuous
100
AcDbLine
 10
236.9804683637958
 20
151.7531104847257
 30
0.0
 11
240.8188472700458
 21
151.7531104847257
 31
0.0
  0
LINE
  5
2A97
330
D1
100
AcDbEntity
  8
0
  6
Continuous
100
AcDbLine
 10
236.3995700699415
 20
154.5001354159049
 30
0.0
 11
236.9801364840059
 21
155.5057059241862
 31
0.0
  0
LINE
  5
2A98
330
D1
100
AcDbEntity
  8
0
  6
Continuous
100
AcDbLine
 10
240.8193355512958
 20
140.4946571155851
 30
0.0
 11
236.9799800825458
 21
140.4946571155851
 31
0.0
  0
LINE
  5
2A99
330
D1
100
AcDbEntity
  8
0
  6
Continuous
100
AcDbLine
 10
240.8193681875655
 20
144.2474007253713
 30
0.0
 11
236.9805010006239
 21
144.247335213915
 31
0.0
  0
LINE
  5
2A9A
330
D1
100
AcDbEntity
  8
0
  6
Continuous
100
AcDbLine
 10
236.3999019575385
 20
152.0001807972367
 30
0.0
 11
230.9995113325385
 21
152.0001807972367
 31
0.0
  0
LINE
  5
2A9B
330
D1
100
AcDbEntity
  8
0
  6
Continuous
100
AcDbLine
 10
236.3999019575458
 20
151.2003761097257
 30
0.0
 11
230.9995113325458
 21
151.2003761097257
 31
0.0
  0
LINE
  5
2A9C
330
D1
100
AcDbEntity
  8
0
  6
Continuous
100
AcDbLine
 10
236.3999019575458
 20
144.0000587269132
 30
0.0
 11
230.9995113325458
 21
144.0000587269132
 31
0.0
  0
LINE
  5
2A9D
330
D1
100
AcDbEntity
  8
0
  6
Continuous
100
AcDbLine
 10
242.9999996137958
 20
156.0001807972257
 30
0.0
 11
241.3999019575458
 21
156.0001807972257
 31
0.0
  0
LINE
  5
2A9E
330
D1
100
AcDbEntity
  8
0
  6
Continuous
100
AcDbLine
 10
236.3994873971515
 20
141.4999931936008
 30
0.0
 11
236.9800538112167
 21
140.4944226853204
 31
0.0
  0
LINE
  5
2A9F
330
D1
100
AcDbEntity
  8
0
  6
Continuous
100
AcDbLine
 10
241.3994136762958
 20
156.0001807972257
 30
0.0
 11
241.3994136762958
 21
140.0000587269133
 31
0.0
  0
LINE
  5
2AA0
330
D1
100
AcDbEntity
  8
0
  6
Continuous
100
AcDbLine
 10
241.3998672918897
 20
154.5002138351337
 30
0.0
 11
240.8193161366134
 21
155.5057579144158
 31
0.0
  0
LINE
  5
2AA1
330
D1
100
AcDbEntity
  8
0
  6
Continuous
100
AcDbLine
 10
230.9995113325458
 20
140.5084205433195
 30
0.0
 11
226.5800777387958
 21
140.5084205433195
 31
0.0
  0
LINE
  5
2AA2
330
D1
100
AcDbEntity
  8
0
  6
Continuous
100
AcDbLine
 10
225.9995870025487
 20
141.5137593412601
 30
0.0
 11
226.5801534166139
 21
140.5081888329787
 31
0.0
  0
LINE
  5
2AA3
330
D1
100
AcDbEntity
  8
0
  6
Continuous
100
AcDbLine
 10
230.9995113325458
 20
144.2611060901945
 30
0.0
 11
226.5805660200458
 21
144.2611060901945
 31
0.0
  0
LINE
  5
2AA4
330
D1
100
AcDbEntity
  8
0
  6
Continuous
100
AcDbLine
 10
226.5805660200458
 20
151.7668739124601
 30
0.0
 11
230.9995113325458
 21
151.7668739124601
 31
0.0
  0
LINE
  5
2AA5
330
D1
100
AcDbEntity
  8
0
  6
Continuous
100
AcDbLine
 10
226.5800777387958
 20
155.5193153187101
 30
0.0
 11
230.9995113325458
 21
155.5193153187101
 31
0.0
  0
LINE
  5
2AA6
330
D1
100
AcDbEntity
  8
0
  6
Continuous
100
AcDbLine
 10
225.9996615897025
 20
154.5138821186137
 30
0.0
 11
226.5802280037679
 21
155.5194526268942
 31
0.0
  0
LINE
  5
2AA7
330
D1
100
AcDbEntity
  8
0
  6
Continuous
100
AcDbLine
 10
225.9999996137958
 20
154.5139442249601
 30
0.0
 11
225.9999996137958
 21
141.5137916370695
 31
0.0
  0
LINE
  5
2AA8
330
D1
100
AcDbEntity
  8
0
  6
Continuous
100
AcDbLine
 10
241.3998676846386
 20
141.5001384720972
 30
0.0
 11
240.8193012705724
 21
140.4945679638167
 31
0.0
  0
LINE
  5
2AA9
330
D1
100
AcDbEntity
  8
0
  6
Continuous
100
AcDbLine
 10
242.9999996137958
 20
140.0001807972257
 30
0.0
 11
241.3999019575458
 21
140.0001807972257
 31
0.0
  0
LINE
  5
2AAA
330
D1
100
AcDbEntity
  8
0
  6
Continuous
100
AcDbLine
 10
236.3999019575458
 20
154.5001807972257
 30
0.0
 11
236.3999019575458
 21
141.5000282093351
 31
0.0
  0
LINE
  5
2AAB
330
D1
100
AcDbEntity
  8
0
  6
Continuous
100
AcDbLine
 10
236.9799800825458
 20
155.5055518909757
 30
0.0
 11
240.8193355512958
 21
155.5055518909757
 31
0.0
  0
LINE
  5
2AAC
330
D1
100
AcDbEntity
  8
0
  6
Continuous
100
AcDbLine
 10
236.9804683637958
 20
151.7531104847257
 30
0.0
 11
240.8188472700458
 21
151.7531104847257
 31
0.0
  0
LINE
  5
2AAD
330
D1
100
AcDbEntity
  8
0
  6
Continuous
100
AcDbLine
 10
236.3995700699415
 20
154.5001354159049
 30
0.0
 11
236.9801364840059
 21
155.5057059241862
 31
0.0
  0
LINE
  5
2AAE
330
D1
100
AcDbEntity
  8
0
  6
Continuous
100
AcDbLine
 10
240.8193355512958
 20
140.4946571155851
 30
0.0
 11
236.9799800825458
 21
140.4946571155851
 31
0.0
  0
LINE
  5
2AAF
330
D1
100
AcDbEntity
  8
0
  6
Continuous
100
AcDbLine
 10
240.8193681875655
 20
144.2474007253713
 30
0.0
 11
236.9805010006239
 21
144.247335213915
 31
0.0
  0
LINE
  5
2AB0
330
D1
100
AcDbEntity
  8
0
  6
Continuous
100
AcDbLine
 10
242.9999996137958
 20
156.0001807972257
 30
0.0
 11
241.3999019575458
 21
156.0001807972257
 31
0.0
  0
LINE
  5
2AB1
330
D1
100
AcDbEntity
  8
0
  6
Continuous
100
AcDbLine
 10
236.3994873971515
 20
141.4999931936008
 30
0.0
 11
236.9800538112167
 21
140.4944226853204
 31
0.0
  0
LINE
  5
2AB2
330
D1
100
AcDbEntity
  8
0
  6
Continuous
100
AcDbLine
 10
241.3994136762958
 20
156.0001807972257
 30
0.0
 11
241.3994136762958
 21
140.0000587269133
 31
0.0
  0
LINE
  5
2AB3
330
D1
100
AcDbEntity
  8
0
  6
Continuous
100
AcDbLine
 10
241.3998672918897
 20
154.5002138351337
 30
0.0
 11
240.8193161366134
 21
155.5057579144158
 31
0.0
  0
LINE
  5
2AB4
330
D1
100
AcDbEntity
  8
0
  6
Continuous
100
AcDbLine
 10
230.9995113325458
 20
140.5084205433195
 30
0.0
 11
230.9995113325458
 21
155.5193153187101
 31
0.0
  0
LINE
  5
2AB5
330
D1
100
AcDbEntity
  8
0
  6
Continuous
100
AcDbLine
 10
230.9995113325458
 20
140.5084205433195
 30
0.0
 11
226.5800777387958
 21
140.5084205433195
 31
0.0
  0
LINE
  5
2AB6
330
D1
100
AcDbEntity
  8
0
  6
Continuous
100
AcDbLine
 10
225.9995870025487
 20
141.5137593412601
 30
0.0
 11
226.5801534166139
 21
140.5081888329787
 31
0.0
  0
LINE
  5
2AB7
330
D1
100
AcDbEntity
  8
0
  6
Continuous
100
AcDbLine
 10
230.9995113325458
 20
144.2611060901945
 30
0.0
 11
226.5805660200458
 21
144.2611060901945
 31
0.0
  0
LINE
  5
2AB8
330
D1
100
AcDbEntity
  8
0
  6
Continuous
100
AcDbLine
 10
226.5805660200458
 20
151.7668739124601
 30
0.0
 11
230.9995113325458
 21
151.7668739124601
 31
0.0
  0
LINE
  5
2AB9
330
D1
100
AcDbEntity
  8
0
  6
Continuous
100
AcDbLine
 10
226.5800777387958
 20
155.5193153187101
 30
0.0
 11
230.9995113325458
 21
155.5193153187101
 31
0.0
  0
LINE
  5
2ABA
330
D1
100
AcDbEntity
  8
0
  6
Continuous
100
AcDbLine
 10
225.9996615897025
 20
154.5138821186137
 30
0.0
 11
226.5802280037679
 21
155.5194526268942
 31
0.0
  0
LINE
  5
2ABB
330
D1
100
AcDbEntity
  8
0
  6
Continuous
100
AcDbLine
 10
225.9999996137958
 20
154.5139442249601
 30
0.0
 11
225.9999996137958
 21
141.5137916370695
 31
0.0
  0
LINE
  5
2ABC
330
D1
100
AcDbEntity
  8
0
  6
Continuous
100
AcDbLine
 10
241.3998676846386
 20
141.5001384720972
 30
0.0
 11
240.8193012705724
 21
140.4945679638167
 31
0.0
  0
LINE
  5
2ABD
330
D1
100
AcDbEntity
  8
0
  6
Continuous
100
AcDbLine
 10
242.9999996137958
 20
140.0001807972257
 30
0.0
 11
241.3999019575458
 21
140.0001807972257
 31
0.0
  0
LINE
  5
2ABE
330
D1
100
AcDbEntity
  8
0
  6
Continuous
100
AcDbLine
 10
242.9999996137958
 20
111.2501807972257
 30
0.0
 11
237.8330074262958
 21
111.2501807972257
 31
0.0
  0
LINE
  5
2ABF
330
D1
100
AcDbEntity
  8
0
  6
Continuous
100
AcDbLine
 10
237.8330294949046
 20
111.2501801607186
 30
0.0
 11
237.4000165267343
 21
112.0001806084637
 31
0.0
  0
LINE
  5
2AC0
330
D1
100
AcDbEntity
  8
0
  6
Continuous
100
AcDbLine
 10
241.4000240278583
 20
114.1251807972258
 30
0.0
 11
237.8330074262958
 21
114.1251807972258
 31
0.0
  0
LINE
  5
2AC1
330
D1
100
AcDbEntity
  8
0
  6
Continuous
100
AcDbLine
 10
237.4000240278583
 20
115.9946571155851
 30
0.0
 11
237.4000240278583
 21
112.0001807972258
 31
0.0
  0
LINE
  5
2AC2
330
D1
100
AcDbEntity
  8
0
  6
Continuous
100
AcDbLine
 10
241.4000240278583
 20
122.7501807972257
 30
0.0
 11
241.4000240278583
 21
111.2501807972257
 31
0.0
  0
LINE
  5
2AC3
330
D1
100
AcDbEntity
  8
0
  6
Continuous
100
AcDbLine
 10
237.8330313777697
 20
122.7501755620615
 30
0.0
 11
237.4000174559251
 21
122.0001734625039
 31
0.0
  0
LINE
  5
2AC4
330
D1
100
AcDbEntity
  8
0
  6
Continuous
100
AcDbLine
 10
242.9999996137958
 20
122.7501807972257
 30
0.0
 11
237.8330074262958
 21
122.7501807972257
 31
0.0
  0
LINE
  5
2AC5
330
D1
100
AcDbEntity
  8
0
  6
Continuous
100
AcDbLine
 10
241.4000240278583
 20
119.8751807972257
 30
0.0
 11
237.8330074262958
 21
119.8751807972257
 31
0.0
  0
LINE
  5
2AC6
330
D1
100
AcDbEntity
  8
0
  6
Continuous
100
AcDbLine
 10
237.4000240278583
 20
112.0001807972258
 30
0.0
 11
237.4000240278583
 21
122.0001807972257
 31
0.0
  0
LINE
  5
2AC7
330
D1
100
AcDbEntity
  8
0
  6
Continuous
100
AcDbLine
 10
242.9999996137958
 20
173.2501807972257
 30
0.0
 11
237.8330074262958
 21
173.2501807972257
 31
0.0
  0
LINE
  5
2AC8
330
D1
100
AcDbEntity
  8
0
  6
Continuous
100
AcDbLine
 10
237.8330271703235
 20
173.2501833524184
 30
0.0
 11
237.4000170631752
 21
174.0001788447262
 31
0.0
  0
LINE
  5
2AC9
330
D1
100
AcDbEntity
  8
0
  6
Continuous
100
AcDbLine
 10
241.4000240278583
 20
176.1251807972257
 30
0.0
 11
237.8330074262958
 21
176.1251807972257
 31
0.0
  0
LINE
  5
2ACA
330
D1
100
AcDbEntity
  8
0
  6
Continuous
100
AcDbLine
 10
237.4000240278583
 20
177.9946571155851
 30
0.0
 11
237.4000240278583
 21
174.0001807972257
 31
0.0
  0
LINE
  5
2ACB
330
D1
100
AcDbEntity
  8
0
  6
Continuous
100
AcDbLine
 10
241.4000240278583
 20
184.7501807972257
 30
0.0
 11
241.4000240278583
 21
173.2501807972257
 31
0.0
  0
LINE
  5
2ACC
330
D1
100
AcDbEntity
  8
0
  6
Continuous
100
AcDbLine
 10
237.8330155825388
 20
184.7501473693264
 30
0.0
 11
237.4000016606933
 21
184.0001452697688
 31
0.0
  0
LINE
  5
2ACD
330
D1
100
AcDbEntity
  8
0
  6
Continuous
100
AcDbLine
 10
242.9999996137958
 20
184.7501807972257
 30
0.0
 11
237.8330074262958
 21
184.7501807972257
 31
0.0
  0
LINE
  5
2ACE
330
D1
100
AcDbEntity
  8
0
  6
Continuous
100
AcDbLine
 10
241.4000240278583
 20
181.8751807972257
 30
0.0
 11
237.8330074262958
 21
181.8751807972257
 31
0.0
  0
LINE
  5
2ACF
330
D1
100
AcDbEntity
  8
0
  6
Continuous
100
AcDbLine
 10
237.4000240278583
 20
174.0001807972257
 30
0.0
 11
237.4000240278583
 21
184.0001807972257
 31
0.0
  0
LINE
  5
2AD0
330
D1
100
AcDbEntity
  8
0
  6
Continuous
100
AcDbLine
 10
374.9999996137958
 20
111.2501807972257
 30
0.0
 11
380.1669918012958
 21
111.2501807972257
 31
0.0
  0
LINE
  5
2AD1
330
D1
100
AcDbEntity
  8
0
  6
Continuous
100
AcDbLine
 10
380.1670041879333
 20
111.2501840750665
 30
0.0
 11
380.6000181097788
 21
112.0001861746241
 31
0.0
  0
LINE
  5
2AD2
330
D1
100
AcDbEntity
  8
0
  6
Continuous
100
AcDbLine
 10
376.6000362348896
 20
114.1251807972258
 30
0.0
 11
380.1669918012958
 21
114.1251807972258
 31
0.0
  0
LINE
  5
2AD3
330
D1
100
AcDbEntity
  8
0
  6
Continuous
100
AcDbLine
 10
380.6000362348896
 20
115.9946571155851
 30
0.0
 11
380.6000362348896
 21
112.0001807972258
 31
0.0
  0
LINE
  5
2AD4
330
D1
100
AcDbEntity
  8
0
  6
Continuous
100
AcDbLine
 10
376.6000362348896
 20
122.7501807972257
 30
0.0
 11
376.6000362348896
 21
111.2501807972257
 31
0.0
  0
LINE
  5
2AD5
330
D1
100
AcDbEntity
  8
0
  6
Continuous
100
AcDbLine
 10
380.1669975366967
 20
122.7501799067759
 30
0.0
 11
380.6000114585422
 21
122.0001778072173
 31
0.0
  0
LINE
  5
2AD6
330
D1
100
AcDbEntity
  8
0
  6
Continuous
100
AcDbLine
 10
374.9999996137958
 20
122.7501807972257
 30
0.0
 11
380.1669918012958
 21
122.7501807972257
 31
0.0
  0
LINE
  5
2AD7
330
D1
100
AcDbEntity
  8
0
  6
Continuous
100
AcDbLine
 10
376.6000362348896
 20
119.8751807972257
 30
0.0
 11
380.1669918012958
 21
119.8751807972257
 31
0.0
  0
LINE
  5
2AD8
330
D1
100
AcDbEntity
  8
0
  6
Continuous
100
AcDbLine
 10
380.6000362348896
 20
112.0001807972258
 30
0.0
 11
380.6000362348896
 21
122.0001807972257
 31
0.0
  0
LINE
  5
2AD9
330
D1
100
AcDbEntity
  8
0
  6
Continuous
100
AcDbLine
 10
374.9999996137958
 20
173.2501807972257
 30
0.0
 11
380.1669918012958
 21
173.2501807972257
 31
0.0
  0
LINE
  5
2ADA
330
D1
100
AcDbEntity
  8
0
  6
Continuous
100
AcDbLine
 10
380.1669883927025
 20
173.2501558823314
 30
0.0
 11
380.600002314547
 21
174.000157981889
 31
0.0
  0
LINE
  5
2ADB
330
D1
100
AcDbEntity
  8
0
  6
Continuous
100
AcDbLine
 10
376.6000362348896
 20
176.1251807972257
 30
0.0
 11
380.1669918012958
 21
176.1251807972257
 31
0.0
  0
LINE
  5
2ADC
330
D1
100
AcDbEntity
  8
0
  6
Continuous
100
AcDbLine
 10
380.6000362348896
 20
177.9946571155851
 30
0.0
 11
380.6000362348896
 21
174.0001807972257
 31
0.0
  0
LINE
  5
2ADD
330
D1
100
AcDbEntity
  8
0
  6
Continuous
100
AcDbLine
 10
376.6000362348896
 20
184.7501807972257
 30
0.0
 11
376.6000362348896
 21
173.2501807972257
 31
0.0
  0
LINE
  5
2ADE
330
D1
100
AcDbEntity
  8
0
  6
Continuous
100
AcDbLine
 10
380.1669980731385
 20
184.7501781430383
 30
0.0
 11
380.6000100876345
 21
184.0001793471038
 31
0.0
  0
LINE
  5
2ADF
330
D1
100
AcDbEntity
  8
0
  6
Continuous
100
AcDbLine
 10
374.9999996137958
 20
184.7501807972257
 30
0.0
 11
380.1669918012958
 21
184.7501807972257
 31
0.0
  0
LINE
  5
2AE0
330
D1
100
AcDbEntity
  8
0
  6
Continuous
100
AcDbLine
 10
376.6000362348896
 20
181.8751807972257
 30
0.0
 11
380.1669918012958
 21
181.8751807972257
 31
0.0
  0
LINE
  5
2AE1
330
D1
100
AcDbEntity
  8
0
  6
Continuous
100
AcDbLine
 10
380.6000362348896
 20
174.0001807972257
 30
0.0
 11
380.6000362348896
 21
184.0001807972257
 31
0.0
  0
LINE
  5
2AE2
330
D1
100
AcDbEntity
  8
0
  6
Continuous
100
AcDbLine
 10
236.3999019575458
 20
144.7999854847257
 30
0.0
 11
230.9995113325458
 21
144.7999854847257
 31
0.0
  0
LINE
  5
2AE3
330
D1
100
AcDbEntity
  8
0
  6
Continuous
100
AcDbLine
 10
381.6000972700458
 20
154.5001807972257
 30
0.0
 11
381.6000972700458
 21
141.5000282093351
 31
0.0
  0
LINE
  5
2AE4
330
D1
100
AcDbEntity
  8
0
  6
Continuous
100
AcDbLine
 10
381.0200191450458
 20
155.5055518909757
 30
0.0
 11
377.1806636762958
 21
155.5055518909757
 31
0.0
  0
LINE
  5
2AE5
330
D1
100
AcDbEntity
  8
0
  6
Continuous
100
AcDbLine
 10
381.0195308637958
 20
151.7531104847257
 30
0.0
 11
377.1811519575458
 21
151.7531104847257
 31
0.0
  0
LINE
  5
2AE6
330
D1
100
AcDbEntity
  8
0
  6
Continuous
100
AcDbLine
 10
381.6004600366186
 20
154.5001376958535
 30
0.0
 11
381.0198936225534
 21
155.5057082041339
 31
0.0
  0
LINE
  5
2AE7
330
D1
100
AcDbEntity
  8
0
  6
Continuous
100
AcDbLine
 10
377.1806636762958
 20
140.4946571155851
 30
0.0
 11
381.0200191450458
 21
140.4946571155851
 31
0.0
  0
LINE
  5
2AE8
330
D1
100
AcDbEntity
  8
0
  6
Continuous
100
AcDbLine
 10
377.1806312129156
 20
144.2473990653989
 30
0.0
 11
381.0195594350125
 21
144.2473335529012
 31
0.0
  0
LINE
  5
2AE9
330
D1
100
AcDbEntity
  8
0
  6
Continuous
100
AcDbLine
 10
381.6000972700531
 20
152.0001807972121
 30
0.0
 11
387.0004878950531
 21
152.0001807972121
 31
0.0
  0
LINE
  5
2AEA
330
D1
100
AcDbEntity
  8
0
  6
Continuous
100
AcDbLine
 10
381.6000972700458
 20
151.2003761097257
 30
0.0
 11
387.0004878950458
 21
151.2003761097257
 31
0.0
  0
LINE
  5
2AEB
330
D1
100
AcDbEntity
  8
0
  6
Continuous
100
AcDbLine
 10
381.6000972700458
 20
144.0000587269132
 30
0.0
 11
387.0004878950458
 21
144.0000587269132
 31
0.0
  0
LINE
  5
2AEC
330
D1
100
AcDbEntity
  8
0
  6
Continuous
100
AcDbLine
 10
374.9999996137958
 20
156.0001807972257
 30
0.0
 11
376.6000972700458
 21
156.0001807972257
 31
0.0
  0
LINE
  5
2AED
330
D1
100
AcDbEntity
  8
0
  6
Continuous
100
AcDbLine
 10
381.6005472393608
 20
141.4999987597612
 30
0.0
 11
381.0199808252956
 21
140.4944282514807
 31
0.0
  0
LINE
  5
2AEE
330
D1
100
AcDbEntity
  8
0
  6
Continuous
100
AcDbLine
 10
376.6005855512958
 20
156.0001807972257
 30
0.0
 11
376.6005855512958
 21
140.0000587269133
 31
0.0
  0
LINE
  5
2AEF
330
D1
100
AcDbEntity
  8
0
  6
Continuous
100
AcDbLine
 10
376.6001520858335
 20
154.5001929722957
 30
0.0
 11
377.1807184998988
 21
155.5057634805762
 31
0.0
  0
LINE
  5
2AF0
330
D1
100
AcDbEntity
  8
0
  6
Continuous
100
AcDbLine
 10
387.0004878950458
 20
140.5084205433195
 30
0.0
 11
391.4199214887958
 21
140.5084205433195
 31
0.0
  0
LINE
  5
2AF1
330
D1
100
AcDbEntity
  8
0
  6
Continuous
100
AcDbLine
 10
392.0004380972205
 20
141.5137483892958
 30
0.0
 11
391.4198716831552
 21
140.5081778810163
 31
0.0
  0
LINE
  5
2AF2
330
D1
100
AcDbEntity
  8
0
  6
Continuous
100
AcDbLine
 10
387.0004878950458
 20
144.2611060901945
 30
0.0
 11
391.4194332075458
 21
144.2611060901945
 31
0.0
  0
LINE
  5
2AF3
330
D1
100
AcDbEntity
  8
0
  6
Continuous
100
AcDbLine
 10
391.4194332075458
 20
151.7668739124601
 30
0.0
 11
387.0004878950458
 21
151.7668739124601
 31
0.0
  0
LINE
  5
2AF4
330
D1
100
AcDbEntity
  8
0
  6
Continuous
100
AcDbLine
 10
391.4199214887958
 20
155.5193153187101
 30
0.0
 11
387.0004878950458
 21
155.5193153187101
 31
0.0
  0
LINE
  5
2AF5
330
D1
100
AcDbEntity
  8
0
  6
Continuous
100
AcDbLine
 10
392.0003323126966
 20
154.5138860708493
 30
0.0
 11
391.4197658986322
 21
155.5194565791298
 31
0.0
  0
LINE
  5
2AF6
330
D1
100
AcDbEntity
  8
0
  6
Continuous
100
AcDbLine
 10
391.9999996137958
 20
154.5139442249601
 30
0.0
 11
391.9999996137958
 21
141.5137916370695
 31
0.0
  0
LINE
  5
2AF7
330
D1
100
AcDbEntity
  8
0
  6
Continuous
100
AcDbLine
 10
376.6001650445251
 20
141.5001362095618
 30
0.0
 11
377.1807161998013
 21
140.4945921302787
 31
0.0
  0
LINE
  5
2AF8
330
D1
100
AcDbEntity
  8
0
  6
Continuous
100
AcDbLine
 10
374.9999996137958
 20
140.0001807972257
 30
0.0
 11
376.6000972700458
 21
140.0001807972257
 31
0.0
  0
LINE
  5
2AF9
330
D1
100
AcDbEntity
  8
0
  6
Continuous
100
AcDbLine
 10
381.6000972700458
 20
154.5001807972257
 30
0.0
 11
381.6000972700458
 21
141.5000282093351
 31
0.0
  0
LINE
  5
2AFA
330
D1
100
AcDbEntity
  8
0
  6
Continuous
100
AcDbLine
 10
381.0200191450458
 20
155.5055518909757
 30
0.0
 11
377.1806636762958
 21
155.5055518909757
 31
0.0
  0
LINE
  5
2AFB
330
D1
100
AcDbEntity
  8
0
  6
Continuous
100
AcDbLine
 10
381.0195308637958
 20
151.7531104847257
 30
0.0
 11
377.1811519575458
 21
151.7531104847257
 31
0.0
  0
LINE
  5
2AFC
330
D1
100
AcDbEntity
  8
0
  6
Continuous
100
AcDbLine
 10
381.6004600366186
 20
154.5001376958535
 30
0.0
 11
381.0198936225534
 21
155.5057082041339
 31
0.0
  0
LINE
  5
2AFD
330
D1
100
AcDbEntity
  8
0
  6
Continuous
100
AcDbLine
 10
377.1806636762958
 20
140.4946571155851
 30
0.0
 11
381.0200191450458
 21
140.4946571155851
 31
0.0
  0
LINE
  5
2AFE
330
D1
100
AcDbEntity
  8
0
  6
Continuous
100
AcDbLine
 10
377.1806312129156
 20
144.2473990653989
 30
0.0
 11
381.0195594350125
 21
144.2473335529012
 31
0.0
  0
LINE
  5
2AFF
330
D1
100
AcDbEntity
  8
0
  6
Continuous
100
AcDbLine
 10
374.9999996137958
 20
156.0001807972257
 30
0.0
 11
376.6000972700458
 21
156.0001807972257
 31
0.0
  0
LINE
  5
2B00
330
D1
100
AcDbEntity
  8
0
  6
Continuous
100
AcDbLine
 10
381.6005472393608
 20
141.4999987597612
 30
0.0
 11
381.0199808252956
 21
140.4944282514807
 31
0.0
  0
LINE
  5
2B01
330
D1
100
AcDbEntity
  8
0
  6
Continuous
100
AcDbLine
 10
376.6005855512958
 20
156.0001807972257
 30
0.0
 11
376.6005855512958
 21
140.0000587269133
 31
0.0
  0
LINE
  5
2B02
330
D1
100
AcDbEntity
  8
0
  6
Continuous
100
AcDbLine
 10
376.6001520858335
 20
154.5001929722957
 30
0.0
 11
377.1807184998988
 21
155.5057634805762
 31
0.0
  0
LINE
  5
2B03
330
D1
100
AcDbEntity
  8
0
  6
Continuous
100
AcDbLine
 10
387.0004878950458
 20
140.5084205433195
 30
0.0
 11
387.0004878950458
 21
155.5193153187101
 31
0.0
  0
LINE
  5
2B04
330
D1
100
AcDbEntity
  8
0
  6
Continuous
100
AcDbLine
 10
387.0004878950458
 20
140.5084205433195
 30
0.0
 11
391.4199214887958
 21
140.5084205433195
 31
0.0
  0
LINE
  5
2B05
330
D1
100
AcDbEntity
  8
0
  6
Continuous
100
AcDbLine
 10
392.0004380972205
 20
141.5137483892958
 30
0.0
 11
391.4198716831552
 21
140.5081778810163
 31
0.0
  0
LINE
  5
2B06
330
D1
100
AcDbEntity
  8
0
  6
Continuous
100
AcDbLine
 10
387.0004878950458
 20
144.2611060901945
 30
0.0
 11
391.4194332075458
 21
144.2611060901945
 31
0.0
  0
LINE
  5
2B07
330
D1
100
AcDbEntity
  8
0
  6
Continuous
100
AcDbLine
 10
391.4194332075458
 20
151.7668739124601
 30
0.0
 11
387.0004878950458
 21
151.7668739124601
 31
0.0
  0
LINE
  5
2B08
330
D1
100
AcDbEntity
  8
0
  6
Continuous
100
AcDbLine
 10
391.4199214887958
 20
155.5193153187101
 30
0.0
 11
387.0004878950458
 21
155.5193153187101
 31
0.0
  0
LINE
  5
2B09
330
D1
100
AcDbEntity
  8
0
  6
Continuous
100
AcDbLine
 10
392.0003323126966
 20
154.5138860708493
 30
0.0
 11
391.4197658986322
 21
155.5194565791298
 31
0.0
  0
LINE
  5
2B0A
330
D1
100
AcDbEntity
  8
0
  6
Continuous
100
AcDbLine
 10
391.9999996137958
 20
154.5139442249601
 30
0.0
 11
391.9999996137958
 21
141.5137916370695
 31
0.0
  0
LINE
  5
2B0B
330
D1
100
AcDbEntity
  8
0
  6
Continuous
100
AcDbLine
 10
376.6001650445251
 20
141.5001362095618
 30
0.0
 11
377.1807161998013
 21
140.4945921302787
 31
0.0
  0
LINE
  5
2B0C
330
D1
100
AcDbEntity
  8
0
  6
Continuous
100
AcDbLine
 10
374.9999996137958
 20
140.0001807972257
 30
0.0
 11
376.6000972700458
 21
140.0001807972257
 31
0.0
  0
LINE
  5
2B0D
330
D1
100
AcDbEntity
  8
0
  6
Continuous
100
AcDbLine
 10
381.6000972700458
 20
144.7999854847257
 30
0.0
 11
387.0004878950458
 21
144.7999854847257
 31
0.0
  0
LINE
  5
2B0E
330
D1
100
AcDbEntity
  8
0
  6
Continuous
100
AcDbLine
 10
286.4964595747333
 20
187.4001746937101
 30
0.0
 11
313.503722758327
 21
187.4001746937101
 31
0.0
  0
LINE
  5
2B0F
330
D1
100
AcDbEntity
  8
0
  6
Continuous
100
AcDbLine
 10
286.4964595747333
 20
188.6001869007414
 30
0.0
 11
313.503722758327
 21
188.6001869007414
 31
0.0
  0
LINE
  5
2B10
330
D1
100
AcDbEntity
  8
0
  6
Continuous
100
AcDbLine
 10
288.5964351606708
 20
189.0001807972257
 30
0.0
 11
288.5964351606708
 21
188.6001869007414
 31
0.0
  0
LINE
  5
2B11
330
D1
100
AcDbEntity
  8
0
  6
Continuous
100
AcDbLine
 10
289.0964351606708
 20
187.4001746937101
 30
0.0
 11
289.0964351606708
 21
187.0001807972258
 31
0.0
  0
LINE
  5
2B12
330
D1
100
AcDbEntity
  8
0
  6
Continuous
100
AcDbLine
 10
313.503722758327
 20
188.6001869007414
 30
0.0
 11
313.503722758327
 21
187.4001746937101
 31
0.0
  0
LINE
  5
2B13
330
D1
100
AcDbEntity
  8
0
  6
Continuous
100
AcDbLine
 10
310.9037471723896
 20
187.4001746937101
 30
0.0
 11
310.9037471723896
 21
187.0001807972258
 31
0.0
  0
LINE
  5
2B14
330
D1
100
AcDbEntity
  8
0
  6
Continuous
100
AcDbLine
 10
311.4037471723896
 20
189.0001807972257
 30
0.0
 11
311.4037471723896
 21
188.6001869007414
 31
0.0
  0
LINE
  5
2B15
330
D1
100
AcDbEntity
  8
0
  6
Continuous
100
AcDbLine
 10
286.4964595747333
 20
188.6001869007414
 30
0.0
 11
286.4964595747333
 21
187.4001746937101
 31
0.0
  0
ARC
  5
2B16
330
D1
100
AcDbEntity
  8
0
  6
Continuous
100
AcDbCircle
 10
373.9999996137958
 20
186.0001807972258
 30
0.0
 40
1.0
100
AcDbArc
 50
0.0
 51
90.00000250446868
  0
ARC
  5
2B17
330
D1
100
AcDbEntity
  8
0
  6
Continuous
100
AcDbCircle
 10
243.9999996137958
 20
186.0001807972258
 30
0.0
 40
1.0
100
AcDbArc
 50
90.00000250446868
 51
180.0000050089374
  0
ARC
  5
2B18
330
D1
100
AcDbEntity
  8
0
  6
Continuous
100
AcDbCircle
 10
243.9999996137958
 20
110.0001807972257
 30
0.0
 40
1.0
100
AcDbArc
 50
180.0000050089374
 51
270.0000006832169
  0
ARC
  5
2B19
330
D1
100
AcDbEntity
  8
0
  6
Continuous
100
AcDbCircle
 10
373.9999996137958
 20
110.0001807972257
 30
0.0
 40
1.0
100
AcDbArc
 50
269.9999974955313
 51
0.0
  0
ARC
  5
2B1A
330
D1
100
AcDbEntity
  8
0
  6
Continuous
100
AcDbCircle
 10
239.7226558637958
 20
142.3709083362882
 30
0.0
 40
3.322566986083984
100
AcDbArc
 50
145.6156989157106
 51
180.0000050089374
  0
ARC
  5
2B1B
330
D1
100
AcDbEntity
  8
0
  6
Continuous
100
AcDbCircle
 10
248.8193355512958
 20
148.0001807972257
 30
0.0
 40
12.41944122314453
100
AcDbArc
 50
162.4120629904969
 51
197.587974348181
  0
ARC
  5
2B1C
330
D1
100
AcDbEntity
  8
0
  6
Continuous
100
AcDbCircle
 10
239.7226558637958
 20
153.6295753284757
 30
0.0
 40
3.322566986083984
100
AcDbArc
 50
180.0000050089374
 51
214.3842974418085
  0
ARC
  5
2B1D
330
D1
100
AcDbEntity
  8
0
  6
Continuous
100
AcDbCircle
 10
228.9804683637958
 20
148.0001807972257
 30
0.0
 40
12.41944122314453
100
AcDbArc
 50
358.8465734684355
 51
17.58793689580115
  0
ARC
  5
2B1E
330
D1
100
AcDbEntity
  8
0
  6
Continuous
100
AcDbCircle
 10
238.0771480512958
 20
153.6295753284757
 30
0.0
 40
3.322566986083984
100
AcDbArc
 50
325.6157178124318
 51
0.0000359721976162
  0
ARC
  5
2B1F
330
D1
100
AcDbEntity
  8
0
  6
Continuous
100
AcDbCircle
 10
229.3227535200458
 20
142.3846717640226
 30
0.0
 40
3.322566986083984
100
AcDbArc
 50
145.6156989157106
 51
180.0000050089374
  0
ARC
  5
2B20
330
D1
100
AcDbEntity
  8
0
  6
Continuous
100
AcDbCircle
 10
229.3227535200458
 20
153.6433387562101
 30
0.0
 40
3.322566986083984
100
AcDbArc
 50
180.0000050089374
 51
214.3842974418085
  0
ARC
  5
2B21
330
D1
100
AcDbEntity
  8
0
  6
Continuous
100
AcDbCircle
 10
238.4194332075458
 20
148.0139442249601
 30
0.0
 40
12.41944122314453
100
AcDbArc
 50
162.4120629904969
 51
197.587974348181
  0
ARC
  5
2B22
330
D1
100
AcDbEntity
  8
0
  6
Continuous
100
AcDbCircle
 10
228.9804683637958
 20
148.0001807972257
 30
0.0
 40
12.41944122314453
100
AcDbArc
 50
342.4120631041989
 51
1.153426531564536
  0
ARC
  5
2B23
330
D1
100
AcDbEntity
  8
0
  6
Continuous
100
AcDbCircle
 10
238.0771480512958
 20
142.3707862659757
 30
0.0
 40
3.322566986083984
100
AcDbArc
 50
359.9999640278024
 51
34.38428218756817
  0
ARC
  5
2B24
330
D1
100
AcDbEntity
  8
0
  6
Continuous
100
AcDbCircle
 10
239.7226558637958
 20
142.3709083362882
 30
0.0
 40
3.322566986083984
100
AcDbArc
 50
145.6156989157106
 51
180.0000050089374
  0
ARC
  5
2B25
330
D1
100
AcDbEntity
  8
0
  6
Continuous
100
AcDbCircle
 10
248.8193355512958
 20
148.0001807972257
 30
0.0
 40
12.41944122314453
100
AcDbArc
 50
162.4120629904969
 51
197.587974348181
  0
ARC
  5
2B26
330
D1
100
AcDbEntity
  8
0
  6
Continuous
100
AcDbCircle
 10
239.7226558637958
 20
153.6295753284757
 30
0.0
 40
3.322566986083984
100
AcDbArc
 50
180.0000050089374
 51
214.3842974418085
  0
ARC
  5
2B27
330
D1
100
AcDbEntity
  8
0
  6
Continuous
100
AcDbCircle
 10
228.9804683637958
 20
148.0001807972257
 30
0.0
 40
12.41944122314453
100
AcDbArc
 50
358.8465734684355
 51
17.58793689580115
  0
ARC
  5
2B28
330
D1
100
AcDbEntity
  8
0
  6
Continuous
100
AcDbCircle
 10
238.0771480512958
 20
153.6295753284757
 30
0.0
 40
3.322566986083984
100
AcDbArc
 50
325.6157178124318
 51
0.0000359721976162
  0
ARC
  5
2B29
330
D1
100
AcDbEntity
  8
0
  6
Continuous
100
AcDbCircle
 10
229.3227535200458
 20
142.3846717640226
 30
0.0
 40
3.322566986083984
100
AcDbArc
 50
145.6156989157106
 51
180.0000050089374
  0
ARC
  5
2B2A
330
D1
100
AcDbEntity
  8
0
  6
Continuous
100
AcDbCircle
 10
229.3227535200458
 20
153.6433387562101
 30
0.0
 40
3.322566986083984
100
AcDbArc
 50
180.0000050089374
 51
214.3842974418085
  0
ARC
  5
2B2B
330
D1
100
AcDbEntity
  8
0
  6
Continuous
100
AcDbCircle
 10
238.4194332075458
 20
148.0139442249601
 30
0.0
 40
12.41944122314453
100
AcDbArc
 50
162.4120629904969
 51
197.587974348181
  0
ARC
  5
2B2C
330
D1
100
AcDbEntity
  8
0
  6
Continuous
100
AcDbCircle
 10
228.9804683637958
 20
148.0001807972257
 30
0.0
 40
12.41944122314453
100
AcDbArc
 50
342.4120631041989
 51
1.153426531564536
  0
ARC
  5
2B2D
330
D1
100
AcDbEntity
  8
0
  6
Continuous
100
AcDbCircle
 10
238.0771480512958
 20
142.3707862659757
 30
0.0
 40
3.322566986083984
100
AcDbArc
 50
359.9999640278024
 51
34.38428218756817
  0
ARC
  5
2B2E
330
D1
100
AcDbEntity
  8
0
  6
Continuous
100
AcDbCircle
 10
240.0026241255146
 20
112.6876807972257
 30
0.0
 40
2.60258674621582
100
AcDbArc
 50
146.4726417697697
 51
213.5273545878146
  0
ARC
  5
2B2F
330
D1
100
AcDbEntity
  8
0
  6
Continuous
100
AcDbCircle
 10
247.1608272505146
 20
117.0001807972257
 30
0.0
 40
9.760828018188476
100
AcDbArc
 50
185.912889755556
 51
197.1302323728117
  0
ARC
  5
2B30
330
D1
100
AcDbEntity
  8
0
  6
Continuous
100
AcDbCircle
 10
240.0026241255146
 20
121.3126807972257
 30
0.0
 40
2.60258674621582
100
AcDbArc
 50
146.4726417697697
 51
213.5273545878146
  0
ARC
  5
2B31
330
D1
100
AcDbEntity
  8
0
  6
Continuous
100
AcDbCircle
 10
247.1608272505146
 20
117.0001807972257
 30
0.0
 40
9.760828018188476
100
AcDbArc
 50
162.8697676271882
 51
180.0000050089374
  0
ARC
  5
2B32
330
D1
100
AcDbEntity
  8
0
  6
Continuous
100
AcDbCircle
 10
240.0026241255146
 20
174.6876807972257
 30
0.0
 40
2.60258674621582
100
AcDbArc
 50
146.4726417697697
 51
213.5273545878146
  0
ARC
  5
2B33
330
D1
100
AcDbEntity
  8
0
  6
Continuous
100
AcDbCircle
 10
247.1608272505146
 20
179.0001807972257
 30
0.0
 40
9.760828018188476
100
AcDbArc
 50
185.912889755556
 51
197.1302323728117
  0
ARC
  5
2B34
330
D1
100
AcDbEntity
  8
0
  6
Continuous
100
AcDbCircle
 10
240.0026241255146
 20
183.3126807972258
 30
0.0
 40
2.60258674621582
100
AcDbArc
 50
146.4726417697697
 51
213.5273545878146
  0
ARC
  5
2B35
330
D1
100
AcDbEntity
  8
0
  6
Continuous
100
AcDbCircle
 10
247.1608272505146
 20
179.0001807972257
 30
0.0
 40
9.760828018188476
100
AcDbArc
 50
162.8697676271882
 51
180.0000050089374
  0
ARC
  5
2B36
330
D1
100
AcDbEntity
  8
0
  6
Continuous
100
AcDbCircle
 10
377.9974361372333
 20
112.6876807972257
 30
0.0
 40
2.60258674621582
100
AcDbArc
 50
326.4726435909409
 51
33.52735640905905
  0
ARC
  5
2B37
330
D1
100
AcDbEntity
  8
0
  6
Continuous
100
AcDbCircle
 10
370.8391719770771
 20
117.0001807972257
 30
0.0
 40
9.760828018188476
100
AcDbArc
 50
342.8697626181904
 51
354.0871150539576
  0
ARC
  5
2B38
330
D1
100
AcDbEntity
  8
0
  6
Continuous
100
AcDbCircle
 10
377.9974361372333
 20
121.3126807972257
 30
0.0
 40
2.60258674621582
100
AcDbArc
 50
326.4726435909409
 51
33.52735640905905
  0
ARC
  5
2B39
330
D1
100
AcDbEntity
  8
0
  6
Continuous
100
AcDbCircle
 10
370.8391719770771
 20
117.0001807972257
 30
0.0
 40
9.760828018188476
100
AcDbArc
 50
0.0
 51
17.13023738180964
  0
ARC
  5
2B3A
330
D1
100
AcDbEntity
  8
0
  6
Continuous
100
AcDbCircle
 10
377.9974361372333
 20
174.6876807972257
 30
0.0
 40
2.60258674621582
100
AcDbArc
 50
326.4726435909409
 51
33.52735640905905
  0
ARC
  5
2B3B
330
D1
100
AcDbEntity
  8
0
  6
Continuous
100
AcDbCircle
 10
370.8391719770771
 20
179.0001807972257
 30
0.0
 40
9.760828018188476
100
AcDbArc
 50
342.8697626181904
 51
354.0871150539576
  0
ARC
  5
2B3C
330
D1
100
AcDbEntity
  8
0
  6
Continuous
100
AcDbCircle
 10
377.9974361372333
 20
183.3126807972258
 30
0.0
 40
2.60258674621582
100
AcDbArc
 50
326.4726435909409
 51
33.52735640905905
  0
ARC
  5
2B3D
330
D1
100
AcDbEntity
  8
0
  6
Continuous
100
AcDbCircle
 10
370.8391719770771
 20
179.0001807972257
 30
0.0
 40
9.760828018188476
100
AcDbArc
 50
0.0
 51
17.13023738180964
  0
ARC
  5
2B3E
330
D1
100
AcDbEntity
  8
0
  6
Continuous
100
AcDbCircle
 10
378.2773433637958
 20
142.3709083362882
 30
0.0
 40
3.322566986083984
100
AcDbArc
 50
0.0
 51
34.38430267815954
  0
ARC
  5
2B3F
330
D1
100
AcDbEntity
  8
0
  6
Continuous
100
AcDbCircle
 10
369.1806636762958
 20
148.0001807972257
 30
0.0
 40
12.41944122314453
100
AcDbArc
 50
342.4120272457033
 51
17.58793860338748
  0
ARC
  5
2B40
330
D1
100
AcDbEntity
  8
0
  6
Continuous
100
AcDbCircle
 10
378.2773433637958
 20
153.6295753284757
 30
0.0
 40
3.322566986083984
100
AcDbArc
 50
325.6156973218405
 51
0.0
  0
ARC
  5
2B41
330
D1
100
AcDbEntity
  8
0
  6
Continuous
100
AcDbCircle
 10
389.0195308637958
 20
148.0001807972257
 30
0.0
 40
12.41944122314453
100
AcDbArc
 50
162.4120629904969
 51
181.153432714495
  0
ARC
  5
2B42
330
D1
100
AcDbEntity
  8
0
  6
Continuous
100
AcDbCircle
 10
379.9228511762958
 20
153.6295753284757
 30
0.0
 40
3.322566986083984
100
AcDbArc
 50
179.9999640278024
 51
214.3842837814907
  0
ARC
  5
2B43
330
D1
100
AcDbEntity
  8
0
  6
Continuous
100
AcDbCircle
 10
388.6772457075458
 20
142.3846717640226
 30
0.0
 40
3.322566986083984
100
AcDbArc
 50
0.0
 51
34.38430267815954
  0
ARC
  5
2B44
330
D1
100
AcDbEntity
  8
0
  6
Continuous
100
AcDbCircle
 10
388.6772457075458
 20
153.6433387562101
 30
0.0
 40
3.322566986083984
100
AcDbArc
 50
325.6156973218405
 51
0.0
  0
ARC
  5
2B45
330
D1
100
AcDbEntity
  8
0
  6
Continuous
100
AcDbCircle
 10
379.5805660200458
 20
148.0139442249601
 30
0.0
 40
12.41944122314453
100
AcDbArc
 50
342.4120272457033
 51
17.58793860338748
  0
ARC
  5
2B46
330
D1
100
AcDbEntity
  8
0
  6
Continuous
100
AcDbCircle
 10
389.0195308637958
 20
148.0001807972257
 30
0.0
 40
12.41944122314453
100
AcDbArc
 50
178.8465773034294
 51
197.5879333670221
  0
ARC
  5
2B47
330
D1
100
AcDbEntity
  8
0
  6
Continuous
100
AcDbCircle
 10
379.9228511762958
 20
142.3707862659757
 30
0.0
 40
3.322566986083984
100
AcDbArc
 50
145.6157125760727
 51
180.0000323296941
  0
ARC
  5
2B48
330
D1
100
AcDbEntity
  8
0
  6
Continuous
100
AcDbCircle
 10
378.2773433637958
 20
142.3709083362882
 30
0.0
 40
3.322566986083984
100
AcDbArc
 50
0.0
 51
34.38430267815954
  0
ARC
  5
2B49
330
D1
100
AcDbEntity
  8
0
  6
Continuous
100
AcDbCircle
 10
369.1806636762958
 20
148.0001807972257
 30
0.0
 40
12.41944122314453
100
AcDbArc
 50
342.4120272457033
 51
17.58793860338748
  0
ARC
  5
2B4A
330
D1
100
AcDbEntity
  8
0
  6
Continuous
100
AcDbCircle
 10
378.2773433637958
 20
153.6295753284757
 30
0.0
 40
3.322566986083984
100
AcDbArc
 50
325.6156973218405
 51
0.0
  0
ARC
  5
2B4B
330
D1
100
AcDbEntity
  8
0
  6
Continuous
100
AcDbCircle
 10
389.0195308637958
 20
148.0001807972257
 30
0.0
 40
12.41944122314453
100
AcDbArc
 50
162.4120629904969
 51
181.153432714495
  0
ARC
  5
2B4C
330
D1
100
AcDbEntity
  8
0
  6
Continuous
100
AcDbCircle
 10
379.9228511762958
 20
153.6295753284757
 30
0.0
 40
3.322566986083984
100
AcDbArc
 50
179.9999640278024
 51
214.3842837814907
  0
ARC
  5
2B4D
330
D1
100
AcDbEntity
  8
0
  6
Continuous
100
AcDbCircle
 10
388.6772457075458
 20
142.3846717640226
 30
0.0
 40
3.322566986083984
100
AcDbArc
 50
0.0
 51
34.38430267815954
  0
ARC
  5
2B4E
330
D1
100
AcDbEntity
  8
0
  6
Continuous
100
AcDbCircle
 10
388.6772457075458
 20
153.6433387562101
 30
0.0
 40
3.322566986083984
100
AcDbArc
 50
325.6156973218405
 51
0.0
  0
ARC
  5
2B4F
330
D1
100
AcDbEntity
  8
0
  6
Continuous
100
AcDbCircle
 10
379.5805660200458
 20
148.0139442249601
 30
0.0
 40
12.41944122314453
100
AcDbArc
 50
342.4120272457033
 51
17.58793860338748
  0
ARC
  5
2B50
330
D1
100
AcDbEntity
  8
0
  6
Continuous
100
AcDbCircle
 10
389.0195308637958
 20
148.0001807972257
 30
0.0
 40
12.41944122314453
100
AcDbArc
 50
178.8465773034294
 51
197.5879333670221
  0
ARC
  5
2B51
330
D1
100
AcDbEntity
  8
0
  6
Continuous
100
AcDbCircle
 10
379.9228511762958
 20
142.3707862659757
 30
0.0
 40
3.322566986083984
100
AcDbArc
 50
145.6157125760727
 51
180.0000323296941
  0
LINE
  5
2B52
330
D1
100
AcDbEntity
  8
0
  6
Continuous
100
AcDbLine
 10
293.8999633789062
 20
215.4998989713022
 30
0.0
 11
293.8999633789062
 21
213.9998989713022
 31
0.0
  0
LINE
  5
2B53
330
D1
100
AcDbEntity
  8
0
  6
Continuous
100
AcDbLine
 10
306.0999755859375
 20
215.4998989713022
 30
0.0
 11
306.0999755859375
 21
213.9998989713022
 31
0.0
  0
LINE
  5
2B54
330
D1
100
AcDbEntity
  8
0
  6
Continuous
100
AcDbLine
 10
306.0999755859375
 20
215.4998989713022
 30
0.0
 11
293.8999633789062
 21
215.4998989713022
 31
0.0
  0
LINE
  5
2B55
330
D1
100
AcDbEntity
  8
0
  6
Continuous
100
AcDbLine
 10
300.8659709481326
 20
215.4999013003398
 30
0.0
 11
299.9999441469545
 21
213.9998964993301
 31
0.0
  0
LINE
  5
2B56
330
D1
100
AcDbEntity
  8
0
  6
Continuous
100
AcDbLine
 10
299.9999296785163
 20
215.4998732247077
 30
0.0
 11
299.1339333948799
 21
213.9999212817147
 31
0.0
  0
LINE
  5
2B57
330
D1
100
AcDbEntity
  8
0
  6
Continuous
100
AcDbLine
 10
305.2499389648438
 20
217.0269070279428
 30
0.0
 11
305.2499389648438
 21
215.4998989713022
 31
0.0
  0
LINE
  5
2B58
330
D1
100
AcDbEntity
  8
0
  6
Continuous
100
AcDbLine
 10
294.7499389648438
 20
217.0269070279428
 30
0.0
 11
294.7499389648438
 21
215.4998989713022
 31
0.0
  0
ARC
  5
2B59
330
D1
100
AcDbEntity
  8
0
  6
Continuous
100
AcDbCircle
 10
299.9999389648437
 20
205.3998928677866
 30
0.0
 40
14.0
100
AcDbArc
 50
73.92713987789818
 51
106.0728651310527
  0
ARC
  5
2B5A
330
D1
100
AcDbEntity
  8
0
  6
Continuous
100
AcDbCircle
 10
303.3499755859375
 20
217.0269070279428
 30
0.0
 40
1.899999976158142
100
AcDbArc
 50
0.0
 51
73.92713987789818
  0
ARC
  5
2B5B
330
D1
100
AcDbEntity
  8
0
  6
Continuous
100
AcDbCircle
 10
296.6499633789062
 20
217.0269070279428
 30
0.0
 40
1.899999976158142
100
AcDbArc
 50
106.0728651310527
 51
180.0000050089374
  0
LINE
  5
2B5C
330
D1
100
AcDbEntity
  8
0
  6
Continuous
100
AcDbLine
 10
284.4000000000006
 20
188.9999066006967
 30
0.0
 11
315.6000000000004
 21
188.9999066006967
 31
0.0
  0
LINE
  5
2B5D
330
D1
100
AcDbEntity
  8
0
  6
Continuous
100
AcDbLine
 10
284.4000000000006
 20
213.9998989713022
 30
0.0
 11
300.0
 21
213.9998989713022
 31
0.0
  0
LINE
  5
2B5E
330
D1
100
AcDbEntity
  8
0
  6
Continuous
100
AcDbLine
 10
284.4000000000006
 20
213.9998989713022
 30
0.0
 11
284.4000000000006
 21
188.9999066006967
 31
0.0
  0
LINE
  5
2B5F
330
D1
100
AcDbEntity
  8
0
  6
Continuous
100
AcDbLine
 10
298.0
 20
213.9998989713022
 30
0.0
 11
298.0
 21
188.9999066006967
 31
0.0
  0
LINE
  5
2B60
330
D1
100
AcDbEntity
  8
0
  6
Continuous
100
AcDbLine
 10
315.6000000000004
 20
213.9998989713022
 30
0.0
 11
300.0
 21
213.9998989713022
 31
0.0
  0
LINE
  5
2B61
330
D1
100
AcDbEntity
  8
0
  6
Continuous
100
AcDbLine
 10
315.6000000000004
 20
213.9998989713022
 30
0.0
 11
315.6000000000004
 21
188.9999066006967
 31
0.0
  0
LINE
  5
2B62
330
D1
100
AcDbEntity
  8
0
  6
Continuous
100
AcDbLine
 10
293.8999633789062
 20
213.9998989713022
 30
0.0
 11
306.0999755859375
 21
213.9998989713022
 31
0.0
  0
LINE
  5
2B63
330
D1
100
AcDbEntity
  8
0
  6
Continuous
100
AcDbLine
 10
302.0
 20
213.9998989713022
 30
0.0
 11
302.0
 21
188.9999066006967
 31
0.0
  0
LINE
  5
2B64
330
D1
100
AcDbEntity
  8
0
  6
Continuous
100
AcDbLine
 10
312.7499998490039
 20
75.29987653712396
 30
0.0
 11
287.2499998490038
 21
75.29987653712396
 31
0.0
  0
LINE
  5
2B65
330
D1
100
AcDbEntity
  8
0
  6
Continuous
100
AcDbLine
 10
314.7499998490039
 20
103.2998765371239
 30
0.0
 11
314.7499998490039
 21
77.29987653712396
 31
0.0
  0
LINE
  5
2B66
330
D1
100
AcDbEntity
  8
0
  6
Continuous
100
AcDbLine
 10
285.2499998490038
 20
103.2998765371239
 30
0.0
 11
285.2499998490038
 21
77.29987653712396
 31
0.0
  0
ARC
  5
2B67
330
D1
100
AcDbEntity
  8
0
  6
Continuous
100
AcDbCircle
 10
312.7499998490039
 20
103.2998765371239
 30
0.0
 40
2.0
100
AcDbArc
 50
0.0000025044687019
 51
58.22837733768422
  0
ARC
  5
2B68
330
D1
100
AcDbEntity
  8
0
  6
Continuous
100
AcDbCircle
 10
312.7499998490039
 20
77.29987653712396
 30
0.0
 40
2.0
100
AcDbArc
 50
270.0
 51
0.0000025044687019
  0
ARC
  5
2B69
330
D1
100
AcDbEntity
  8
0
  6
Continuous
100
AcDbCircle
 10
287.2499998490038
 20
77.29987653712396
 30
0.0
 40
2.0
100
AcDbArc
 50
179.9999974955313
 51
270.0
  0
ARC
  5
2B6A
330
D1
100
AcDbEntity
  8
0
  6
Continuous
100
AcDbCircle
 10
287.2499998490038
 20
103.2998765371239
 30
0.0
 40
2.0
100
AcDbArc
 50
121.7716226623158
 51
180.000000683269
  0
LINE
  5
2B6B
330
D1
100
AcDbEntity
  8
0
  6
Continuous
100
AcDbLine
 10
280.0
 20
61.41351755189862
 30
0.0
 11
280.0
 21
59.53018369379606
 31
0.0
  0
LINE
  5
2B6C
330
D1
100
AcDbEntity
  8
0
  6
Continuous
100
AcDbLine
 10
319.4464101615131
 20
71.00018369379722
 30
0.0
 11
280.5535898384869
 21
71.00018369379722
 31
0.0
  0
LINE
  5
2B6D
330
D1
100
AcDbEntity
  8
0
  6
Continuous
100
AcDbLine
 10
319.4699999999993
 20
59.00018369379722
 30
0.0
 11
280.5300000000007
 21
59.00018369379722
 31
0.0
  0
LINE
  5
2B6E
330
D1
100
AcDbEntity
  8
0
  6
Continuous
100
AcDbLine
 10
332.5
 20
108.0001836937972
 30
0.0
 11
332.5
 21
105.0001836937972
 31
0.0
  0
LINE
  5
2B6F
330
D1
100
AcDbEntity
  8
0
  6
Continuous
100
AcDbLine
 10
267.5
 20
108.0001836937972
 30
0.0
 11
267.5
 21
105.0001836937972
 31
0.0
  0
LINE
  5
2B70
330
D1
100
AcDbEntity
  8
0
  6
Continuous
100
AcDbLine
 10
332.5
 20
105.0001836937972
 30
0.0
 11
267.5
 21
105.0001836937972
 31
0.0
  0
LINE
  5
2B71
330
D1
100
AcDbEntity
  8
0
  6
Continuous
100
AcDbLine
 10
267.5000063994694
 20
108.0001756934989
 30
0.0
 11
268.5000075203197
 21
109.0001767300564
 31
0.0
  0
LINE
  5
2B72
330
D1
100
AcDbEntity
  8
0
  6
Continuous
100
AcDbLine
 10
331.4999999515066
 20
109.0001848643978
 30
0.0
 11
332.5000009880641
 21
108.0001837435466
 31
0.0
  0
ARC
  5
2B73
330
D1
100
AcDbEntity
  8
0
  6
Continuous
100
AcDbCircle
 10
280.5300000000007
 20
59.53018369379606
 30
0.0
 40
0.5300000000000001
100
AcDbArc
 50
180.0
 51
270.0
  0
LINE
  5
2B74
330
D1
100
AcDbEntity
  8
0
  6
Continuous
100
AcDbLine
 10
280.5000000578311
 20
95.99974161385034
 30
0.0
 11
280.5
 21
71.20018355886077
 31
0.0
  0
LINE
  5
2B75
330
D1
100
AcDbEntity
  8
0
  6
Continuous
100
AcDbLine
 10
273.6500000559663
 20
95.9997416298238
 30
0.0
 11
273.6500000000006
 21
72.00018369379723
 31
0.0
  0
ARC
  5
2B76
330
D1
100
AcDbEntity
  8
0
  6
Continuous
100
AcDbCircle
 10
282.6500000000006
 20
72.00018369379723
 30
0.0
 40
9.0
100
AcDbArc
 50
240.3668769534328
 51
241.9115963905056
  0
ARC
  5
2B77
330
D1
100
AcDbEntity
  8
0
  6
Continuous
100
AcDbCircle
 10
277.0
 20
61.41351755189862
 30
0.0
 40
3.0
100
AcDbArc
 50
0.0
 51
61.91159639050566
  0
ARC
  5
2B78
330
D1
100
AcDbEntity
  8
0
  6
Continuous
100
AcDbCircle
 10
280.9000000000006
 20
71.20018369379613
 30
0.0
 40
0.4
100
AcDbArc
 50
180.0
 51
210.0000000000559
  0
LINE
  5
2B79
330
D1
100
AcDbEntity
  8
0
  6
Continuous
100
AcDbLine
 10
320.0
 20
61.41351755189862
 30
0.0
 11
320.0
 21
59.53018369379606
 31
0.0
  0
ARC
  5
2B7A
330
D1
100
AcDbEntity
  8
0
  6
Continuous
100
AcDbCircle
 10
319.4699999999993
 20
59.53018369379606
 30
0.0
 40
0.5300000000000001
100
AcDbArc
 50
270.0
 51
0.0
  0
ARC
  5
2B7B
330
D1
100
AcDbEntity
  8
0
  6
Continuous
100
AcDbCircle
 10
317.3499999999994
 20
72.00018369379723
 30
0.0
 40
9.0
100
AcDbArc
 50
298.0884036094208
 51
0.0
  0
ARC
  5
2B7C
330
D1
100
AcDbEntity
  8
0
  6
Continuous
100
AcDbCircle
 10
323.0
 20
61.41351755189862
 30
0.0
 40
3.0
100
AcDbArc
 50
118.0884036094208
 51
180.0
  0
ARC
  5
2B7D
330
D1
100
AcDbEntity
  8
0
  6
Continuous
100
AcDbCircle
 10
319.0999999999994
 20
71.20018369379613
 30
0.0
 40
0.4
100
AcDbArc
 50
329.9999999999441
 51
0.0
  0
LINE
  5
2B7E
330
D1
100
AcDbEntity
  8
0
  6
Continuous
100
AcDbLine
 10
269.7174990999065
 20
96.49971112141702
 30
0.0
 11
269.717499119728
 21
104.9997416389951
 31
0.0
  0
LINE
  5
2B7F
330
D1
100
AcDbEntity
  8
0
  6
Continuous
100
AcDbLine
 10
281.8514797570424
 20
95.99970586294331
 30
0.0
 11
282.7175051569411
 21
96.49970586967356
 31
0.0
  0
LINE
  5
2B80
330
D1
100
AcDbEntity
  8
0
  6
Continuous
100
AcDbLine
 10
282.7174991173943
 20
103.9997110911045
 30
0.0
 11
269.7174991173942
 21
103.9997111214188
 31
0.0
  0
LINE
  5
2B81
330
D1
100
AcDbEntity
  8
0
  6
Continuous
100
AcDbLine
 10
282.7174991144811
 20
102.7497416086808
 30
0.0
 11
269.7174991144811
 21
102.749741638996
 31
0.0
  0
LINE
  5
2B82
330
D1
100
AcDbEntity
  8
0
  6
Continuous
100
AcDbLine
 10
282.7174990999083
 20
96.49971109110083
 30
0.0
 11
269.7174990999083
 21
96.49971112141612
 31
0.0
  0
LINE
  5
2B83
330
D1
100
AcDbEntity
  8
0
  6
Continuous
100
AcDbLine
 10
270.5835316671073
 20
95.99972776548383
 30
0.0
 11
269.7175194817082
 21
96.49972014281956
 31
0.0
  0
LINE
  5
2B84
330
D1
100
AcDbEntity
  8
0
  6
Continuous
100
AcDbLine
 10
281.8515017842892
 20
95.99974161069804
 30
0.0
 11
270.5835574483517
 21
95.99974163697515
 31
0.0
  0
LINE
  5
2B85
330
D1
100
AcDbEntity
  8
0
  6
Continuous
100
AcDbLine
 10
282.7174990999083
 20
96.49971109109992
 30
0.0
 11
282.7174991197298
 21
104.999741608678
 31
0.0
  0
LINE
  5
2B86
330
D1
100
AcDbEntity
  8
0
  6
Continuous
100
AcDbLine
 10
319.4999999421689
 20
95.99974161385034
 30
0.0
 11
319.5
 21
71.20018355886077
 31
0.0
  0
LINE
  5
2B87
330
D1
100
AcDbEntity
  8
0
  6
Continuous
100
AcDbLine
 10
326.3499999440337
 20
95.9997416298238
 30
0.0
 11
326.3499999999995
 21
72.00018369379723
 31
0.0
  0
LINE
  5
2B88
330
D1
100
AcDbEntity
  8
0
  6
Continuous
100
AcDbLine
 10
330.2825009000935
 20
96.49971112141702
 30
0.0
 11
330.282500880272
 21
104.9997416389951
 31
0.0
  0
LINE
  5
2B89
330
D1
100
AcDbEntity
  8
0
  6
Continuous
100
AcDbLine
 10
318.1485202429576
 20
95.99970586294331
 30
0.0
 11
317.2824948430589
 21
96.49970586967356
 31
0.0
  0
LINE
  5
2B8A
330
D1
100
AcDbEntity
  8
0
  6
Continuous
100
AcDbLine
 10
317.2825008826058
 20
103.9997110911045
 30
0.0
 11
330.2825008826058
 21
103.9997111214188
 31
0.0
  0
LINE
  5
2B8B
330
D1
100
AcDbEntity
  8
0
  6
Continuous
100
AcDbLine
 10
317.2825009000917
 20
96.49971109110083
 30
0.0
 11
330.2825009000917
 21
96.49971112141612
 31
0.0
  0
LINE
  5
2B8C
330
D1
100
AcDbEntity
  8
0
  6
Continuous
100
AcDbLine
 10
329.4164683328927
 20
95.99972776548383
 30
0.0
 11
330.2824805182918
 21
96.49972014281956
 31
0.0
  0
LINE
  5
2B8D
330
D1
100
AcDbEntity
  8
0
  6
Continuous
100
AcDbLine
 10
318.1484982157108
 20
95.99974161069804
 30
0.0
 11
329.4164425516483
 21
95.99974163697515
 31
0.0
  0
LINE
  5
2B8E
330
D1
100
AcDbEntity
  8
0
  6
Continuous
100
AcDbLine
 10
317.2825009000917
 20
96.49971109109992
 30
0.0
 11
317.2825008802702
 21
104.999741608678
 31
0.0
  0
LINE
  5
2B8F
330
D1
100
AcDbEntity
  8
0
  6
Continuous
100
AcDbLine
 10
282.5000168389152
 20
58.99980820275414
 30
0.0
 11
282.5000229914967
 21
49.49997845653706
 31
0.0
  0
LINE
  5
2B90
330
D1
100
AcDbEntity
  8
0
  6
Continuous
100
AcDbLine
 10
317.4998697555821
 20
58.99999690121967
 30
0.0
 11
317.4999209738189
 21
49.50002154339745
 31
0.0
  0
LINE
  5
2B91
330
D1
100
AcDbEntity
  8
0
  6
Continuous
100
AcDbLine
 10
287.5
 20
74.99998227850847
 30
0.0
 11
312.5
 21
74.99998227850847
 31
0.0
  0
LINE
  5
2B92
330
D1
100
AcDbEntity
  8
0
  6
Continuous
100
AcDbLine
 10
282.5000223472734
 20
49.49997845653706
 30
0.0
 11
317.4999762940224
 21
49.50002154346112
 31
0.0
  0
LINE
  5
2B93
330
D1
100
AcDbEntity
  8
0
  6
Continuous
100
AcDbLine
 10
317.4999847458785
 20
72.99998158314338
 30
0.0
 11
282.5000152541215
 21
72.99998158314338
 31
0.0
  0
LINE
  5
2B94
330
D1
100
AcDbEntity
  8
0
  6
Continuous
100
AcDbLine
 10
288.0000311824943
 20
70.99998165193937
 30
0.0
 11
285.0000006649161
 21
70.99998165893521
 31
0.0
  0
LINE
  5
2B95
330
D1
100
AcDbEntity
  8
0
  6
Continuous
100
AcDbLine
 10
317.4999847458785
 20
72.99998158314338
 30
0.0
 11
282.5000152541215
 21
72.99998158314338
 31
0.0
  0
LINE
  5
2B96
330
D1
100
AcDbEntity
  8
0
  6
Continuous
100
AcDbLine
 10
288.0000311824943
 20
70.99998165193937
 30
0.0
 11
285.0000006649161
 21
70.99998165893521
 31
0.0
  0
LINE
  5
2B97
330
D1
100
AcDbEntity
  8
0
  6
Continuous
100
AcDbLine
 10
314.9999633682937
 20
70.99998158898779
 30
0.0
 11
285.000000664907
 21
70.99998165894612
 31
0.0
  0
LINE
  5
2B98
330
D1
100
AcDbEntity
  8
0
  6
Continuous
100
AcDbLine
 10
288.0000006695709
 20
72.99998165195029
 30
0.0
 11
285.0000006695709
 21
72.99998165894613
 31
0.0
  0
LINE
  5
2B99
330
D1
100
AcDbEntity
  8
0
  6
Continuous
100
AcDbLine
 10
317.499910181793
 20
58.99999690143705
 30
0.0
 11
282.5000168389152
 21
58.99980820275414
 31
0.0
  0
LINE
  5
2B9A
330
D1
100
AcDbEntity
  8
0
  6
Continuous
100
AcDbLine
 10
287.5
 20
74.49980077984765
 30
0.0
 11
312.5
 21
74.49980077984765
 31
0.0
  0
LINE
  5
2B9B
330
D1
100
AcDbEntity
  8
0
  6
Continuous
100
AcDbLine
 10
309.7500067082738
 20
74.99998227850847
 30
0.0
 11
309.7500067082628
 21
75.29987653712396
 31
0.0
  0
LINE
  5
2B9C
330
D1
100
AcDbEntity
  8
0
  6
Continuous
100
AcDbLine
 10
290.2500067082747
 20
74.99998227850847
 30
0.0
 11
290.2500067082665
 21
75.29987653712396
 31
0.0
  0
LINE
  5
2B9D
330
D1
100
AcDbEntity
  8
0
  6
Continuous
100
AcDbLine
 10
317.4999847458785
 20
72.99998158314338
 30
0.0
 11
317.4999847412146
 21
70.99998158314247
 31
0.0
  0
LINE
  5
2B9E
330
D1
100
AcDbEntity
  8
0
  6
Continuous
100
AcDbLine
 10
282.5000152541215
 20
72.99998158314338
 30
0.0
 11
282.5000152587854
 21
70.99998158314247
 31
0.0
  0
LINE
  5
2B9F
330
D1
100
AcDbEntity
  8
0
  6
Continuous
100
AcDbLine
 10
287.5
 20
74.99998227850847
 30
0.0
 11
287.5
 21
72.99998158314338
 31
0.0
  0
LINE
  5
2BA0
330
D1
100
AcDbEntity
  8
0
  6
Continuous
100
AcDbLine
 10
312.5
 20
74.99998227850847
 30
0.0
 11
312.5
 21
72.99998158314338
 31
0.0
  0
LINE
  5
2BA1
330
D1
100
AcDbEntity
  8
0
  6
Continuous
100
AcDbLine
 10
277.1999999999998
 20
72.75018064203869
 30
0.0
 11
273.6499999999996
 21
72.75018064203869
 31
0.0
  0
LINE
  5
2BA2
330
D1
100
AcDbEntity
  8
0
  6
Continuous
100
AcDbLine
 10
278.1999999999998
 20
71.75018064203868
 30
0.0
 11
278.1999999999998
 21
64.17730059355836
 31
0.0
  0
ARC
  5
2BA3
330
D1
100
AcDbEntity
  8
0
  6
Continuous
100
AcDbCircle
 10
277.1999999999998
 20
71.75018064203868
 30
0.0
 40
1.0
100
AcDbArc
 50
0.0
 51
90.0
  0
LINE
  5
2BA4
330
D1
100
AcDbEntity
  8
0
  6
Continuous
100
AcDbLine
 10
271.9000007786263
 20
70.98056271517453
 30
0.0
 11
272.2000019270745
 21
71.50017993728761
 31
0.0
  0
LINE
  5
2BA5
330
D1
100
AcDbEntity
  8
0
  6
Continuous
100
AcDbLine
 10
272.2000008611331
 20
63.00017929581918
 30
0.0
 11
271.8999997126857
 21
63.51979651793318
 31
0.0
  0
LINE
  5
2BA6
330
D1
100
AcDbEntity
  8
0
  6
Continuous
100
AcDbLine
 10
272.1999999999998
 20
71.50018064203869
 30
0.0
 11
272.1999999999998
 21
63.00018064203868
 31
0.0
  0
LINE
  5
2BA7
330
D1
100
AcDbEntity
  8
0
  6
Continuous
100
AcDbLine
 10
276.9000007629393
 20
62.65018216791759
 30
0.0
 11
278.1999999999998
 21
62.65018216791759
 31
0.0
  0
LINE
  5
2BA8
330
D1
100
AcDbEntity
  8
0
  6
Continuous
100
AcDbLine
 10
272.1999999999998
 20
63.00018064203868
 30
0.0
 11
276.9000007629393
 21
63.00018064203868
 31
0.0
  0
LINE
  5
2BA9
330
D1
100
AcDbEntity
  8
0
  6
Continuous
100
AcDbLine
 10
271.9000007629393
 20
70.98056546869884
 30
0.0
 11
271.9000007629393
 21
63.51979581537853
 31
0.0
  0
LINE
  5
2BAA
330
D1
100
AcDbEntity
  8
0
  6
Continuous
100
AcDbLine
 10
276.9000007629393
 20
71.85017911615978
 30
0.0
 11
276.9000007629393
 21
62.65018216791759
 31
0.0
  0
LINE
  5
2BAB
330
D1
100
AcDbEntity
  8
0
  6
Continuous
100
AcDbLine
 10
272.1999999999998
 20
71.50018064203869
 30
0.0
 11
276.9000007629393
 21
71.50018064203869
 31
0.0
  0
LINE
  5
2BAC
330
D1
100
AcDbEntity
  8
0
  6
Continuous
100
AcDbLine
 10
276.9000007629393
 20
71.85017911615978
 30
0.0
 11
278.1999999999998
 21
71.85017911615978
 31
0.0
  0
LINE
  5
2BAD
330
D1
100
AcDbEntity
  8
0
  6
Continuous
100
AcDbLine
 10
278.1999999999998
 20
71.85017911615978
 30
0.0
 11
278.1999999999998
 21
62.65018216791759
 31
0.0
  0
LINE
  5
2BAE
330
D1
100
AcDbEntity
  8
0
  6
Continuous
100
AcDbLine
 10
328.0999992213738
 20
70.98056271517453
 30
0.0
 11
327.7999980729255
 21
71.50017993728761
 31
0.0
  0
LINE
  5
2BAF
330
D1
100
AcDbEntity
  8
0
  6
Continuous
100
AcDbLine
 10
327.799999138867
 20
63.00017929581918
 30
0.0
 11
328.1000002873143
 21
63.51979651793318
 31
0.0
  0
LINE
  5
2BB0
330
D1
100
AcDbEntity
  8
0
  6
Continuous
100
AcDbLine
 10
327.8000000000002
 20
71.50018064203869
 30
0.0
 11
327.8000000000002
 21
63.00018064203868
 31
0.0
  0
LINE
  5
2BB1
330
D1
100
AcDbEntity
  8
0
  6
Continuous
100
AcDbLine
 10
323.8000000000002
 20
65.72344090792467
 30
0.0
 11
323.8000000000002
 21
63.00018064203868
 31
0.0
  0
LINE
  5
2BB2
330
D1
100
AcDbEntity
  8
0
  6
Continuous
100
AcDbLine
 10
323.0999992370607
 20
62.65018216791759
 30
0.0
 11
321.8000000000002
 21
62.65018216791759
 31
0.0
  0
LINE
  5
2BB3
330
D1
100
AcDbEntity
  8
0
  6
Continuous
100
AcDbLine
 10
327.8000000000002
 20
63.00018064203868
 30
0.0
 11
323.0999992370607
 21
63.00018064203868
 31
0.0
  0
LINE
  5
2BB4
330
D1
100
AcDbEntity
  8
0
  6
Continuous
100
AcDbLine
 10
328.0999992370607
 20
70.98056546869884
 30
0.0
 11
328.0999992370607
 21
63.51979581537853
 31
0.0
  0
LINE
  5
2BB5
330
D1
100
AcDbEntity
  8
0
  6
Continuous
100
AcDbLine
 10
323.0999992370607
 20
65.07649184812726
 30
0.0
 11
323.0999992370607
 21
62.65018216791759
 31
0.0
  0
LINE
  5
2BB6
330
D1
100
AcDbEntity
  8
0
  6
Continuous
100
AcDbLine
 10
327.8000000000002
 20
71.50018064203869
 30
0.0
 11
326.3361002080001
 21
71.50018064203869
 31
0.0
  0
LINE
  5
2BB7
330
D1
100
AcDbEntity
  8
0
  6
Continuous
100
AcDbLine
 10
321.8000000000002
 20
64.17730059355836
 30
0.0
 11
321.8000000000002
 21
62.65018216791759
 31
0.0
  0
ARC
  5
2BB8
330
D1
100
AcDbEntity
  8
0
  6
Continuous
100
AcDbCircle
 10
282.6500000000006
 20
72.00018369379723
 30
0.0
 40
9.0
100
AcDbArc
 50
180.0
 51
183.1847579948702
  0
LINE
  5
2BB9
330
D1
100
AcDbEntity
  8
0
  6
Continuous
100
AcDbLine
 10
268.5000075203197
 20
109.0001767300564
 30
0.0
 11
331.4999999515066
 21
109.0001848643978
 31
0.0
  0
ARC
  5
2BBA
330
D1
100
AcDbEntity
  8
0
  6
Continuous
100
AcDbCircle
 10
265.5882874398358
 20
10.98035193104806
 30
0.0
 40
7.673318084826594
100
AcDbArc
 50
294.5372761750818
 51
322.8252025321341
  0
LINE
  5
2BBB
330
D1
100
AcDbEntity
  8
0
  6
Continuous
100
AcDbLine
 10
-27.99999202212439
 20
-54.00000212688429
 30
0.0
 11
-27.999992790752
 21
-50.0001010220194
 31
0.0
  0
LINE
  5
2BBC
330
D1
100
AcDbEntity
  8
0
  6
Continuous
100
AcDbLine
 10
-27.99999245404797
 20
-50.00010102202122
 30
0.0
 11
-27.99999194260454
 21
-54.00000220638503
 31
0.0
  0
LINE
  5
2BBD
330
D1
100
AcDbEntity
  8
0
100
AcDbLine
 10
-27.00000126757641
 20
48.5000127548501
 30
0.0
 11
12.99999998907151
 21
48.5000127548501
 31
0.0
  0
LINE
  5
2BBE
330
D1
100
AcDbEntity
  8
0
100
AcDbLine
 10
-13.99999389052391
 20
-36.00029759002973
 30
0.0
 11
-13.999993890523
 21
48.5000127548501
 31
0.0
  0
ARC
  5
2BBF
330
D1
100
AcDbEntity
  8
0
  6
Continuous
100
AcDbCircle
 10
300.0
 20
0.0
 30
0.0
 40
53.99999860329399
100
AcDbArc
 50
108.9093897760675
 51
196.985933696146
  0
ARC
  5
2BC0
330
D1
100
AcDbEntity
  8
0
  6
Continuous
100
AcDbCircle
 10
300.0
 20
0.0
 30
0.0
 40
53.99999860329399
100
AcDbArc
 50
237.9753208415604
 51
71.09053663723411
  0
ARC
  5
2BC1
330
D1
100
AcDbEntity
  8
0
  6
Continuous
100
AcDbCircle
 10
270.3015161777857
 20
-29.69848382221426
 30
0.0
 40
6.999999999999886
100
AcDbArc
 50
261.7158563361367
 51
336.2381263865
  0
ARC
  5
2BC2
330
D1
100
AcDbEntity
  8
0
  6
Continuous
100
AcDbCircle
 10
270.3015161777857
 20
-29.69848382221426
 30
0.0
 40
6.999999999999886
100
AcDbArc
 50
113.7618728254971
 51
149.3443446849425
  0
ARC
  5
2BC3
330
D1
100
AcDbEntity
  8
0
  6
Continuous
100
AcDbCircle
 10
329.6984838222142
 20
-29.69848382221426
 30
0.0
 40
6.999999999999886
100
AcDbArc
 50
203.7618736136167
 51
66.23812717450291
  0
ARC
  5
2BC4
330
D1
100
AcDbEntity
  8
0
  6
Continuous
100
AcDbCircle
 10
329.5984771042877
 20
29.69848519706466
 30
0.0
 40
6.999999999999886
100
AcDbArc
 50
293.7618728254475
 51
156.2381263865
  0
ARC
  5
2BC5
330
D1
100
AcDbEntity
  8
0
  6
Continuous
100
AcDbCircle
 10
270.3015161777857
 20
29.69848382221426
 30
0.0
 40
6.999999999999886
100
AcDbArc
 50
23.76187361349998
 51
246.2381271745029
  0
LINE
  5
2BC6
330
D1
100
AcDbEntity
  8
0
100
AcDbLine
 10
-6.000033290522878
 20
-21.47182631675787
 30
0.0
 11
-6.000033290522878
 21
-37.92632631675861
 31
0.0
  0
LINE
  5
2BC7
330
D1
100
AcDbEntity
  8
0
  6
Continuous
100
AcDbLine
 10
-13.99997419052397
 20
40.63436076934976
 30
0.0
 11
-13.99997419052397
 21
36.66530368460371
 31
0.0
  0
LINE
  5
2BC8
330
D1
100
AcDbEntity
  8
0
  6
Continuous
100
AcDbLine
 10
-13.99997419052397
 20
18.69565152642008
 30
0.0
 11
-13.99997419052397
 21
35.66500614788493
 31
0.0
  0
LINE
  5
2BC9
330
D1
100
AcDbEntity
  8
0
  6
Continuous
100
AcDbLine
 10
-13.99997419052397
 20
40.63436076934886
 30
0.0
 11
-13.99997419052397
 21
35.66500614788493
 31
0.0
  0
LINE
  5
2BCA
330
D1
100
AcDbEntity
  8
0
  6
Continuous
100
AcDbLine
 10
-6.855984190523486
 20
18.69506076934885
 30
0.0
 11
-13.99997419052397
 21
18.69506076934885
 31
0.0
  0
LINE
  5
2BCB
330
D1
100
AcDbEntity
  8
0
  6
Continuous
100
AcDbLine
 10
-6.855984190523486
 20
24.17989076934828
 30
0.0
 11
-13.99997419052397
 21
24.17989076934828
 31
0.0
  0
LINE
  5
2BCC
330
D1
100
AcDbEntity
  8
0
  6
Continuous
100
AcDbLine
 10
-6.855984190523486
 20
35.14953076934853
 30
0.0
 11
-13.99997419052397
 21
35.14953076934853
 31
0.0
  0
LINE
  5
2BCD
330
D1
100
AcDbEntity
  8
0
  6
Continuous
100
AcDbLine
 10
-6.855984190523486
 20
40.63436076934886
 30
0.0
 11
-13.99997419052397
 21
40.63436076934886
 31
0.0
  0
ARC
  5
2BCE
330
D1
100
AcDbEntity
  8
0
  6
Continuous
100
AcDbCircle
 10
-23.99997419052397
 20
29.66469076934846
 30
0.0
 40
18.0
100
AcDbArc
 50
342.259119999999
 51
17.74086999999848
  0
ARC
  5
2BCF
330
D1
100
AcDbEntity
  8
0
  6
Continuous
100
AcDbCircle
 10
-10.82101419052287
 20
21.43746076934804
 30
0.0
 40
4.821000599999999
100
AcDbArc
 50
325.3301199999893
 51
34.66988999997634
  0
ARC
  5
2BD0
330
D1
100
AcDbEntity
  8
0
  6
Continuous
100
AcDbCircle
 10
-10.82101419052287
 20
37.89196076934877
 30
0.0
 40
4.821000599999999
100
AcDbArc
 50
325.3301199999893
 51
34.66988999997634
  0
LINE
  5
2BD1
330
D1
100
AcDbEntity
  8
0
100
AcDbLine
 10
-6.000013590522939
 20
37.8919611900601
 30
0.0
 11
-6.000013590522939
 21
21.43746119005937
 31
0.0
  0
LINE
  5
2BD2
330
D1
100
AcDbEntity
  8
0
  6
Continuous
100
AcDbLine
 10
-0.9959902457158023
 20
35.00294489437329
 30
0.0
 11
-0.9959902457158023
 21
24.40294489437292
 31
0.0
  0
LINE
  5
2BD3
330
D1
100
AcDbEntity
  8
0
  6
Continuous
100
AcDbLine
 10
-30.99999389052391
 20
23.70294489437402
 30
0.0
 11
-27.99999389052391
 21
23.70294489437402
 31
0.0
  0
LINE
  5
2BD4
330
D1
100
AcDbEntity
  8
0
  6
Continuous
100
AcDbLine
 10
-6.000013590522939
 20
23.70294489437311
 30
0.0
 11
-1.400135434148069
 21
23.70294489437311
 31
0.0
  0
LINE
  5
2BD5
330
D1
100
AcDbEntity
  8
0
  6
Continuous
100
AcDbLine
 10
-30.99999389052391
 20
35.70294489437311
 30
0.0
 11
-27.99999389052391
 21
35.70294489437311
 31
0.0
  0
LINE
  5
2BD6
330
D1
100
AcDbEntity
  8
0
  6
Continuous
100
AcDbLine
 10
-6.000013590522939
 20
35.70294489437401
 30
0.0
 11
-1.400135434148069
 21
35.70294489437311
 31
0.0
  0
LINE
  5
2BD7
330
D1
100
AcDbEntity
  8
0
  6
Continuous
100
AcDbLine
 10
-30.99999389052391
 20
35.00294489437329
 30
0.0
 11
-27.99999389052391
 21
35.00294489437329
 31
0.0
  0
LINE
  5
2BD8
330
D1
100
AcDbEntity
  8
0
  6
Continuous
100
AcDbLine
 10
-6.000013590522939
 20
35.00294489437329
 30
0.0
 11
-0.9959902457158023
 21
35.00294489437329
 31
0.0
  0
LINE
  5
2BD9
330
D1
100
AcDbEntity
  8
0
  6
Continuous
100
AcDbLine
 10
-31.00000287915555
 20
24.40294714692937
 30
0.0
 11
-27.99999389052391
 21
24.40294692170301
 31
0.0
  0
LINE
  5
2BDA
330
D1
100
AcDbEntity
  8
0
  6
Continuous
100
AcDbLine
 10
-6.000013590522939
 20
24.40294527005153
 30
0.0
 11
-0.9959902457158023
 21
24.40294489437383
 31
0.0
  0
LINE
  5
2BDB
330
D1
100
AcDbEntity
  8
0
  6
Continuous
100
AcDbLine
 10
-0.9959902457158023
 20
24.40294489437292
 30
0.0
 11
-1.400135434148069
 21
23.70294489437311
 31
0.0
  0
LINE
  5
2BDC
330
D1
100
AcDbEntity
  8
0
  6
Continuous
100
AcDbLine
 10
-1.400135434148069
 20
35.70294489437311
 30
0.0
 11
-1.400135434148069
 21
23.70294489437311
 31
0.0
  0
LINE
  5
2BDD
330
D1
100
AcDbEntity
  8
0
  6
Continuous
100
AcDbLine
 10
-13.99997419052397
 20
30.40235238410151
 30
0.0
 11
-13.99997419052397
 21
24.40235238410151
 31
0.0
  0
LINE
  5
2BDE
330
D1
100
AcDbEntity
  8
0
  6
Continuous
100
AcDbLine
 10
-13.99997419052397
 20
28.37140946884665
 30
0.0
 11
-13.99997419052397
 21
23.40205484738271
 31
0.0
  0
LINE
  5
2BDF
330
D1
100
AcDbEntity
  8
0
  6
Continuous
100
AcDbLine
 10
-6.855984190523486
 20
18.73270197911915
 30
0.0
 11
-13.99997419052397
 21
18.73270197911915
 31
0.0
  0
LINE
  5
2BE0
330
D1
100
AcDbEntity
  8
0
  6
Continuous
100
AcDbLine
 10
-6.855984190523486
 20
24.21753197911858
 30
0.0
 11
-13.99997419052397
 21
24.21753197911858
 31
0.0
  0
LINE
  5
2BE1
330
D1
100
AcDbEntity
  8
0
  6
Continuous
100
AcDbLine
 10
-6.855984190523486
 20
35.18717197911883
 30
0.0
 11
-13.99997419052397
 21
35.18717197911883
 31
0.0
  0
LINE
  5
2BE2
330
D1
100
AcDbEntity
  8
0
  6
Continuous
100
AcDbLine
 10
-6.855984190523486
 20
40.67200197911915
 30
0.0
 11
-13.99997419052397
 21
40.67200197911915
 31
0.0
  0
ARC
  5
2BE3
330
D1
100
AcDbEntity
  8
0
  6
Continuous
100
AcDbCircle
 10
-23.99997419052397
 20
29.70233197911876
 30
0.0
 40
18.0
100
AcDbArc
 50
342.259119999999
 51
17.74086999999848
  0
ARC
  5
2BE4
330
D1
100
AcDbEntity
  8
0
  6
Continuous
100
AcDbCircle
 10
-10.82101419052287
 20
21.47510197911834
 30
0.0
 40
4.821000599999999
100
AcDbArc
 50
325.3301199999893
 51
34.66988999997634
  0
ARC
  5
2BE5
330
D1
100
AcDbEntity
  8
0
  6
Continuous
100
AcDbCircle
 10
-10.82101419052287
 20
37.92960197911907
 30
0.0
 40
4.821000599999999
100
AcDbArc
 50
325.3301199999893
 51
34.66988999997634
  0
LINE
  5
2BE6
330
D1
100
AcDbEntity
  8
0
100
AcDbLine
 10
-6.000013590522939
 20
37.92960239982949
 30
0.0
 11
-6.000013590522939
 21
21.47510239982876
 31
0.0
  0
LINE
  5
2BE7
330
D1
100
AcDbEntity
  8
0
100
AcDbLine
 10
300.0
 20
-53.99999860329444
 30
0.0
 11
300.0
 21
-53.99999860329444
 31
0.0
  0
LINE
  5
2BE8
330
D1
100
AcDbEntity
  8
0
  6
CENTER
100
AcDbLine
 10
0.0
 20
223.6324328206865
 30
0.0
 11
0.0
 21
-62.3604128823099
 31
0.0
  0
LINE
  5
2BE9
330
D1
100
AcDbEntity
  8
0
  6
CENTER
100
AcDbLine
 10
-63.06091881242537
 20
0.0
 30
0.0
 11
68.34357849224762
 21
0.0
 31
0.0
  0
LINE
  5
2BEA
330
D1
100
AcDbEntity
  8
0
  6
CENTER
100
AcDbLine
 10
300.0
 20
223.6324342331191
 30
0.0
 11
300.0
 21
-62.36041146987645
 31
0.0
  0
LINE
  5
2BEB
330
D1
100
AcDbEntity
  8
0
  6
CENTER
100
AcDbLine
 10
364.0557502993561
 20
0.0
 30
0.0
 11
235.9442497006448
 21
0.0
 31
0.0
  0
LINE
  5
2BEC
330
D1
100
AcDbEntity
  8
0
  6
Continuous
100
AcDbLine
 10
-17.79998799999976
 20
421.1025059999992
 30
0.0
 11
-17.79998799999976
 21
485.0
 31
0.0
  0
LINE
  5
2BED
330
D1
100
AcDbEntity
  8
0
  6
Continuous
100
AcDbLine
 10
17.80001799999991
 20
421.1024930000003
 30
0.0
 11
17.80001799999991
 21
485.0
 31
0.0
  0
LINE
  5
2BEE
330
D1
100
AcDbEntity
  8
0
  6
Continuous
100
AcDbLine
 10
-15.79998799999976
 20
421.8775050000004
 30
0.0
 11
-15.79998799999976
 21
485.0
 31
0.0
  0
LINE
  5
2BEF
330
D1
100
AcDbEntity
  8
0
  6
Continuous
100
AcDbLine
 10
-35.0
 20
414.4375010000003
 30
0.0
 11
-35.0
 21
485.0
 31
0.0
  0
LINE
  5
2BF0
330
D1
100
AcDbEntity
  8
0
  6
Continuous
100
AcDbLine
 10
15.80001799999991
 20
421.8774940000002
 30
0.0
 11
15.80001799999991
 21
485.0
 31
0.0
  0
LINE
  5
2BF1
330
D1
100
AcDbEntity
  8
0
  6
Continuous
100
AcDbLine
 10
-30.79998799999976
 20
416.0650057999991
 30
0.0
 11
-30.79998799999976
 21
485.0
 31
0.0
  0
LINE
  5
2BF2
330
D1
100
AcDbEntity
  8
0
  6
Continuous
100
AcDbLine
 10
30.80001799999991
 20
416.0649938999995
 30
0.0
 11
30.80001799999991
 21
485.0
 31
0.0
  0
LINE
  5
2BF3
330
D1
100
AcDbEntity
  8
0
  6
Continuous
100
AcDbLine
 10
35.0
 20
414.4375010000003
 30
0.0
 11
35.0
 21
485.0
 31
0.0
  0
LINE
  5
2BF4
330
D1
100
AcDbEntity
  8
0
  6
Continuous
100
AcDbLine
 10
-35.0
 20
485.0
 30
0.0
 11
35.0
 21
485.0
 31
0.0
  0
LINE
  5
2BF5
330
D1
100
AcDbEntity
  8
0
  6
Continuous
100
AcDbLine
 10
18.05004899999949
 20
351.4000020000003
 30
0.0
 11
18.05004899999949
 21
353.0
 31
0.0
  0
LINE
  5
2BF6
330
D1
100
AcDbEntity
  8
0
  6
Continuous
100
AcDbLine
 10
30.40004899999985
 20
349.9000020000003
 30
0.0
 11
18.2000479999997
 21
349.9000020000003
 31
0.0
  0
LINE
  5
2BF7
330
D1
100
AcDbEntity
  8
0
  6
Continuous
100
AcDbLine
 10
18.2000479999997
 20
349.9000020000003
 30
0.0
 11
18.2000479999997
 21
351.4000020000003
 31
0.0
  0
LINE
  5
2BF8
330
D1
100
AcDbEntity
  8
0
  6
Continuous
100
AcDbLine
 10
30.40004899999985
 20
349.9000020000003
 30
0.0
 11
30.40004899999985
 21
351.4000020000003
 31
0.0
  0
LINE
  5
2BF9
330
D1
100
AcDbEntity
  8
0
  6
Continuous
100
AcDbLine
 10
18.05004899999949
 20
486.5999979999997
 30
0.0
 11
18.05004899999949
 21
485.0
 31
0.0
  0
LINE
  5
2BFA
330
D1
100
AcDbEntity
  8
0
  6
Continuous
100
AcDbLine
 10
-35.0
 20
353.0
 30
0.0
 11
35.0
 21
353.0
 31
0.0
  0
LINE
  5
2BFB
330
D1
100
AcDbEntity
  8
0
  6
Continuous
100
AcDbLine
 10
-35.0
 20
357.5
 30
0.0
 11
35.0
 21
357.5
 31
0.0
  0
LINE
  5
2BFC
330
D1
100
AcDbEntity
  8
0
  6
Continuous
100
AcDbLine
 10
-18.04998799999976
 20
351.4000020000003
 30
0.0
 11
-18.04998799999976
 21
353.0
 31
0.0
  0
LINE
  5
2BFD
330
D1
100
AcDbEntity
  8
0
  6
Continuous
100
AcDbLine
 10
-18.04998799999976
 20
351.4000020000003
 30
0.0
 11
-30.54998799999976
 21
351.4000020000003
 31
0.0
  0
LINE
  5
2BFE
330
D1
100
AcDbEntity
  8
0
  6
Continuous
100
AcDbLine
 10
-30.54998799999976
 20
351.4000020000003
 30
0.0
 11
-30.54998799999976
 21
353.0
 31
0.0
  0
LINE
  5
2BFF
330
D1
100
AcDbEntity
  8
0
  6
Continuous
100
AcDbLine
 10
-18.19998699999996
 20
349.9000020000003
 30
0.0
 11
-30.39998800000012
 21
349.9000020000003
 31
0.0
  0
LINE
  5
2C00
330
D1
100
AcDbEntity
  8
0
  6
Continuous
100
AcDbLine
 10
30.55004899999949
 20
486.5999979999997
 30
0.0
 11
30.55004899999949
 21
485.0
 31
0.0
  0
LINE
  5
2C01
330
D1
100
AcDbEntity
  8
0
  6
Continuous
100
AcDbLine
 10
18.2000479999997
 20
488.0999979999996
 30
0.0
 11
30.40004899999985
 21
488.0999979999996
 31
0.0
  0
LINE
  5
2C02
330
D1
100
AcDbEntity
  8
0
  6
Continuous
100
AcDbLine
 10
30.40004899999985
 20
488.0999979999996
 30
0.0
 11
30.40004899999985
 21
486.5999979999997
 31
0.0
  0
LINE
  5
2C03
330
D1
100
AcDbEntity
  8
0
  6
Continuous
100
AcDbLine
 10
18.2000479999997
 20
488.0999979999996
 30
0.0
 11
18.2000479999997
 21
486.5999979999997
 31
0.0
  0
LINE
  5
2C04
330
D1
100
AcDbEntity
  8
0
  6
Continuous
100
AcDbLine
 10
-30.54998799999976
 20
486.5999979999997
 30
0.0
 11
-30.54998799999976
 21
485.0
 31
0.0
  0
LINE
  5
2C05
330
D1
100
AcDbEntity
  8
0
  6
Continuous
100
AcDbLine
 10
-30.54998799999976
 20
486.5999979999997
 30
0.0
 11
-18.04998799999976
 21
486.5999979999997
 31
0.0
  0
LINE
  5
2C06
330
D1
100
AcDbEntity
  8
0
  6
Continuous
100
AcDbLine
 10
-18.04998799999976
 20
486.5999979999997
 30
0.0
 11
-18.04998799999976
 21
485.0
 31
0.0
  0
LINE
  5
2C07
330
D1
100
AcDbEntity
  8
0
  6
Continuous
100
AcDbLine
 10
-30.39998800000012
 20
488.0999979999996
 30
0.0
 11
-18.19998699999996
 21
488.0999979999996
 31
0.0
  0
LINE
  5
2C08
330
D1
100
AcDbEntity
  8
0
  6
Continuous
100
AcDbLine
 10
-18.19998699999996
 20
488.0999979999996
 30
0.0
 11
-18.19998699999996
 21
486.5999979999997
 31
0.0
  0
LINE
  5
2C09
330
D1
100
AcDbEntity
  8
0
  6
Continuous
100
AcDbLine
 10
-30.39998800000012
 20
488.0999979999996
 30
0.0
 11
-30.39998800000012
 21
486.5999979999997
 31
0.0
  0
LINE
  5
2C0A
330
D1
100
AcDbEntity
  8
0
  6
Continuous
100
AcDbLine
 10
-21.79998799999976
 20
345.9000020000003
 30
0.0
 11
-26.79998799999976
 21
345.9000020000003
 31
0.0
  0
LINE
  5
2C0B
330
D1
100
AcDbEntity
  8
0
  6
Continuous
100
AcDbLine
 10
-19.29998799999976
 20
346.4043160000001
 30
0.0
 11
-19.29998799999976
 21
349.9000020000003
 31
0.0
  0
LINE
  5
2C0C
330
D1
100
AcDbEntity
  8
0
  6
Continuous
100
AcDbLine
 10
-24.29998799999976
 20
346.4043160000001
 30
0.0
 11
-24.29998799999976
 21
349.9000020000003
 31
0.0
  0
LINE
  5
2C0D
330
D1
100
AcDbEntity
  8
0
  6
Continuous
100
AcDbLine
 10
-29.29998799999976
 20
346.4043160000001
 30
0.0
 11
-29.29998799999976
 21
349.9000020000003
 31
0.0
  0
LINE
  5
2C0E
330
D1
100
AcDbEntity
  8
0
  6
Continuous
100
AcDbLine
 10
26.80004899999949
 20
345.9000020000003
 30
0.0
 11
21.80004899999949
 21
345.9000020000003
 31
0.0
  0
LINE
  5
2C0F
330
D1
100
AcDbEntity
  8
0
  6
Continuous
100
AcDbLine
 10
29.30004899999949
 20
346.4043160000001
 30
0.0
 11
29.30004899999949
 21
349.9000020000003
 31
0.0
  0
LINE
  5
2C10
330
D1
100
AcDbEntity
  8
0
  6
Continuous
100
AcDbLine
 10
24.30004899999949
 20
346.4043160000001
 30
0.0
 11
24.30004899999949
 21
349.9000020000003
 31
0.0
  0
LINE
  5
2C11
330
D1
100
AcDbEntity
  8
0
  6
Continuous
100
AcDbLine
 10
19.30004899999949
 20
346.4043160000001
 30
0.0
 11
19.30004899999949
 21
349.9000020000003
 31
0.0
  0
LINE
  5
2C12
330
D1
100
AcDbEntity
  8
0
  6
Continuous
100
AcDbLine
 10
-26.79998799999976
 20
492.0999979999996
 30
0.0
 11
-21.79998799999976
 21
492.0999979999996
 31
0.0
  0
LINE
  5
2C13
330
D1
100
AcDbEntity
  8
0
  6
Continuous
100
AcDbLine
 10
-29.29998799999976
 20
491.5956800000003
 30
0.0
 11
-29.29998799999976
 21
488.0999979999996
 31
0.0
  0
LINE
  5
2C14
330
D1
100
AcDbEntity
  8
0
  6
Continuous
100
AcDbLine
 10
-24.29998799999976
 20
491.5956800000003
 30
0.0
 11
-24.29998799999976
 21
488.0999979999996
 31
0.0
  0
LINE
  5
2C15
330
D1
100
AcDbEntity
  8
0
  6
Continuous
100
AcDbLine
 10
-19.29998799999976
 20
491.5956800000003
 30
0.0
 11
-19.29998799999976
 21
488.0999979999996
 31
0.0
  0
LINE
  5
2C16
330
D1
100
AcDbEntity
  8
0
  6
Continuous
100
AcDbLine
 10
21.80004899999949
 20
492.0999979999996
 30
0.0
 11
26.80004899999949
 21
492.0999979999996
 31
0.0
  0
LINE
  5
2C17
330
D1
100
AcDbEntity
  8
0
  6
Continuous
100
AcDbLine
 10
19.30004899999949
 20
491.5956800000003
 30
0.0
 11
19.30004899999949
 21
488.0999979999996
 31
0.0
  0
LINE
  5
2C18
330
D1
100
AcDbEntity
  8
0
  6
Continuous
100
AcDbLine
 10
24.30004899999949
 20
491.5956800000003
 30
0.0
 11
24.30004899999949
 21
488.0999979999996
 31
0.0
  0
LINE
  5
2C19
330
D1
100
AcDbEntity
  8
0
  6
Continuous
100
AcDbLine
 10
29.30004899999949
 20
491.5956800000003
 30
0.0
 11
29.30004899999949
 21
488.0999979999996
 31
0.0
  0
LINE
  5
2C1A
330
D1
100
AcDbEntity
  8
0
  6
Continuous
100
AcDbLine
 10
24.5
 20
341.5
 30
0.0
 11
11.5
 21
341.5
 31
0.0
  0
LINE
  5
2C1B
330
D1
100
AcDbEntity
  8
0
  6
Continuous
100
AcDbLine
 10
11.5
 20
336.7248920000002
 30
0.0
 11
11.5
 21
341.5
 31
0.0
  0
LINE
  5
2C1C
330
D1
100
AcDbEntity
  8
0
  6
Continuous
100
AcDbLine
 10
9.5
 20
351.4000020000003
 30
0.0
 11
9.5
 21
353.0
 31
0.0
  0
LINE
  5
2C1D
330
D1
100
AcDbEntity
  8
0
  6
Continuous
100
AcDbLine
 10
9.5
 20
351.4000020000003
 30
0.0
 11
30.55004899999949
 21
351.4000020000003
 31
0.0
  0
LINE
  5
2C1E
330
D1
100
AcDbEntity
  8
0
  6
Continuous
100
AcDbLine
 10
24.5
 20
336.7248920000002
 30
0.0
 11
24.5
 21
341.5
 31
0.0
  0
LINE
  5
2C1F
330
D1
100
AcDbEntity
  8
0
  6
Continuous
100
AcDbLine
 10
21.25
 20
336.0
 30
0.0
 11
14.75
 21
336.0
 31
0.0
  0
LINE
  5
2C20
330
D1
100
AcDbEntity
  8
0
  6
Continuous
100
AcDbLine
 10
18.0
 20
336.7248920000002
 30
0.0
 11
18.0
 21
341.5
 31
0.0
  0
LINE
  5
2C21
330
D1
100
AcDbEntity
  8
0
  6
Continuous
100
AcDbLine
 10
-39.91984200000024
 20
412.5310630999993
 30
0.0
 11
0.0000001055977918
 21
428.0
 31
0.0
  0
LINE
  5
2C22
330
D1
100
AcDbEntity
  8
0
  6
Continuous
100
AcDbLine
 10
-17.79998799999976
 20
353.0
 30
0.0
 11
-17.79998799999976
 21
398.8974939999989
 31
0.0
  0
LINE
  5
2C23
330
D1
100
AcDbEntity
  8
0
  6
Continuous
100
AcDbLine
 10
15.80001799999991
 20
353.0
 30
0.0
 11
15.80001799999991
 21
398.1225059999997
 31
0.0
  0
LINE
  5
2C24
330
D1
100
AcDbEntity
  8
0
  6
Continuous
100
AcDbLine
 10
17.80001799999991
 20
353.0
 30
0.0
 11
17.80001799999991
 21
398.8975069999997
 31
0.0
  0
LINE
  5
2C25
330
D1
100
AcDbEntity
  8
0
  6
Continuous
100
AcDbLine
 10
35.0
 20
353.0
 30
0.0
 11
35.0
 21
405.5624989999996
 31
0.0
  0
LINE
  5
2C26
330
D1
100
AcDbEntity
  8
0
  6
Continuous
100
AcDbLine
 10
-35.0
 20
353.0
 30
0.0
 11
-35.0
 21
405.5624989999996
 31
0.0
  0
LINE
  5
2C27
330
D1
100
AcDbEntity
  8
0
  6
Continuous
100
AcDbLine
 10
-15.79998799999976
 20
353.0
 30
0.0
 11
-15.79998799999976
 21
398.1224949999996
 31
0.0
  0
LINE
  5
2C28
330
D1
100
AcDbEntity
  8
0
  6
Continuous
100
AcDbLine
 10
18.0
 20
347.1248930000002
 30
0.0
 11
18.0
 21
350.6751059999988
 31
0.0
  0
LINE
  5
2C29
330
D1
100
AcDbEntity
  8
0
  6
Continuous
100
AcDbLine
 10
19.31033899999966
 20
346.4000020000003
 30
0.0
 11
14.75
 21
346.4000020000003
 31
0.0
  0
LINE
  5
2C2A
330
D1
100
AcDbEntity
  8
0
  6
Continuous
100
AcDbLine
 10
11.5
 20
347.1248930000002
 30
0.0
 11
11.5
 21
350.6751059999988
 31
0.0
  0
LINE
  5
2C2B
330
D1
100
AcDbEntity
  8
0
  6
Continuous
100
AcDbLine
 10
-30.39998800000012
 20
349.9000020000003
 30
0.0
 11
-30.39998800000012
 21
351.4000020000003
 31
0.0
  0
LINE
  5
2C2C
330
D1
100
AcDbEntity
  8
0
  6
Continuous
100
AcDbLine
 10
-18.19998699999996
 20
349.9000020000003
 30
0.0
 11
-18.19998699999996
 21
351.4000020000003
 31
0.0
  0
LINE
  5
2C2D
330
D1
100
AcDbEntity
  8
0
  6
Continuous
100
AcDbLine
 10
11.5
 20
501.2751079999998
 30
0.0
 11
11.5
 21
496.4999999999999
 31
0.0
  0
LINE
  5
2C2E
330
D1
100
AcDbEntity
  8
0
  6
Continuous
100
AcDbLine
 10
22.0
 20
345.9030989999992
 30
0.0
 11
22.0
 21
341.5
 31
0.0
  0
LINE
  5
2C2F
330
D1
100
AcDbEntity
  8
0
  6
Continuous
100
AcDbLine
 10
14.0
 20
346.436862999999
 30
0.0
 11
14.0
 21
341.5
 31
0.0
  0
LINE
  5
2C30
330
D1
100
AcDbEntity
  8
0
  6
Continuous
100
AcDbLine
 10
9.5
 20
486.5999979999997
 30
0.0
 11
9.5
 21
485.0
 31
0.0
  0
LINE
  5
2C31
330
D1
100
AcDbEntity
  8
0
  6
Continuous
100
AcDbLine
 10
30.55004899999949
 20
351.4000020000003
 30
0.0
 11
30.55004899999949
 21
353.0
 31
0.0
  0
LINE
  5
2C32
330
D1
100
AcDbEntity
  8
0
  6
Continuous
100
AcDbLine
 10
-30.79998799999976
 20
353.0
 30
0.0
 11
-30.79998799999976
 21
403.9349941999989
 31
0.0
  0
LINE
  5
2C33
330
D1
100
AcDbEntity
  8
0
  6
Continuous
100
AcDbLine
 10
9.5
 20
486.5999979999997
 30
0.0
 11
30.55004899999949
 21
486.5999979999997
 31
0.0
  0
LINE
  5
2C34
330
D1
100
AcDbEntity
  8
0
  6
Continuous
100
AcDbLine
 10
24.5
 20
501.2751079999998
 30
0.0
 11
24.5
 21
496.4999999999999
 31
0.0
  0
LINE
  5
2C35
330
D1
100
AcDbEntity
  8
0
  6
Continuous
100
AcDbLine
 10
24.5
 20
496.4999999999999
 30
0.0
 11
11.5
 21
496.4999999999999
 31
0.0
  0
LINE
  5
2C36
330
D1
100
AcDbEntity
  8
0
  6
Continuous
100
AcDbLine
 10
30.80001799999991
 20
353.0
 30
0.0
 11
30.80001799999991
 21
403.9350061000004
 31
0.0
  0
LINE
  5
2C37
330
D1
100
AcDbEntity
  8
0
  6
Continuous
100
AcDbLine
 10
-35.0
 20
480.5001219999994
 30
0.0
 11
35.0
 21
480.5001219999994
 31
0.0
  0
LINE
  5
2C38
330
D1
100
AcDbEntity
  8
0
  6
Continuous
100
AcDbLine
 10
18.0
 20
501.2751079999998
 30
0.0
 11
18.0
 21
496.4999999999999
 31
0.0
  0
LINE
  5
2C39
330
D1
100
AcDbEntity
  8
0
  6
Continuous
100
AcDbLine
 10
11.5
 20
490.8751069999998
 30
0.0
 11
11.5
 21
487.3248899999999
 31
0.0
  0
LINE
  5
2C3A
330
D1
100
AcDbEntity
  8
0
  6
Continuous
100
AcDbLine
 10
22.0
 20
492.0969009999989
 30
0.0
 11
22.0
 21
496.4999999999999
 31
0.0
  0
LINE
  5
2C3B
330
D1
100
AcDbEntity
  8
0
  6
Continuous
100
AcDbLine
 10
14.0
 20
491.5631329999996
 30
0.0
 11
14.0
 21
496.4999999999999
 31
0.0
  0
LINE
  5
2C3C
330
D1
100
AcDbEntity
  8
0
  6
Continuous
100
AcDbLine
 10
-0.0000001055977918
 20
428.0
 30
0.0
 11
39.91984200000024
 21
412.5310630999993
 31
0.0
  0
LINE
  5
2C3D
330
D1
100
AcDbEntity
  8
0
  6
Continuous
100
AcDbLine
 10
39.91984200000024
 20
407.4689368999989
 30
0.0
 11
-0.0000001055977918
 21
392.0
 31
0.0
  0
LINE
  5
2C3E
330
D1
100
AcDbEntity
  8
0
  6
Continuous
100
AcDbLine
 10
-39.91984200000024
 20
407.4689368999989
 30
0.0
 11
0.0000001055977918
 21
392.0
 31
0.0
  0
LINE
  5
2C3F
330
D1
100
AcDbEntity
  8
0
  6
Continuous
100
AcDbLine
 10
19.31033899999966
 20
491.5999979999996
 30
0.0
 11
14.75
 21
491.5999979999996
 31
0.0
  0
LINE
  5
2C40
330
D1
100
AcDbEntity
  8
0
  6
Continuous
100
AcDbLine
 10
18.0
 20
490.8751069999998
 30
0.0
 11
18.0
 21
487.3248899999999
 31
0.0
  0
LINE
  5
2C41
330
D1
100
AcDbEntity
  8
0
  6
Continuous
100
AcDbLine
 10
21.25
 20
502.0
 30
0.0
 11
14.75
 21
502.0
 31
0.0
  0
LINE
  5
2C42
330
D1
100
AcDbEntity
  8
0
  6
Continuous
100
AcDbLine
 10
35.0
 20
464.2526589999997
 30
0.0
 11
41.97506700000031
 21
464.2526589999997
 31
0.0
  0
LINE
  5
2C43
330
D1
100
AcDbEntity
  8
0
  6
Continuous
100
AcDbLine
 10
41.97506700000031
 20
452.5
 30
0.0
 11
38.97506700000031
 21
452.5
 31
0.0
  0
LINE
  5
2C44
330
D1
100
AcDbEntity
  8
0
  6
Continuous
100
AcDbLine
 10
41.97506700000031
 20
452.5
 30
0.0
 11
41.97506700000031
 21
464.2526589999997
 31
0.0
  0
LINE
  5
2C45
330
D1
100
AcDbEntity
  8
0
  6
Continuous
100
AcDbLine
 10
33.32505800000035
 20
341.5
 30
0.0
 11
33.32505800000035
 21
350.2930560000004
 31
0.0
  0
LINE
  5
2C46
330
D1
100
AcDbEntity
  8
0
  6
Continuous
100
AcDbLine
 10
27.62505899999997
 20
341.5
 30
0.0
 11
33.32505800000035
 21
341.5
 31
0.0
  0
LINE
  5
2C47
330
D1
100
AcDbEntity
  8
0
  6
Continuous
100
AcDbLine
 10
27.62505899999997
 20
341.5
 30
0.0
 11
27.62505899999997
 21
345.9529949999997
 31
0.0
  0
LINE
  5
2C48
330
D1
100
AcDbEntity
  8
0
  6
Continuous
100
AcDbLine
 10
34.72506700000031
 20
350.5
 30
0.0
 11
34.72506700000031
 21
353.0
 31
0.0
  0
LINE
  5
2C49
330
D1
100
AcDbEntity
  8
0
  6
Continuous
100
AcDbLine
 10
34.72506700000031
 20
350.5
 30
0.0
 11
39.97506700000031
 21
350.5
 31
0.0
  0
LINE
  5
2C4A
330
D1
100
AcDbEntity
  8
0
  6
Continuous
100
AcDbLine
 10
39.97506700000031
 20
350.5
 30
0.0
 11
39.97506700000031
 21
373.2294299452806
 31
0.0
  0
LINE
  5
2C4B
330
D1
100
AcDbEntity
  8
0
  6
Continuous
100
AcDbLine
 10
38.97506700000031
 20
363.2499849247051
 30
0.0
 11
38.9750669999994
 21
403.0323673786915
 31
0.0
  0
LINE
  5
2C4C
330
D1
100
AcDbEntity
  8
0
  6
Continuous
100
AcDbLine
 10
38.9750669999994
 20
416.9676326213084
 30
0.0
 11
38.97506700000031
 21
456.7499849247051
 31
0.0
  0
CIRCLE
  5
2C4D
330
D1
100
AcDbEntity
  8
0
  6
Continuous
100
AcDbCircle
 10
0.0
 20
410.0
 30
0.0
 40
6.0999999
  0
ARC
  5
2C4E
330
D1
100
AcDbEntity
  8
0
  6
Continuous
100
AcDbCircle
 10
21.25
 20
343.7520069999991
 30
0.0
 40
7.647994999999999
100
AcDbArc
 50
113.5026199999771
 51
115.1473800000067
  0
ARC
  5
2C4F
330
D1
100
AcDbEntity
  8
0
  6
Continuous
100
AcDbCircle
 10
14.75
 20
343.6479949999994
 30
0.0
 40
7.647994500000001
100
AcDbArc
 50
244.8526399999797
 51
295.1473599999693
  0
ARC
  5
2C50
330
D1
100
AcDbEntity
  8
0
  6
Continuous
100
AcDbCircle
 10
21.25
 20
354.0479969999997
 30
0.0
 40
7.647994999999999
100
AcDbArc
 50
244.8526199999932
 51
255.228639999989
  0
CIRCLE
  5
2C51
330
D1
100
AcDbEntity
  8
0
  6
Continuous
100
AcDbCircle
 10
23.80001799999991
 20
386.2117920000001
 30
0.0
 40
3.5
  0
CIRCLE
  5
2C52
330
D1
100
AcDbEntity
  8
0
  6
Continuous
100
AcDbCircle
 10
-23.79998799999976
 20
386.2117920000001
 30
0.0
 40
4.0
  0
CIRCLE
  5
2C53
330
D1
100
AcDbEntity
  8
0
  6
Continuous
100
AcDbCircle
 10
23.80001799999991
 20
433.7883299999994
 30
0.0
 40
4.0
  0
CIRCLE
  5
2C54
330
D1
100
AcDbEntity
  8
0
  6
Continuous
100
AcDbCircle
 10
23.80001799999991
 20
386.2117920000001
 30
0.0
 40
4.0
  0
CIRCLE
  5
2C55
330
D1
100
AcDbEntity
  8
0
  6
Continuous
100
AcDbCircle
 10
-23.79998799999976
 20
433.7883299999994
 30
0.0
 40
4.0
  0
ARC
  5
2C56
330
D1
100
AcDbEntity
  8
0
  6
Continuous
100
AcDbCircle
 10
0.0
 20
410.0
 30
0.0
 40
40.0
100
AcDbArc
 50
356.3721000000232
 51
3.627902399979799
  0
ARC
  5
2C57
330
D1
100
AcDbEntity
  8
0
  6
Continuous
100
AcDbCircle
 10
0.0
 20
410.0
 30
0.0
 40
40.0
100
AcDbArc
 50
176.3721000000232
 51
183.6278999999768
  0
CIRCLE
  5
2C58
330
D1
100
AcDbEntity
  8
0
  6
Continuous
100
AcDbCircle
 10
0.0
 20
410.0
 30
0.0
 40
5.25
  0
CIRCLE
  5
2C59
330
D1
100
AcDbEntity
  8
0
  6
Continuous
100
AcDbCircle
 10
-23.79998799999976
 20
433.7883299999994
 30
0.0
 40
3.5
  0
CIRCLE
  5
2C5A
330
D1
100
AcDbEntity
  8
0
  6
Continuous
100
AcDbCircle
 10
-23.79998799999976
 20
386.2117920000001
 30
0.0
 40
3.5
  0
CIRCLE
  5
2C5B
330
D1
100
AcDbEntity
  8
0
  6
Continuous
100
AcDbCircle
 10
23.80001799999991
 20
433.7883299999994
 30
0.0
 40
3.5
  0
ARC
  5
2C5C
330
D1
100
AcDbEntity
  8
0
  6
Continuous
100
AcDbCircle
 10
-21.79998799999976
 20
352.3486599999996
 30
0.0
 40
6.4486594
100
AcDbArc
 50
247.1899400000336
 51
292.8100599999664
  0
ARC
  5
2C5D
330
D1
100
AcDbEntity
  8
0
  6
Continuous
100
AcDbCircle
 10
-26.79998799999976
 20
352.3486599999996
 30
0.0
 40
6.4486594
100
AcDbArc
 50
247.1899400000336
 51
292.8100599999664
  0
ARC
  5
2C5E
330
D1
100
AcDbEntity
  8
0
  6
Continuous
100
AcDbCircle
 10
14.75
 20
354.0479969999997
 30
0.0
 40
7.647994999999999
100
AcDbArc
 50
244.8526199999932
 51
295.1473800000067
  0
ARC
  5
2C5F
330
D1
100
AcDbEntity
  8
0
  6
Continuous
100
AcDbCircle
 10
21.25
 20
494.3520049999988
 30
0.0
 40
7.647994500000001
100
AcDbArc
 50
64.85263700001829
 51
115.1473599999693
  0
ARC
  5
2C60
330
D1
100
AcDbEntity
  8
0
  6
Continuous
100
AcDbCircle
 10
14.75
 20
494.247992999999
 30
0.0
 40
7.647994999999999
100
AcDbArc
 50
244.8526399999797
 51
295.1473599999693
  0
ARC
  5
2C61
330
D1
100
AcDbEntity
  8
0
  6
Continuous
100
AcDbCircle
 10
14.75
 20
494.3520049999988
 30
0.0
 40
7.647994500000001
100
AcDbArc
 50
64.85263700001829
 51
115.1473599999693
  0
ARC
  5
2C62
330
D1
100
AcDbEntity
  8
0
  6
Continuous
100
AcDbCircle
 10
26.80004899999949
 20
352.3486599999996
 30
0.0
 40
6.4486594
100
AcDbArc
 50
247.1899400000336
 51
292.8100599999664
  0
ARC
  5
2C63
330
D1
100
AcDbEntity
  8
0
  6
Continuous
100
AcDbCircle
 10
21.80004899999949
 20
352.3486599999996
 30
0.0
 40
6.4486594
100
AcDbArc
 50
247.1899400000336
 51
292.8100599999664
  0
ARC
  5
2C64
330
D1
100
AcDbEntity
  8
0
  6
Continuous
100
AcDbCircle
 10
-26.79998799999976
 20
485.6513369999993
 30
0.0
 40
6.4486594
100
AcDbArc
 50
67.18994100000017
 51
112.8100599999664
  0
ARC
  5
2C65
330
D1
100
AcDbEntity
  8
0
  6
Continuous
100
AcDbCircle
 10
-21.79998799999976
 20
485.6513369999993
 30
0.0
 40
6.4486594
100
AcDbArc
 50
67.18994100000017
 51
112.8100599999664
  0
ARC
  5
2C66
330
D1
100
AcDbEntity
  8
0
  6
Continuous
100
AcDbCircle
 10
21.80004899999949
 20
485.6513369999993
 30
0.0
 40
6.4486594
100
AcDbArc
 50
67.18994100000017
 51
112.8100599999664
  0
ARC
  5
2C67
330
D1
100
AcDbEntity
  8
0
  6
Continuous
100
AcDbCircle
 10
26.80004899999949
 20
485.6513369999993
 30
0.0
 40
6.4486594
100
AcDbArc
 50
67.18994100000017
 51
112.8100599999664
  0
ARC
  5
2C68
330
D1
100
AcDbEntity
  8
0
  6
Continuous
100
AcDbCircle
 10
21.25
 20
483.9520030000003
 30
0.0
 40
7.647994999999999
100
AcDbArc
 50
104.771360000011
 51
115.1473599999693
  0
ARC
  5
2C69
330
D1
100
AcDbEntity
  8
0
  6
Continuous
100
AcDbCircle
 10
14.75
 20
483.9520030000003
 30
0.0
 40
7.647994999999999
100
AcDbArc
 50
64.85263700001829
 51
115.1473599999693
  0
ARC
  5
2C6A
330
D1
100
AcDbEntity
  8
0
  6
Continuous
100
AcDbCircle
 10
21.25
 20
343.6479949999994
 30
0.0
 40
7.647994500000001
100
AcDbArc
 50
244.8526399999797
 51
295.1473599999693
  0
ARC
  5
2C6B
330
D1
100
AcDbEntity
  8
0
  6
Continuous
100
AcDbCircle
 10
14.75
 20
343.7520069999991
 30
0.0
 40
7.647994999999999
100
AcDbArc
 50
64.85262499999568
 51
115.1473800000067
  0
ARC
  5
2C6C
330
D1
100
AcDbEntity
  8
0
  6
Continuous
100
AcDbCircle
 10
30.47506500000054
 20
357.5
 30
0.0
 40
7.75
100
AcDbArc
 50
261.2794699999807
 51
304.0752000000235
  0
ARC
  5
2C6D
330
D1
100
AcDbEntity
  8
0
  6
Continuous
100
AcDbCircle
 10
30.47506500000054
 20
357.5
 30
0.0
 40
6.0
100
AcDbArc
 50
270.7160599999681
 51
311.8102899999942
  0
ARC
  5
2C6E
330
D1
100
AcDbEntity
  8
0
  6
Continuous
100
AcDbCircle
 10
28.0
 20
410.0
 30
0.0
 40
13.0
100
AcDbArc
 50
302.5789699999528
 51
57.42103000004723
  0
ARC
  5
2C6F
330
D1
100
AcDbEntity
  8
0
  6
Continuous
100
AcDbCircle
 10
28.0
 20
410.0
 30
0.0
 40
10.0
100
AcDbArc
 50
20.63120000001729
 51
45.573000000029
  0
ARC
  5
2C70
330
D1
100
AcDbEntity
  8
0
  6
Continuous
100
AcDbCircle
 10
28.0
 20
410.0
 30
0.0
 40
10.0
100
AcDbArc
 50
314.426999999971
 51
339.3687999999827
  0
LINE
  5
2C71
330
D1
100
AcDbEntity
  8
0
  6
CENTER
100
AcDbLine
 10
0.0
 20
336.4186810379852
 30
0.0
 11
0.0
 21
499.1459442037212
 31
0.0
  0
LINE
  5
2C72
330
D1
100
AcDbEntity
  8
0
  6
CENTER
100
AcDbLine
 10
-85.2833584326636
 20
410.0
 30
0.0
 11
85.2833584326636
 21
410.0
 31
0.0
  0
LINE
  5
2C73
330
D1
100
AcDbEntity
  8
0
  6
Continuous
100
AcDbLine
 10
38.97506700000031
 20
456.7499849247051
 30
0.0
 11
35.0
 21
456.7499849247051
 31
0.0
  0
LINE
  5
2C74
330
D1
100
AcDbEntity
  8
0
  6
Continuous
100
AcDbLine
 10
38.97506700000031
 20
363.2499849247051
 30
0.0
 11
35.0
 21
363.2499849247051
 31
0.0
  0
LINE
  5
2C75
330
D1
100
AcDbEntity
  8
0
  6
Continuous
100
AcDbLine
 10
38.97506700000031
 20
373.2294299452806
 30
0.0
 11
39.97506700000031
 21
373.2294299452806
 31
0.0
  0
LINE
  5
2C76
330
D1
100
AcDbEntity
  8
AM_0_T3
100
AcDbLine
 10
-30.80001183191598
 20
35.70294489437311
 30
0.0
 11
-30.99999389052391
 21
35.70294489437311
 31
0.0
  0
LINE
  5
2C77
330
D1
100
AcDbEntity
  8
0
  6
Continuous
100
AcDbLine
 10
-35.0
 20
471.9999983483467
 30
0.0
 11
-53.09996900000078
 21
472.0
 31
0.0
  0
LINE
  5
2C78
330
D1
100
AcDbEntity
  8
AM_0_T3
100
AcDbLine
 10
-30.89997206664794
 20
460.7029449319506
 30
0.0
 11
-31.09995412525587
 21
460.7029449319506
 31
0.0
  0
LINE
  5
2C79
330
D1
100
AcDbEntity
  8
0
  6
Continuous
100
AcDbLine
 10
-31.09997020120409
 20
348.0000016516533
 30
0.0
 11
-53.09997830931934
 21
348.0
 31
0.0
  0
LINE
  5
2C7A
330
D1
100
AcDbEntity
  8
AM_0_T3
100
AcDbLine
 10
-31.09997020120409
 20
348.0000016516533
 30
0.0
 11
-31.09996089188553
 21
353.0
 31
0.0
  0
LINE
  5
2C7B
330
D1
100
AcDbEntity
  8
0
  6
Continuous
100
AcDbLine
 10
59.75000569541407
 20
434.723636962417
 30
0.0
 11
59.75000569541407
 21
385.8051759624159
 31
0.0
  0
LINE
  5
2C7C
330
D1
100
AcDbEntity
  8
0
  6
Continuous
100
AcDbLine
 10
62.59998169541359
 20
435.249999962416
 30
0.0
 11
60.31015569541432
 21
435.249999962416
 31
0.0
  0
LINE
  5
2C7D
330
D1
100
AcDbEntity
  8
0
  6
Continuous
100
AcDbLine
 10
62.59998169541359
 20
435.249999962416
 30
0.0
 11
62.59998169541359
 21
384.749999962416
 31
0.0
  0
LINE
  5
2C7E
330
D1
100
AcDbEntity
  8
0
  6
Continuous
100
AcDbLine
 10
53.78174369541375
 20
422.6999969624158
 30
0.0
 11
38.97506700000031
 21
422.6999969624158
 31
0.0
  0
LINE
  5
2C7F
330
D1
100
AcDbEntity
  8
0
  6
Continuous
100
AcDbLine
 10
53.78174369541375
 20
397.3000029624163
 30
0.0
 11
38.97506700000031
 21
397.3000029624163
 31
0.0
  0
LINE
  5
2C80
330
D1
100
AcDbEntity
  8
0
  6
Continuous
100
AcDbLine
 10
59.55842369541461
 20
385.2763899624169
 30
0.0
 11
55.66115369541421
 21
395.9840449624171
 31
0.0
  0
LINE
  5
2C81
330
D1
100
AcDbEntity
  8
0
  6
Continuous
100
AcDbLine
 10
62.59998169541359
 20
384.749999962416
 30
0.0
 11
60.31015569541432
 21
384.749999962416
 31
0.0
  0
LINE
  5
2C82
330
D1
100
AcDbEntity
  8
0
  6
Continuous
100
AcDbLine
 10
59.55840469541363
 20
434.723636962417
 30
0.0
 11
55.66113469541415
 21
424.0159779624154
 31
0.0
  0
LINE
  5
2C83
330
D1
100
AcDbEntity
  8
0
  6
Continuous
100
AcDbLine
 10
55.18216469541403
 20
397.3000029624163
 30
0.0
 11
55.18216469541403
 21
422.6999969624158
 31
0.0
  0
ARC
  5
2C84
330
D1
100
AcDbEntity
  8
0
  6
Continuous
100
AcDbCircle
 10
53.78174369541375
 20
424.6999969624157
 30
0.0
 40
2.0
100
AcDbArc
 50
270.0
 51
340.0000199999614
  0
ARC
  5
2C85
330
D1
100
AcDbEntity
  8
0
  6
Continuous
100
AcDbCircle
 10
53.78174369541375
 20
395.3000029624163
 30
0.0
 40
2.0
100
AcDbArc
 50
19.99997800001705
 51
90.0
  0
ARC
  5
2C86
330
D1
100
AcDbEntity
  8
0
  6
Continuous
100
AcDbCircle
 10
60.31015569541432
 20
434.4499969624157
 30
0.0
 40
0.8000000099999999
100
AcDbArc
 50
90.0
 51
159.9999699999938
  0
ARC
  5
2C87
330
D1
100
AcDbEntity
  8
0
  6
Continuous
100
AcDbCircle
 10
60.31015569541432
 20
385.5500029624163
 30
0.0
 40
0.8000000099999999
100
AcDbArc
 50
200.0000300000062
 51
270.0
  0
LINE
  5
2C88
330
D1
100
AcDbEntity
  8
AM_0_T3
100
AcDbLine
 10
-53.09996900000078
 20
472.0
 30
0.0
 11
-53.09997365466006
 21
410.0
 31
0.0
  0
LINE
  5
2C89
330
D1
100
AcDbEntity
  8
AM_0_T3
100
AcDbLine
 10
-53.09997365466006
 20
410.0
 30
0.0
 11
-53.09997830931934
 21
348.0
 31
0.0
  0
ENDSEC
  0
SECTION
  2
OBJECTS
  0
DICTIONARY
  5
144B
330
0
100
AcDbDictionary
281
     1
  3
ACAD_BACKGROUND
350
15E4
  3
ACAD_CIP_PREVIOUS_PRODUCT_INFO
350
14A7
  3
ACAD_COLOR
350
1485
  3
ACAD_DETAILVIEWSTYLE
350
1DA2
  3
ACAD_FIELDLIST
350
1E5F
  3
ACAD_GROUP
350
144C
  3
ACAD_LAYOUT
350
149D
  3
ACAD_MATERIAL
350
1453
  3
ACAD_MLEADERSTYLE
350
149A
  3
ACAD_MLINESTYLE
350
144D
  3
ACAD_PLOTSETTINGS
350
149E
  3
ACAD_PLOTSTYLENAME
350
1451
  3
ACAD_SCALELIST
350
1488
  3
ACAD_SECTIONVIEWSTYLE
350
1DA0
  3
ACAD_TABLESTYLE
350
1486
  3
ACAD_VISUALSTYLE
350
146C
  3
ACDB_RECOMPOSE_DATA
350
2CE4
  3
AcDbVariableDictionary
350
15F3
  3
AcDsDecomposeData
350
2CEA
  3
ACGREF_MASTER
350
1E0A
  3
ACGREFACAD_MASTER
350
1E0D
  3
AcmDictionary
350
151A
  3
ACME_COMMAND_HISTORY
350
1E03
  3
ACME_SCOPE_NAME
350
1E02
  3
ACMESTATEMGR
350
1E06
  3
AcmeSysVarManager
350
1E04
  3
AcmSystemVariableManager
350
1E12
  3
AEC_PROPERTY_SET_DEFS
350
1A10
  3
AMG
350
14A9
  3
AMGSNAPSETTINGS
350
15B1
  3
AMI_MASTER
350
1E0E
  3
AUTOCAD_ASSEMBLIES_PROJECT
350
1E1B
  3
Designer_Assemblies_SysVars
350
1E15
  3
GREFAM_MODULE
350
1E11
  3
StructToggleButtonState
350
2594
  0
DICTIONARY
  5
1A2C
330
E2
100
AcDbDictionary
280
     1
281
     1
  0
DICTIONARY
  5
1A02
330
C8
100
AcDbDictionary
280
     1
281
     1
  3
ACAD_LAYERSTATES
360
1A03
  3
AMLAYER_GROUPCOLORS
360
259D
  3
AMLAYER_GROUPLINETYPES
360
259E
  3
AMLAYER_GROUPLINEWEIGHTS
360
259F
  0
DICTIONARY
  5
15EF
330
C9
100
AcDbDictionary
280
     1
281
     1
  3
ADSK_XREC_LAYER_RECONCILED
360
15F0
  0
DICTIONARY
  5
1E85
330
1E84
100
AcDbDictionary
280
     1
281
     1
  0
DICTIONARY
  5
25C1
330
25C0
100
AcDbDictionary
280
     1
281
     1
  0
DICTIONARY
  5
179F
330
D1
100
AcDbDictionary
280
     1
281
     1
  3
ACAD_SORTENTS
360
17A0
  0
DICTIONARY
  5
15E4
102
{ACAD_REACTORS
330
144B
102
}
330
144B
100
AcDbDictionary
281
     1
  0
XRECORD
  5
14A7
102
{ACAD_REACTORS
330
144B
102
}
330
144B
100
AcDbXrecord
280
     1
300
ACD
300
2022
300

  0
DICTIONARY
  5
1485
102
{ACAD_REACTORS
330
144B
102
}
330
144B
100
AcDbDictionary
281
     1
  0
DICTIONARY
  5
1DA2
102
{ACAD_REACTORS
330
144B
102
}
330
144B
100
AcDbDictionary
281
     1
  3
Imperial24
350
1EA6
  3
ISO 128-34_2001
350
1E59
  3
ISO 128-34_2001(1)
350
1EA7
  3
Metric50
350
1DA3
  3
TSK_ JIS Z 8316 _ 1999
350
1EA8
  0
FIELDLIST
  5
1E5F
102
{ACAD_REACTORS
330
144B
102
}
330
144B
100
AcDbIdSet
 90
        9
330
1E5D
330
1E5E
330
1E60
330
1E9D
330
1E9E
330
1E9F
330
1EA3
330
1EA4
330
1EA5
100
AcDbFieldList
  0
DICTIONARY
  5
144C
102
{ACAD_REACTORS
330
144B
102
}
330
144B
100
AcDbDictionary
281
     1
  0
DICTIONARY
  5
149D
102
{ACAD_REACTORS
330
144B
102
}
330
144B
100
AcDbDictionary
281
     1
  3
Model
350
149F
  3
レイアウト1
350
14A0
  0
DICTIONARY
  5
1453
102
{ACAD_REACTORS
330
144B
102
}
330
144B
100
AcDbDictionary
281
     1
  3
ByBlock
350
145C
  3
ByLayer
350
1454
  3
Global
350
1464
  0
DICTIONARY
  5
149A
102
{ACAD_REACTORS
330
144B
102
}
330
144B
100
AcDbDictionary
281
     1
  3
Standard
350
149B
  0
DICTIONARY
  5
144D
102
{ACAD_REACTORS
330
144B
102
}
330
144B
100
AcDbDictionary
281
     1
  3
STANDARD
350
144E
  0
DICTIONARY
  5
149E
102
{ACAD_REACTORS
330
144B
102
}
330
144B
100
AcDbDictionary
281
     1
  0
ACDBDICTIONARYWDFLT
  5
1451
102
{ACAD_REACTORS
330
144B
102
}
330
144B
100
AcDbDictionary
281
     1
  3
Normal
350
1452
100
AcDbDictionaryWithDefault
340
1452
  0
DICTIONARY
  5
1488
102
{ACAD_REACTORS
330
144B
102
}
330
144B
100
AcDbDictionary
281
     1
  3
A0
350
1489
  3
A1
350
148A
  3
A2
350
148B
  3
A3
350
148C
  3
A4
350
148D
  3
A5
350
148E
  3
A6
350
148F
  3
A7
350
1490
  3
A8
350
1491
  3
A9
350
1492
  3
B0
350
1493
  3
B1
350
1494
  3
B2
350
1495
  3
B3
350
1496
  3
B4
350
1497
  3
B5
350
1498
  3
B6
350
1499
  0
DICTIONARY
  5
1DA0
102
{ACAD_REACTORS
330
144B
102
}
330
144B
100
AcDbDictionary
281
     1
  3
Imperial24
350
1E99
  3
ISO 128-40_2001(E)
350
1E5A
  3
ISO 128-40_2001(E)(1)
350
1E9A
  3
Metric50
350
1DA1
  3
TSK_ JIS  B 0001 _ 2000
350
1EA0
  0
DICTIONARY
  5
1486
102
{ACAD_REACTORS
330
144B
102
}
330
144B
100
AcDbDictionary
281
     1
  3
Standard
350
1487
  0
DICTIONARY
  5
146C
102
{ACAD_REACTORS
330
144B
102
}
330
144B
100
AcDbDictionary
281
     1
  3
2dWireframe
350
1472
  3
Basic
350
1471
  3
Brighten
350
1478
  3
ColorChange
350
147C
  3
Conceptual
350
1475
  3
Dim
350
1477
  3
EdgeColorOff
350
1484
  3
Facepattern
350
147B
  3
Flat
350
146D
  3
FlatWithEdges
350
146E
  3
Gouraud
350
146F
  3
GouraudWithEdges
350
1470
  3
Hidden
350
1474
  3
JitterOff
350
1482
  3
Linepattern
350
147A
  3
OverhangOff
350
1483
  3
Realistic
350
1476
  3
Shaded
350
1481
  3
Shaded with edges
350
1480
  3
Shades of Gray
350
147D
  3
Sketchy
350
147E
  3
Thicken
350
1479
  3
Wireframe
350
1473
  3
X-Ray
350
147F
  0
XRECORD
  5
2CE4
102
{ACAD_REACTORS
330
144B
102
}
330
144B
100
AcDbXrecord
280
     1
 90
        1
330
1487
  0
DICTIONARY
  5
15F3
102
{ACAD_REACTORS
330
144B
102
}
330
144B
100
AcDbDictionary
281
     1
  3
CANNOSCALE
350
15F7
  3
CMLEADERSTYLE
350
15F5
  3
CTABLESTYLE
350
15F4
  3
CVIEWDETAILSTYLE
350
1DE3
  3
CVIEWSECTIONSTYLE
350
1DE4
  3
DIMASSOC
350
1A68
  3
INDEXCTL
350
1A67
  3
LAYEREVAL
350
15F9
  3
LAYERNOTIFY
350
15FA
  3
LIGHTINGUNITS
350
15F8
  3
MSLTSCALE
350
15F6
  3
SORTENTS
350
1A66
  0
DICTIONARY
  5
2CEA
102
{ACAD_REACTORS
330
144B
102
}
330
144B
100
AcDbDictionary
281
     1
  3
AcDsRecords
350
2CEC
  3
AcDsSchemas
350
2CEB
1001
ACAD
1070
     2
  0
ACAD_PROXY_OBJECT
  5
1E0A
102
{ACAD_REACTORS
330
144B
102
}
330
144B
100
AcDbProxyObject
 90
      499
 91
      512
 95
 11534369
 70
     0
162
                 0
161
                34
310
0C000042CC
 94
        0
  0
ACAD_PROXY_OBJECT
  5
1E0D
102
{ACAD_REACTORS
330
144B
102
}
330
144B
100
AcDbProxyObject
 90
      499
 91
      518
 95
 11534369
 70
     0
162
                 0
161
               114
310
04000041C08000000000000000000C
 94
        0
  0
DICTIONARY
  5
151A
102
{ACAD_REACTORS
330
144B
102
}
330
144B
100
AcDbDictionary
281
     1
  3
AcmBOMDATA
350
1E24
  3
AcmStdDictionary
350
151B
  0
ACAD_PROXY_OBJECT
  5
1E03
102
{ACAD_REACTORS
330
144B
102
}
330
144B
100
AcDbProxyObject
 90
      499
 91
      507
 95
 11534369
 70
     0
162
             11842
311
42150011401600150011401100124015001184D005300470020002D00200043006F006D006D0061006E0064002000430041004E00430045004C004C00450044002E004C534014C011C008000B4008001400140010400E80080008000800190019401CC01AC01D001BC01C000B8018401C801E00080011801A401B001940158
311
019401C801CC01A401BC01B800E8008000C800D400B800C000B800D800D000B800C000B800C001044C0049004E00450046134014C011C008000B40080010C01BC01B401B4018401B801900080010C01040138010C0114013001300114011000B8010455004E0044004F004115401380110013C010854004500580054004500
311
44004900540046134014C011C008000B40080010C01BC01B401B4018401B801900080010C01040138010C0114013001300114011000B80105510053004100560045004C534014C011C008000B4008001400140010400E80080008000800190019401CC01AC01D001BC01C000B8018401C801E00080011801A401B001940158
311
019401C801CC01A401BC01B800E8008000C800D400B800C000B800D800D000B800C000B800C001064C0041005900440045004C0046134014C011C008000B40080010C01BC01B401B4018401B801900080010C01040138010C0114013001300114011000B8010741004D004C00410059004500520041544014C010401580114
311
01314D005300470020002D0020005000500041003A002000200020006400650073006B0074006F0070002E006100720078002000460069006C006500560065007200730069006F006E003A002000320035002E0030002E00360034002E0030002E0030004115401380110013C010455004E0044004F0041130012401380114
311
01184D005300470020002D00200043006F006D006D0061006E0064002000430041004E00430045004C004C00450044002E004113001240138011401184D005300470020002D00200043006F006D006D0061006E0064002000430041004E00430045004C004C00450044002E004151401480104014C01140109500041005300
311
5400450043004C004900500041134013C015801140105450052004100530045004151401480104014C01140105510053004100560045004C534014C011C008000B4008001400140010400E80080008000800190019401CC01AC01D001BC01C000B8018401C801E00080011801A401B001940158019401C801CC01A401BC01B
311
800E8008000C800D400B800C000B800D800D000B800C000B800C00105510053004100560045004C534014C011C008000B4008001400140010400E80080008000800190019401CC01AC01D001BC01C000B8018401C801E00080011801A401B001940158019401C801CC01A401BC01B800E8008000C800D400B800C000B800D8
311
00D000B800C000B800C0010455004E0044004F004115401380110013C0105510053004100560045004C534014C011C008000B4008001400140010400E80080008000800190019401CC01AC01D001BC01C000B8018401C801E00080011801A401B001940158019401C801CC01A401BC01B800E8008000C800D400B800C000B8
311
00D800D000B800C000B800C0010455004E0044004F004115401380110013C010455004E0044004F004115401380110013C01085400450058005400450044004900540046134014C011C008000B40080010C01BC01B401B4018401B801900080010C01040138010C0114013001300114011000B801055100530041005600450
311
04C534014C011C008000B4008001400140010400E80080008000800190019401CC01AC01D001BC01C000B8018401C801E00080011801A401B001940158019401C801CC01A401BC01B800E8008000C800D400B800C000B800D800D000B800C000B800C0010543004C004F00530045004C534014C011C008000B400800140014
311
0010400E80080008000800190019401CC01AC01D001BC01C000B8018401C801E00080011801A401B001940158019401C801CC01A401BC01B800E8008000C800D400B800C000B800D800D000B800C000B800C000C
161
               542
310
4780502010101404040601805010101404040501010180501010180601404040501010180601806018050101014040406018050101018060180601404040501010140404
 94
        0
  0
ACAD_PROXY_OBJECT
  5
1E02
102
{ACAD_REACTORS
330
144B
102
}
330
144B
100
AcDbProxyObject
 90
      499
 91
      506
 95
 11534369
 70
     0
162
                 0
161
               266
310
190000568080000000000000000010C442000000000000000000000000AAA406AA8C
360
1E05
360
1E13
360
1E16
360
1E17
360
1E18
360
1E19
360
1E1A
360
1E1F
360
1E20
360
1E21
360
1E22
360
1E23
 94
        0
  0
ACAD_PROXY_OBJECT
  5
1E06
102
{ACAD_REACTORS
330
144B
102
}
330
144B
100
AcDbProxyObject
 90
      499
 91
      510
 95
 11534369
 70
     0
162
                 0
161
                50
310
1900004664128C
 94
        0
  0
ACAD_PROXY_OBJECT
  5
1E04
102
{ACAD_REACTORS
330
144B
102
}
330
144B
100
AcDbProxyObject
 90
      499
 91
      508
 95
 11534369
 70
     0
162
                 0
161
                32
310
90140A0000
330
1E05
 94
        0
  0
ACAD_PROXY_OBJECT
  5
1E12
102
{ACAD_REACTORS
330
144B
102
}
330
144B
100
AcDbProxyObject
 90
      499
 91
      508
 95
 11534369
 70
     0
162
                 0
161
                32
310
90140A0000
330
1E13
 94
        0
  0
DICTIONARY
  5
1A10
102
{ACAD_REACTORS
330
144B
102
}
330
144B
100
AcDbDictionary
281
     1
  0
DICTIONARY
  5
14A9
102
{ACAD_REACTORS
330
144B
102
}
330
144B
100
AcDbDictionary
281
     1
  3
AcMgSettings
350
1DFE
  3
AMGLAYCFG
350
1E3D
  0
DICTIONARY
  5
15B1
102
{ACAD_REACTORS
330
144B
102
}
330
144B
100
AcDbDictionary
281
     1
  0
ACAD_PROXY_OBJECT
  5
1E0E
102
{ACAD_REACTORS
330
144B
102
}
330
144B
100
AcDbProxyObject
 90
      499
 91
      521
 95
 11534369
 70
     0
162
                 0
161
                34
310
050000428C
 94
        0
  0
ACAD_PROXY_OBJECT
  5
1E1B
102
{ACAD_REACTORS
330
144B
102
}
330
144B
100
AcDbProxyObject
 90
      499
 91
      562
 95
 11534369
 70
     0
162
                 0
161
                98
310
0E000053C0000000000000000C
330
1E21
330
0
330
1E22
330
0
330
0
330
0
330
0
330
0
 94
        0
  0
ACAD_PROXY_OBJECT
  5
1E15
102
{ACAD_REACTORS
330
144B
102
}
330
144B
100
AcDbProxyObject
 90
      499
 91
      508
 95
 11534369
 70
     0
162
                 0
161
                64
310
90541A0000000000C9
330
1E16
330
1E17
330
1E18
330
1E19
330
1E1A
 94
        0
  0
ACAD_PROXY_OBJECT
  5
1E11
102
{ACAD_REACTORS
330
144B
102
}
330
144B
100
AcDbProxyObject
 90
      499
 91
      522
 95
 11534369
 70
     0
162
                 0
161
                 8
310
0554
 94
        0
  0
ACAD_PROXY_OBJECT
  5
2594
102
{ACAD_REACTORS
330
144B
102
}
330
144B
100
AcDbProxyObject
 90
      499
 91
      578
 95
 11534369
 70
     0
162
                 0
161
                 1
310
4C
 94
        0
  0
DICTIONARY
  5
1A03
102
{ACAD_REACTORS
330
1A02
102
}
330
1A02
100
AcDbDictionary
281
     1
  0
DICTIONARY
  5
259D
102
{ACAD_REACTORS
330
1A02
102
}
330
1A02
100
AcDbDictionary
280
     1
281
     1
  0
DICTIONARY
  5
259E
102
{ACAD_REACTORS
330
1A02
102
}
330
1A02
100
AcDbDictionary
280
     1
281
     1
  0
DICTIONARY
  5
259F
102
{ACAD_REACTORS
330
1A02
102
}
330
1A02
100
AcDbDictionary
280
     1
281
     1
  0
XRECORD
  5
15F0
102
{ACAD_REACTORS
330
15EF
102
}
330
15EF
100
AcDbXrecord
280
     1
290
     1
  0
SORTENTSTABLE
  5
17A0
102
{ACAD_REACTORS
330
179F
102
}
330
179F
100
AcDbSortentsTable
330
D1
  0
ACDBDETAILVIEWSTYLE
  5
1EA6
102
{ACAD_XDICTIONARY
360
2CF8
102
}
102
{ACAD_REACTORS
330
2217
330
1DA2
330
2228
102
}
330
1DA2
100
AcDbModelDocViewStyle
 70
     0
  3
Imperial24
290
     0
100
AcDbDetailViewStyle
 70
     0
 71
     0
 90
        3
 71
     1
340
23
 62
   256
 40
0.24
340
0
 62
   256
 40
0.24
300

 40
0.36
280
     3
 71
     2
340
28
 90
       25
 62
   256
 71
     3
340
23
 62
   256
 40
0.24
 90
        1
 40
0.75
 90
        1
300
%<\AcVar ViewType \f "%tc1">% %<\AcVar ViewDetailId>%\PSCALE %<\AcVar ViewScale \f "%sn">%
 71
     4
340
28
 90
       25
 62
   256
340
28
 90
       25
 62
   256
280
     0
  0
ACDBDETAILVIEWSTYLE
  5
1E59
102
{ACAD_XDICTIONARY
360
2CF1
102
}
102
{ACAD_REACTORS
330
1E32
330
1DA2
102
}
330
1DA2
100
AcDbModelDocViewStyle
 70
     0
  3

290
     0
100
AcDbDetailViewStyle
 70
     0
 71
     0
 90
        3
 71
     1
340
23
 62
     7
 40
5.0
340
0
 62
     3
 40
5.0
300

 40
0.0
280
     0
 71
     2
340
28
 90
       25
 62
     3
 71
     3
340
23
 62
     7
 40
5.0
 90
        0
 40
15.0
 90
        1
300
%<\AcVar ViewDetailId>% (%<\AcVar ViewScale \f "%sn">%)
 71
     4
340
28
 90
       25
 62
     3
340
28
 90
       25
 62
     3
280
     0
  0
ACDBDETAILVIEWSTYLE
  5
1EA7
102
{ACAD_XDICTIONARY
360
2CFA
102
}
102
{ACAD_REACTORS
330
2218
330
1DA2
330
2229
102
}
330
1DA2
100
AcDbModelDocViewStyle
 70
     0
  3

290
     0
100
AcDbDetailViewStyle
 70
     0
 71
     0
 90
        3
 71
     1
340
23
 62
     2
 40
3.5
340
0
 62
     3
 40
3.5
300

 40
0.0
280
     0
 71
     2
340
28
 90
       25
 62
   256
 71
     3
340
23
 62
     2
 40
3.5
 90
        0
 40
0.0
 90
        1
300
%<\AcVar ViewDetailId>% (%<\AcVar ViewScale \f "%sn">%)
 71
     4
340
28
 90
       25
 62
   256
340
28
 90
       25
 62
   256
280
     0
  0
ACDBDETAILVIEWSTYLE
  5
1DA3
102
{ACAD_XDICTIONARY
360
2CEF
102
}
102
{ACAD_REACTORS
330
1DA2
330
1E53
102
}
330
1DA2
100
AcDbModelDocViewStyle
 70
     0
  3
Metric50
290
     0
100
AcDbDetailViewStyle
 70
     0
 71
     0
 90
        3
 71
     1
340
23
 62
   256
 40
5.0
340
0
 62
   256
 40
5.0
300

 40
0.0
280
     1
 71
     2
340
28
 90
       25
 62
   256
 71
     3
340
23
 62
   256
 40
5.0
 90
        0
 40
15.0
 90
        1
300
%<\AcVar ViewDetailId>% (%<\AcVar ViewScale \f "%sn">%)
 71
     4
340
28
 90
       25
 62
   256
340
28
 90
       25
 62
   256
280
     0
  0
ACDBDETAILVIEWSTYLE
  5
1EA8
102
{ACAD_XDICTIONARY
360
2CFC
102
}
102
{ACAD_REACTORS
330
2215
330
1DA2
102
}
330
1DA2
100
AcDbModelDocViewStyle
 70
     0
  3

290
     0
100
AcDbDetailViewStyle
 70
     0
 71
     0
 90
        3
 71
     1
340
1E89
 62
     7
 40
4.5
340
1E7C
 62
   256
 40
4.5
300

 40
0.0
280
     0
 71
     2
340
28
 90
       25
 62
   256
 71
     3
340
1E89
 62
     7
 40
4.5
 90
        0
 40
0.0
 90
        1
300
%<\AcVar ViewDetailId>% (%<\AcVar ViewScale \f "%sn">%)
 71
     4
340
28
 90
       25
 62
   256
340
28
 90
       25
 62
   256
280
     0
  0
LAYOUT
  5
149F
102
{ACAD_REACTORS
330
149D
102
}
330
149D
100
AcDbPlotSettings
  1

  2
iR C4580
  4

  6

 40
0.0
 41
0.0
 42
0.0
 43
0.0
 44
0.0
 45
0.0
 46
0.0
 47
0.0
 48
0.0
 49
0.0
140
0.0
141
0.0
142
1.0
143
1.0
 70
  1712
 72
     0
 73
     0
 74
     0
  7

 75
     0
147
1.0
 76
     0
 77
     2
 78
   300
148
0.0
149
0.0
100
AcDbLayout
  1
Model
 70
     1
 71
     0
 10
0.0
 20
0.0
 11
12.0
 21
9.0
 12
0.0
 22
0.0
 32
0.0
 14
0.0
 24
0.0
 34
0.0
 15
0.0
 25
0.0
 35
0.0
146
0.0
 13
0.0
 23
0.0
 33
0.0
 16
1.0
 26
0.0
 36
0.0
 17
0.0
 27
1.0
 37
0.0
 76
     0
330
D1
331
14A6
  0
LAYOUT
  5
14A0
102
{ACAD_REACTORS
330
149D
102
}
330
149D
100
AcDbPlotSettings
  1

  2
iR C4580
  4

  6

 40
0.0
 41
0.0
 42
0.0
 43
0.0
 44
0.0
 45
0.0
 46
0.0
 47
0.0
 48
0.0
 49
0.0
140
0.0
141
0.0
142
1.0
143
1.0
 70
   688
 72
     0
 73
     0
 74
     5
  7

 75
    16
147
1.0
 76
     0
 77
     2
 78
   300
148
0.0
149
0.0
100
AcDbLayout
  1
レイアウト1
 70
     1
 71
     1
 10
-2550.0
 20
0.0
 11
0.0
 21
1800.0
 12
0.0
 22
0.0
 32
0.0
 14
-2550.0
 24
0.0
 34
0.0
 15
0.0
 25
1800.0
 35
0.0
146
0.0
 13
0.0
 23
0.0
 33
0.0
 16
1.0
 26
0.0
 36
0.0
 17
0.0
 27
1.0
 37
0.0
 76
     0
330
D2
  0
MATERIAL
  5
145C
102
{ACAD_XDICTIONARY
360
145D
102
}
102
{ACAD_REACTORS
330
1453
102
}
330
1453
100
AcDbMaterial
  1
ByBlock
 72
     0
 43
0.0208333333333333
 43
0.0
 43
0.0
 43
0.0
 43
0.0
 43
0.0208333333333333
 43
0.0
 43
0.0
 43
0.0
 43
0.0
 43
1.0
 43
0.0
 43
0.0
 43
0.0
 43
0.0
 43
1.0
 77
     0
 47
0.0208333333333333
 47
0.0
 47
0.0
 47
0.0
 47
0.0
 47
0.0208333333333333
 47
0.0
 47
0.0
 47
0.0
 47
0.0
 47
1.0
 47
0.0
 47
0.0
 47
0.0
 47
0.0
 47
1.0
171
     0
 49
0.0208333333333333
 49
0.0
 49
0.0
 49
0.0
 49
0.0
 49
0.0208333333333333
 49
0.0
 49
0.0
 49
0.0
 49
0.0
 49
1.0
 49
0.0
 49
0.0
 49
0.0
 49
0.0
 49
1.0
175
     0
142
0.0208333333333333
142
0.0
142
0.0
142
0.0
142
0.0
142
0.0208333333333333
142
0.0
142
0.0
142
0.0
142
0.0
142
1.0
142
0.0
142
0.0
142
0.0
142
0.0
142
1.0
179
     0
144
0.0208333333333333
144
0.0
144
0.0
144
0.0
144
0.0
144
0.0208333333333333
144
0.0
144
0.0
144
0.0
144
0.0
144
1.0
144
0.0
144
0.0
144
0.0
144
0.0
144
1.0
147
0.0208333333333333
147
0.0
147
0.0
147
0.0
147
0.0
147
0.0208333333333333
147
0.0
147
0.0
147
0.0
147
0.0
147
1.0
147
0.0
147
0.0
147
0.0
147
0.0
147
1.0
  0
MATERIAL
  5
1454
102
{ACAD_XDICTIONARY
360
1455
102
}
102
{ACAD_REACTORS
330
1453
102
}
330
1453
100
AcDbMaterial
  1
ByLayer
 72
     0
 43
0.0208333333333333
 43
0.0
 43
0.0
 43
0.0
 43
0.0
 43
0.0208333333333333
 43
0.0
 43
0.0
 43
0.0
 43
0.0
 43
1.0
 43
0.0
 43
0.0
 43
0.0
 43
0.0
 43
1.0
 77
     0
 47
0.0208333333333333
 47
0.0
 47
0.0
 47
0.0
 47
0.0
 47
0.0208333333333333
 47
0.0
 47
0.0
 47
0.0
 47
0.0
 47
1.0
 47
0.0
 47
0.0
 47
0.0
 47
0.0
 47
1.0
171
     0
 49
0.0208333333333333
 49
0.0
 49
0.0
 49
0.0
 49
0.0
 49
0.0208333333333333
 49
0.0
 49
0.0
 49
0.0
 49
0.0
 49
1.0
 49
0.0
 49
0.0
 49
0.0
 49
0.0
 49
1.0
175
     0
142
0.0208333333333333
142
0.0
142
0.0
142
0.0
142
0.0
142
0.0208333333333333
142
0.0
142
0.0
142
0.0
142
0.0
142
1.0
142
0.0
142
0.0
142
0.0
142
0.0
142
1.0
179
     0
144
0.0208333333333333
144
0.0
144
0.0
144
0.0
144
0.0
144
0.0208333333333333
144
0.0
144
0.0
144
0.0
144
0.0
144
1.0
144
0.0
144
0.0
144
0.0
144
0.0
144
1.0
147
0.0208333333333333
147
0.0
147
0.0
147
0.0
147
0.0
147
0.0208333333333333
147
0.0
147
0.0
147
0.0
147
0.0
147
1.0
147
0.0
147
0.0
147
0.0
147
0.0
147
1.0
  0
MATERIAL
  5
1464
102
{ACAD_XDICTIONARY
360
1465
102
}
102
{ACAD_REACTORS
330
1453
102
}
330
1453
100
AcDbMaterial
  1
Global
 72
     0
 43
0.0208333333333333
 43
0.0
 43
0.0
 43
0.0
 43
0.0
 43
0.0208333333333333
 43
0.0
 43
0.0
 43
0.0
 43
0.0
 43
1.0
 43
0.0
 43
0.0
 43
0.0
 43
0.0
 43
1.0
 77
     0
 47
0.0208333333333333
 47
0.0
 47
0.0
 47
0.0
 47
0.0
 47
0.0208333333333333
 47
0.0
 47
0.0
 47
0.0
 47
0.0
 47
1.0
 47
0.0
 47
0.0
 47
0.0
 47
0.0
 47
1.0
171
     0
 49
0.0208333333333333
 49
0.0
 49
0.0
 49
0.0
 49
0.0
 49
0.0208333333333333
 49
0.0
 49
0.0
 49
0.0
 49
0.0
 49
1.0
 49
0.0
 49
0.0
 49
0.0
 49
0.0
 49
1.0
175
     0
142
0.0208333333333333
142
0.0
142
0.0
142
0.0
142
0.0
142
0.0208333333333333
142
0.0
142
0.0
142
0.0
142
0.0
142
1.0
142
0.0
142
0.0
142
0.0
142
0.0
142
1.0
179
     0
144
0.0208333333333333
144
0.0
144
0.0
144
0.0
144
0.0
144
0.0208333333333333
144
0.0
144
0.0
144
0.0
144
0.0
144
1.0
144
0.0
144
0.0
144
0.0
144
0.0
144
1.0
147
0.0208333333333333
147
0.0
147
0.0
147
0.0
147
0.0
147
0.0208333333333333
147
0.0
147
0.0
147
0.0
147
0.0
147
1.0
147
0.0
147
0.0
147
0.0
147
0.0
147
1.0
  0
MLEADERSTYLE
  5
149B
102
{ACAD_REACTORS
330
149A
102
}
330
149A
100
AcDbMLeaderStyle
179
     2
170
     2
171
     1
172
     0
 90
        2
 40
0.0
 41
0.0
173
     1
 91
-1056964608
340
26
 92
       -2
290
     1
 42
2.0
291
     1
 43
0.36
  3
Standard
 44
4.0
300

342
23
174
     1
178
     6
175
     1
176
     0
 93
-1056964608
 45
4.0
292
     0
297
     0
 46
4.0
 94
-1056964608
 47
1.0
 49
1.0
140
1.0
293
     1
141
0.0
294
     1
177
     0
142
1.0
295
     0
296
     0
143
0.125
271
     0
272
     9
273
     9
298
     1
  0
MLINESTYLE
  5
144E
102
{ACAD_REACTORS
330
144D
102
}
330
144D
100
AcDbMlineStyle
  2
STANDARD
 70
     0
  3

 62
     0
 51
90.0
 52
90.0
 71
     2
 49
0.5
 62
   256
  6
BYLAYER
 49
-0.5
 62
   256
  6
BYLAYER
  0
ACDBPLACEHOLDER
  5
1452
102
{ACAD_REACTORS
330
1451
102
}
330
1451
  0
SCALE
  5
1489
102
{ACAD_REACTORS
330
1488
102
}
330
1488
100
AcDbScale
 70
     0
300
1:1
140
1.0
141
1.0
290
     1
  0
SCALE
  5
148A
102
{ACAD_REACTORS
330
1488
102
}
330
1488
100
AcDbScale
 70
     0
300
1:2
140
1.0
141
2.0
290
     0
  0
SCALE
  5
148B
102
{ACAD_REACTORS
330
1488
102
}
330
1488
100
AcDbScale
 70
     0
300
1:4
140
1.0
141
4.0
290
     0
  0
SCALE
  5
148C
102
{ACAD_REACTORS
330
1488
102
}
330
1488
100
AcDbScale
 70
     0
300
1:5
140
1.0
141
5.0
290
     0
  0
SCALE
  5
148D
102
{ACAD_REACTORS
330
1488
102
}
330
1488
100
AcDbScale
 70
     0
300
1:8
140
1.0
141
8.0
290
     0
  0
SCALE
  5
148E
102
{ACAD_REACTORS
330
1488
102
}
330
1488
100
AcDbScale
 70
     0
300
1:10
140
1.0
141
10.0
290
     0
  0
SCALE
  5
148F
102
{ACAD_REACTORS
330
1488
102
}
330
1488
100
AcDbScale
 70
     0
300
1:16
140
1.0
141
16.0
290
     0
  0
SCALE
  5
1490
102
{ACAD_REACTORS
330
1488
102
}
330
1488
100
AcDbScale
 70
     0
300
1:20
140
1.0
141
20.0
290
     0
  0
SCALE
  5
1491
102
{ACAD_REACTORS
330
1488
102
}
330
1488
100
AcDbScale
 70
     0
300
1:30
140
1.0
141
30.0
290
     0
  0
SCALE
  5
1492
102
{ACAD_REACTORS
330
1488
102
}
330
1488
100
AcDbScale
 70
     0
300
1:40
140
1.0
141
40.0
290
     0
  0
SCALE
  5
1493
102
{ACAD_REACTORS
330
1488
102
}
330
1488
100
AcDbScale
 70
     0
300
1:50
140
1.0
141
50.0
290
     0
  0
SCALE
  5
1494
102
{ACAD_REACTORS
330
1488
102
}
330
1488
100
AcDbScale
 70
     0
300
1:100
140
1.0
141
100.0
290
     0
  0
SCALE
  5
1495
102
{ACAD_REACTORS
330
1488
102
}
330
1488
100
AcDbScale
 70
     0
300
2:1
140
2.0
141
1.0
290
     0
  0
SCALE
  5
1496
102
{ACAD_REACTORS
330
1488
102
}
330
1488
100
AcDbScale
 70
     0
300
4:1
140
4.0
141
1.0
290
     0
  0
SCALE
  5
1497
102
{ACAD_REACTORS
330
1488
102
}
330
1488
100
AcDbScale
 70
     0
300
8:1
140
8.0
141
1.0
290
     0
  0
SCALE
  5
1498
102
{ACAD_REACTORS
330
1488
102
}
330
1488
100
AcDbScale
 70
     0
300
10:1
140
10.0
141
1.0
290
     0
  0
SCALE
  5
1499
102
{ACAD_REACTORS
330
1488
102
}
330
1488
100
AcDbScale
 70
     0
300
100:1
140
100.0
141
1.0
290
     0
  0
ACDBSECTIONVIEWSTYLE
  5
1E99
102
{ACAD_XDICTIONARY
360
2CF4
102
}
102
{ACAD_REACTORS
330
221B
330
1DA0
330
222A
102
}
330
1DA0
100
AcDbModelDocViewStyle
 70
     0
  3
Imperial24
290
     0
100
AcDbSectionViewStyle
 70
     0
 71
     0
 90
       78
 71
     1
340
23
 62
   256
 40
0.24
340
0
340
0
 62
   256
 40
0.24
300
I, O, Q, S, X, Z
 40
0.48
 90
        3
 40
0.18
 90
        1
 71
     2
340
28
 90
       25
 62
   256
340
28
 90
       50
 62
   256
 40
0.24
 40
0.0
 40
0.24
 71
     3
340
23
 62
   256
 40
0.24
 90
        1
 40
0.75
 90
        1
300
%<\AcVar ViewType \f "%tc1">% %<\AcVar ViewSectionStartId>%-%<\AcVar ViewSectionEndId>%\PSCALE %<\AcVar ViewScale \f "%sn">%
 71
     4
 62
   256
 62
   257
300
ANSI31
 40
1.0
 90
        0
290
     0
290
     0
 90
        6
 40
0.0
 40
1.570796326794896
 40
0.2617993877991494
 40
1.308996938995747
 40
-0.2617993877991494
 40
1.832595714594046
  0
ACDBSECTIONVIEWSTYLE
  5
1E5A
102
{ACAD_XDICTIONARY
360
1E5B
102
}
102
{ACAD_REACTORS
330
1E33
330
1DA0
102
}
330
1DA0
100
AcDbModelDocViewStyle
 70
     0
  3

290
     0
100
AcDbSectionViewStyle
 70
     0
 71
     0
 90
      102
 71
     1
340
23
 62
     7
 40
5.0
340
0
340
0
 62
     7
 40
5.0
300
I,O,Q,S,X,Z
 40
10.0
 90
        0
 40
2.5
 90
        0
 71
     2
340
1E3F
 90
       50
 62
     1
340
1E3F
 90
       50
 62
     7
 40
10.0
 40
5.0
 40
10.0
 71
     3
340
23
 62
     7
 40
5.0
 90
        0
 40
5.25
 90
        1
300
%<\AcVar ViewSectionStartId>%-%<\AcVar ViewSectionEndId>%
 71
     4
 62
   256
 62
   257
300
ANSI31
 40
1.0
 90
        0
290
     0
290
     0
 90
        6
 40
0.0
 40
1.570796326794896
 40
0.2617993877991494
 40
1.308996938995747
 40
-0.2617993877991494
 40
1.832595714594046
  0
ACDBSECTIONVIEWSTYLE
  5
1E9A
102
{ACAD_XDICTIONARY
360
1E9B
102
}
102
{ACAD_REACTORS
330
221C
330
1DA0
330
222B
102
}
330
1DA0
100
AcDbModelDocViewStyle
 70
     0
  3

290
     0
100
AcDbSectionViewStyle
 70
     0
 71
     0
 90
      102
 71
     1
340
23
 62
     2
 40
3.5
340
0
340
0
 62
     7
 40
3.5
300
I,O,Q,S,X,Z
 40
10.0
 90
        0
 40
1.75
 90
        0
 71
     2
340
1E3F
 90
       50
 62
     1
340
1E3F
 90
       50
 62
     7
 40
10.0
 40
5.0
 40
10.0
 71
     3
340
23
 62
     2
 40
3.5
 90
        0
 40
5.25
 90
        1
300
%<\AcVar ViewSectionStartId>%-%<\AcVar ViewSectionEndId>%
 71
     4
 62
   256
 62
   257
300
ANSI31
 40
1.0
 90
        0
290
     0
290
     0
 90
        6
 40
0.0
 40
1.570796326794896
 40
0.2617993877991494
 40
1.308996938995747
 40
-0.2617993877991494
 40
1.832595714594046
  0
ACDBSECTIONVIEWSTYLE
  5
1DA1
102
{ACAD_XDICTIONARY
360
2CED
102
}
102
{ACAD_REACTORS
330
1DA0
330
1E52
102
}
330
1DA0
100
AcDbModelDocViewStyle
 70
     0
  3
Metric50
290
     0
100
AcDbSectionViewStyle
 70
     0
 71
     0
 90
      102
 71
     1
340
23
 62
   256
 40
5.0
340
0
340
0
 62
   256
 40
5.0
300
I, O, Q, S, X, Z
 40
10.0
 90
        0
 40
2.5
 90
        0
 71
     2
340
28
 90
       25
 62
   256
340
28
 90
       50
 62
   256
 40
5.0
 40
2.5
 40
5.0
 71
     3
340
23
 62
   256
 40
5.0
 90
        0
 40
15.0
 90
        1
300
%<\AcVar ViewSectionStartId>%-%<\AcVar ViewSectionEndId>% (%<\AcVar ViewScale \f "%sn">%)
 71
     4
 62
   256
 62
   257
300
ANSI31
 40
1.0
 90
        0
290
     0
290
     0
 90
        6
 40
0.0
 40
1.570796326794896
 40
0.2617993877991494
 40
1.308996938995747
 40
-0.2617993877991494
 40
1.832595714594046
  0
ACDBSECTIONVIEWSTYLE
  5
1EA0
102
{ACAD_XDICTIONARY
360
1EA1
102
}
102
{ACAD_REACTORS
330
2219
330
1DA0
102
}
330
1DA0
100
AcDbModelDocViewStyle
 70
     0
  3

290
     0
100
AcDbSectionViewStyle
 70
     0
 71
     0
 90
      110
 71
     1
340
1E89
 62
     7
 40
4.5
340
1E7C
340
1E7C
 62
     7
 40
4.5
300
I,O,Q,S,X,Z
 40
10.0
 90
        4
 40
2.25
 90
        0
 71
     2
340
1E3F
 90
       -1
 62
     1
340
1E3F
 90
       -1
 62
     7
 40
10.0
 40
5.0
 40
10.0
 71
     3
340
1E89
 62
     7
 40
4.5
 90
        1
 40
4.724999999999999
 90
        1
300
%<\AcVar ViewSectionStartId>%-%<\AcVar ViewSectionEndId>%
 71
     4
 62
   256
 62
   257
300
ANSI31
 40
1.0
 90
        0
290
     0
290
     0
 90
        6
 40
0.0
 40
1.570796326794896
 40
0.2617993877991494
 40
1.308996938995747
 40
-0.2617993877991494
 40
1.832595714594046
  0
TABLESTYLE
  5
1487
102
{ACAD_XDICTIONARY
360
1A28
102
}
102
{ACAD_REACTORS
330
1486
102
}
330
1486
100
AcDbTableStyle
280
     0
  3
Standard
 70
     0
 71
     0
 40
1.5
 41
1.5
280
     0
281
     0
  7
STANDARD
140
4.5
170
     2
 62
     0
 63
     7
283
     0
 90
      512
 91
        0
  1

274
    -2
284
     1
 64
     0
275
    -2
285
     1
 65
     0
276
    -2
286
     1
 66
     0
277
    -2
287
     1
 67
     0
278
    -2
288
     1
 68
     0
279
    -2
289
     1
 69
     0
  7
STANDARD
140
6.0
170
     5
 62
     0
 63
     7
283
     0
 90
      512
 91
        0
  1

274
    -2
284
     1
 64
     0
275
    -2
285
     1
 65
     0
276
    -2
286
     1
 66
     0
277
    -2
287
     1
 67
     0
278
    -2
288
     1
 68
     0
279
    -2
289
     1
 69
     0
  7
STANDARD
140
4.5
170
     5
 62
     0
 63
     7
283
     0
 90
      512
 91
        0
  1

274
    -2
284
     1
 64
     0
275
    -2
285
     1
 65
     0
276
    -2
286
     1
 66
     0
277
    -2
287
     1
 67
     0
278
    -2
288
     1
 68
     0
279
    -2
289
     1
 69
     0
  0
VISUALSTYLE
  5
1472
102
{ACAD_REACTORS
330
146C
102
}
330
146C
100
AcDbVisualStyle
  2
2dWireframe
 70
     4
177
     3
291
     0
 70
    58
 90
        0
176
     1
 90
        2
176
     1
 90
        0
176
     1
 90
        0
176
     1
 40
0.6
176
     1
 40
30.0
176
     1
 62
     7
176
     1
 90
        1
176
     1
 90
        4
176
     1
 62
     7
176
     1
 62
   257
176
     1
 90
        1
176
     1
 90
        1
176
     1
 40
1.0
176
     1
 90
        0
176
     1
 62
   257
176
     1
 40
1.0
176
     1
 90
        1
176
     1
 90
        6
176
     1
 90
        2
176
     1
 62
     7
176
     1
 90
        5
176
     1
 90
        0
176
     1
 90
        0
176
     1
290
     0
176
     1
 90
        1
176
     1
 40
0.0
176
     1
 90
        0
176
     1
290
     1
176
     1
290
     1
176
     1
290
     0
176
     1
290
     0
176
     1
290
     0
176
     1
290
     0
176
     1
290
     0
176
     1
290
     0
176
     1
290
     0
176
     1
 90
       50
176
     1
 40
0.0
176
     1
 40
1.0
176
     1
 90
        0
176
     1
 62
    18
420
        0
176
     1
 90
       50
176
     1
 90
        3
176
     1
 62
     5
420
      255
176
     1
290
     0
176
     1
 90
       50
176
     1
 90
       50
176
     1
 90
       50
176
     1
290
     0
176
     1
 90
       50
176
     1
 62
   256
176
     0
 40
1.0
176
     0
 90
        2
176
     1
  1
strokes_ogs.tif
176
     1
290
     0
176
     1
 40
1.0
176
     1
 40
1.0
176
     1
1001
ACAD
1000
AcDbSavedByObjectVersion
1070
     0
  0
VISUALSTYLE
  5
1471
102
{ACAD_REACTORS
330
146C
102
}
330
146C
100
AcDbVisualStyle
  2
Basic
 70
     7
177
     3
291
     1
 70
    58
 90
        1
176
     1
 90
        0
176
     1
 90
        1
176
     1
 90
        0
176
     1
 40
0.6
176
     1
 40
30.0
176
     1
 62
     7
176
     1
 90
        0
176
     1
 90
        4
176
     1
 62
     7
176
     1
 62
   257
176
     1
 90
        1
176
     1
 90
        1
176
     1
 40
1.0
176
     1
 90
        8
176
     1
 62
     7
176
     1
 40
1.0
176
     1
 90
        1
176
     1
 90
        6
176
     1
 90
        2
176
     1
 62
     7
176
     1
 90
        5
176
     1
 90
        0
176
     1
 90
        0
176
     1
290
     0
176
     1
 90
        1
176
     1
 40
0.0
176
     1
 90
        0
176
     1
290
     0
176
     1
290
     1
176
     1
290
     1
176
     1
290
     0
176
     1
290
     0
176
     1
290
     0
176
     1
290
     0
176
     1
290
     0
176
     1
290
     0
176
     1
 90
       50
176
     1
 40
0.0
176
     1
 40
1.0
176
     1
 90
        0
176
     1
 62
    18
420
        0
176
     1
 90
       50
176
     1
 90
        3
176
     1
 62
     5
420
      255
176
     1
290
     0
176
     1
 90
       50
176
     1
 90
       50
176
     1
 90
       50
176
     1
290
     0
176
     1
 90
       50
176
     1
 62
   256
176
     0
 40
1.0
176
     0
 90
        2
176
     1
  1
strokes_ogs.tif
176
     1
290
     0
176
     1
 40
1.0
176
     1
 40
1.0
176
     1
1001
ACAD
1000
AcDbSavedByObjectVersion
1070
     0
  0
VISUALSTYLE
  5
1478
102
{ACAD_REACTORS
330
146C
102
}
330
146C
100
AcDbVisualStyle
  2
Brighten
 70
    12
177
     3
291
     1
 70
    58
 90
        2
176
     1
 90
        2
176
     1
 90
        0
176
     1
 90
        0
176
     1
 40
0.6
176
     1
 40
30.0
176
     1
 62
     7
176
     1
 90
        1
176
     1
 90
        4
176
     1
 62
     7
176
     1
 62
   257
176
     1
 90
        1
176
     1
 90
        1
176
     1
 40
1.0
176
     1
 90
        8
176
     1
 62
     7
176
     1
 40
1.0
176
     1
 90
        1
176
     1
 90
        6
176
     1
 90
        2
176
     1
 62
     7
176
     1
 90
        5
176
     1
 90
        0
176
     1
 90
        0
176
     1
290
     0
176
     1
 90
        1
176
     1
 40
50.0
176
     1
 90
        0
176
     1
290
     0
176
     1
290
     1
176
     1
290
     1
176
     1
290
     0
176
     1
290
     0
176
     1
290
     0
176
     1
290
     0
176
     1
290
     0
176
     1
290
     0
176
     1
 90
       50
176
     1
 40
0.0
176
     1
 40
1.0
176
     1
 90
        0
176
     1
 62
    18
420
        0
176
     1
 90
       50
176
     1
 90
        3
176
     1
 62
     5
420
      255
176
     1
290
     0
176
     1
 90
       50
176
     1
 90
       50
176
     1
 90
       50
176
     1
290
     0
176
     1
 90
       50
176
     1
 62
   256
176
     0
 40
1.0
176
     0
 90
        2
176
     1
  1
strokes_ogs.tif
176
     1
290
     0
176
     1
 40
1.0
176
     1
 40
1.0
176
     1
1001
ACAD
1000
AcDbSavedByObjectVersion
1070
     0
  0
VISUALSTYLE
  5
147C
102
{ACAD_REACTORS
330
146C
102
}
330
146C
100
AcDbVisualStyle
  2
ColorChange
 70
    16
177
     3
291
     1
 70
    58
 90
        2
176
     1
 90
        2
176
     1
 90
        3
176
     1
 90
        0
176
     1
 40
0.6
176
     1
 40
30.0
176
     1
 62
     8
176
     1
 90
        1
176
     1
 90
        4
176
     1
 62
     7
176
     1
 62
   257
176
     1
 90
        1
176
     1
 90
        1
176
     1
 40
1.0
176
     1
 90
        8
176
     1
 62
     8
176
     1
 40
1.0
176
     1
 90
        1
176
     1
 90
        6
176
     1
 90
        2
176
     1
 62
     7
176
     1
 90
        5
176
     1
 90
        0
176
     1
 90
        0
176
     1
290
     0
176
     1
 90
        1
176
     1
 40
0.0
176
     1
 90
        0
176
     1
290
     0
176
     1
290
     1
176
     1
290
     1
176
     1
290
     0
176
     1
290
     0
176
     1
290
     0
176
     1
290
     0
176
     1
290
     0
176
     1
290
     0
176
     1
 90
       50
176
     1
 40
0.0
176
     1
 40
1.0
176
     1
 90
        0
176
     1
 62
    18
420
        0
176
     1
 90
       50
176
     1
 90
        3
176
     1
 62
     5
420
      255
176
     1
290
     0
176
     1
 90
       50
176
     1
 90
       50
176
     1
 90
       50
176
     1
290
     0
176
     1
 90
       50
176
     1
 62
   256
176
     0
 40
1.0
176
     0
 90
        2
176
     1
  1
strokes_ogs.tif
176
     1
290
     0
176
     1
 40
1.0
176
     1
 40
1.0
176
     1
1001
ACAD
1000
AcDbSavedByObjectVersion
1070
     0
  0
VISUALSTYLE
  5
1475
102
{ACAD_REACTORS
330
146C
102
}
330
146C
100
AcDbVisualStyle
  2
Conceptual
 70
     9
177
     3
291
     0
 70
    58
 90
        3
176
     1
 90
        2
176
     1
 90
        0
176
     1
 90
        0
176
     1
 40
0.6
176
     1
 40
30.0
176
     1
 62
     7
176
     1
 90
        2
176
     1
 90
        2
176
     1
 62
     7
176
     1
 62
   257
176
     1
 90
        1
176
     1
 90
        1
176
     1
 40
179.0
176
     1
 90
        8
176
     1
 62
     7
176
     1
 40
1.0
176
     1
 90
        1
176
     1
 90
        6
176
     1
 90
        2
176
     1
 62
     7
176
     1
 90
        3
176
     1
 90
        0
176
     1
 90
        0
176
     1
290
     0
176
     1
 90
        1
176
     1
 40
0.0
176
     1
 90
        0
176
     1
290
     0
176
     1
290
     1
176
     1
290
     1
176
     1
290
     0
176
     1
290
     0
176
     1
290
     0
176
     1
290
     0
176
     1
290
     0
176
     1
290
     0
176
     1
 90
       50
176
     1
 40
0.0
176
     1
 40
1.0
176
     1
 90
        0
176
     1
 62
    18
420
        0
176
     1
 90
       50
176
     1
 90
        3
176
     1
 62
     5
420
      255
176
     1
290
     0
176
     1
 90
       50
176
     1
 90
       50
176
     1
 90
       50
176
     1
290
     0
176
     1
 90
       50
176
     1
 62
   256
176
     0
 40
1.0
176
     0
 90
        2
176
     1
  1
strokes_ogs.tif
176
     1
290
     0
176
     1
 40
1.0
176
     1
 40
1.0
176
     1
1001
ACAD
1000
AcDbSavedByObjectVersion
1070
     0
  0
VISUALSTYLE
  5
1477
102
{ACAD_REACTORS
330
146C
102
}
330
146C
100
AcDbVisualStyle
  2
Dim
 70
    11
177
     3
291
     1
 70
    58
 90
        2
176
     1
 90
        2
176
     1
 90
        0
176
     1
 90
        0
176
     1
 40
0.6
176
     1
 40
30.0
176
     1
 62
     7
176
     1
 90
        1
176
     1
 90
        4
176
     1
 62
     7
176
     1
 62
   257
176
     1
 90
        1
176
     1
 90
        1
176
     1
 40
1.0
176
     1
 90
        8
176
     1
 62
     7
176
     1
 40
1.0
176
     1
 90
        1
176
     1
 90
        6
176
     1
 90
        2
176
     1
 62
     7
176
     1
 90
        5
176
     1
 90
        0
176
     1
 90
        0
176
     1
290
     0
176
     1
 90
        1
176
     1
 40
-50.0
176
     1
 90
        0
176
     1
290
     0
176
     1
290
     1
176
     1
290
     1
176
     1
290
     0
176
     1
290
     0
176
     1
290
     0
176
     1
290
     0
176
     1
290
     0
176
     1
290
     0
176
     1
 90
       50
176
     1
 40
0.0
176
     1
 40
1.0
176
     1
 90
        0
176
     1
 62
    18
420
        0
176
     1
 90
       50
176
     1
 90
        3
176
     1
 62
     5
420
      255
176
     1
290
     0
176
     1
 90
       50
176
     1
 90
       50
176
     1
 90
       50
176
     1
290
     0
176
     1
 90
       50
176
     1
 62
   256
176
     0
 40
1.0
176
     0
 90
        2
176
     1
  1
strokes_ogs.tif
176
     1
290
     0
176
     1
 40
1.0
176
     1
 40
1.0
176
     1
1001
ACAD
1000
AcDbSavedByObjectVersion
1070
     0
  0
VISUALSTYLE
  5
1484
102
{ACAD_REACTORS
330
146C
102
}
330
146C
100
AcDbVisualStyle
  2
EdgeColorOff
 70
    22
177
     3
291
     1
 70
    58
 90
        2
176
     0
 90
        2
176
     0
 90
        0
176
     0
 90
        0
176
     0
 40
0.6
176
     0
 40
30.0
176
     0
 62
     7
176
     0
 90
        1
176
     0
 90
        4
176
     0
 62
     7
176
     0
 62
   257
176
     0
 90
        1
176
     0
 90
        1
176
     0
 40
1.0
176
     0
 90
        8
176
     2
 62
     7
176
     0
 40
1.0
176
     0
 90
        1
176
     0
 90
        6
176
     0
 90
        2
176
     0
 62
     7
176
     0
 90
        5
176
     0
 90
        0
176
     0
 90
        0
176
     0
290
     0
176
     0
 90
        1
176
     0
 40
0.0
176
     0
 90
        0
176
     0
290
     0
176
     1
290
     1
176
     1
290
     1
176
     1
290
     0
176
     1
290
     0
176
     1
290
     0
176
     1
290
     0
176
     1
290
     0
176
     1
290
     0
176
     1
 90
       50
176
     1
 40
0.0
176
     1
 40
1.0
176
     1
 90
        0
176
     1
 62
    18
420
        0
176
     1
 90
       50
176
     1
 90
        3
176
     1
 62
     5
420
      255
176
     1
290
     0
176
     1
 90
       50
176
     1
 90
       50
176
     1
 90
       50
176
     1
290
     0
176
     1
 90
       50
176
     1
 62
   256
176
     0
 40
1.0
176
     0
 90
        2
176
     1
  1
strokes_ogs.tif
176
     1
290
     0
176
     1
 40
1.0
176
     1
 40
1.0
176
     1
1001
ACAD
1000
AcDbSavedByObjectVersion
1070
     0
  0
VISUALSTYLE
  5
147B
102
{ACAD_REACTORS
330
146C
102
}
330
146C
100
AcDbVisualStyle
  2
Facepattern
 70
    15
177
     3
291
     1
 70
    58
 90
        2
176
     1
 90
        2
176
     1
 90
        0
176
     1
 90
        0
176
     1
 40
0.6
176
     1
 40
30.0
176
     1
 62
     7
176
     1
 90
        1
176
     1
 90
        4
176
     1
 62
     7
176
     1
 62
   257
176
     1
 90
        1
176
     1
 90
        1
176
     1
 40
1.0
176
     1
 90
        8
176
     1
 62
     7
176
     1
 40
1.0
176
     1
 90
        1
176
     1
 90
        6
176
     1
 90
        2
176
     1
 62
     7
176
     1
 90
        5
176
     1
 90
        0
176
     1
 90
        0
176
     1
290
     0
176
     1
 90
        1
176
     1
 40
0.0
176
     1
 90
        0
176
     1
290
     0
176
     1
290
     1
176
     1
290
     1
176
     1
290
     0
176
     1
290
     0
176
     1
290
     0
176
     1
290
     0
176
     1
290
     0
176
     1
290
     0
176
     1
 90
       50
176
     1
 40
0.0
176
     1
 40
1.0
176
     1
 90
        0
176
     1
 62
    18
420
        0
176
     1
 90
       50
176
     1
 90
        3
176
     1
 62
     5
420
      255
176
     1
290
     0
176
     1
 90
       50
176
     1
 90
       50
176
     1
 90
       50
176
     1
290
     0
176
     1
 90
       50
176
     1
 62
   256
176
     0
 40
1.0
176
     0
 90
        2
176
     1
  1
strokes_ogs.tif
176
     1
290
     0
176
     1
 40
1.0
176
     1
 40
1.0
176
     1
1001
ACAD
1000
AcDbSavedByObjectVersion
1070
     0
  0
VISUALSTYLE
  5
146D
102
{ACAD_REACTORS
330
146C
102
}
330
146C
100
AcDbVisualStyle
  2
Flat
 70
     0
177
     3
291
     1
 70
    58
 90
        2
176
     1
 90
        1
176
     1
 90
        1
176
     1
 90
        2
176
     1
 40
0.6
176
     1
 40
30.0
176
     1
 62
     7
176
     1
 90
        0
176
     1
 90
        0
176
     1
 62
     7
176
     1
 62
   257
176
     1
 90
        1
176
     1
 90
        1
176
     1
 40
1.0
176
     1
 90
        8
176
     1
 62
     7
176
     1
 40
1.0
176
     1
 90
        1
176
     1
 90
        6
176
     1
 90
        2
176
     1
 62
     7
176
     1
 90
        5
176
     1
 90
        0
176
     1
 90
        0
176
     1
290
     0
176
     1
 90
       13
176
     1
 40
0.0
176
     1
 90
        0
176
     1
290
     0
176
     1
290
     1
176
     1
290
     1
176
     1
290
     0
176
     1
290
     0
176
     1
290
     0
176
     1
290
     0
176
     1
290
     0
176
     1
290
     0
176
     1
 90
       50
176
     1
 40
0.0
176
     1
 40
1.0
176
     1
 90
        0
176
     1
 62
    18
420
        0
176
     1
 90
       50
176
     1
 90
        3
176
     1
 62
     5
420
      255
176
     1
290
     0
176
     1
 90
       50
176
     1
 90
       50
176
     1
 90
       50
176
     1
290
     0
176
     1
 90
       50
176
     1
 62
   256
176
     0
 40
1.0
176
     0
 90
        2
176
     1
  1
strokes_ogs.tif
176
     1
290
     0
176
     1
 40
1.0
176
     1
 40
1.0
176
     1
1001
ACAD
1000
AcDbSavedByObjectVersion
1070
     0
  0
VISUALSTYLE
  5
146E
102
{ACAD_REACTORS
330
146C
102
}
330
146C
100
AcDbVisualStyle
  2
FlatWithEdges
 70
     1
177
     3
291
     1
 70
    58
 90
        2
176
     1
 90
        1
176
     1
 90
        1
176
     1
 90
        2
176
     1
 40
0.6
176
     1
 40
30.0
176
     1
 62
     7
176
     1
 90
        1
176
     1
 90
        0
176
     1
 62
     7
176
     1
 62
   257
176
     1
 90
        1
176
     1
 90
        1
176
     1
 40
1.0
176
     1
 90
        0
176
     1
 62
   257
176
     1
 40
1.0
176
     1
 90
        1
176
     1
 90
        6
176
     1
 90
        2
176
     1
 62
     7
176
     1
 90
        5
176
     1
 90
        0
176
     1
 90
        0
176
     1
290
     0
176
     1
 90
       13
176
     1
 40
0.0
176
     1
 90
        0
176
     1
290
     0
176
     1
290
     1
176
     1
290
     1
176
     1
290
     0
176
     1
290
     0
176
     1
290
     0
176
     1
290
     0
176
     1
290
     0
176
     1
290
     0
176
     1
 90
       50
176
     1
 40
0.0
176
     1
 40
1.0
176
     1
 90
        0
176
     1
 62
    18
420
        0
176
     1
 90
       50
176
     1
 90
        3
176
     1
 62
     5
420
      255
176
     1
290
     0
176
     1
 90
       50
176
     1
 90
       50
176
     1
 90
       50
176
     1
290
     0
176
     1
 90
       50
176
     1
 62
   256
176
     0
 40
1.0
176
     0
 90
        2
176
     1
  1
strokes_ogs.tif
176
     1
290
     0
176
     1
 40
1.0
176
     1
 40
1.0
176
     1
1001
ACAD
1000
AcDbSavedByObjectVersion
1070
     0
  0
VISUALSTYLE
  5
146F
102
{ACAD_REACTORS
330
146C
102
}
330
146C
100
AcDbVisualStyle
  2
Gouraud
 70
     2
177
     3
291
     1
 70
    58
 90
        2
176
     1
 90
        2
176
     1
 90
        1
176
     1
 90
        2
176
     1
 40
0.6
176
     1
 40
30.0
176
     1
 62
     7
176
     1
 90
        0
176
     1
 90
        0
176
     1
 62
     7
176
     1
 62
   257
176
     1
 90
        1
176
     1
 90
        1
176
     1
 40
1.0
176
     1
 90
        0
176
     1
 62
     7
176
     1
 40
1.0
176
     1
 90
        1
176
     1
 90
        6
176
     1
 90
        2
176
     1
 62
     7
176
     1
 90
        5
176
     1
 90
        0
176
     1
 90
        0
176
     1
290
     0
176
     1
 90
       13
176
     1
 40
0.0
176
     1
 90
        0
176
     1
290
     0
176
     1
290
     1
176
     1
290
     1
176
     1
290
     0
176
     1
290
     0
176
     1
290
     0
176
     1
290
     0
176
     1
290
     0
176
     1
290
     0
176
     1
 90
       50
176
     1
 40
0.0
176
     1
 40
1.0
176
     1
 90
        0
176
     1
 62
    18
420
        0
176
     1
 90
       50
176
     1
 90
        3
176
     1
 62
     5
420
      255
176
     1
290
     0
176
     1
 90
       50
176
     1
 90
       50
176
     1
 90
       50
176
     1
290
     0
176
     1
 90
       50
176
     1
 62
   256
176
     0
 40
1.0
176
     0
 90
        2
176
     1
  1
strokes_ogs.tif
176
     1
290
     0
176
     1
 40
1.0
176
     1
 40
1.0
176
     1
1001
ACAD
1000
AcDbSavedByObjectVersion
1070
     0
  0
VISUALSTYLE
  5
1470
102
{ACAD_REACTORS
330
146C
102
}
330
146C
100
AcDbVisualStyle
  2
GouraudWithEdges
 70
     3
177
     3
291
     1
 70
    58
 90
        2
176
     1
 90
        2
176
     1
 90
        1
176
     1
 90
        2
176
     1
 40
0.6
176
     1
 40
30.0
176
     1
 62
     7
176
     1
 90
        1
176
     1
 90
        0
176
     1
 62
     7
176
     1
 62
   257
176
     1
 90
        1
176
     1
 90
        1
176
     1
 40
1.0
176
     1
 90
        0
176
     1
 62
   257
176
     1
 40
1.0
176
     1
 90
        1
176
     1
 90
        6
176
     1
 90
        2
176
     1
 62
     7
176
     1
 90
        5
176
     1
 90
        0
176
     1
 90
        0
176
     1
290
     0
176
     1
 90
       13
176
     1
 40
0.0
176
     1
 90
        0
176
     1
290
     0
176
     1
290
     1
176
     1
290
     1
176
     1
290
     0
176
     1
290
     0
176
     1
290
     0
176
     1
290
     0
176
     1
290
     0
176
     1
290
     0
176
     1
 90
       50
176
     1
 40
0.0
176
     1
 40
1.0
176
     1
 90
        0
176
     1
 62
    18
420
        0
176
     1
 90
       50
176
     1
 90
        3
176
     1
 62
     5
420
      255
176
     1
290
     0
176
     1
 90
       50
176
     1
 90
       50
176
     1
 90
       50
176
     1
290
     0
176
     1
 90
       50
176
     1
 62
   256
176
     0
 40
1.0
176
     0
 90
        2
176
     1
  1
strokes_ogs.tif
176
     1
290
     0
176
     1
 40
1.0
176
     1
 40
1.0
176
     1
1001
ACAD
1000
AcDbSavedByObjectVersion
1070
     0
  0
VISUALSTYLE
  5
1474
102
{ACAD_REACTORS
330
146C
102
}
330
146C
100
AcDbVisualStyle
  2
Hidden
 70
     6
177
     3
291
     0
 70
    58
 90
        1
176
     1
 90
        2
176
     1
 90
        2
176
     1
 90
        0
176
     1
 40
0.6
176
     1
 40
30.0
176
     1
 62
     7
176
     1
 90
        2
176
     1
 90
        2
176
     1
 62
     7
176
     1
 62
   257
176
     1
 90
        2
176
     1
 90
        1
176
     1
 40
40.0
176
     1
 90
        0
176
     1
 62
   257
176
     1
 40
1.0
176
     1
 90
        1
176
     1
 90
        6
176
     1
 90
        2
176
     1
 62
     7
176
     1
 90
        3
176
     1
 90
        0
176
     1
 90
        0
176
     1
290
     0
176
     1
 90
        1
176
     1
 40
0.0
176
     1
 90
        0
176
     1
290
     0
176
     1
290
     1
176
     1
290
     1
176
     1
290
     0
176
     1
290
     0
176
     1
290
     0
176
     1
290
     0
176
     1
290
     0
176
     1
290
     0
176
     1
 90
       50
176
     1
 40
0.0
176
     1
 40
1.0
176
     1
 90
        0
176
     1
 62
    18
420
        0
176
     1
 90
       50
176
     1
 90
        3
176
     1
 62
     5
420
      255
176
     1
290
     0
176
     1
 90
       50
176
     1
 90
       50
176
     1
 90
       50
176
     1
290
     0
176
     1
 90
       50
176
     1
 62
   256
176
     0
 40
1.0
176
     0
 90
        2
176
     1
  1
strokes_ogs.tif
176
     1
290
     0
176
     1
 40
1.0
176
     1
 40
1.0
176
     1
1001
ACAD
1000
AcDbSavedByObjectVersion
1070
     0
  0
VISUALSTYLE
  5
1482
102
{ACAD_REACTORS
330
146C
102
}
330
146C
100
AcDbVisualStyle
  2
JitterOff
 70
    20
177
     3
291
     1
 70
    58
 90
        2
176
     0
 90
        2
176
     0
 90
        0
176
     0
 90
        0
176
     0
 40
0.6
176
     0
 40
30.0
176
     0
 62
     7
176
     0
 90
        1
176
     0
 90
        4
176
     0
 62
     7
176
     0
 62
   257
176
     0
 90
        1
176
     0
 90
        1
176
     0
 40
1.0
176
     0
 90
       10
176
     2
 62
     7
176
     0
 40
1.0
176
     0
 90
        1
176
     0
 90
        6
176
     0
 90
        2
176
     0
 62
     7
176
     0
 90
        5
176
     0
 90
        0
176
     0
 90
        0
176
     0
290
     0
176
     0
 90
        1
176
     0
 40
0.0
176
     0
 90
        0
176
     0
290
     0
176
     1
290
     1
176
     1
290
     1
176
     1
290
     0
176
     1
290
     0
176
     1
290
     0
176
     1
290
     0
176
     1
290
     0
176
     1
290
     0
176
     1
 90
       50
176
     1
 40
0.0
176
     1
 40
1.0
176
     1
 90
        0
176
     1
 62
    18
420
        0
176
     1
 90
       50
176
     1
 90
        3
176
     1
 62
     5
420
      255
176
     1
290
     0
176
     1
 90
       50
176
     1
 90
       50
176
     1
 90
       50
176
     1
290
     0
176
     1
 90
       50
176
     1
 62
   256
176
     0
 40
1.0
176
     0
 90
        2
176
     1
  1
strokes_ogs.tif
176
     1
290
     0
176
     1
 40
1.0
176
     1
 40
1.0
176
     1
1001
ACAD
1000
AcDbSavedByObjectVersion
1070
     0
  0
VISUALSTYLE
  5
147A
102
{ACAD_REACTORS
330
146C
102
}
330
146C
100
AcDbVisualStyle
  2
Linepattern
 70
    14
177
     3
291
     1
 70
    58
 90
        2
176
     1
 90
        2
176
     1
 90
        0
176
     1
 90
        0
176
     1
 40
0.6
176
     1
 40
30.0
176
     1
 62
     7
176
     1
 90
        1
176
     1
 90
        4
176
     1
 62
     7
176
     1
 62
   257
176
     1
 90
        7
176
     1
 90
        7
176
     1
 40
1.0
176
     1
 90
        8
176
     1
 62
     7
176
     1
 40
1.0
176
     1
 90
        1
176
     1
 90
        6
176
     1
 90
        2
176
     1
 62
     7
176
     1
 90
        5
176
     1
 90
        0
176
     1
 90
        0
176
     1
290
     0
176
     1
 90
        1
176
     1
 40
0.0
176
     1
 90
        0
176
     1
290
     0
176
     1
290
     1
176
     1
290
     1
176
     1
290
     0
176
     1
290
     0
176
     1
290
     0
176
     1
290
     0
176
     1
290
     0
176
     1
290
     0
176
     1
 90
       50
176
     1
 40
0.0
176
     1
 40
1.0
176
     1
 90
        0
176
     1
 62
    18
420
        0
176
     1
 90
       50
176
     1
 90
        3
176
     1
 62
     5
420
      255
176
     1
290
     0
176
     1
 90
       50
176
     1
 90
       50
176
     1
 90
       50
176
     1
290
     0
176
     1
 90
       50
176
     1
 62
   256
176
     0
 40
1.0
176
     0
 90
        2
176
     1
  1
strokes_ogs.tif
176
     1
290
     0
176
     1
 40
1.0
176
     1
 40
1.0
176
     1
1001
ACAD
1000
AcDbSavedByObjectVersion
1070
     0
  0
VISUALSTYLE
  5
1483
102
{ACAD_REACTORS
330
146C
102
}
330
146C
100
AcDbVisualStyle
  2
OverhangOff
 70
    21
177
     3
291
     1
 70
    58
 90
        2
176
     0
 90
        2
176
     0
 90
        0
176
     0
 90
        0
176
     0
 40
0.6
176
     0
 40
30.0
176
     0
 62
     7
176
     0
 90
        1
176
     0
 90
        4
176
     0
 62
     7
176
     0
 62
   257
176
     0
 90
        1
176
     0
 90
        1
176
     0
 40
1.0
176
     0
 90
        9
176
     2
 62
     7
176
     0
 40
1.0
176
     0
 90
        1
176
     0
 90
        6
176
     0
 90
        2
176
     0
 62
     7
176
     0
 90
        5
176
     0
 90
        0
176
     0
 90
        0
176
     0
290
     0
176
     0
 90
        1
176
     0
 40
0.0
176
     0
 90
        0
176
     0
290
     0
176
     1
290
     1
176
     1
290
     1
176
     1
290
     0
176
     1
290
     0
176
     1
290
     0
176
     1
290
     0
176
     1
290
     0
176
     1
290
     0
176
     1
 90
       50
176
     1
 40
0.0
176
     1
 40
1.0
176
     1
 90
        0
176
     1
 62
    18
420
        0
176
     1
 90
       50
176
     1
 90
        3
176
     1
 62
     5
420
      255
176
     1
290
     0
176
     1
 90
       50
176
     1
 90
       50
176
     1
 90
       50
176
     1
290
     0
176
     1
 90
       50
176
     1
 62
   256
176
     0
 40
1.0
176
     0
 90
        2
176
     1
  1
strokes_ogs.tif
176
     1
290
     0
176
     1
 40
1.0
176
     1
 40
1.0
176
     1
1001
ACAD
1000
AcDbSavedByObjectVersion
1070
     0
  0
VISUALSTYLE
  5
1476
102
{ACAD_REACTORS
330
146C
102
}
330
146C
100
AcDbVisualStyle
  2
Realistic
 70
     8
177
     3
291
     0
 70
    58
 90
        2
176
     1
 90
        2
176
     1
 90
        0
176
     1
 90
        2
176
     1
 40
0.6
176
     1
 40
30.0
176
     1
 62
     7
176
     1
 90
        0
176
     1
 90
        0
176
     1
 62
     7
176
     1
 62
   257
176
     1
 90
        1
176
     1
 90
        1
176
     1
 40
1.0
176
     1
 90
        8
176
     1
 62
   257
176
     1
 40
1.0
176
     1
 90
        1
176
     1
 90
        6
176
     1
 90
        2
176
     1
 62
     7
176
     1
 90
        3
176
     1
 90
        0
176
     1
 90
        0
176
     1
290
     0
176
     1
 90
       13
176
     1
 40
0.0
176
     1
 90
        0
176
     1
290
     0
176
     1
290
     1
176
     1
290
     1
176
     1
290
     0
176
     1
290
     0
176
     1
290
     0
176
     1
290
     0
176
     1
290
     0
176
     1
290
     0
176
     1
 90
       50
176
     1
 40
0.0
176
     1
 40
1.0
176
     1
 90
        0
176
     1
 62
    18
420
        0
176
     1
 90
       50
176
     1
 90
        3
176
     1
 62
     5
420
      255
176
     1
290
     0
176
     1
 90
       50
176
     1
 90
       50
176
     1
 90
       50
176
     1
290
     0
176
     1
 90
       50
176
     1
 62
   256
176
     0
 40
1.0
176
     0
 90
        2
176
     1
  1
strokes_ogs.tif
176
     1
290
     0
176
     1
 40
1.0
176
     1
 40
1.0
176
     1
1001
ACAD
1000
AcDbSavedByObjectVersion
1070
     0
  0
VISUALSTYLE
  5
1481
102
{ACAD_REACTORS
330
146C
102
}
330
146C
100
AcDbVisualStyle
  2
Shaded
 70
    27
177
     3
291
     0
 70
    58
 90
        2
176
     1
 90
        2
176
     1
 90
        1
176
     1
 90
        2
176
     1
 40
0.6
176
     1
 40
30.0
176
     1
 62
     7
176
     1
 90
        0
176
     1
 90
        4
176
     1
 62
     7
176
     1
 62
   257
176
     1
 90
        1
176
     1
 90
        1
176
     1
 40
1.0
176
     1
 90
        8
176
     1
 62
   257
176
     1
 40
1.0
176
     1
 90
        1
176
     1
 90
        6
176
     1
 90
        2
176
     1
 62
     8
176
     1
 90
        3
176
     1
 90
        0
176
     1
 90
        0
176
     1
290
     0
176
     1
 90
        5
176
     1
 40
0.0
176
     1
 90
        0
176
     1
290
     0
176
     1
290
     1
176
     1
290
     1
176
     1
290
     0
176
     1
290
     0
176
     1
290
     0
176
     1
290
     0
176
     1
290
     0
176
     1
290
     0
176
     1
 90
       50
176
     1
 40
0.0
176
     1
 40
1.0
176
     1
 90
        0
176
     1
 62
    18
420
        0
176
     1
 90
       50
176
     1
 90
        3
176
     1
 62
     5
420
      255
176
     1
290
     0
176
     1
 90
       50
176
     1
 90
       50
176
     1
 90
       50
176
     1
290
     0
176
     1
 90
       50
176
     1
 62
   256
176
     0
 40
1.0
176
     0
 90
        2
176
     1
  1
strokes_ogs.tif
176
     1
290
     0
176
     1
 40
1.0
176
     1
 40
1.0
176
     1
1001
ACAD
1000
AcDbSavedByObjectVersion
1070
     0
  0
VISUALSTYLE
  5
1480
102
{ACAD_REACTORS
330
146C
102
}
330
146C
100
AcDbVisualStyle
  2
Shaded with edges
 70
    26
177
     3
291
     0
 70
    58
 90
        2
176
     1
 90
        2
176
     1
 90
        1
176
     1
 90
        2
176
     1
 40
0.6
176
     1
 40
30.0
176
     1
 62
     7
176
     1
 90
        1
176
     1
 90
        2
176
     1
 62
     7
176
     1
 62
   257
176
     1
 90
        2
176
     1
 90
        1
176
     1
 40
1.0
176
     1
 90
        8
176
     1
 62
   257
176
     1
 40
1.0
176
     1
 90
        1
176
     1
 90
        6
176
     1
 90
        2
176
     1
 62
     7
176
     1
 90
        3
176
     1
 90
        0
176
     1
 90
        0
176
     1
290
     0
176
     1
 90
        5
176
     1
 40
0.0
176
     1
 90
        0
176
     1
290
     0
176
     1
290
     1
176
     1
290
     1
176
     1
290
     0
176
     1
290
     0
176
     1
290
     0
176
     1
290
     0
176
     1
290
     0
176
     1
290
     0
176
     1
 90
       50
176
     1
 40
0.0
176
     1
 40
1.0
176
     1
 90
        0
176
     1
 62
    18
420
        0
176
     1
 90
       50
176
     1
 90
        3
176
     1
 62
     5
420
      255
176
     1
290
     0
176
     1
 90
       50
176
     1
 90
       50
176
     1
 90
       50
176
     1
290
     0
176
     1
 90
       50
176
     1
 62
   256
176
     0
 40
1.0
176
     0
 90
        2
176
     1
  1
strokes_ogs.tif
176
     1
290
     0
176
     1
 40
1.0
176
     1
 40
1.0
176
     1
1001
ACAD
1000
AcDbSavedByObjectVersion
1070
     0
  0
VISUALSTYLE
  5
147D
102
{ACAD_REACTORS
330
146C
102
}
330
146C
100
AcDbVisualStyle
  2
Shades of Gray
 70
    23
177
     3
291
     0
 70
    58
 90
        2
176
     1
 90
        2
176
     1
 90
        3
176
     1
 90
        0
176
     1
 40
0.6
176
     1
 40
30.0
176
     1
 62
     7
176
     1
 90
        2
176
     1
 90
        2
176
     1
 62
     7
176
     1
 62
     7
176
     1
 90
        1
176
     1
 90
        1
176
     1
 40
40.0
176
     1
 90
        8
176
     1
 62
     7
176
     1
 40
1.0
176
     1
 90
        1
176
     1
 90
        6
176
     1
 90
        2
176
     1
 62
     7
176
     1
 90
        3
176
     1
 90
        0
176
     1
 90
        0
176
     1
290
     0
176
     1
 90
        1
176
     1
 40
0.0
176
     1
 90
        0
176
     1
290
     0
176
     1
290
     1
176
     1
290
     1
176
     1
290
     0
176
     1
290
     0
176
     1
290
     0
176
     1
290
     0
176
     1
290
     0
176
     1
290
     0
176
     1
 90
       50
176
     1
 40
0.0
176
     1
 40
1.0
176
     1
 90
        0
176
     1
 62
    18
420
        0
176
     1
 90
       50
176
     1
 90
        3
176
     1
 62
     5
420
      255
176
     1
290
     0
176
     1
 90
       50
176
     1
 90
       50
176
     1
 90
       50
176
     1
290
     0
176
     1
 90
       50
176
     1
 62
   256
176
     0
 40
1.0
176
     0
 90
        2
176
     1
  1
strokes_ogs.tif
176
     1
290
     0
176
     1
 40
1.0
176
     1
 40
1.0
176
     1
1001
ACAD
1000
AcDbSavedByObjectVersion
1070
     0
  0
VISUALSTYLE
  5
147E
102
{ACAD_REACTORS
330
146C
102
}
330
146C
100
AcDbVisualStyle
  2
Sketchy
 70
    24
177
     3
291
     0
 70
    58
 90
        1
176
     1
 90
        2
176
     1
 90
        2
176
     1
 90
        0
176
     1
 40
0.6
176
     1
 40
30.0
176
     1
 62
     7
176
     1
 90
        2
176
     1
 90
        2
176
     1
 62
     7
176
     1
 62
     7
176
     1
 90
        1
176
     1
 90
        1
176
     1
 40
40.0
176
     1
 90
       11
176
     1
 62
     7
176
     1
 40
1.0
176
     1
 90
        1
176
     1
 90
        6
176
     1
 90
        2
176
     1
 62
     7
176
     1
 90
        6
176
     1
 90
        0
176
     1
 90
        0
176
     1
290
     0
176
     1
 90
        1
176
     1
 40
0.0
176
     1
 90
        0
176
     1
290
     0
176
     1
290
     1
176
     1
290
     1
176
     1
290
     0
176
     1
290
     0
176
     1
290
     0
176
     1
290
     0
176
     1
290
     0
176
     1
290
     0
176
     1
 90
       50
176
     1
 40
0.0
176
     1
 40
1.0
176
     1
 90
        0
176
     1
 62
    18
420
        0
176
     1
 90
       50
176
     1
 90
        3
176
     1
 62
     5
420
      255
176
     1
290
     0
176
     1
 90
       50
176
     1
 90
       50
176
     1
 90
       50
176
     1
290
     0
176
     1
 90
       50
176
     1
 62
   256
176
     0
 40
1.0
176
     0
 90
        2
176
     1
  1
strokes_ogs.tif
176
     1
290
     0
176
     1
 40
1.0
176
     1
 40
1.0
176
     1
1001
ACAD
1000
AcDbSavedByObjectVersion
1070
     0
  0
VISUALSTYLE
  5
1479
102
{ACAD_REACTORS
330
146C
102
}
330
146C
100
AcDbVisualStyle
  2
Thicken
 70
    13
177
     3
291
     1
 70
    58
 90
        2
176
     1
 90
        2
176
     1
 90
        0
176
     1
 90
        0
176
     1
 40
0.6
176
     1
 40
30.0
176
     1
 62
     7
176
     1
 90
        1
176
     1
 90
        4
176
     1
 62
     7
176
     1
 62
   257
176
     1
 90
        1
176
     1
 90
        1
176
     1
 40
1.0
176
     1
 90
       12
176
     1
 62
     7
176
     1
 40
1.0
176
     1
 90
        1
176
     1
 90
        6
176
     1
 90
        2
176
     1
 62
     7
176
     1
 90
        5
176
     1
 90
        0
176
     1
 90
        0
176
     1
290
     0
176
     1
 90
        1
176
     1
 40
0.0
176
     1
 90
        0
176
     1
290
     0
176
     1
290
     1
176
     1
290
     1
176
     1
290
     0
176
     1
290
     0
176
     1
290
     0
176
     1
290
     0
176
     1
290
     0
176
     1
290
     0
176
     1
 90
       50
176
     1
 40
0.0
176
     1
 40
1.0
176
     1
 90
        0
176
     1
 62
    18
420
        0
176
     1
 90
       50
176
     1
 90
        3
176
     1
 62
     5
420
      255
176
     1
290
     0
176
     1
 90
       50
176
     1
 90
       50
176
     1
 90
       50
176
     1
290
     0
176
     1
 90
       50
176
     1
 62
   256
176
     0
 40
1.0
176
     0
 90
        2
176
     1
  1
strokes_ogs.tif
176
     1
290
     0
176
     1
 40
1.0
176
     1
 40
1.0
176
     1
1001
ACAD
1000
AcDbSavedByObjectVersion
1070
     0
  0
VISUALSTYLE
  5
1473
102
{ACAD_REACTORS
330
146C
102
}
330
146C
100
AcDbVisualStyle
  2
Wireframe
 70
     5
177
     3
291
     0
 70
    58
 90
        0
176
     1
 90
        2
176
     1
 90
        0
176
     1
 90
        0
176
     1
 40
0.6
176
     1
 40
30.0
176
     1
 62
     7
176
     1
 90
        1
176
     1
 90
        4
176
     1
 62
     7
176
     1
 62
   257
176
     1
 90
        1
176
     1
 90
        1
176
     1
 40
1.0
176
     1
 90
        0
176
     1
 62
   257
176
     1
 40
1.0
176
     1
 90
        1
176
     1
 90
        6
176
     1
 90
        2
176
     1
 62
     7
176
     1
 90
        3
176
     1
 90
        0
176
     1
 90
        0
176
     1
290
     0
176
     1
 90
        1
176
     1
 40
0.0
176
     1
 90
        0
176
     1
290
     0
176
     1
290
     1
176
     1
290
     1
176
     1
290
     0
176
     1
290
     0
176
     1
290
     0
176
     1
290
     0
176
     1
290
     0
176
     1
290
     0
176
     1
 90
       50
176
     1
 40
0.0
176
     1
 40
1.0
176
     1
 90
        0
176
     1
 62
    18
420
        0
176
     1
 90
       50
176
     1
 90
        3
176
     1
 62
     5
420
      255
176
     1
290
     0
176
     1
 90
       50
176
     1
 90
       50
176
     1
 90
       50
176
     1
290
     0
176
     1
 90
       50
176
     1
 62
   256
176
     0
 40
1.0
176
     0
 90
        2
176
     1
  1
strokes_ogs.tif
176
     1
290
     0
176
     1
 40
1.0
176
     1
 40
1.0
176
     1
1001
ACAD
1000
AcDbSavedByObjectVersion
1070
     0
  0
VISUALSTYLE
  5
147F
102
{ACAD_REACTORS
330
146C
102
}
330
146C
100
AcDbVisualStyle
  2
X-Ray
 70
    25
177
     3
291
     0
 70
    58
 90
        2
176
     1
 90
        2
176
     1
 90
        1
176
     1
 90
        1
176
     1
 40
0.5
176
     1
 40
30.0
176
     1
 62
     7
176
     1
 90
        1
176
     1
 90
        0
176
     1
 62
     7
176
     1
 62
   257
176
     1
 90
        1
176
     1
 90
        1
176
     1
 40
1.0
176
     1
 90
        8
176
     1
 62
     7
176
     1
 40
1.0
176
     1
 90
        1
176
     1
 90
        6
176
     1
 90
        2
176
     1
 62
     7
176
     1
 90
        3
176
     1
 90
        0
176
     1
 90
        0
176
     1
290
     0
176
     1
 90
       13
176
     1
 40
0.0
176
     1
 90
        0
176
     1
290
     0
176
     1
290
     1
176
     1
290
     1
176
     1
290
     0
176
     1
290
     0
176
     1
290
     0
176
     1
290
     0
176
     1
290
     0
176
     1
290
     0
176
     1
 90
       50
176
     1
 40
0.0
176
     1
 40
1.0
176
     1
 90
        0
176
     1
 62
    18
420
        0
176
     1
 90
       50
176
     1
 90
        3
176
     1
 62
     5
420
      255
176
     1
290
     0
176
     1
 90
       50
176
     1
 90
       50
176
     1
 90
       50
176
     1
290
     0
176
     1
 90
       50
176
     1
 62
   256
176
     0
 40
1.0
176
     0
 90
        2
176
     1
  1
strokes_ogs.tif
176
     1
290
     0
176
     1
 40
1.0
176
     1
 40
1.0
176
     1
1001
ACAD
1000
AcDbSavedByObjectVersion
1070
     0
  0
DICTIONARYVAR
  5
15F7
102
{ACAD_REACTORS
330
15F3
102
}
330
15F3
100
DictionaryVariables
280
     0
  1
1:1
  0
DICTIONARYVAR
  5
15F5
102
{ACAD_REACTORS
330
15F3
102
}
330
15F3
100
DictionaryVariables
280
     0
  1
STANDARD
  0
DICTIONARYVAR
  5
15F4
102
{ACAD_REACTORS
330
15F3
102
}
330
15F3
100
DictionaryVariables
280
     0
  1
STANDARD
  0
DICTIONARYVAR
  5
1DE3
102
{ACAD_REACTORS
330
15F3
102
}
330
15F3
100
DictionaryVariables
280
     0
  1
ISO 128-34_2001
  0
DICTIONARYVAR
  5
1DE4
102
{ACAD_REACTORS
330
15F3
102
}
330
15F3
100
DictionaryVariables
280
     0
  1
ISO 128-40_2001(E)
  0
DICTIONARYVAR
  5
1A68
102
{ACAD_REACTORS
330
15F3
102
}
330
15F3
100
DictionaryVariables
280
     0
  1
1
  0
DICTIONARYVAR
  5
1A67
102
{ACAD_REACTORS
330
15F3
102
}
330
15F3
100
DictionaryVariables
280
     0
  1
0
  0
DICTIONARYVAR
  5
15F9
102
{ACAD_REACTORS
330
15F3
102
}
330
15F3
100
DictionaryVariables
280
     0
  1
1
  0
DICTIONARYVAR
  5
15FA
102
{ACAD_REACTORS
330
15F3
102
}
330
15F3
100
DictionaryVariables
280
     0
  1
15
  0
DICTIONARYVAR
  5
15F8
102
{ACAD_REACTORS
330
15F3
102
}
330
15F3
100
DictionaryVariables
280
     0
  1
0
  0
DICTIONARYVAR
  5
15F6
102
{ACAD_REACTORS
330
15F3
102
}
330
15F3
100
DictionaryVariables
280
     0
  1
0
  0
DICTIONARYVAR
  5
1A66
102
{ACAD_REACTORS
330
15F3
102
}
330
15F3
100
DictionaryVariables
280
     0
  1
127
  0
DICTIONARY
  5
2CEC
102
{ACAD_REACTORS
330
2CEA
102
}
330
2CEA
100
AcDbDictionary
281
     1
  0
DICTIONARY
  5
2CEB
102
{ACAD_REACTORS
330
2CEA
102
}
330
2CEA
100
AcDbDictionary
281
     1
  3
2529089006544
350
2CE5
  3
2529089006560
350
2CE6
  3
2529089006576
350
2CE7
  3
2529089006592
350
2CE8
  3
2529089006608
350
2CE9
  0
ACAD_PROXY_OBJECT
  5
1E24
102
{ACAD_REACTORS
330
151A
102
}
330
151A
100
AcDbProxyObject
 90
      499
 91
      568
 95
 11534369
 70
     0
162
                 0
161
                84
310
90100057356C1DD040EAAC
 94
        0
  0
DICTIONARY
  5
151B
102
{ACAD_REACTORS
330
151A
102
}
330
151A
100
AcDbDictionary
281
     1
  3
ISO
350
1E2A
  3
TSK
350
220E
  0
ACAD_PROXY_OBJECT
  5
1E05
330
0
100
AcDbProxyObject
 90
      499
 91
      509
 95
 11534369
 70
     0
162
               234
311
43904010C01340114014C016401340108013C0130014C01240168011400C
161
                34
310
000101420C
330
1E02
 94
        0
  0
ACAD_PROXY_OBJECT
  5
1E13
330
0
100
AcDbProxyObject
 90
      499
 91
      560
 95
 11534369
 70
     0
162
               196
311
421040134010C01540148014C015001100103490053004F00C
161
                32
310
0001010100
330
1E02
 94
        0
  0
ACAD_PROXY_OBJECT
  5
1E16
330
0
100
AcDbProxyObject
 90
      499
 91
      560
 95
 11534369
 70
     0
162
               276
311
431040104010C013C01340140011001180138010401340114010443004F004D005000C
161
                32
310
0001010100
330
1E02
 94
        0
  0
ACAD_PROXY_OBJECT
  5
1E17
330
0
100
AcDbProxyObject
 90
      499
 91
      560
 95
 11534369
 70
     0
162
               308
311
4390401040118013C01300110011401480110011801380104013401140104D530A930EB30C030C
161
                32
310
0001010100
330
1E02
 94
        0
  0
ACAD_PROXY_OBJECT
  5
1E18
330
0
100
AcDbProxyObject
 90
      499
 91
      560
 95
 11534369
 70
     0
162
               260
311
431040104010401380138013C01100118013801040134011401035F0041005600C
161
                32
310
0001010100
330
1E02
 94
        0
  0
ACAD_PROXY_OBJECT
  5
1E19
330
0
100
AcDbProxyObject
 90
      499
 91
      560
 95
 11534369
 70
     0
162
               564
311
439040104010C013C01340140015801240114015C01300124014C01500114735E62970A00636B62970A00F353745062970A00E65D745062970A000B4E62970A00DC88A9523100C
161
                32
310
0001010100
330
1E02
 94
        0
  0
ACAD_PROXY_OBJECT
  5
1E1A
330
0
100
AcDbProxyObject
 90
      499
 91
      509
 95
 11534369
 70
     0
162
               234
311
439040134014C014C0150014801040130015C01040164014C013C013800C
161
                26
310
0001018C
330
1E02
 94
        0
  0
ACAD_PROXY_OBJECT
  5
1E1F
330
0
100
AcDbProxyObject
 90
      499
 91
      563
 95
 11534369
 70
     0
162
                 0
161
                32
310
0001000000
330
1E02
340
1E1C
330
1E20
330
1E1C
 94
        0
  0
ACAD_PROXY_OBJECT
  5
1E20
330
0
100
AcDbProxyObject
 90
      499
 91
      564
 95
 11534369
 70
     0
162
               218
311
434C80134010400B4011800B400C400C000B400C800C000C800C800C
161
                80
310
0001014140155005540044
330
1E02
330
1E1F
330
0
 94
        0
  0
ACAD_PROXY_OBJECT
  5
1E21
330
0
100
AcDbProxyObject
 90
      499
 91
      565
 95
 11534369
 70
     0
162
                 0
161
               178
310
000100AAAAAAAF3C75ED63D856112F9D99CA2DFED564CC
330
1E02
330
1E20
 94
        0
  0
ACAD_PROXY_OBJECT
  5
1E22
330
0
100
AcDbProxyObject
 90
      499
 91
      566
 95
 11534369
 70
     0
162
                 0
161
               108
310
000190140A000000000000AAAAAC
330
1E02
330
1E23
330
1E23
330
1E23
330
1E23
330
1E23
330
0
 94
        0
  0
ACAD_PROXY_OBJECT
  5
1E23
330
0
100
AcDbProxyObject
 90
      499
 91
      567
 95
 11534369
 70
     0
162
                 0
161
                51
310
00010000AAAA8C
330
1E02
330
1E22
330
1E20
 94
        0
  0
DICTIONARY
  5
1DFE
102
{ACAD_REACTORS
330
14A9
102
}
330
14A9
100
AcDbDictionary
281
     1
  3
DWGSETTINGS
350
1DFF
  3
TRANSSETTINGS
350
1E00
  0
ACAD_PROXY_OBJECT
  5
1E3D
102
{ACAD_REACTORS
330
14A9
102
}
330
14A9
100
AcDbProxyObject
 90
      499
 91
      513
 95
 11534369
 70
     0
162
             15940
311
404C0010441004D005F0030009013100411040134017C00C402404C8010441004D005F0032009013300411040134017C00CC02404D0010441004D005F0034009013500411040134017C00D402404D8010441004D005F0036009013700411040134017C00DC02404E0010441004D005F0038009013900411040134017C00E40
311
2408C80104010541004D005F003100300090234004100415040134017C00C400C402409240140010541004D005F003100320090230004E00415040134017C00C0013802408C40138010541004D005F0031004E0090232004E00415040134017C00C8013802408CC0138010541004D005F0033004E0090234004E0041504013
311
4017C00D0013802408D40138010541004D005F0035004E0090236004E00415040134017C00D8013802408DC0138010541004D005F0037004E0090238004E00415040134017C00E0013802408E40138010541004D005F0039004E00903320041004E00419040134017C00C400C001380240CD001040138010641004D005F003
311
10031004E00903490050004E00419040134017C00C400C80138024112C013001240138010541004D005F0043004C0090449004E0046004F00421040134017C01400104014801140118024154801040120013400D4010641004D005F0042004F0052009045600490045005700421040134017C015801240114015C014C02419
311
0801140120012401380110010641004D005F0049004E00560090554005200410049004C00415040134017C015001480240D2001240110010641004D005F00480049004400903560049005300419040134017C01580124014C024194001040148011001240134010941004D005F00500041005200440049004D009065200450
311
04600440049004D00425040134017C01480114011801100124013402411080120013801580101390041508012001380158014C010642004500480049004E00440041108013C014800C801055200410048004D00350041108013C014800CC01055200410048004D00350041108013C014800D401055200410048004D0035004
311
110C0104013000C8010134004110C0104013000CC010134004110C0104013000D4010134004110C0104013000DC010134004110C011401380138010137004110C01140138015C010137004110C01300124013801044B004C0049004E004110C013C013800C4010130004110C013C013800C8010131004110C013C013800CC0
311
10132004110C013C013800D00101320041110011401500104010134004111001240104011C010135004111001240130012401013500411100124013401400106500041005200440049004D00411100124013401480106520045004600440049004D00411180114013401380101380041518011401340140013801013800415
311
1801140134014C01400102340041004151801140134014C015001023400410041518011401340158013801013200415180114013401580150010132004112001040150010C0101380041120012401100138010133004112001240110015C01013300411200130012401380101340041120013C010C01380101370041120013
311
C010C015C010137004112401380118013C010449004E0046004F00411300114010401100101350041938017C0108012001380158010239004E0041938017C010C013C013800C4010230004E0041938017C010C013C013800C8010231004E0041938017C010C013C013800CC010232004E0041938017C010C013C013800D001
311
0232004E0041938017C010C011401380138010237004E0041938017C010C01140138015C010237004E0041938017C0110012401300124010235004E0041938017C012001040150010C010238004E0041938017C0120012401100138010233004E0041938017C012001240110015C010233004E0041938017C0130011401040
311
110010235004E0041938017C0138011C012401400103490050004E0041938017C01400120010401380103340041004E0041938017C0150010C013C0138010230004E0041938017C0150012001300124010234004E0041938017C0150013001140138010230004E0041938017C01580140013001240103320041004E0041138
311
011C01240140010249005000411400104013000C801055200410048004D003500411400104013000CC01055200410048004D003500411400104013000D401055200410048004D0035004114001200104013801023400410041140013C014C01380101350041148010C011C01380101370041148010C011C015C01013700411
311
4C01080148012C010134004114C0114010C0150010134004114C0164010800CC0101350041134014C016401340101350041150010C013C0138010130004115001200130012401013400411500124015000C801055200410048004D003500411500124015000CC01055200410048004D003500411500124015000D401055200
311
410048004D0035004115001300114013801013000415500148010401240130010554005200410049004C004115001480130012401013400411500160015000C401013600411500160015000C801013600411500160015000CC01013600411500160015000D401013600411500160015000DC010136004115801240114015C0
311
10456004900450057004115801140110012001034800490044004115801140110015801035600490053004115801400130012401023200410041168012401680104010134004114C014001300124010232004100404FC02C
161
              8972
310
4250249201C00030C01325C203800030C01325C201400030C01325C201800030C0119A00C00030C0119A00C00030C0119A00800030C0123A01000030C0119A00400030C0119A3F400030C0241201C00030C0132A00C00030C0119A01C00030C013240A01C00030C0132A03800030C0132A01400030C0132A01800030C0119A
310
00C00030C0119A00C00030C0119A00800030C0123A01000030C0119A00400030C0119A3F400030C0241201C00030C0132A00C00030C0119A01C00030C013240A00400030C011942601000030C011942E01C00030C013242600400030C011942E3F400030C0243600C00030C011942601C00030C011942601C00030C0132426
310
00C00030C011942601000030C0119425548000000C0003FFFFFFFE8000000C0003FFFFFFFE8010000C3004668020000C30048E8000000C0003FFFFFFFE8000000C0003FFFFFFFE8020000C30048E8070000C3004CA81E0000C30051A8000000C0003FFFFFFFE8000000C0003FFFFFFFE8000000C0003FFFFFFFE8000000C00
310
03FFFFFFFD038000000C0003FFFFFFFD038000000C0003FFFFFFFD038000000C0003FFFFFFFD038030000C3004668000000C0003FFFFFFFE8000000C0003FFFFFFFE8000000C0003FFFFFFFE8000000C0003FFFFFFFE8000000C0003FFFFFFFE8030000C3003FFFFFFFE8000000C0003FFFFFFFE8030000C3004668000000C
310
0003FFFFFFFE8030000C3004668000000C0003FFFFFFFD018000000C0003FFFFFFFD038000000C0003FFFFFFFD038000000C0003FFFFFFFD018000000C0003FFFFFFFE8000000C0003FFFFFFFE8000000C0003FFFFFFFE8000000C0003FFFFFFFE8000000C0003FFFFFFFE8000000C0003FFFFFFFD038000000C0003FFFFFF
310
FD038000000C0003FFFFFFFD038000000C0003FFFFFFFD038000000C0003FFFFFFFE8000000C0003FFFFFFFE8000000C0003FFFFFFFE8000000C0003FFFFFFFD018000000C0003FFFFFFFD038000000C0003FFFFFFFD038000000C0003FFFFFFFE8000000C0003FFFFFFFE8000000C0003FFFFFFFE8000000C0003FFFFFFFD
310
038000000C0003FFFFFFFD018000000C0003FFFFFFFD038000000C0003FFFFFFFE8000000C0003FFFFFFFE8010000C3003FFFFFFFE8020000C3003FFFFFFFE8070000C3003FFFFFFFE8000000C0003FFFFFFFE8000000C0003FFFFFFFE8000000C0003FFFFFFFE8000000C0003FFFFFFFE8000000C0003FFFFFFFD01800000
310
0C0003FFFFFFFD018020000C30048E8020000C3003FFFFFFFE8000000C0003FFFFFFFD038000000C0003FFFFFFFD018010000C3004668020000C30048E8000000C0003FFFFFFFE8000000C0003FFFFFFFD038000000C0003FFFFFFFE8000000C0003FFFFFFFD018030000C3004668030000C3004668000000C0003FFFFFFFE
310
8070000C3004CA81E0000C30051A8000000C0003FFFFFFFE8000000C0003FFFFFFFD028000000C0003FFFFFFFD028070000C3004CA8000000C0003FFFFFFFD018010000C3004CAAAA3F400030C010A4393241532409234794641D3241119405197F64191940D1980200C
340
28
340
28
340
28
340
1E3E
340
28
340
28
340
28
340
1E3F
340
28
340
28
340
1E3F
340
1E40
340
28
340
28
340
28
340
28
340
1E3E
340
28
340
28
340
28
340
1E3F
340
28
340
28
340
1E3F
340
1E40
340
28
340
1E41
340
28
340
28
340
28
340
28
340
28
340
1E3E
340
28
340
28
340
28
340
27
340
27
340
27
340
27
340
27
340
27
340
27
340
27
340
27
340
1E42
340
27
340
27
340
27
340
27
340
27
340
27
340
28
340
27
340
27
340
27
340
27
340
27
340
27
340
28
340
27
340
27
340
27
340
27
340
1E43
340
27
340
27
340
1E42
340
27
340
27
340
27
340
27
340
27
340
27
340
27
340
27
340
1E42
340
27
340
27
340
27
340
1E43
340
27
340
27
340
27
340
27
340
27
340
27
340
27
340
27
340
27
340
28
340
28
340
28
340
27
340
27
340
1E42
340
27
340
27
340
27
340
27
340
27
340
27
340
27
340
27
340
27
340
27
340
27
340
27
340
27
340
27
340
27
340
27
340
27
340
27
340
27
340
27
340
27
340
1E3F
340
1E46
340
1E3F
 94
        0
  0
DICTIONARY
  5
2CF8
330
1EA6
100
AcDbDictionary
280
     1
281
     1
  3
ACAD_XREC_ROUNDTRIP
360
2CF9
  0
DICTIONARY
  5
2CF1
330
1E59
100
AcDbDictionary
280
     1
281
     1
  3
ACAD_XREC_ROUNDTRIP
360
2CF2
  0
DICTIONARY
  5
2CFA
330
1EA7
100
AcDbDictionary
280
     1
281
     1
  3
ACAD_XREC_ROUNDTRIP
360
2CFB
  0
DICTIONARY
  5
2CEF
330
1DA3
100
AcDbDictionary
280
     1
281
     1
  3
ACAD_XREC_ROUNDTRIP
360
2CF0
  0
DICTIONARY
  5
2CFC
330
1EA8
100
AcDbDictionary
280
     1
281
     1
  3
ACAD_XREC_ROUNDTRIP
360
2CFD
  0
DICTIONARY
  5
145D
330
145C
100
AcDbDictionary
280
     1
281
     1
  3
BUMPTILE
360
145F
  3
DIFFUSETILE
360
145E
  3
OPACITYTILE
360
1462
  3
REFLECTIONTILE
360
1461
  3
REFRACTIONTILE
360
1463
  3
SPECULARTILE
360
1460
  0
DICTIONARY
  5
1455
330
1454
100
AcDbDictionary
280
     1
281
     1
  3
BUMPTILE
360
1457
  3
DIFFUSETILE
360
1456
  3
OPACITYTILE
360
145A
  3
REFLECTIONTILE
360
1459
  3
REFRACTIONTILE
360
145B
  3
SPECULARTILE
360
1458
  0
DICTIONARY
  5
1465
330
1464
100
AcDbDictionary
280
     1
281
     1
  3
BUMPTILE
360
1467
  3
DIFFUSETILE
360
1466
  3
OPACITYTILE
360
146A
  3
REFLECTIONTILE
360
1469
  3
REFRACTIONTILE
360
146B
  3
SPECULARTILE
360
1468
  0
DICTIONARY
  5
2CF4
330
1E99
100
AcDbDictionary
280
     1
281
     1
  3
ACAD_XREC_ROUNDTRIP
360
2CF5
  0
DICTIONARY
  5
1E5B
330
1E5A
100
AcDbDictionary
280
     1
281
     1
  3
ACAD_FIELD
360
1E5C
  3
ACAD_XREC_ROUNDTRIP
360
2CF3
  0
DICTIONARY
  5
1E9B
330
1E9A
100
AcDbDictionary
280
     1
281
     1
  3
ACAD_FIELD
360
1E9C
  3
ACAD_XREC_ROUNDTRIP
360
2CF6
  0
DICTIONARY
  5
2CED
330
1DA1
100
AcDbDictionary
280
     1
281
     1
  3
ACAD_XREC_ROUNDTRIP
360
2CEE
  0
DICTIONARY
  5
1EA1
330
1EA0
100
AcDbDictionary
280
     1
281
     1
  3
ACAD_FIELD
360
1EA2
  3
ACAD_XREC_ROUNDTRIP
360
2CF7
  0
DICTIONARY
  5
1A28
330
1487
100
AcDbDictionary
280
     1
281
     1
  3
ACAD_ROUNDTRIP_2008_TABLESTYLE_CELLSTYLEMAP
360
2CE3
  0
XRECORD
  5
2CE5
102
{ACAD_REACTORS
330
2CEB
102
}
330
2CEB
100
AcDbXrecord
280
     1
  1
AcDb_Thumbnail_Schema
102
{ATTRRECORD
341
2CE6
  2
AcDbDs::TreatedAsObjectData
280
     1
291
     1
102
ATTRRECORD}
102
{ATTRRECORD
341
2CE7
  2
AcDbDs::Legacy
280
     1
291
     1
102
ATTRRECORD}
  2
AcDbDs::ID
280
    10
 91
        8
102
{ATTRRECORD
341
2CE8
  2
AcDs:Indexable
280
     1
291
     1
102
ATTRRECORD}
102
{ATTRRECORD
341
2CE9
  2
AcDbDs::HandleAttribute
280
     7
282
     1
102
ATTRRECORD}
  2
Thumbnail_Data
280
    15
 91
        0
  0
XRECORD
  5
2CE6
102
{ACAD_REACTORS
330
2CEB
102
}
330
2CEB
100
AcDbXrecord
280
     1
  1
AcDbDs::TreatedAsObjectDataSchema
  2
AcDbDs::TreatedAsObjectData
280
     1
 91
        0
  0
XRECORD
  5
2CE7
102
{ACAD_REACTORS
330
2CEB
102
}
330
2CEB
100
AcDbXrecord
280
     1
  1
AcDbDs::LegacySchema
  2
AcDbDs::Legacy
280
     1
 91
        0
  0
XRECORD
  5
2CE8
102
{ACAD_REACTORS
330
2CEB
102
}
330
2CEB
100
AcDbXrecord
280
     1
  1
AcDbDs::IndexedPropertySchema
  2
AcDs:Indexable
280
     1
 91
        0
  0
XRECORD
  5
2CE9
102
{ACAD_REACTORS
330
2CEB
102
}
330
2CEB
100
AcDbXrecord
280
     1
  1
AcDbDs::HandleAttributeSchema
  2
AcDbDs::HandleAttribute
280
     7
 91
        1
284
     1
  0
ACAD_PROXY_OBJECT
  5
1E2A
102
{ACAD_REACTORS
330
151B
102
}
330
151B
100
AcDbProxyObject
 90
      499
 91
      523
 95
 11534369
 70
     0
162
              3904
311
40D24014C013C0242D0401B4019001D001140190019C0194014C01D00190010E410063006D005300750072006600540065007800740053007400640042504018C01B40118010C0118014C01D00190010D410063006D00570065006C00640069006E00670053007400640042104018C01B401240190014C01D00190010B4100
311
63006D0044006100740075006D0053007400640042504018C01B40108013C0134014C01D00190011041006D0064007400440065007400610069006C00530079006D005300740064004450401B4019001D0014C0194018C01D001A401BC01B8014C01E401B4014C01D00190011141006D0064007400430065006E0074006500
311
72004C0069006E0065005300740064004450401B4019001D0015001A001C8019401840190013001A401B80194014C01D00190010B41006D00640074004E006F007400650053007400640042D04018C01B40150018401C0019401C8014C01D00190010D41006D006400740041006E00560069006500770053007400640042D0
311
4018C010401B4019C0130018401E4014C01D00190010D4100630041006D0067005400690074006C00650053007400640042D04018C010401B4019C011001A401B4014C01D0019001114100630041006D00670048006F006C0065004300680061007200740053007400640000
161
               737
310
7400000000000000C408000000C00040540600800030C02000000300000000000000000C40C95224812028120281202812028120281202812028120881208812028120281202812028120281202812028120281203204809FFFE7FFFCC
340
23
360
1E2B
360
1E2C
360
1E2D
360
1E2E
360
1E2F
360
1E30
360
1E31
360
1E32
360
1E53
360
2228
360
2229
360
1E33
360
1E52
360
222A
360
222B
360
1E34
360
1E35
360
1E36
360
1E37
360
1E38
360
1E39
360
1E3A
360
1E3B
360
1E51
340
1E3C
340
0
340
27
340
27
 94
        0
  0
ACAD_PROXY_OBJECT
  5
220E
102
{ACAD_REACTORS
330
151B
102
}
330
151B
100
AcDbProxyObject
 90
      499
 91
      543
 95
 11534369
 70
     0
162
              3904
311
40D50014C012C0243904018C01B4014C01D401C801980150019401E001D0014C01D001900109410063006D0046004300460053007400640043504018C01B4015C019401B0019001A401B8019C014C01D001900108410063006D004900640053007400640042D04018C01B40110018401D001D401B4014C01D0019001094100
311
63006D0042004F004D005300740064004410401B4019001D00110019401D0018401A401B0014C01E401B4014C01D00190011141006D0064007400530065006300740069006F006E00530079006D005300740064004450401B4019001D0010C019401B801D0019401C8013001A401B80194014C01D00190010B41006D006400
311
74004E006F007400650053007400640042D04018C010401B4019C0130018401E4014C01D00190010B4100630041006D006700440069006D0053007400640044504018C010401B4019C012001BC01B00194010C01A0018401C801D0014C01D00190010D4100630041006D0067005400690074006C0065005300740064004450
311
401B4019001D0015001A001C8019401840190013001A401B80194014C01D00190010B410063006D00540061007000650072005300740064004350401B4019001D0010401B8015801A4019401DC014C01D00190010B41006D0064007400450064006700650053007400640000
161
               745
310
74033333333333309408030000C30040540600800030C0200800030C003333333333330940C8122481202812028120281202812028120281208812088120281202812028120281202812028120281202812028120280A04809FFFE7FFFCC
340
1E89
360
220F
360
2210
360
2211
360
2212
360
2213
360
2214
360
2215
360
2216
360
2217
360
2218
360
2219
360
221A
360
221B
360
221C
360
221D
360
221E
360
221F
360
2220
360
2221
360
2222
360
2223
360
2224
360
2225
360
2226
340
0
340
0
340
28
340
28
 94
        0
  0
ACAD_PROXY_OBJECT
  5
1DFF
102
{ACAD_REACTORS
330
1DFE
102
}
330
1DFE
100
AcDbProxyObject
 90
      499
 91
      511
 95
 11534369
 70
     0
162
              3996
311
42D10015C011C014C01140150015001240138011C014C0109430041004E00470041005200520041005900420CC00C001F000D000D401F000D800C00106430045004E0041004E004700424D000D401F000E400C001F000C400CC00D40106430045004E0044004900410041D0C01140138011001240104014C0108310030007C
311
00320030007C003300300041D0C0114013801100124014C01500106430045004E004C0045004E004190C01140138013C01180118010E4300480041004D00460045005200440049004D004D004F00440045004550C0120010401340118011401480110012401340134013C01100114011001140118010401540130015001094
311
3004C0049004E0041005200520041005900420C400C001F000C800C001F000CC00C0010843004C0049004E004500540059005000415600130012401380114010944005700470055005300430041004C00450041D300104014C0150013C0108012801013000421340104012C0114015801240114015C0106500053004300410
311
04C00450041948011401580124014C0124010130004154C010C010401300114010331003A00310042550012401340114014C01500104013401400107560045005200530049004F004E00414C400D400B800C000C001107B00440057004700530045005400540049004E004700530045004E0044007D00C
161
               572
310
40682A0A940000000000000488082A5000000000000004202500000000000001220250000000000000122027F27F20A82A50A0A9FA040C008000105415281E0A328CA8121CD0505C
 94
        0
  0
ACAD_PROXY_OBJECT
  5
1E00
102
{ACAD_REACTORS
330
1DFE
102
}
330
1DFE
100
AcDbProxyObject
 90
      499
 91
      511
 95
 11534369
 70
     0
162
              1382
311
43550014801040138014C014C01140150015001240138011C014C0112440052004100570049004E0047005400520041004E0053004C004100540049004F004E004353C01480124011C012401380104013001300164017C013C0138010A53004F0055005200430045004C0041004E00470040D2801400138010955005000520
311
0450053004500520056004500441EC0110015C011C014C01140150015001240138011C014C01140138011001F400
161
               126
310
4060C00800041801000020A0C0080000
 94
        0
  0
XRECORD
  5
2CF9
102
{ACAD_REACTORS
330
2CF8
102
}
330
2CF8
100
AcDbXrecord
280
     1
102
DISPLAYNAME
  1
Imperial24
102
FLAGS
 90
        0
  0
XRECORD
  5
2CF2
102
{ACAD_REACTORS
330
2CF1
102
}
330
2CF1
100
AcDbXrecord
280
     1
102
DISPLAYNAME
  1
ISO 128-34:2001
102
FLAGS
 90
        1
  0
XRECORD
  5
2CFB
102
{ACAD_REACTORS
330
2CFA
102
}
330
2CFA
100
AcDbXrecord
280
     1
102
DISPLAYNAME
  1
ISO 128-34:2001(1)
102
FLAGS
 90
        0
  0
XRECORD
  5
2CF0
102
{ACAD_REACTORS
330
2CEF
102
}
330
2CEF
100
AcDbXrecord
280
     1
102
DISPLAYNAME
  1
Metric50
102
FLAGS
 90
        0
  0
XRECORD
  5
2CFD
102
{ACAD_REACTORS
330
2CFC
102
}
330
2CFC
100
AcDbXrecord
280
     1
102
DISPLAYNAME
  1
TSK: JIS Z 8316 : 1999
102
FLAGS
 90
        1
  0
XRECORD
  5
145F
102
{ACAD_REACTORS
330
145D
102
}
330
145D
100
AcDbXrecord
280
     1
270
     1
271
     1
  0
XRECORD
  5
145E
102
{ACAD_REACTORS
330
145D
102
}
330
145D
100
AcDbXrecord
280
     1
270
     1
271
     1
  0
XRECORD
  5
1462
102
{ACAD_REACTORS
330
145D
102
}
330
145D
100
AcDbXrecord
280
     1
270
     1
271
     1
  0
XRECORD
  5
1461
102
{ACAD_REACTORS
330
145D
102
}
330
145D
100
AcDbXrecord
280
     1
270
     1
271
     1
  0
XRECORD
  5
1463
102
{ACAD_REACTORS
330
145D
102
}
330
145D
100
AcDbXrecord
280
     1
270
     1
271
     1
  0
XRECORD
  5
1460
102
{ACAD_REACTORS
330
145D
102
}
330
145D
100
AcDbXrecord
280
     1
270
     1
271
     1
  0
XRECORD
  5
1457
102
{ACAD_REACTORS
330
1455
102
}
330
1455
100
AcDbXrecord
280
     1
270
     1
271
     1
  0
XRECORD
  5
1456
102
{ACAD_REACTORS
330
1455
102
}
330
1455
100
AcDbXrecord
280
     1
270
     1
271
     1
  0
XRECORD
  5
145A
102
{ACAD_REACTORS
330
1455
102
}
330
1455
100
AcDbXrecord
280
     1
270
     1
271
     1
  0
XRECORD
  5
1459
102
{ACAD_REACTORS
330
1455
102
}
330
1455
100
AcDbXrecord
280
     1
270
     1
271
     1
  0
XRECORD
  5
145B
102
{ACAD_REACTORS
330
1455
102
}
330
1455
100
AcDbXrecord
280
     1
270
     1
271
     1
  0
XRECORD
  5
1458
102
{ACAD_REACTORS
330
1455
102
}
330
1455
100
AcDbXrecord
280
     1
270
     1
271
     1
  0
XRECORD
  5
1467
102
{ACAD_REACTORS
330
1465
102
}
330
1465
100
AcDbXrecord
280
     1
270
     1
271
     1
  0
XRECORD
  5
1466
102
{ACAD_REACTORS
330
1465
102
}
330
1465
100
AcDbXrecord
280
     1
270
     1
271
     1
  0
XRECORD
  5
146A
102
{ACAD_REACTORS
330
1465
102
}
330
1465
100
AcDbXrecord
280
     1
270
     1
271
     1
  0
XRECORD
  5
1469
102
{ACAD_REACTORS
330
1465
102
}
330
1465
100
AcDbXrecord
280
     1
270
     1
271
     1
  0
XRECORD
  5
146B
102
{ACAD_REACTORS
330
1465
102
}
330
1465
100
AcDbXrecord
280
     1
270
     1
271
     1
  0
XRECORD
  5
1468
102
{ACAD_REACTORS
330
1465
102
}
330
1465
100
AcDbXrecord
280
     1
270
     1
271
     1
  0
XRECORD
  5
2CF5
102
{ACAD_REACTORS
330
2CF4
102
}
330
2CF4
100
AcDbXrecord
280
     1
102
DISPLAYNAME
  1
Imperial24
102
FLAGS
 90
        0
  0
DICTIONARY
  5
1E5C
102
{ACAD_REACTORS
330
1E5B
102
}
330
1E5B
100
AcDbDictionary
280
     1
281
     1
  3
TEXT
360
1E5D
  0
XRECORD
  5
2CF3
102
{ACAD_REACTORS
330
1E5B
102
}
330
1E5B
100
AcDbXrecord
280
     1
102
DISPLAYNAME
  1
ISO 128-40:2001(E)
102
FLAGS
 90
        1
  0
DICTIONARY
  5
1E9C
102
{ACAD_REACTORS
330
1E9B
102
}
330
1E9B
100
AcDbDictionary
280
     1
281
     1
  3
TEXT
360
1E9D
  0
XRECORD
  5
2CF6
102
{ACAD_REACTORS
330
1E9B
102
}
330
1E9B
100
AcDbXrecord
280
     1
102
DISPLAYNAME
  1
ISO 128-40:2001(E)(1)
102
FLAGS
 90
        0
  0
XRECORD
  5
2CEE
102
{ACAD_REACTORS
330
2CED
102
}
330
2CED
100
AcDbXrecord
280
     1
102
DISPLAYNAME
  1
Metric50
102
FLAGS
 90
        0
  0
DICTIONARY
  5
1EA2
102
{ACAD_REACTORS
330
1EA1
102
}
330
1EA1
100
AcDbDictionary
280
     1
281
     1
  3
TEXT
360
1EA3
  0
XRECORD
  5
2CF7
102
{ACAD_REACTORS
330
1EA1
102
}
330
1EA1
100
AcDbXrecord
280
     1
102
DISPLAYNAME
  1
TSK: JIS  B 0001 : 2000
102
FLAGS
 90
        1
  0
CELLSTYLEMAP
  5
2CE3
102
{ACAD_REACTORS
330
1A28
102
}
330
1A28
100
AcDbCellStyleMap
 90
        3
300
CELLSTYLE
  1
TABLEFORMAT_BEGIN
 90
        5
170
     1
 91
        0
 92
    32768
 62
   257
 93
        1
300
CONTENTFORMAT
  1
CONTENTFORMAT_BEGIN
 90
        0
 91
        0
 92
      512
 93
        0
300

 40
0.0
140
1.0
 94
        5
 62
     0
340
23
144
6.0
309
CONTENTFORMAT_END
171
     1
301
MARGIN
  1
CELLMARGIN_BEGIN
 40
1.5
 40
1.5
 40
1.5
 40
1.5
 40
4.5
 40
4.5
309
CELLMARGIN_END
 94
        6
 95
        1
302
GRIDFORMAT
  1
GRIDFORMAT_BEGIN
 90
        0
 91
        1
 62
     0
 92
       -2
340
0
 93
        0
 40
1.125
309
GRIDFORMAT_END
 95
        2
302
GRIDFORMAT
  1
GRIDFORMAT_BEGIN
 90
        0
 91
        1
 62
     0
 92
       -2
340
0
 93
        0
 40
1.125
309
GRIDFORMAT_END
 95
        4
302
GRIDFORMAT
  1
GRIDFORMAT_BEGIN
 90
        0
 91
        1
 62
     0
 92
       -2
340
0
 93
        0
 40
1.125
309
GRIDFORMAT_END
 95
        8
302
GRIDFORMAT
  1
GRIDFORMAT_BEGIN
 90
        0
 91
        1
 62
     0
 92
       -2
340
0
 93
        0
 40
1.125
309
GRIDFORMAT_END
 95
       16
302
GRIDFORMAT
  1
GRIDFORMAT_BEGIN
 90
        0
 91
        1
 62
     0
 92
       -2
340
0
 93
        0
 40
1.125
309
GRIDFORMAT_END
 95
       32
302
GRIDFORMAT
  1
GRIDFORMAT_BEGIN
 90
        0
 91
        1
 62
     0
 92
       -2
340
0
 93
        0
 40
1.125
309
GRIDFORMAT_END
309
TABLEFORMAT_END
  1
CELLSTYLE_BEGIN
 90
        1
 91
        1
300
_TITLE
309
CELLSTYLE_END
300
CELLSTYLE
  1
TABLEFORMAT_BEGIN
 90
        5
170
     1
 91
        0
 92
        0
 62
   257
 93
        1
300
CONTENTFORMAT
  1
CONTENTFORMAT_BEGIN
 90
        0
 91
        0
 92
      512
 93
        0
300

 40
0.0
140
1.0
 94
        5
 62
     0
340
23
144
4.5
309
CONTENTFORMAT_END
171
     1
301
MARGIN
  1
CELLMARGIN_BEGIN
 40
1.5
 40
1.5
 40
1.5
 40
1.5
 40
4.5
 40
4.5
309
CELLMARGIN_END
 94
        6
 95
        1
302
GRIDFORMAT
  1
GRIDFORMAT_BEGIN
 90
        0
 91
        1
 62
     0
 92
       -2
340
0
 93
        0
 40
1.125
309
GRIDFORMAT_END
 95
        2
302
GRIDFORMAT
  1
GRIDFORMAT_BEGIN
 90
        0
 91
        1
 62
     0
 92
       -2
340
0
 93
        0
 40
1.125
309
GRIDFORMAT_END
 95
        4
302
GRIDFORMAT
  1
GRIDFORMAT_BEGIN
 90
        0
 91
        1
 62
     0
 92
       -2
340
0
 93
        0
 40
1.125
309
GRIDFORMAT_END
 95
        8
302
GRIDFORMAT
  1
GRIDFORMAT_BEGIN
 90
        0
 91
        1
 62
     0
 92
       -2
340
0
 93
        0
 40
1.125
309
GRIDFORMAT_END
 95
       16
302
GRIDFORMAT
  1
GRIDFORMAT_BEGIN
 90
        0
 91
        1
 62
     0
 92
       -2
340
0
 93
        0
 40
1.125
309
GRIDFORMAT_END
 95
       32
302
GRIDFORMAT
  1
GRIDFORMAT_BEGIN
 90
        0
 91
        1
 62
     0
 92
       -2
340
0
 93
        0
 40
1.125
309
GRIDFORMAT_END
309
TABLEFORMAT_END
  1
CELLSTYLE_BEGIN
 90
        2
 91
        1
300
_HEADER
309
CELLSTYLE_END
300
CELLSTYLE
  1
TABLEFORMAT_BEGIN
 90
        5
170
     1
 91
        0
 92
        0
 62
   257
 93
        1
300
CONTENTFORMAT
  1
CONTENTFORMAT_BEGIN
 90
        0
 91
        0
 92
      512
 93
        0
300

 40
0.0
140
1.0
 94
        2
 62
     0
340
23
144
4.5
309
CONTENTFORMAT_END
171
     1
301
MARGIN
  1
CELLMARGIN_BEGIN
 40
1.5
 40
1.5
 40
1.5
 40
1.5
 40
4.5
 40
4.5
309
CELLMARGIN_END
 94
        6
 95
        1
302
GRIDFORMAT
  1
GRIDFORMAT_BEGIN
 90
        0
 91
        1
 62
     0
 92
       -2
340
0
 93
        0
 40
1.125
309
GRIDFORMAT_END
 95
        2
302
GRIDFORMAT
  1
GRIDFORMAT_BEGIN
 90
        0
 91
        1
 62
     0
 92
       -2
340
0
 93
        0
 40
1.125
309
GRIDFORMAT_END
 95
        4
302
GRIDFORMAT
  1
GRIDFORMAT_BEGIN
 90
        0
 91
        1
 62
     0
 92
       -2
340
0
 93
        0
 40
1.125
309
GRIDFORMAT_END
 95
        8
302
GRIDFORMAT
  1
GRIDFORMAT_BEGIN
 90
        0
 91
        1
 62
     0
 92
       -2
340
0
 93
        0
 40
1.125
309
GRIDFORMAT_END
 95
       16
302
GRIDFORMAT
  1
GRIDFORMAT_BEGIN
 90
        0
 91
        1
 62
     0
 92
       -2
340
0
 93
        0
 40
1.125
309
GRIDFORMAT_END
 95
       32
302
GRIDFORMAT
  1
GRIDFORMAT_BEGIN
 90
        0
 91
        1
 62
     0
 92
       -2
340
0
 93
        0
 40
1.125
309
GRIDFORMAT_END
309
TABLEFORMAT_END
  1
CELLSTYLE_BEGIN
 90
        3
 91
        2
300
_DATA
309
CELLSTYLE_END
  0
ACAD_PROXY_OBJECT
  5
1E2B
330
1E2A
100
AcDbProxyObject
 90
      499
 91
      586
 95
 11534369
 70
     0
162
                 0
161
               249
310
7400000000000000C400000000000000310200800030C02000000300012AFBCC
 94
        0
  0
ACAD_PROXY_OBJECT
  5
1E2C
330
1E2A
100
AcDbProxyObject
 90
      499
 91
      587
 95
 11534369
 70
     0
162
              2608
311
415480184008000D400C001055200610020003200350041D480184008000C400C800B800D4010652006100200036002E003300419480184008000CC00B800C8010652006100200031002E003600419480184008000C000B800E0010652006100200030002E003400419480184008000C000B800C8010652006100200030002
311
E00310041D480184008000C000B800C000D4010852006100200030002E00300032003500415480184008000D400C001055200610020003200350041D480184008000C400C800B800D4010652006100200036002E003300419480184008000CC00B800C8010652006100200031002E003600419480184008000C000B800E001
311
0652006100200030002E003400419480184008000C000B800C8010652006100200030002E00310041D480184008000C000B800C000D4010852006100200030002E003000320035006D
161
               517
310
7400000000000000C400000000000000310200800030C02000000300012AFD41D01405014050140501E83C80A0481A0882A0C86219555400000000000006205214
 94
        0
  0
ACAD_PROXY_OBJECT
  5
1E2D
330
1E2A
100
AcDbProxyObject
 90
      499
 91
      588
 95
 11534369
 70
     0
162
                 0
161
               806
310
7400000000000000C400000000000000310200800030C02000000300012AFA1E80A0280A0280A0280A0280A0280A0280A0280A3080A0280A0280A0280A0280A0280A0280A0280A0280A0280A0280A0280A0258000000000000008000000000000006205214
340
1E55
 94
        0
  0
ACAD_PROXY_OBJECT
  5
1E2E
330
1E2A
100
AcDbProxyObject
 90
      499
 91
      589
 95
 11534369
 70
     0
162
                 0
161
               840
310
7400000000000000C400000000000000310200800030C02000000300012AFD0CCCCCCCCCCCF4CFC333333333333D33FA4C80A0280A0280A0280A0280A0280A0280A0280A0280A0280A0280A0280A0280A0280A0280A0280A0280A0280A0280A024CDCCCCCCCCCCF03F00
340
1E56
340
1E55
 94
        0
  0
ACAD_PROXY_OBJECT
  5
1E2F
330
1E2A
100
AcDbProxyObject
 90
      499
 91
      590
 95
 11534369
 70
     0
162
                 0
161
               323
310
7400000000000000C400000000000000310200800030C02000000300012AFA4200000000000003102C
340
1E57
 94
        0
  0
ACAD_PROXY_OBJECT
  5
1E30
330
1E2A
100
AcDbProxyObject
 90
      499
 91
      591
 95
 11534369
 70
     0
162
                 0
161
               493
310
7400000000000000C400000000000000310200800030C02000000300012AFC521D4454FB21E93F00000000000002102800000000000008408020000C300C
340
1E58
340
1E57
 94
        0
  0
ACAD_PROXY_OBJECT
  5
1E31
330
1E2A
100
AcDbProxyObject
 90
      499
 91
      530
 95
 11534369
 70
     0
162
             22438
311
4112401500114013401020598EE764C51C01140138015001480104010C013C00B001280140013800B000C000B0001663B9D8B0011C011401380150014801040150016000B0009401CC00B000A0011C011401380134014C011C0080019C019401B8019001DC019C008000C800C800C800A402903510054005900409C1973E45
311
31470045004E0054005200410043004F002C004A0050004E002C0030002C007065CF912C00470045004E00540052004100540058002C00250073002C002800470045004E004D00530047002000670065006E0064007700670020003200320033002900A4113801040134011401020D544D524C51C011401380150014801040
311
10C013C00B001280140013800B000C000B00035513548B0011C011401380150014801040150016000B0009401CC00B000A0011C011401380134014C011C0080019C019401B8019001DC019C008000C800C800D800A4012C3D004900460028004900530042004C0041004E004B00280050004100520054003A004E0041004D0
311
0450029002C0042004C004F0043004B003A004E0041004D0045002C0050004100520054003A004E0041004D00450029009054400450053004300520040AB228399931470045004E0054005200410043004F002C004A0050004E002C0030002C00AC8A0E662C00470045004E00540052004100540058002C00250073002C002
311
800470045004E004D00530047002000670065006E0064007700670020003200310037002900A4214C015001040138011001040148011001028F893C684C51C01140138015001480104010C013C00B001280140013800B000C000B0023E24F1A0B0011C011401380150014801040150016000B0009401CC00B000A0011C0114
311
01380134014C011C0080019C019401B8019001DC019C008000C800C400E000A4029084D004100540045005200490041004C00409419E659531470045004E0054005200410043004F002C004A0050004E002C0030002C00506799652C00470045004E00540052004100540058002C00250073002C002800470045004E004D00
311
530047002000670065006E0064007700670020003200320031002900A41138013C015001140102E86C188A4C51C01140138015001480104010C013C00B001280140013800B000C000B003A1B06228B0011C011401380150014801040150016000B0009401CC00B000A0011C011401380134014C011C0080019C019401B8019
311
001DC019C008000C800C800D400A402906560045004E0044004F00520041364C3CCC300C3F0C133470045004E0054005200410043004F002C004A0050004E002C0030002C00D930F330C030FC302C00470045004E00540052004100540058002C00250073002C002800470045004E004D00530047002000670065006E00640
311
07700670020003200320034002900A419100114014C010C014800C80104AC8A0E66200032004C91C01140138015001480104010C013C00B001280140013800B000C000B002B22839988000C800B0011C011401380150014801040150016000B0009401CC00B000A0011C011401380134014C011C0080019C019401B8019001
311
DC019C008000CC00D800A4029095300540041004E00440041005200440032004123E24F1A08000C80133470045004E0054005200410043004F002C004A0050004E002C0030002C008F893C68200032002C00470045004E00540052004100540058002C00250073002C002800470045004E004D00530047002000670065006E
311
0064007700670020003200320030002900A42534010401500114014801240104013000C8010450679965200032004C91C01140138015001480104010C013C00B001280140013800B000C000B001419E65948000C800B0011C011401380150014801040150016000B0009401CC00B000A0011C011401380134014C011C00800
311
19C019401B8019001DC019C008000D000C000A4029044D0041005300530040BAA333E4530470045004E0054005200410043004F002C004A0050004E002C0030002C00EA8CCF912C00470045004E00540052004100540058002C00250073002C002800470045004E004D00530047002000670065006E0064007700670020003
311
40032002900A42950013C015001040130017C01340104014C014C0103CF7DEA8CCF914C91C01140138015001480104010C013C00B001280140013800B000C000B0033DF7AA333E44B0011C011401380150014801040150016000B0009401CC00B000A0011C011401380134014C011C0080019C019401B8019001DC019C0080
311
00C800C800E000A401213D004900460028004900530042004C0041004E004B0028004D0041005300530029002C0042004C0041004E004B002C005100540059002A004D0041005300530029009055000520049004300450040A853CF1A130470045004E0054005200410043004F002C004A0050004E002C0030002C00A14F3C
311
682C00470045004E00540052004100540058002C00250073002C002800470045004E004D00530047002000670065006E006400770067002000340033002900A40D10012401340102F85BD56C4C11C01140138015001480104010C013C00B001280140013800B000C000B003E16F55B0B0011C0114013801500148010401500
311
16000B0009401CC00B000A0011C011401380134014C011C0080019C019401B8019001DC019C008000D000D000A40290942004F004D005F0055004E00490054005300409614D353D31470045004E0054005200410043004F002C004A0050004E002C0030002C0058534D4F2C00470045004E00540052004100540058002C002
311
50073002C002800470045004E004D00530047002000670065006E0064007700670020003200340033002900A41CF400F0012401500114013400F801073D003C004900540045004D003E0041CF400F0012401500114013400F801073D003C004900540045004D003E0041CF400F0012401500114013400F801063D003C00510
311
0540059003E0041CF400F0012401500114013400F801073D003C004900540045004D003E00903E890C1546888420B7FCCFFC8000C3FED0C2DCC30CC2BCC1082DFF33FF200030FFB430B730C330AF30420B7FCCFFC8000C3FED0C2DCC30CC2BCC290131009086500610009006500610009002D000A0043DCC01C401B4002401
311
CC01C401B4002401CD7AE59784C3F0C320C3ACC02801147300710063006D0009007300710063006D000900735EB965BB30F330C130E130FC30C830EB300A00445CC01C4019801D0002401CC01C4019801D0002401CD7AE59754C28CC3F0C320C02801107300710069006E0009007300710069006E000900735EB965A430F33
311
0C1300A004319C018401B00024019C018401B0002402B0C3B4C3CCC028010B710074000900710074000900AF30A930FC30C8300A00451B001C40190017C01BC01E8002401B001C40190017C01BC01E8002402C9B73E46A8C3CCC2E4C02801096C0009006C000900EA30C330C830EB300A00435B401B0002401B401B0002403
311
7CC3A8C3A8C30CC320C3ACC028010A790064000900790064000900E430FC30C9300A0042D9801D00024019801D000240354C28CC3F0C320C028010A69006E00090069006E000900A430F330C1300A00425B4002401B400240384C3F0C320C3ACC028010E63006D00090063006D000900BB30F330C130E130FC30C830EB300A
311
00435B401B4002401B401B40024037CC3A8C384C3F0C320C3ACC028010A6C00620009006C0062000900DD30F330C9300A00429BC01E8002401BC01E8002402A8C3CCC2E4C02801086700090067000900B030E930E0300A00431B4019C002401B4019C0024037CC3A8C2C0C3A4C380C028010A620078000900620078000900C
311
030FC30B9300A00404B400
161
              6686
310
7400000000000000C400000000000000310200800030C02000000300012AFA2080A0280A0280A0280D20200000000000012202032024050140501409014050140501901000000000000091010190120280A0280A3880C80C81500000000000009C8080C80901405014051D40640640E8000000000080514040640480A0280A
310
028EA03203209400000000000024A0203202405014050147501901905A0000000000000E5010190120280A0280A3A80C80C83500000000000007C8080880901405014051D40640641E80000000000003E4040440480A0280A028EA03203211400000000004028A0202202405014050147501901909A0000000000001250101
310
10120280A0280A3A80C80C8550E27A15AF46E08A8080880901405014051D405024050242D034080000000000003E4040440480A0280A028EA02812028121881A040000000000002020202202405014050147501409014090D409020000000000000F9010110120280A0280A3A80A0480A04872068100000000000007C8080C
310
80901405014051E40640643E80000000000003E4040640480A0288254810000000000000288100E000186000080C0000000000001F2000000000000007C8080A0300000000000007C800000000000001F2020280C0000000000001A200000000000000688080A03000000000000068800000000000001A2020281480800000
310
00000007C800000000000001F2020280A0300000000000007C800000000000001F2020280C0000000000001A200000000000000688080A02000000000000001F2000000000000007C8148400000000000010408000000C000B4FFFF4110340D024090140510429084410190A4064229014290A4290A40A000000000000785F
310
8000000000001E17E80C0100006180403800061801353333333333EA7E4D4CCCCCCCCCFA9F9353333333333EA7E199999999999F99F99B9999999999B87E199999999999F99F9353333333333EA7E199999999999F99F99B9999999999B87E199999999999F99F80000000000001880405014090590140D0441501A0000000
310
000000620401000061804010000618040080006180148A205FCFFFF3FFFCFFFF20280A028AA0280A0280A0280A0280A0280A0280A0280A0280A0280A0280A032034190240D044150E43C
340
27
340
0
340
23
340
23
340
28
340
28
340
28
 94
        0
  0
ACAD_PROXY_OBJECT
  5
1E32
330
1E2A
100
AcDbProxyObject
 90
      499
 91
      531
 95
 11534369
 70
     0
162
                 0
161
               279
310
74000000000000014400000000000000510201C00030C0200C00030C012AE9FE3E0000
340
1E59
 94
        0
  0
ACAD_PROXY_OBJECT
  5
1E53
330
1E2A
100
AcDbProxyObject
 90
      499
 91
      594
 95
 11534369
 70
     0
162
                 0
161
               247
310
74000000000000014400000000000000510200000030002000000300012A04
340
1DA3
 94
        0
  0
ACAD_PROXY_OBJECT
  5
2228
330
1E2A
100
AcDbProxyObject
 90
      499
 91
      594
 95
 11534369
 70
     0
162
                 0
161
               247
310
740B81E85EB51B8CE3F2E07A17AD46E338FE00000030002000000300012A04
340
1EA6
 94
        0
  0
ACAD_PROXY_OBJECT
  5
2229
330
1E2A
100
AcDbProxyObject
 90
      499
 91
      594
 95
 11534369
 70
     0
162
                 0
161
               247
310
7400000000000000C400000000000000310200800030C0200C00030C012A04
340
1EA7
 94
        0
  0
ACAD_PROXY_OBJECT
  5
1E33
330
1E2A
100
AcDbProxyObject
 90
      499
 91
      592
 95
 11534369
 70
     0
162
                 0
161
               279
310
74000000000000014400000000000000510201C00030C0201C00030C012AE9FE0E0000
340
1E5A
 94
        0
  0
ACAD_PROXY_OBJECT
  5
1E52
330
1E2A
100
AcDbProxyObject
 90
      499
 91
      593
 95
 11534369
 70
     0
162
                 0
161
               247
310
74000000000000014400000000000000510200000030002000000300012A04
340
1DA1
 94
        0
  0
ACAD_PROXY_OBJECT
  5
222A
330
1E2A
100
AcDbProxyObject
 90
      499
 91
      593
 95
 11534369
 70
     0
162
                 0
161
               247
310
740B81E85EB51B8CE3F2E07A17AD46E338FE00000030002000000300012A04
340
1E99
 94
        0
  0
ACAD_PROXY_OBJECT
  5
222B
330
1E2A
100
AcDbProxyObject
 90
      499
 91
      593
 95
 11534369
 70
     0
162
                 0
161
               247
310
7400000000000000C400000000000000310200800030C0201C00030C012A04
340
1E9A
 94
        0
  0
ACAD_PROXY_OBJECT
  5
1E34
330
1E2A
100
AcDbProxyObject
 90
      499
 91
      533
 95
 11534369
 70
     0
162
                 0
161
               388
310
7400000000000000C400000000000000310200800030C02000000300012AFD000000000000010814333333333333F33F2C
 94
        0
  0
ACAD_PROXY_OBJECT
  5
1E35
330
1E2A
100
AcDbProxyObject
 90
      499
 91
      540
 95
 11534369
 70
     0
162
                 0
161
               249
310
7400000000000000C400000000000000310200800030C02000000300012AFC4C
340
0
 94
        0
  0
ACAD_PROXY_OBJECT
  5
1E36
330
1E2A
100
AcDbProxyObject
 90
      499
 91
      534
 95
 11534369
 70
     0
162
             21036
311
42318C3CCC35CC3B0C3F0C320C08000C4003A013D002500250063003C0048006F006C0065003A00630074006400690061003E002000780020003C0048006F006C0065003A0063007400640065007000740068003E00200055005C0050003C0069006600280065007100750061006C00280048006F006C0065003A007400610
311
070007000650064002C0022003000220029002C00220025002500630022002C0048006F006C0065003A006E006F006D0069006E0061006C0020002200200078002000220029003E003C0069006600280065007100750061006C00280048006F006C0065003A007400610070007000650064002C0022003000220029002C004
311
8006F006C0065003A006400690061002C0048006F006C0065003A0070006900740063006800640065007300630029003E003C0069006600280065007100750061006C00280048006F006C0065003A007400610070007000650064002C0022003100220029002C00220020007800200022002C002200220029003E003C00690
311
06600280065007100750061006C00280048006F006C0065003A007400610070007000650064002C0022003100220029002C0048006F006C0065003A00740061007000640065007000740068002C002200220029003E0020003C0069006600280065007100750061006C00280048006F006C0065003A007400650072006D006
311
9006E006100740069006F006E002C0022003000220029002C00220020002F00200022002C002200220029003E003C0069006600280065007100750061006C00280048006F006C0065003A007400650072006D0069006E006100740069006F006E002C0022003000220029002C0048006F006C0065003A00640065007000740
311
068002C002200220029003E0042318C3CCC35CC3B0C3F0C320C08000C4003B013D002500250063003C0048006F006C0065003A00630074006400690061003E002000780020003C0048006F006C0065003A006300740061006E0067006C0065003E002500250064005C0050003C0069006600280065007100750061006C0028
311
0048006F006C0065003A007400610070007000650064002C0022003000220029002C00220025002500630022002C0048006F006C0065003A006E006F006D0069006E0061006C0020002200200078002000220029003E003C0069006600280065007100750061006C00280048006F006C0065003A0074006100700070006500
311
64002C0022003000220029002C0048006F006C0065003A006400690061002C0048006F006C0065003A0070006900740063006800640065007300630029003E003C0069006600280065007100750061006C00280048006F006C0065003A007400610070007000650064002C0022003100220029002C00220020007800200022
311
002C002200220029003E003C0069006600280065007100750061006C00280048006F006C0065003A007400610070007000650064002C0022003100220029002C0048006F006C0065003A00740061007000640065007000740068002C002200220029003E0020003C0069006600280065007100750061006C00280048006F00
311
6C0065003A007400650072006D0069006E006100740069006F006E002C0022003000220029002C00220020002F00200022002C002200220029003E003C0069006600280065007100750061006C00280048006F006C0065003A007400650072006D0069006E006100740069006F006E002C0022003000220029002C0048006F
311
006C0065003A00640065007000740068002C002200220029003E0042318C3CCC35CC3B0C3F0C320C08000C40016013D003C0069006600280065007100750061006C00280048006F006C0065003A007400610070007000650064002C0022003000220029002C00220025002500630022002C0048006F006C0065003A006E006
311
F006D0069006E0061006C0020002200200078002000220029003E003C0069006600280065007100750061006C00280048006F006C0065003A007400610070007000650064002C0022003000220029002C0048006F006C0065003A006400690061002C0048006F006C0065003A0070006900740063006800640065007300630
311
029003E003C0069006600280065007100750061006C00280048006F006C0065003A007400610070007000650064002C0022003100220029002C00220020007800200022002C002200220029003E003C0069006600280065007100750061006C00280048006F006C0065003A007400610070007000650064002C00220031002
311
20029002C0048006F006C0065003A00740061007000640065007000740068002C002200220029003E0020003C0069006600280065007100750061006C00280048006F006C0065003A007400650072006D0069006E006100740069006F006E002C0022003000220029002C00220020002F00200022002C002200220029003E0
311
03C0069006600280065007100750061006C00280048006F006C0065003A007400650072006D0069006E006100740069006F006E002C0022003000220029002C0048006F006C0065003A00640065007000740068002C002200220029003E0042318C3CCC35CC3B0C3F0C320C08000C40027013D002500250063003C0048006F
311
006C0065003A00630074006400690061003E005C0050003C0069006600280065007100750061006C00280048006F006C0065003A007400610070007000650064002C0022003000220029002C00220025002500630022002C0048006F006C0065003A006E006F006D0069006E0061006C002000220020007800200022002900
311
3E003C0069006600280065007100750061006C00280048006F006C0065003A007400610070007000650064002C0022003000220029002C0048006F006C0065003A006400690061002C0048006F006C0065003A0070006900740063006800640065007300630029003E003C0069006600280065007100750061006C00280048
311
006F006C0065003A007400610070007000650064002C0022003100220029002C00220020007800200022002C002200220029003E003C0069006600280065007100750061006C00280048006F006C0065003A007400610070007000650064002C0022003100220029002C0048006F006C0065003A0074006100700064006500
311
7000740068002C002200220029003E0020003C0069006600280065007100750061006C00280048006F006C0065003A007400650072006D0069006E006100740069006F006E002C0022003000220029002C00220020002F00200022002C002200220029003E003C0069006600280065007100750061006C00280048006F006C
311
0065003A007400650072006D0069006E006100740069006F006E002C0022003000220029002C0048006F006C0065003A00640065007000740068002C002200220029003E0042318C3CCC35CC3B0C3F0C320C08000C801173D003C0053005400440050003A0044004500530043003E0020003C0053005400440050003A00530
311
0540044003E0042318C3CCC35CC3B0C3F0C320C08000C4010C3D003C0053005400440050003A0044004500530043003E0042318C3CCC35CC3B0C3F0C320C08000CC010B3D003C0053005400440050003A005300540044003E00C
161
               732
310
7400000000000000C400000000000000310200800030C02000000300012AFA1280A17480A15480A0480A0280E9014050340501407480A0280A0280A03A4050141D0140501D20280A3C81A0280E901405480A02A40D01456AABA1509C
360
1E65
330
1E65
360
1E66
330
1E66
360
1E64
330
1E64
360
1E67
330
1E67
360
1E62
360
1E61
360
1E63
330
1E62
330
1E61
330
1E63
 94
        0
  0
ACAD_PROXY_OBJECT
  5
1E37
330
1E2A
100
AcDbProxyObject
 90
      499
 91
      541
 95
 11534369
 70
     0
162
                26
311
404E800C
161
               305
310
7400000000000000C400000000000000310200800030C02000000300012AFA175203480A03554C
 94
        0
  0
ACAD_PROXY_OBJECT
  5
1E38
330
1E2A
100
AcDbProxyObject
 90
      499
 91
      542
 95
 11534369
 70
     0
162
              1002
311
4F8F400F0014C015001480154010C015000E8010C013C01340140017C013801040134011400F8008000F0014C015001480154010C015000E8015801240114015C017C013801040134011400F80080034CC394C3F0C08000A000F0014C015001480154010C015000E8014C0158017C014C010C01040130011400F800A400C
161
               332
310
74000000000000014400000000000000310201C00030C02000000300012AFA028100000000000006881C
340
23
 94
        0
  0
ACAD_PROXY_OBJECT
  5
1E39
330
1E2A
100
AcDbProxyObject
 90
      499
 91
      536
 95
 11534369
 70
     0
162
                 0
161
               261
310
7400000000000000C400000000000000310200800030C02000000300012AFA0754
340
1E3D
 94
        0
  0
ACAD_PROXY_OBJECT
  5
1E3A
330
1E2A
100
AcDbProxyObject
 90
      499
 91
      539
 95
 11534369
 70
     0
162
             12884
311
40D24014C013C0106490053004F005F004100330042924014C013C017C0150012401500130011401040113490053004F005F00420052005F005200650076006900730069006F006E006C006900730074004450400D001E000D8008000A000C800E400DC01E000C400C800D800C401B401B400A40108490053004F005F00410
311
03400780036004410400C0008000A000E000D000C001E000C400C400E000E401B401B400A400800106490053004F005F00410030004410400D001E000CC008000A000C800E400DC01E000D800CC00C001B401B400A40108490053004F005F0041003400780033004450400C801E000D0008000A000D400E400D001E000C400
311
D800E000C801B401B400A40108490053004F005F0041003200780034004490400C001E000CC008000A000C400C400E000E401E000C800D400C800CC01B401B400A40108490053004F005F0041003000780033004390400D0008000A000C800E400DC01E000C800C400C001B401B400A40106490053004F005F004100340044
311
50400CC01E000DC008000A000D000C800C001E000C800C000E000C001B401B400A40108490053004F005F0041003300780037004390400CC008000A000C800E400DC01E000D000C800C001B401B400A40106490053004F005F00410033004450400C401E000CC008000A000E000D000C401E000C400DC00E000CC01B401B40
311
0A40108490053004F005F0041003100780033004450400D001E000DC008000A000C800E400DC01E000C400D000DC00C401B401B400A40108490053004F005F0041003400780037004450400D001E000E0008000A000C800E400DC01E000C400D800E000C801B401B400A40108490053004F005F00410034007800380044504
311
00C801E000D4008000A000D400E400D001E000C800C400C000C801B401B400A40108490053004F005F0041003200780035004450400D001E000D4008000A000C800E400DC01E000C400C000D400C401B401B400A40108490053004F005F0041003400780035004410400CC01E000CC008000A000D000C800C001E000E000E4
311
00C401B401B400A40108490053004F005F0041003300780033004490400C001E000C8008000A000C400C400E000E401E000C400D800E000C801B401B400A40108490053004F005F0041003000780032004390400C4008000A000D400E400D001E000E000D000C401B401B400A40106490053004F005F00410031004450400C
311
C01E000D0008000A000D000C800C001E000C400C400E000E401B401B400A40108490053004F005F0041003300780034004450400CC01E000D4008000A000D000C800C001E000C400D000E000D801B401B400A40108490053004F005F0041003300780035004450400CC01E000D8008000A000D000C800C001E000C400DC00E
311
000CC01B401B400A40108490053004F005F0041003300780036004450400C801E000CC008000A000D400E400D001E000C400C800D800C401B401B400A40108490053004F005F0041003200780033004450400D001E000D0008000A000C800E400DC01E000E000D000C401B401B400A400800108490053004F005F004100340
311
0780034004450400D001E000E4008000A000C800E400DC01E000C400E000E400C801B401B400A40108490053004F005F0041003400780039004450400C401E000D0008000A000E000D000C401E000C800CC00DC00E001B401B400A40108490053004F005F0041003100780034004390400C8008000A000D000C800C001E000
311
D400E400D001B401B400A40106490053004F005F004100320042524014C013C008001A221326011AC800104010A490053004F005F005400490054004C004500410042524014C013C008001A221326011AC800108010A490053004F005F005400490054004C00450042004259571D1AFA8C2E4C320C17C01500130017C01134
311
90053004F005F0054004C005F005200650076006900730069006F006E006C006900730074004259571D1AFA8C2E4C320C17C01500148017C0113490053004F005F00540052005F005200650076006900730069006F006E006C006900730074004259571D1AFA8C2E4C320C17C01080130017C0113490053004F005F0042004
311
C005F005200650076006900730069006F006E006C006900730074004259571D1AFA8C2E4C320C17C01080148017C0113490053004F005F00420052005F005200650076006900730069006F006E006C00690073007400AC
161
               498
310
7400000000000000C400000000000000310200800030C02000000300012AFB2E8C20482205400000000002015900000000000000324000000000000007100C
 94
        0
  0
ACAD_PROXY_OBJECT
  5
1E3B
330
1E2A
100
AcDbProxyObject
 90
      499
 91
      537
 95
 11534369
 70
     0
162
               126
311
408F000F801023C003E00409A000DC00
161
               408
310
7400000000000000C400000000000000310200800030C02000000300012AFA080000000000001420000000000000048807FFFC02
340
1E3C
340
0
340
0
340
1E47
340
1E48
340
1E49
340
1E4A
340
1E4B
340
1E50
340
0
340
1E48
340
0
 94
        0
  0
ACAD_PROXY_OBJECT
  5
1E51
330
1E2A
100
AcDbProxyObject
 90
      499
 91
      538
 95
 11534369
 70
     0
162
             18980
311
41A9D7865A9B8C3A8C2E4C320C135470045004E0054005200410043004F002C004A0050004E002C0030002C00A75E196A6E30EA30B930C8302C00470045004E00540052004100540058002C00250073002C002800470045004E004D00530047002000670065006E00640069006D007A00200033003000290043CF400F00110
311
01940198018401D401B001D0015001A401D001B0019400F80105747AC630FC30D630EB304D11C01140138015001480104010C013C00B001280140013800B000C000B001D1EB18C3F0C358C3ACC0B0011C011401380150014801040150016000B0009401CC00B000A0011C011401380134014C011C0080019C019401B801900
311
1A401B401E8008000CC00C400A4010F3D003C00440065006600610075006C0074005400690074006C0065003E0040A7D4EE5C130470045004E0054005200410043004F002C004A0050004E002C0030002C009F53B9702C00470045004E00540052004100540058002C00250073002C002800470045004E004D005300470020
311
00670065006E00640069006D007A00200031002900405D1E92F470045004E0054005200410043004F002C004A0050004E002C0030002C00747A2C00470045004E00540052004100540058002C00250073002C002800470045004E004D00530047002000670065006E00640069006D007A002000320029004FCF400F0013C01
311
C801A4019C01A401B800F800F00124011800A0013C014800A00124014C0108013001040138012C00A0013C01C801A4019C01A401B800A400B00124014C0108013001040138012C00A0012401B80190019401E000A400A400B00088008800B0008800B8008800A400F800F0012401B80190019401E000F8010158004BD1C011
311
40138015001480104010C013C00B001280140013800B000C000B0016000B0011C011401380150014801040150016000B0009401CC00B000A0011C011401380134014C011C0080019C019401B8019001A401B401E8008000CC00A4010159004BD1C01140138015001480104010C013C00B001280140013800B000C000B00164
311
00B0011C011401380150014801040150016000B0009401CC00B000A0011C011401380134014C011C0080019C019401B8019001A401B401E8008000D000A4010152004BD1C01140138015001480104010C013C00B001280140013800B000C000B0014800B0011C011401380150014801040150016000B0009401CC00B000A00
311
11C011401380134014C011C0080019C019401B8019001A401B401E8008000D800A40101C6034BD1C01140138015001480104010C013C00B001280140013800B000C000B003180CB0011C011401380150014801040150016000B0009401CC00B000A0011C011401380134014C011C0080019C019401B8019001A401B401E800
311
8000DC00A40101C6034BD1C01140138015001480104010C013C00B001280140013800B000C000B003180CB0011C011401380150014801040150016000B0009401CC00B000A0011C011401380134014C011C0080019C019401B8019001A401B401E8008000E000A40102AC8A0E664C51C01140138015001480104010C013C00
311
B001280140013800B000C000B002B2283998B0011C011401380150014801040150016000B0009401CC00B000A0011C011401380134014C011C0080019C019401B8019001A401B401E8008000C800C000A401028F893C684C51C01140138015001480104010C013C00B001280140013800B000C000B0023E24F1A0B0011C011
311
401380150014801040150016000B0009401CC00B000A0011C011401380134014C011C0080019C019401B8019001A401B401E8008000C800C400A401029F53B9704C11C01140138015001480104010C013C00B001280140013800B000C000B0027D4EE5C0B0011C011401380150014801040150016000B0009401CC00B000A0
311
011C011401380134014C011C0080019C019401B8019001A401B401E8008000C400A4010131004081663B9D931470045004E0054005200410043004F002C004A0050004E002C0030002C000598EE762C00470045004E00540052004100540058002C00250073002C002800470045004E004D00530047002000670065006E006
311
40069006D007A00200031003400290041A90C3CCC31CC30CC2BCC2E4C135470045004E0054005200410043004F002C004A0050004E002C0030002C00A430F330C730C330AF30B9302C00470045004E00540052004100540058002C00250073002C002800470045004E004D00530047002000670065006E00640069006D007A
311
00200031003500290041DD1EA90C3CCC31CC30CC2BCC2E4C136470045004E0054005200410043004F002C004A0050004E002C0030002C00747AA430F330C730C330AF30B9302C00470045004E00540052004100540058002C00250073002C002800470045004E004D00530047002000670065006E00640069006D007A00200
311
031003700290041798C3F0C2D8C01663B9D934470045004E0054005200410043004F002C004A0050004E002C0030002C00E630FC30B6300598EE762C00470045004E00540052004100540058002C00250073002C002800470045004E004D00530047002000670065006E00640069006D007A002000320032002900405D1E93
311
0470045004E0054005200410043004F002C004A0050004E002C0030002C00747A2C00470045004E00540052004100540058002C00250073002C002800470045004E004D00530047002000670065006E00640069006D007A002000310036002900409C1973E4531470045004E0054005200410043004F002C004A0050004E00
311
2C0030002C007065CF912C00470045004E00540052004100540058002C00250073002C002800470045004E004D00530047002000670065006E00640069006D007A0020003100390029004FCF400F0013C01C801A4019C01A401B800F800F00124011800A0013C014800A00124014C0108013001040138012C00A0013C01C80
311
1A4019C01A401B800A400B00124014C0108013001040138012C00A0012401B80190019401E000A400A400B00088008800B0008800B8008800A400F800F0012401B80190019401E000F801453D003C004F0072006900670069006E003E003C004900460028004F00520028004900530042004C0041004E004B0028004F00720
311
06900670069006E0029002C004900530042004C0041004E004B00280055007300650072004900740065006D00290029002C00220022002C0022002E00220029003E003C0055007300650072004900740065006D003E00C
161
              7153
310
7400000000000000C400000000000000310200800030C02000000300012AFA46307FFFFFFFA0606000600000000000006204010000618068181800180000000000001881004000186018080F02018000000000000000000000000000000020000000000000620401000061802000000000000062040100006180403F8080F0
310
2018000000000000000000000000000000020000000000000620401000061802000000000000062040100006180403FA1C88222812068220A83A1886A1E80A1C89A2A81A2483A28880000808000808200110A00010101010104002234000202000202000040A8000404000404000081D0000808000808000104A0001010001
310
01030020B4000202000202020041E80004040004001000865000080800080020010DA000101010101040021F40002020002020A01406800040400040414028750000808000808280113A000101000101050022B4000202000202080044A800040400040418008A5220000000000000001CA04FFFFFFFF030000000000000D1
310
027FFFFFFF80800000000000068813FFFFFFFC0400000000000034409FFFFFFFE040000000000001A204FFFFFFFF020000000000000D1027FFFFFFF81800000000000072813FFFFFFFC0C00000000000049409FFFFFFFE0600000000004028A04FFFFFFFF000000000000000D1027FFFFFFF80000000000000048813FFFFFF
310
FC0000000000000034409FFFFFFFE000000000000001A204FFFFFFFF000000000000000D1027FFFFFFF80000000000000068813FFFFFFFC0C00000000000028409FFFFFFFE8800000000000000072813FFFFFFFC0C00000000000034409FFFFFFFE060000000000001A204FFFFFFFF030000000000000D1027FFFFFFF81800
310
000000000068813FFFFFFFC0C00000000000034409FFFFFFFE060000000000001CA04FFFFFFFF03000000000000125027FFFFFFF818000000000100A2813FFFFFFFC0000000000000034409FFFFFFFE0000000000000012204FFFFFFFF000000000000000D1027FFFFFFF80000000000000068813FFFFFFFC0000000000000
310
034409FFFFFFFE060000000000001A204FFFFFFFF030000000000000A1027FFFFFFFA0E8800000021E000000810000002060000008200000020A00000083800000202890000001FFFFFFFE81202000283A2000000087800000204000000818000002080000008280000020E000000810000A068800000021E0000008A80000
310
01FFFFFFFF4C
340
0
340
0
340
0
340
0
340
23
340
23
 94
        0
  0
ACAD_PROXY_OBJECT
  5
220F
330
220E
100
AcDbProxyObject
 90
      499
 91
      544
 95
 11534369
 70
     0
162
              3576
311
410C400D800C000C0010338003000300040CD000C000C0010332003000300040CC400C000C0010235003000408C800D40104310032002E00350040CD800B800CC010333002E00320040CC400B800D8010430002E0038003000410C000B800D000C0010430002E0032003000414C000B800C400C000C0010530002E00300035
311
003000414C000B800C000C800D4010231003000408C400D4010232003000408C800D4010233003000408D000C0010235003000408D800C0010237003000408E000C001023900300040CD000C000C0010332003000300040CC400C000C0010235003000408C800D40104310032002E00350040CD800B800CC010333002E0032
311
0040CC400B800D8010330002E00380040CC000B800D0010330002E00320040CC000B800C4010430002E0030003500414C000B800C000C800D4010530002E0030003100320040CD000C000C0010332003000300040CC400C000C0010235003000408C800D40104310032002E00350040CD800B800CC010333002E00320040CC
311
400B800D8010330002E00380040CC000B800D0010330002E00320040CC000B800C4010430002E0030003500414C000B800C000C800D4010530002E0030003100320026
161
               505
310
74033333333333309400CCCCCCCCCCCC250200800030C0200C00030C0102FD419014050140501406A0D202812068220A88A1722088554000000000000785FA4C
 94
        0
  0
ACAD_PROXY_OBJECT
  5
2210
330
220E
100
AcDbProxyObject
 90
      499
 91
      559
 95
 11534369
 70
     0
162
                 0
161
               596
310
74033333333333309400CCCCCCCCCCCC250200800030C0200C00030C0102FA1C80A0280A0280A0280A0280A0280A0280A028220280A028090000000000000002006666666666661281485C
340
1E8A
 94
        0
  0
ACAD_PROXY_OBJECT
  5
2211
330
220E
100
AcDbProxyObject
 90
      499
 91
      546
 95
 11534369
 70
     0
162
                 0
161
               626
310
74033333333333309400CCCCCCCCCCCC250200800030C0200C00030C0102F98DBB66DDBB66DDB3F22E80A0280A0280A0280A0280A0280A0280A0280A0280A0280A0280A028092666666666667D4FCC
340
0
340
0
 94
        0
  0
ACAD_PROXY_OBJECT
  5
2212
330
220E
100
AcDbProxyObject
 90
      499
 91
      547
 95
 11534369
 70
     0
162
                 0
161
               315
310
74033333333333309400CCCCCCCCCCCC250200800030C0200C00030C0102FC0000000000003C2FCC
340
0
 94
        0
  0
ACAD_PROXY_OBJECT
  5
2213
330
220E
100
AcDbProxyObject
 90
      499
 91
      548
 95
 11534369
 70
     0
162
                 0
161
               493
310
74033333333333309400CCCCCCCCCCCC250200800030C0200C00030C0102FC182D4454FB21E93F00000000000002102800000000000008408020000C3004
340
1E82
340
1E83
 94
        0
  0
ACAD_PROXY_OBJECT
  5
2214
330
220E
100
AcDbProxyObject
 90
      499
 91
      549
 95
 11534369
 70
     0
162
             11098
311
411240150011401340102C1546A754C51C01140138015001480104010C013C00B001280140013800B000C000B0001663B9D8B0011C011401380150014801040150016000B0009401CC00B000A0011C011401380134014C011C0080019C019401B8019001DC019C008000C800C800C800A4029044E0041004D0045004083551
311
354931470045004E0054005200410043004F002C004A0050004E002C0030002C000D544D522C00470045004E00540052004100540058002C00250073002C002800470045004E004D00530047002000670065006E00640077006700200032003200360029004B0F40124011800A00124014C0108013001040138012C00A0014
311
001040148015000E8013801040134011400A400B001080130013C010C012C00E8013801040134011400B0014001040148015000E8013801040134011400A40242134010401500114014801240104013001025067EA8C4C51C01140138015001480104010C013C00B001280140013800B000C000B001419E6594B0011C01140
311
1380150014801040150016000B0009401CC00B000A0011C011401380134014C011C0080019C019401B8019001DC019C008000C800C800C400A402906460049004E0049005300480040B5538293AA41D1801240150015001240138011C0102A17BEF7AA904530049005A00450040ED4C290C2E8C2418F40154014C011401480
311
0C4024110C013C011001140104C1540D548B570F5F90D3D003C00550053004500520032003E003C00440049004D003E009054C004500560045004C004053002A40D440150016401027065CF914C51C01140138015001480104010C013C00B001280140013800B000C000B001C1973E44B0011C011401380150014801040150
311
016000B0009401CC00B000A0011C011401380134014C011C0080019C019401B8019001DC019C008000C800C800CC00A40290942004F004D005F0055004E00490054005300409614D353EA4150801040130017C00D401073D003C004900540045004D003E0041CF400F0012401500114013400F801073D003C0049005400450
311
04D003E0041CF400F0012401500114013400F801063D003C005100540059003E0041CF400F0012401500114013400F801073D003C004900540045004D003E004150801040130017C00D402AA90131009086500610009006500610009002D000A0043DCC01C401B4002401CC01C401B4002401CD7AE59784C3F0C320C3ACC02
311
801147300710063006D0009007300710063006D000900735EB965BB30F330C130E130FC30C830EB300A00445CC01C4019801D0002401CC01C4019801D0002401CD7AE59754C28CC3F0C320C02801107300710069006E0009007300710069006E000900735EB965A430F330C1300A004319C018401B00024019C018401B0002
311
402B0C3B4C3CCC028010B710074000900710074000900AF30A930FC30C8300A00451B001C40190017C01BC01E8002401B001C40190017C01BC01E8002402C9B73E46A8C3CCC2E4C02801096C0009006C000900EA30C330C830EB300A00435B401B0002401B401B00024037CC3A8C3A8C30CC320C3ACC028010A79006400090
311
0790064000900E430FC30C9300A0042D9801D00024019801D000240354C28CC3F0C320C028010A69006E00090069006E000900A430F330C1300A00425B4002401B400240384C3F0C320C3ACC028010E63006D00090063006D000900BB30F330C130E130FC30C830EB300A00435B401B4002401B401B40024037CC3A8C384C3
311
F0C320C3ACC028010A6C00620009006C0062000900DD30F330C9300A00429BC01E8002401BC01E8002402A8C3CCC2E4C02801086700090067000900B030E930E0300A00431B4019C002401B4019C0024037CC3A8C2C0C3A4C380C028010A620078000900620078000900C030FC30B9300A00404B400C
161
              5614
310
74033333333333309400CCCCCCCCCCCC250200800030C0200C00030C0102FA1480A0280A0280A0280D2020000000000000C20203202405014050147101901902A0000000000000F9010190120280A0280A3A80C80C82D0000000000000608080C80901405014051D405014050143A8000000000000284040640480A0280A02
310
8EA0280A0280A2140000000000001420203202405014050147501405014050FA0000000000000C1010190120280A0280A3A80A0280A0288D0000000000000788080C80901405014051D405014050144A8000000000000104040640480A0280A028120280A0280A032020000000000000C20203202405014050147901901913
310
A0000000000000F9010190120280A28811D0060000000000000920403800061800020200000000000000172000000000000005C8080C000000000000172000000000000005C8080A0300000000000006480000000000000192020280C00000000000019200000000000000648080A052020000000000001DA0000000000000
310
0768080A0280C0000000000001DA00000000000000768080C00000000000005A00000000000001E17E80A0200000000000000172000000000000005C8140800000000000010408030000C300BCFFFF4110340D024090140510429084410190A4064229014290A4290A408000000000000785F8000000000001E17E80C01000
310
06180403800061800666666666667E67E4D4CCCCCCCCCF49F8666666666667E67E4D4CCCCCCCCCF49F9353333333333B27E4D4CCCCCCCCCF49F9353333333333D27E4D4CCCCCCCCCF49F9353333333333D27E4D4CCCCCCCCCF49F935333333333212804069099024150E4410F4451240501A4D4CCCCCCCCC84A04010000618
310
04010000618040200006180148A20404FFFF3FFFCFFFF20280A028AA0280A0280A0280A0280A0280A0280A0280A0280A0280A0280A03203421024150E4410F4451244C
340
27
340
0
340
1E8C
340
1E8C
340
27
340
27
340
27
 94
        0
  0
ACAD_PROXY_OBJECT
  5
2215
330
220E
100
AcDbProxyObject
 90
      499
 91
      550
 95
 11534369
 70
     0
162
                 0
161
               255
310
74000000000000012400000000000000490201C00030C020000003000102EA3A
340
1EA8
 94
        0
  0
ACAD_PROXY_OBJECT
  5
2216
330
220E
100
AcDbProxyObject
 90
      499
 91
      594
 95
 11534369
 70
     0
162
                 0
161
               247
310
74000000000000014400000000000000510200000030002000000300012A04
340
1DA3
 94
        0
  0
ACAD_PROXY_OBJECT
  5
2217
330
220E
100
AcDbProxyObject
 90
      499
 91
      594
 95
 11534369
 70
     0
162
                 0
161
               247
310
740B81E85EB51B8CE3F2E07A17AD46E338FE00000030002000000300012A04
340
1EA6
 94
        0
  0
ACAD_PROXY_OBJECT
  5
2218
330
220E
100
AcDbProxyObject
 90
      499
 91
      594
 95
 11534369
 70
     0
162
                 0
161
               247
310
7400000000000000C400000000000000310200800030C0200C00030C012A04
340
1EA7
 94
        0
  0
ACAD_PROXY_OBJECT
  5
2219
330
220E
100
AcDbProxyObject
 90
      499
 91
      551
 95
 11534369
 70
     0
162
                 0
161
               279
310
74000000000000012400000000000000490201C00030C0201C00030C0102E03E080000
340
1EA0
 94
        0
  0
ACAD_PROXY_OBJECT
  5
221A
330
220E
100
AcDbProxyObject
 90
      499
 91
      593
 95
 11534369
 70
     0
162
                 0
161
               247
310
74000000000000014400000000000000510200000030002000000300012A04
340
1DA1
 94
        0
  0
ACAD_PROXY_OBJECT
  5
221B
330
220E
100
AcDbProxyObject
 90
      499
 91
      593
 95
 11534369
 70
     0
162
                 0
161
               247
310
740B81E85EB51B8CE3F2E07A17AD46E338FE00000030002000000300012A04
340
1E99
 94
        0
  0
ACAD_PROXY_OBJECT
  5
221C
330
220E
100
AcDbProxyObject
 90
      499
 91
      593
 95
 11534369
 70
     0
162
                 0
161
               247
310
7400000000000000C400000000000000310200800030C0201C00030C012A04
340
1E9A
 94
        0
  0
ACAD_PROXY_OBJECT
  5
221D
330
220E
100
AcDbProxyObject
 90
      499
 91
      552
 95
 11534369
 70
     0
162
                 0
161
               388
310
74033333333333309400CCCCCCCCCCCC250200800030C0200C00030C0102FD04E62115838B40C8147A14AE47E17A3E401C
 94
        0
  0
ACAD_PROXY_OBJECT
  5
221E
330
220E
100
AcDbProxyObject
 90
      499
 91
      554
 95
 11534369
 70
     0
162
             10032
311
4260FFE77FE33FE7FFE6BFDC3FE13FC8000C4018E3D003C0048006F006C0065003A006400690061003E003C0069006600280065007100750061006C00280048006F006C0065003A007400650072006D0069006E006100740069006F006E002C0022003000220029002C0022002000F16D5530200022002C002200200084FF9
311
EFF98FF99FF220029003E003C0069006600280065007100750061006C00280048006F006C0065003A007400650072006D0069006E006100740069006F006E002C0022003000220029002C0048006F006C0065003A00640065007000740068002C002200220029003E002C0020003C0048006F006C0065003A0063007400640
311
0690061003E002000563050308A306E30F16D553020003C0048006F006C0065003A0063007400640065007000740068003E004260FFE77FE33FE7FFE6BFDC3FE13FC8000C401EB3D003C0048006F006C0065003A006300740061006E0067006C0065003E0025002500640020002500250063003C0048006F006C0065003A00
311
630074006400690061003E002000BF76747A2C0020003C0069006600280065007100750061006C00280048006F006C0065003A007400610070007000650064002C0022003000220029002C00220025002500630022002C0048006F006C0065003A006E006F006D0069006E0061006C0020002200200078002000220029003E
311
003C0069006600280065007100750061006C00280048006F006C0065003A007400610070007000650064002C0022003000220029002C0048006F006C0065003A006400690061002C0048006F006C0065003A0070006900740063006800640065007300630029003E0020003C0069006600280065007100750061006C002800
311
48006F006C0065003A007400650072006D0069006E006100740069006F006E002C0022003000220029002C002200F16D5530200022002C0022002000220029003E003C0069006600280065007100750061006C00280048006F006C0065003A007400650072006D0069006E006100740069006F006E002C0022003000220029
311
002C0048006F006C0065003A00640065007000740068002C002200220029003E004260FFE77FE33FE7FFE6BFDC3FE13FC8000C401C53D003C0069006600280065007100750061006C00280048006F006C0065003A007400610070007000650064002C0022003000220029002C00220025002500630022002C0048006F006C0
311
065003A006E006F006D0069006E0061006C0020002200200078002000220029003E003C0069006600280065007100750061006C00280048006F006C0065003A007400610070007000650064002C0022003000220029002C0048006F006C0065003A006400690061002C0048006F006C0065003A00700069007400630068006
311
40065007300630029003E0020003C0069006600280065007100750061006C00280048006F006C0065003A007400650072006D0069006E006100740069006F006E002C0022003000220029002C002200F16D5530200022002C0022002000220029003E003C0069006600280065007100750061006C00280048006F006C00650
311
03A007400650072006D0069006E006100740069006F006E002C0022003000220029002C0048006F006C0065003A00640065007000740068002C002200220029003E004260FFE77FE33FE7FFE6BFDC3FE13FC8000C4010C3D003C0053005400440050003A0044004500530043003E0000
161
               585
310
74033333333333309400CCCCCCCCCCCC250200800030C0200C00030C0102FA1080A17480A15480A0480A0280EA4050340501407520280A0280A03A9014790140501D480A2B5515CA84CC
360
0
360
0
360
0
360
0
 94
        0
  0
ACAD_PROXY_OBJECT
  5
221F
330
220E
100
AcDbProxyObject
 90
      499
 91
      536
 95
 11534369
 70
     0
162
             16520
311
404C0010741004D005F0030005F0054003300901310041D040134017C00C4017C015000D402404C8010741004D005F0032005F00540037009013300421040134017C00CC017C01200114011002404D0010741004D005F0034005F00540032009013500421040134017C00D4017C01100124013402404D8010941004D005F00
311
36005F0054004500580054009013700421040134017C00DC017C010C0114013802404E0010941004D005F0038005F0048004100540043009013900411040134017C00E402408C80104010541004D005F003100300090234004100415040134017C00C400C402409240140010941004D005F00310032005F004E00500052009
311
0230004E00415040134017C00C0013802408C40138010541004D005F0031004E0090232004E00415040134017C00C8013802408CC0138010541004D005F0033004E0090234004E00415040134017C00D0013802408D40138010541004D005F0035004E0090236004E00415040134017C00D8013802408DC0138010541004D0
311
05F0037004E0090238004E00415040134017C00E0013802408E40138010541004D005F0039004E00903320041004E00419040134017C00C400C001380240CD001040138010641004D005F00310031004E00903490050004E00419040134017C00C400C80138024112C013001240138010541004D005F0043004C0090449004
311
E0046004F00421040134017C01400104014801140118024154801040120013400D4010641004D005F0042004F0052009045600490045005700421040134017C015801240114015C014C024190801140120012401380110010641004D005F0049004E00560090554005200410049004C00415040134017C015001480240D200
311
1240110010641004D005F00480049004400903560049005300419040134017C01580124014C024194001040148011001240134010941004D005F00500041005200440049004D00906520045004600440049004D00425040134017C01480114011801100124013402411080120013801580101390041508012001380158014C
311
010642004500480049004E00440041108013C014800C801055200410048004D00350041108013C014800CC01055200410048004D00350041108013C014800D401055200410048004D0035004110C0104013000C8010134004110C0104013000CC010134004110C0104013000D4010134004110C0104013000DC01013400411
311
0C011401380138010137004110C01140138015C010137004110C01300124013801044B004C0049004E004110C013C013800C4010130004110C013C013800C8010131004110C013C013800CC010132004110C013C013800D00101320041110011401500104010134004111001240104011C0101350041110012401300124010
311
13500411100124013401400106500041005200440049004D00411100124013401480106520045004600440049004D004111801140134013801013800415180114013401400138010138004151801140134014C01400102340041004151801140134014C0150010234004100415180114013401580138010132004151801140
311
13401580150010132004112001040150010C0101380041120012401100138010133004112001240110015C01013300411200130012401380101340041120013C010C01380101370041120013C010C015C010137004112401380118013C010449004E0046004F00411300114010401100101350041938017C01080120013801
311
58010239004E0041938017C010C013C013800C4010230004E0041938017C010C013C013800C8010231004E0041938017C010C013C013800CC010232004E0041938017C010C013C013800D0010232004E0041938017C010C011401380138010237004E0041938017C010C01140138015C010237004E0041938017C011001240
311
1300124010235004E0041938017C012001040150010C010238004E0041938017C0120012401100138010233004E0041938017C012001240110015C010233004E0041938017C0130011401040110010235004E0041938017C0138011C012401400103490050004E0041938017C01400120010401380103340041004E0041938
311
017C0150010C013C0138010230004E0041938017C0150012001300124010234004E0041938017C0150013001140138010230004E0041938017C01580140013001240103320041004E0041138011C01240140010249005000411400104013000C801055200410048004D003500411400104013000CC01055200410048004D00
311
3500411400104013000D401055200410048004D0035004114001200104013801023400410041140013C014C01380101350041148010C011C01380101370041148010C011C015C010137004114C01080148012C010134004114C0114010C0150010134004114C0164010800CC0101350041134014C016401340101350041150
311
010C013C0138010130004115001200130012401013400411500124015000C801055200410048004D003500411500124015000CC01055200410048004D003500411500124015000D401055200410048004D0035004115001300114013801013000415500148010401240130010554005200410049004C004115001480130012
311
401013400411500160015000C401013600411500160015000C801013600411500160015000CC01013600411500160015000D401013600411500160015000DC010136004115801240114015C0104560049004500570041158011401100120010348004900440041158011401100158010356004900530041158014001300124
311
01023200410041168012401680104010134004114C014001300124010232004100CC
161
              9181
310
74033333333333309400CCCCCCCCCCCC250200800030C0200C00030C0102FA06924038000618023C8840700006180264884028000618028C8840300006180229401800061802294018000618021F401000061802294020000618021F4008000618023347E8000618048240380006180265401800061802334040000618028C
310
8140380006180265407000061802654028000618026540300006180233401800061802334018000618023340100006180247402000061802334008000618023347E80006180482403800061802654018000618023340380006180264814008000618023284C020000618023285C038000618026484C008000618023285C7E8
310
0006180486C018000618023284C038000618023284C038000618026484C018000618023284C020000618023284AA9000000180007FFFFFFFD000000180007FFFFFFFD0040001860091D0040001860091D000000180007FFFFFFFD000000180007FFFFFFFD0040001860091D00E0001860099503C00018600A3500000018000
310
7FFFFFFFD000000180007FFFFFFFD000000180007FFFFFFFD000000180007FFFFFFFA07000000180007FFFFFFFA07000000180007FFFFFFFA07000000180007FFFFFFFA07000000180007FFFFFFFD000000180007FFFFFFFD000000180007FFFFFFFD000000180007FFFFFFFD000000180007FFFFFFFD000000180007FFFFF
310
FFD006000186007FFFFFFFD000000180007FFFFFFFD006000186008CD000000180007FFFFFFFD006000186008CD000000180007FFFFFFFA03000000180007FFFFFFFA07000000180007FFFFFFFA07000000180007FFFFFFFA03000000180007FFFFFFFD000000180007FFFFFFFD000000180007FFFFFFFD000000180007FFF
310
FFFFD000000180007FFFFFFFD000000180007FFFFFFFA07000000180007FFFFFFFA07000000180007FFFFFFFA07000000180007FFFFFFFA07000000180007FFFFFFFD000000180007FFFFFFFD000000180007FFFFFFFD000000180007FFFFFFFA03000000180007FFFFFFFA07000000180007FFFFFFFA07000000180007FFF
310
FFFFD000000180007FFFFFFFD000000180007FFFFFFFD000000180007FFFFFFFA07000000180007FFFFFFFA03000000180007FFFFFFFA07000000180007FFFFFFFD000000180007FFFFFFFD008000186007FFFFFFFD004000186007FFFFFFFD00E000186007FFFFFFFD000000180007FFFFFFFD006000186007FFFFFFFD000
310
000180007FFFFFFFD000000180007FFFFFFFD000000180007FFFFFFFA03000000180007FFFFFFFA030040001860091D004000186007FFFFFFFD000000180007FFFFFFFA07000000180007FFFFFFFA03002000186008CD0040001860091D000000180007FFFFFFFD000000180007FFFFFFFA07000000180007FFFFFFFD00000
310
0180007FFFFFFFA030040001860091D0040001860091D004000186008CD00E0001860099503C00018600A35000000180007FFFFFFFD000000180007FFFFFFFA05000000180007FFFFFFFA0500E000186007FFFFFFFD000000180007FFFFFFFA03002000186007FFFFFFFC8521C9920A9920491A3CA320E992088CA028CBFB2
310
0C8CA068CC
340
0
340
28
340
28
340
28
340
1E3E
340
28
340
28
340
28
340
1E3F
340
28
340
28
340
1E3F
340
1E40
340
28
340
28
340
28
340
28
340
1E3E
340
28
340
28
340
28
340
1E3F
340
28
340
28
340
1E3F
340
1E40
340
28
340
1E41
340
28
340
28
340
28
340
28
340
28
340
1E3E
340
28
340
28
340
28
340
27
340
27
340
27
340
27
340
27
340
27
340
27
340
27
340
27
340
1E42
340
27
340
27
340
27
340
27
340
27
340
27
340
27
340
27
340
27
340
27
340
27
340
27
340
27
340
28
340
27
340
27
340
27
340
27
340
1E43
340
27
340
27
340
1E42
340
27
340
27
340
28
340
27
340
27
340
27
340
27
340
27
340
1E42
340
27
340
27
340
27
340
1E43
340
27
340
27
340
27
340
27
340
27
340
27
340
27
340
27
340
27
340
27
340
27
340
27
340
27
340
27
340
1E42
340
27
340
27
340
27
340
27
340
28
340
27
340
27
340
27
340
27
340
27
340
27
340
27
340
27
340
27
340
27
340
27
340
27
340
27
340
27
340
27
340
27
340
1E3F
340
1E46
340
1E3F
 94
        0
  0
ACAD_PROXY_OBJECT
  5
2220
330
220E
100
AcDbProxyObject
 90
      499
 91
      537
 95
 11534369
 70
     0
162
               126
311
408F000F801023C003E00409A000DC00
161
               408
310
74033333333333309400CCCCCCCCCCCC250200800030C0200C00030C0102FA0800000000000024A0000000000000028807FFFC00
340
1E8D
340
0
340
0
340
1E8E
340
1E8F
340
1E90
340
1E91
340
1E92
340
1E93
340
0
340
0
340
0
 94
        0
  0
ACAD_PROXY_OBJECT
  5
2221
330
220E
100
AcDbProxyObject
 90
      499
 91
      555
 95
 11534369
 70
     0
162
             17962
311
41A9D7865A9B8C263FDF7FE13FD35470045004E0054005200410043004F002C004A0050004E002C0030002C00A75E196A6E3098FF7DFF84FF2C00470045004E00540052004100540058002C00250073002C002800470045004E004D00530047002000670065006E00640069006D007A00200033003000290043CF400F00110
311
01940198018401D401B001D0015001A401D001B0019400F80106747A83FF70FF8CFF9EFF99FF4D51C01140138015001480104010C013C00B001280140013800B000C000B001D1EA0FFDC3FE33FE7BFE67FCB0011C011401380150014801040150016000B0009401CC00B000A0011C011401380134014C011C0080019C01940
311
1B8019001A401B401E8008000CC00C400A4010F3D003C00440065006600610075006C0074005400690074006C0065003E0040A7D4EE5C130470045004E0054005200410043004F002C004A0050004E002C0030002C009F53B9702C00470045004E00540052004100540058002C00250073002C002800470045004E004D0053
311
0047002000670065006E00640069006D007A00200031002900405D1E92F470045004E0054005200410043004F002C004A0050004E002C0030002C00747A2C00470045004E00540052004100540058002C00250073002C002800470045004E004D00530047002000670065006E00640069006D007A002000320029004FCF400
311
F0013C01C801A4019C01A401B800F800F00124011800A0013C014800A00124014C0108013001040138012C00A0013C01C801A4019C01A401B800A400B00124014C0108013001040138012C00A0012401B80190019401E000A400A400B00088008800B0008800B8008800A400F800F0012401B80190019401E000F801015800
311
4BD1C01140138015001480104010C013C00B001280140013800B000C000B0016000B0011C011401380150014801040150016000B0009401CC00B000A0011C011401380134014C011C0080019C019401B8019001A401B401E8008000CC00A4010159004BD1C01140138015001480104010C013C00B001280140013800B000C0
311
00B0016400B0011C011401380150014801040150016000B0009401CC00B000A0011C011401380134014C011C0080019C019401B8019001A401B401E8008000D000A4010152004BD1C01140138015001480104010C013C00B001280140013800B000C000B0014800B0011C011401380150014801040150016000B0009401CC0
311
0B000A0011C011401380134014C011C0080019C019401B8019001A401B401E8008000D800A40101C6034BD1C01140138015001480104010C013C00B001280140013800B000C000B003180CB0011C011401380150014801040150016000B0009401CC00B000A0011C011401380134014C011C0080019C019401B8019001A401
311
B401E8008000DC00A40101C6034BD1C01140138015001480104010C013C00B001280140013800B000C000B003180CB0011C011401380150014801040150016000B0009401CC00B000A0011C011401380134014C011C0080019C019401B8019001A401B401E8008000E000A40102AC8A0E664C51C0114013801500148010401
311
0C013C00B001280140013800B000C000B002B2283998B0011C011401380150014801040150016000B0009401CC00B000A0011C011401380134014C011C0080019C019401B8019001A401B401E8008000C800C000A401028F893C684C51C01140138015001480104010C013C00B001280140013800B000C000B0023E24F1A0B
311
0011C011401380150014801040150016000B0009401CC00B000A0011C011401380134014C011C0080019C019401B8019001A401B401E8008000C800C400A401029F53B9704C11C01140138015001480104010C013C00B001280140013800B000C000B0027D4EE5C0B0011C011401380150014801040150016000B0009401CC
311
00B000A0011C011401380134014C011C0080019C019401B8019001A401B401E8008000C400A4010131004081663B9D931470045004E0054005200410043004F002C004A0050004E002C0030002C000598EE762C00470045004E00540052004100540058002C00250073002C002800470045004E004D0053004700200067006
311
5006E00640069006D007A00200031003400290041DCBFE77FE0FFE7BFDBFFDE3FDF7FD36470045004E0054005200410043004F002C004A0050004E002C0030002C0072FF9DFF83FF9EFF6FFF78FF7DFF2C00470045004E00540052004100540058002C00250073002C002800470045004E004D00530047002000670065006E
311
00640069006D007A002000310035002900421D1E9CBFE77FE0FFE7BFDBFFDE3FDF7FD37470045004E0054005200410043004F002C004A0050004E002C0030002C00747A72FF9DFF83FF9EFF6FFF78FF7DFF2C00470045004E00540052004100540058002C00250073002C002800470045004E004D005300470020006700650
311
06E00640069006D007A002000310037002900405D1E930470045004E0054005200410043004F002C004A0050004E002C0030002C00747A2C00470045004E00540052004100540058002C00250073002C002800470045004E004D00530047002000670065006E00640069006D007A002000310036002900409C1973E4531470
311
045004E0054005200410043004F002C004A0050004E002C0030002C007065CF912C00470045004E00540052004100540058002C00250073002C002800470045004E004D00530047002000670065006E00640069006D007A00200031003900290041798C3F0C2D8C01663B9D934470045004E0054005200410043004F002C00
311
4A0050004E002C0030002C00E630FC30B6300598EE762C00470045004E00540052004100540058002C00250073002C002800470045004E004D00530047002000670065006E00640069006D007A0020003200320029004FCF400F0013C01C801A4019C01A401B800F800F00124011800A0013C014800A00124014C010801300
311
1040138012C00A0013C01C801A4019C01A401B800A400B00124014C0108013001040138012C00A0012401B80190019401E000A400A400B00088008800B0008800B8008800A400F800F0012401B80190019401E000F800C
161
              7153
310
74033333333333309400CCCCCCCCCCCC250200800030C0200C00030C0102FA46007FFFFFFFA0606000619999999999984A04010000618068181800186666666666661281004000186018080F020180000000000000000000000000000000219999999999984A040100006180219999999999984A040100006180402F8080F0
310
00180000000000000000000000000000000219999999999984A040100006180219999999999984A0401000061804027A1C88222812068220A83A1886A1E80A1C89A2A81A2483A28880000808000808280110A00010101010104002234000202000202000040A8000404000404000081D0000808000808000104A0001010001
310
01030020B4000202000202020041E80004040004001000865000080800080020010DA000101010101050021F40002020002020A00406800040400040410008750000808000808280113A000101000101040022540002020002020C00452800040400040414008AD220000000000000001CA04FFFFFFFF030000000000000D1
310
027FFFFFFF80800000000000068813FFFFFFFC0400000000000034409FFFFFFFE040000000000001A204FFFFFFFF020000000000000D1027FFFFFFF81800000000000072813FFFFFFFC0C00000000000049409FFFFFFFE0600000000004028A04FFFFFFFF000000000000000D1027FFFFFFF80000000000000048813FFFFFF
310
FC0000000000000034409FFFFFFFE000000000000001A204FFFFFFFF000000000000000D1027FFFFFFF81800000000000050813FFFFFFFC0000000000000034409FFFFFFFE8800000000000000072813FFFFFFFC0C00000000000034409FFFFFFFE060000000000001A204FFFFFFFF030000000000000D1027FFFFFFF81800
310
000000000068813FFFFFFFC0C00000000000034409FFFFFFFE060000000000001CA04FFFFFFFF03000000000000125027FFFFFFF818000000000100A2813FFFFFFFC0000000000000034409FFFFFFFE0000000000000012204FFFFFFFF000000000000000D1027FFFFFFF80000000000000068813FFFFFFFC0C00000000000
310
034409FFFFFFFE0600000000000014204FFFFFFFF000000000000000D1027FFFFFFFA0E8800000021E000000810000002060000008200000020A00000083800000202890000001FFFFFFFE81202000283A2000000087800000204000000818000002080000008280000020E0000008100002068800000021E0000008A80000
310
01FFFFFFFF4C
340
0
340
0
340
0
340
0
340
0
340
0
 94
        0
  0
ACAD_PROXY_OBJECT
  5
2222
330
220E
100
AcDbProxyObject
 90
      499
 91
      539
 95
 11534369
 70
     0
162
              8400
311
40D280124014C0296943003A005C00550073006500720073005C005000750062006C00690063005C0044006F00630075006D0065006E00740073005C004100750074006F006400650073006B005C004100750074006F0043004100440020004D0065006300680061006E006900630061006C00200032003000310039005C00
311
41006300610064006D005C00470065006E005C004400770067005C005200650076006900730069006F006E006C006900730074005C00540053004B005F00740072005F007200650076006900730069006F006E006C0069007300740043D0400C0008000A000E000D000C401E000C400C400E000E401B401B400A401064A004
311
90053005F00410030004390400CC008000A000C800E400DC01E000D000C800C001B401B400A401064A00490053005F004100330043D0400D00148008000A000C800E400DC01E000C800C400C001B401B400A401074A00490053005F004100340052004390400C4008000A000D400E400D001E000E000D000C401B401B400A4
311
01064A00490053005F00410031004390400C8008000A000D000C800C001E000D400E400D001B401B400A401064A00490053005F004100320043D0400D00130008000A000C800C400C001E000C800E400DC01B401B400A401074A00490053005F00410034004C00425280124014C008001A221326011AC800104010A4A00490
311
053005F005400490054004C0045004100425280124014C008001A221326011AC800108010A4A00490053005F005400490054004C00450042004259571D1AE63FDF7FE13FD7C01500148017C01134A00490053005F00540052005F005200650076006900730069006F006E006C0069007300740044D50014C012C017C01D001
311
C8017C01C8019401D801A401CC01A401BC01B801B001A401CC01D0016943003A005C00550073006500720073005C005000750062006C00690063005C0044006F00630075006D0065006E00740073005C004100750074006F006400650073006B005C004100750074006F0043004100440020004D0065006300680061006E00
311
6900630061006C00200032003000310039005C0041006300610064006D005C00470065006E005C004400770067005C005200650076006900730069006F006E006C006900730074005C00540053004B005F00740072005F007200650076006900730069006F006E006C006900730074004259571D1AE63FDF7FE13FD7C01080
311
130017C01134A00490053005F0042004C005F005200650076006900730069006F006E006C006900730074004259571D1AE63FDF7FE13FD7C01500130017C01134A00490053005F0054004C005F005200650076006900730069006F006E006C006900730074004259571D1AE63FDF7FE13FD7C01080148017C01134A0049005
311
3005F00420052005F005200650076006900730069006F006E006C00690073007400A20
161
               498
310
74033333333333309400CCCCCCCCCCCC250200800030C0200C00030C0102FB2E8320482A05400000000002015900000000000000324000000000000008900C
 94
        0
  0
ACAD_PROXY_OBJECT
  5
2223
330
220E
100
AcDbProxyObject
 90
      499
 91
      553
 95
 11534369
 70
     0
162
                 0
161
               249
310
74033333333333309400CCCCCCCCCCCC250200800030C0200C00030C0102FC4C
340
0
 94
        0
  0
ACAD_PROXY_OBJECT
  5
2224
330
220E
100
AcDbProxyObject
 90
      499
 91
      556
 95
 11534369
 70
     0
162
                26
311
404E800C
161
               305
310
74033333333333309400CCCCCCCCCCCC250200800030C0200C00030C0102FA17520280A035554C
 94
        0
  0
ACAD_PROXY_OBJECT
  5
2225
330
220E
100
AcDbProxyObject
 90
      499
 91
      557
 95
 11534369
 70
     0
162
              1002
311
4F8F400F0014C015001480154010C015000E8010C013C01340140017C013801040134011400F8008000F0014C015001480154010C015000E8015801240114015C017C013801040134011400F80080034CC394C3F0C08000A000F0014C015001480154010C015000E8014C0158017C014C010C01040130011400F800A400C
161
               332
310
74000000000000012400CCCCCCCCCCCC250201C00030C0200C00030C0102FA028100000000000006881C
340
1E89
 94
        0
  0
ACAD_PROXY_OBJECT
  5
2226
330
220E
100
AcDbProxyObject
 90
      499
 91
      558
 95
 11534369
 70
     0
162
                 0
161
               249
310
74033333333333309400CCCCCCCCCCCC250200800030C0200C00030C0102FBCC
 94
        0
  0
FIELD
  5
1E5D
102
{ACAD_REACTORS
330
1E5C
102
}
330
1E5C
100
AcDbField
  1
_text
  2
%<\_FldIdx 0>%-%<\_FldIdx 1>%
 90
        2
360
1E5E
360
1E60
 97
        0
 91
       63
 92
        0
 94
        9
 95
        2
 96
        0
300

 93
        0
  7
ACFD_FIELD_VALUE
 93
        3
 90
        0
 94
        0
300

302

304
ACVALUE_END
301

 98
        0
  0
FIELD
  5
1E9D
102
{ACAD_REACTORS
330
1E9C
102
}
330
1E9C
100
AcDbField
  1
_text
  2
%<\_FldIdx 0>%-%<\_FldIdx 1>%
 90
        2
360
1E9E
360
1E9F
 97
        0
 91
       63
 92
        0
 94
        9
 95
        2
 96
        0
300

 93
        0
  7
ACFD_FIELD_VALUE
 93
        3
 90
        0
 94
        0
300

302

304
ACVALUE_END
301

 98
        0
  0
FIELD
  5
1EA3
102
{ACAD_REACTORS
330
1EA2
102
}
330
1EA2
100
AcDbField
  1
_text
  2
%<\_FldIdx 0>%-%<\_FldIdx 1>%
 90
        2
360
1EA4
360
1EA5
 97
        0
 91
       63
 92
        0
 94
        9
 95
        2
 96
        0
300

 93
        0
  7
ACFD_FIELD_VALUE
 93
        3
 90
        0
 94
        0
300

302

304
ACVALUE_END
301

 98
        0
  0
ACAD_PROXY_OBJECT
  5
1E65
330
0
100
AcDbProxyObject
 90
      499
 91
      535
 95
 11534369
 70
     0
162
              5180
311
42318C3CCC35CC3B0C3F0C320C08000C4003A013D002500250063003C0048006F006C0065003A00630074006400690061003E002000780020003C0048006F006C0065003A0063007400640065007000740068003E00200055005C0050003C0069006600280065007100750061006C00280048006F006C0065003A007400610
311
070007000650064002C0022003000220029002C00220025002500630022002C0048006F006C0065003A006E006F006D0069006E0061006C0020002200200078002000220029003E003C0069006600280065007100750061006C00280048006F006C0065003A007400610070007000650064002C0022003000220029002C004
311
8006F006C0065003A006400690061002C0048006F006C0065003A0070006900740063006800640065007300630029003E003C0069006600280065007100750061006C00280048006F006C0065003A007400610070007000650064002C0022003100220029002C00220020007800200022002C002200220029003E003C00690
311
06600280065007100750061006C00280048006F006C0065003A007400610070007000650064002C0022003100220029002C0048006F006C0065003A00740061007000640065007000740068002C002200220029003E0020003C0069006600280065007100750061006C00280048006F006C0065003A007400650072006D006
311
9006E006100740069006F006E002C0022003000220029002C00220020002F00200022002C002200220029003E003C0069006600280065007100750061006C00280048006F006C0065003A007400650072006D0069006E006100740069006F006E002C0022003000220029002C0048006F006C0065003A00640065007000740
311
068002C002200220029003E00C
161
                29
310
7420101C
 94
        0
  0
ACAD_PROXY_OBJECT
  5
1E66
330
0
100
AcDbProxyObject
 90
      499
 91
      535
 95
 11534369
 70
     0
162
              5196
311
42318C3CCC35CC3B0C3F0C320C08000C4003B013D002500250063003C0048006F006C0065003A00630074006400690061003E002000780020003C0048006F006C0065003A006300740061006E0067006C0065003E002500250064005C0050003C0069006600280065007100750061006C00280048006F006C0065003A00740
311
0610070007000650064002C0022003000220029002C00220025002500630022002C0048006F006C0065003A006E006F006D0069006E0061006C0020002200200078002000220029003E003C0069006600280065007100750061006C00280048006F006C0065003A007400610070007000650064002C0022003000220029002
311
C0048006F006C0065003A006400690061002C0048006F006C0065003A0070006900740063006800640065007300630029003E003C0069006600280065007100750061006C00280048006F006C0065003A007400610070007000650064002C0022003100220029002C00220020007800200022002C002200220029003E003C0
311
069006600280065007100750061006C00280048006F006C0065003A007400610070007000650064002C0022003100220029002C0048006F006C0065003A00740061007000640065007000740068002C002200220029003E0020003C0069006600280065007100750061006C00280048006F006C0065003A007400650072006
311
D0069006E006100740069006F006E002C0022003000220029002C00220020002F00200022002C002200220029003E003C0069006600280065007100750061006C00280048006F006C0065003A007400650072006D0069006E006100740069006F006E002C0022003000220029002C0048006F006C0065003A0064006500700
311
0740068002C002200220029003E00C
161
                29
310
7420101C
 94
        0
  0
ACAD_PROXY_OBJECT
  5
1E64
330
0
100
AcDbProxyObject
 90
      499
 91
      535
 95
 11534369
 70
     0
162
              4604
311
42318C3CCC35CC3B0C3F0C320C08000C40016013D003C0069006600280065007100750061006C00280048006F006C0065003A007400610070007000650064002C0022003000220029002C00220025002500630022002C0048006F006C0065003A006E006F006D0069006E0061006C0020002200200078002000220029003E0
311
03C0069006600280065007100750061006C00280048006F006C0065003A007400610070007000650064002C0022003000220029002C0048006F006C0065003A006400690061002C0048006F006C0065003A0070006900740063006800640065007300630029003E003C0069006600280065007100750061006C00280048006
311
F006C0065003A007400610070007000650064002C0022003100220029002C00220020007800200022002C002200220029003E003C0069006600280065007100750061006C00280048006F006C0065003A007400610070007000650064002C0022003100220029002C0048006F006C0065003A0074006100700064006500700
311
0740068002C002200220029003E0020003C0069006600280065007100750061006C00280048006F006C0065003A007400650072006D0069006E006100740069006F006E002C0022003000220029002C00220020002F00200022002C002200220029003E003C0069006600280065007100750061006C00280048006F006C006
311
5003A007400650072006D0069006E006100740069006F006E002C0022003000220029002C0048006F006C0065003A00640065007000740068002C002200220029003E00C
161
                29
310
7420101C
 94
        0
  0
ACAD_PROXY_OBJECT
  5
1E67
330
0
100
AcDbProxyObject
 90
      499
 91
      535
 95
 11534369
 70
     0
162
              4876
311
42318C3CCC35CC3B0C3F0C320C08000C40027013D002500250063003C0048006F006C0065003A00630074006400690061003E005C0050003C0069006600280065007100750061006C00280048006F006C0065003A007400610070007000650064002C0022003000220029002C00220025002500630022002C0048006F006C0
311
065003A006E006F006D0069006E0061006C0020002200200078002000220029003E003C0069006600280065007100750061006C00280048006F006C0065003A007400610070007000650064002C0022003000220029002C0048006F006C0065003A006400690061002C0048006F006C0065003A00700069007400630068006
311
40065007300630029003E003C0069006600280065007100750061006C00280048006F006C0065003A007400610070007000650064002C0022003100220029002C00220020007800200022002C002200220029003E003C0069006600280065007100750061006C00280048006F006C0065003A0074006100700070006500640
311
02C0022003100220029002C0048006F006C0065003A00740061007000640065007000740068002C002200220029003E0020003C0069006600280065007100750061006C00280048006F006C0065003A007400650072006D0069006E006100740069006F006E002C0022003000220029002C00220020002F00200022002C002
311
200220029003E003C0069006600280065007100750061006C00280048006F006C0065003A007400650072006D0069006E006100740069006F006E002C0022003000220029002C0048006F006C0065003A00640065007000740068002C002200220029003E00C
161
                29
310
7420101C
 94
        0
  0
ACAD_PROXY_OBJECT
  5
1E62
330
0
100
AcDbProxyObject
 90
      499
 91
      535
 95
 11534369
 70
     0
162
               516
311
42318C3CCC35CC3B0C3F0C320C08000C801173D003C0053005400440050003A0044004500530043003E0020003C0053005400440050003A005300540044003E00C
161
                29
310
74201014
 94
        0
  0
ACAD_PROXY_OBJECT
  5
1E61
330
0
100
AcDbProxyObject
 90
      499
 91
      535
 95
 11534369
 70
     0
162
               340
311
42318C3CCC35CC3B0C3F0C320C08000C4010C3D003C0053005400440050003A0044004500530043003E00C
161
                29
310
7420101C
 94
        0
  0
ACAD_PROXY_OBJECT
  5
1E63
330
0
100
AcDbProxyObject
 90
      499
 91
      535
 95
 11534369
 70
     0
162
               324
311
42318C3CCC35CC3B0C3F0C320C08000CC010B3D003C0053005400440050003A005300540044003E00C
161
                29
310
74201014
 94
        0
  0
FIELD
  5
1E5E
330
1E5D
100
AcDbField
  1
AcVar
  2
\AcVar ViewSectionStartId
 90
        0
 97
        0
 91
       63
 92
        0
 94
       43
 95
        2
 96
        0
300

 93
        1
  6
Variable
 93
        2
 90
        4
  1
ViewSectionStartId
 94
        0
300

302

304
ACVALUE_END
  7
ACFD_FIELD_VALUE
 93
        1
 90
        0
 94
        0
300

302

304
ACVALUE_END
301
----
 98
        4
  0
FIELD
  5
1E60
330
1E5D
100
AcDbField
  1
AcVar
  2
\AcVar ViewSectionEndId
 90
        0
 97
        0
 91
       63
 92
        0
 94
       43
 95
        2
 96
        0
300

 93
        1
  6
Variable
 93
        2
 90
        4
  1
ViewSectionEndId
 94
        0
300

302

304
ACVALUE_END
  7
ACFD_FIELD_VALUE
 93
        1
 90
        0
 94
        0
300

302

304
ACVALUE_END
301
----
 98
        4
  0
FIELD
  5
1E9E
330
1E9D
100
AcDbField
  1
AcVar
  2
\AcVar ViewSectionStartId
 90
        0
 97
        0
 91
       63
 92
        0
 94
       43
 95
        2
 96
        0
300

 93
        1
  6
Variable
 93
        2
 90
        4
  1
ViewSectionStartId
 94
        0
300

302

304
ACVALUE_END
  7
ACFD_FIELD_VALUE
 93
        1
 90
        0
 94
        0
300

302

304
ACVALUE_END
301
----
 98
        4
  0
FIELD
  5
1E9F
330
1E9D
100
AcDbField
  1
AcVar
  2
\AcVar ViewSectionEndId
 90
        0
 97
        0
 91
       63
 92
        0
 94
       43
 95
        2
 96
        0
300

 93
        1
  6
Variable
 93
        2
 90
        4
  1
ViewSectionEndId
 94
        0
300

302

304
ACVALUE_END
  7
ACFD_FIELD_VALUE
 93
        1
 90
        0
 94
        0
300

302

304
ACVALUE_END
301
----
 98
        4
  0
FIELD
  5
1EA4
330
1EA3
100
AcDbField
  1
AcVar
  2
\AcVar ViewSectionStartId
 90
        0
 97
        0
 91
       63
 92
        0
 94
       43
 95
        2
 96
        0
300

 93
        1
  6
Variable
 93
        2
 90
        4
  1
ViewSectionStartId
 94
        0
300

302

304
ACVALUE_END
  7
ACFD_FIELD_VALUE
 93
        1
 90
        0
 94
        0
300

302

304
ACVALUE_END
301
----
 98
        4
  0
FIELD
  5
1EA5
330
1EA3
100
AcDbField
  1
AcVar
  2
\AcVar ViewSectionEndId
 90
        0
 97
        0
 91
       63
 92
        0
 94
       43
 95
        2
 96
        0
300

 93
        1
  6
Variable
 93
        2
 90
        4
  1
ViewSectionEndId
 94
        0
300

302

304
ACVALUE_END
  7
ACFD_FIELD_VALUE
 93
        1
 90
        0
 94
        0
300

302

304
ACVALUE_END
301
----
 98
        4
  0
ENDSEC
  0
SECTION
  2
ACDSDATA
 70
     2
 71
     8
  0
ACDSSCHEMA
 90
        0
  1
AcDb_Thumbnail_Schema
  2
AcDbDs::ID
280
    10
 91
        8
  2
Thumbnail_Data
280
    15
 91
        0
101
ACDSRECORD
 95
        0
 90
        1
  2
AcDbDs::TreatedAsObjectData
280
     1
291
     1
101
ACDSRECORD
 95
        0
 90
        2
  2
AcDbDs::Legacy
280
     1
291
     1
101
ACDSRECORD
  1
AcDbDs::ID
 90
        3
  2
AcDs:Indexable
280
     1
291
     1
101
ACDSRECORD
  1
AcDbDs::ID
 90
        4
  2
AcDbDs::HandleAttribute
280
     7
282
     1
  0
ACDSSCHEMA
 90
        1
  1
AcDbDs::TreatedAsObjectDataSchema
  2
AcDbDs::TreatedAsObjectData
280
     1
 91
        0
  0
ACDSSCHEMA
 90
        2
  1
AcDbDs::LegacySchema
  2
AcDbDs::Legacy
280
     1
 91
        0
  0
ACDSSCHEMA
 90
        3
  1
AcDbDs::IndexedPropertySchema
  2
AcDs:Indexable
280
     1
 91
        0
  0
ACDSSCHEMA
 90
        4
  1
AcDbDs::HandleAttributeSchema
  2
AcDbDs::HandleAttribute
280
     7
 91
        1
284
     1
  0
ACDSRECORD
 90
        0
  2
AcDbDs::ID
280
    10
320
149F
  2
Thumbnail_Data
280
    15
 94
     1274
310
89504E470D0A1A0A0000000D4948445200000100000000730803000000406D2C8F00000300504C5445000000FFFFFF0000000000000000000000000000000000000000000000000000000000330000660000990000CC0000FF0033000033330033660033990033CC0033FF0066000066330066660066990066CC0066FF0099
310
000099330099660099990099CC0099FF00CC0000CC3300CC6600CC9900CCCC00CCFF00FF0000FF3300FF6600FF9900FFCC00FFFF3300003300333300663300993300CC3300FF3333003333333333663333993333CC3333FF3366003366333366663366993366CC3366FF3399003399333399663399993399CC3399FF33CC00
310
33CC3333CC6633CC9933CCCC33CCFF33FF0033FF3333FF6633FF9933FFCC33FFFF6600006600336600666600996600CC6600FF6633006633336633666633996633CC6633FF6666006666336666666666996666CC6666FF6699006699336699666699996699CC6699FF66CC0066CC3366CC6666CC9966CCCC66CCFF66FF0066
310
FF3366FF6666FF9966FFCC66FFFF9900009900339900669900999900CC9900FF9933009933339933669933999933CC9933FF9966009966339966669966999966CC9966FF9999009999339999669999999999CC9999FF99CC0099CC3399CC6699CC9999CCCC99CCFF99FF0099FF3399FF6699FF9999FFCC99FFFFCC0000CC00
310
33CC0066CC0099CC00CCCC00FFCC3300CC3333CC3366CC3399CC33CCCC33FFCC6600CC6633CC6666CC6699CC66CCCC66FFCC9900CC9933CC9966CC9999CC99CCCC99FFCCCC00CCCC33CCCC66CCCC99CCCCCCCCCCFFCCFF00CCFF33CCFF66CCFF99CCFFCCCCFFFFFF0000FF0033FF0066FF0099FF00CCFF00FFFF3300FF3333
310
FF3366FF3399FF33CCFF33FFFF6600FF6633FF6666FF6699FF66CCFF66FFFF9900FF9933FF9966FF9999FF99CCFF99FFFFCC00FFCC33FFCC66FFCC99FFCCCCFFCCFFFFFF00FFFF33FFFF66FFFF99FFFFCCFFFFFF0000000D0D0D1A1A1A2828283535354343435050505D5D5D6B6B6B787878868686939393A1A1A1AEAEAEBB
310
BBBBC9C9C9D6D6D6E4E4E4F1F1F1FFFFFF0000000000000000000000000000000000000000000000000000000000003AE5ACE90000016F4944415478DAED9BCB0E83300C04FDFFFFEB7BA17278268622F58077A620154520ED623B09013300000000000000000000000000B8C67DDADB361DCDC7F1C7ED7BB4DFA33D4E8E0B
310
BC59FFBC85011E92362D1BE9F13B9F6DFEF61888FB7A36C06E18F07EF92DB08F773332C2F606F8C9007B7D0A7C052E61704C012B9E02EBCDEF4440AB84DB44E8844FC18EA1A028000000000000801F27C7D2E25DF9E98063407B5A880118A06E80CB1A205D07D755014503FC08294011A41BC400D91A201D01EA6BC5AC9503
310
00000080EA48F8796B9DF9603A5BAA6D40FE3AB88001E308D078623A96D7BE2D2A5E0BBCF399889601A33C778D6583B1383F4680D74D016D03C6DDA04A2FA05E04936E50220472750AAB06A9401758364B434061D94CDB80CB0257DE00BBA1BFB80176673E5CDE00EBBE222363808DE7435E3C0B520336FA8B0F03FB223506
310
C2571150FD159AB4082EF92F5104F304D135C0AC74002C7D9C3F1A27D70983E7AD0000000000F03F3E075BB12FE6A5225F0000000049454E44AE426082AE426082F90000000049454E44AE426082F1FF8C02BC382B6CB011588740287129B45E04FBD3D4799B217301629527FF811F7EF77E0C587194080000000049454E44
310
AE426082
  0
ENDSEC
  0
EOF
