  0
SECTION
  2
HEADER
  9
$ACADVER
  1
AC1024
  9
$ACADMAINTVER
 70
   226
  9
$DWGCODEPAGE
  3
ANSI_932
  9
$LASTSAVEDBY
  1
t-kanatani
  9
$INSBASE
 10
0.0
 20
0.0
 30
0.0
  9
$EXTMIN
 10
-1058.7056611581
 20
-3.370163425687735
 30
0.0
  9
$EXTMAX
 10
-16.70601757740292
 20
1427.637130944897
 30
0.0
  9
$LIMMIN
 10
0.0
 20
0.0
  9
$LIMMAX
 10
12.0
 20
9.0
  9
$ORTHOMODE
 70
     0
  9
$REGENMODE
 70
     1
  9
$FILLMODE
 70
     1
  9
$QTEXTMODE
 70
     0
  9
$MIRRTEXT
 70
     1
  9
$LTSCALE
 40
1.0
  9
$ATTMODE
 70
     1
  9
$TEXTSIZE
 40
0.2
  9
$TRACEWID
 40
0.05
  9
$TEXTSTYLE
  7
Standard
  9
$CLAYER
  8
0
  9
$CELTYPE
  6
ByLayer
  9
$CECOLOR
 62
   256
  9
$CELTSCALE
 40
1.0
  9
$DISPSILH
 70
     0
  9
$DIMSCALE
 40
1.0
  9
$DIMASZ
 40
0.18
  9
$DIMEXO
 40
0.0625
  9
$DIMDLI
 40
0.38
  9
$DIMRND
 40
0.0
  9
$DIMDLE
 40
0.0
  9
$DIMEXE
 40
0.18
  9
$DIMTP
 40
0.0
  9
$DIMTM
 40
0.0
  9
$DIMTXT
 40
0.18
  9
$DIMCEN
 40
0.09
  9
$DIMTSZ
 40
0.0
  9
$DIMTOL
 70
     0
  9
$DIMLIM
 70
     0
  9
$DIMTIH
 70
     1
  9
$DIMTOH
 70
     1
  9
$DIMSE1
 70
     0
  9
$DIMSE2
 70
     0
  9
$DIMTAD
 70
     0
  9
$DIMZIN
 70
     0
  9
$DIMBLK
  1

  9
$DIMASO
 70
     1
  9
$DIMSHO
 70
     1
  9
$DIMPOST
  1

  9
$DIMAPOST
  1

  9
$DIMALT
 70
     0
  9
$DIMALTD
 70
     2
  9
$DIMALTF
 40
25.4
  9
$DIMLFAC
 40
1.0
  9
$DIMTOFL
 70
     0
  9
$DIMTVP
 40
0.0
  9
$DIMTIX
 70
     0
  9
$DIMSOXD
 70
     0
  9
$DIMSAH
 70
     0
  9
$DIMBLK1
  1

  9
$DIMBLK2
  1

  9
$DIMSTYLE
  2
Standard
  9
$DIMCLRD
 70
     0
  9
$DIMCLRE
 70
     0
  9
$DIMCLRT
 70
     0
  9
$DIMTFAC
 40
1.0
  9
$DIMGAP
 40
0.09
  9
$DIMJUST
 70
     0
  9
$DIMSD1
 70
     0
  9
$DIMSD2
 70
     0
  9
$DIMTOLJ
 70
     1
  9
$DIMTZIN
 70
     0
  9
$DIMALTZ
 70
     0
  9
$DIMALTTZ
 70
     0
  9
$DIMUPT
 70
     0
  9
$DIMDEC
 70
     4
  9
$DIMTDEC
 70
     4
  9
$DIMALTU
 70
     2
  9
$DIMALTTD
 70
     2
  9
$DIMTXSTY
  7
Standard
  9
$DIMAUNIT
 70
     0
  9
$DIMADEC
 70
     0
  9
$DIMALTRND
 40
0.0
  9
$DIMAZIN
 70
     0
  9
$DIMDSEP
 70
    46
  9
$DIMATFIT
 70
     3
  9
$DIMFRAC
 70
     0
  9
$DIMLDRBLK
  1

  9
$DIMLUNIT
 70
     2
  9
$DIMLWD
 70
    -2
  9
$DIMLWE
 70
    -2
  9
$DIMTMOVE
 70
     0
  9
$DIMFXL
 40
1.0
  9
$DIMFXLON
 70
     0
  9
$DIMJOGANG
 40
0.7853981633974483
  9
$DIMTFILL
 70
     0
  9
$DIMTFILLCLR
 70
     0
  9
$DIMARCSYM
 70
     0
  9
$DIMLTYPE
  6

  9
$DIMLTEX1
  6

  9
$DIMLTEX2
  6

  9
$DIMTXTDIRECTION
 70
     0
  9
$LUNITS
 70
     2
  9
$LUPREC
 70
     4
  9
$SKETCHINC
 40
0.1
  9
$FILLETRAD
 40
0.5
  9
$AUNITS
 70
     0
  9
$AUPREC
 70
     0
  9
$MENU
  1
.
  9
$ELEVATION
 40
0.0
  9
$PELEVATION
 40
0.0
  9
$THICKNESS
 40
0.0
  9
$LIMCHECK
 70
     0
  9
$CHAMFERA
 40
0.5
  9
$CHAMFERB
 40
0.5
  9
$CHAMFERC
 40
1.0
  9
$CHAMFERD
 40
0.0
  9
$SKPOLY
 70
     0
  9
$TDCREATE
 40
2451955.172696759
  9
$TDUCREATE
 40
2451954.797696759
  9
$TDUPDATE
 40
2458905.476979167
  9
$TDUUPDATE
 40
2458905.101979167
  9
$TDINDWG
 40
0.0179475810
  9
$TDUSRTIMER
 40
0.0179474074
  9
$USRTIMER
 70
     1
  9
$ANGBASE
 50
0.0
  9
$ANGDIR
 70
     0
  9
$PDMODE
 70
     0
  9
$PDSIZE
 40
0.0
  9
$PLINEWID
 40
0.0
  9
$SPLFRAME
 70
     0
  9
$SPLINETYPE
 70
     6
  9
$SPLINESEGS
 70
     8
  9
$HANDSEED
  5
EE1
  9
$SURFTAB1
 70
     6
  9
$SURFTAB2
 70
     6
  9
$SURFTYPE
 70
     6
  9
$SURFU
 70
     6
  9
$SURFV
 70
     6
  9
$UCSBASE
  2

  9
$UCSNAME
  2

  9
$UCSORG
 10
0.0
 20
0.0
 30
0.0
  9
$UCSXDIR
 10
1.0
 20
0.0
 30
0.0
  9
$UCSYDIR
 10
0.0
 20
1.0
 30
0.0
  9
$UCSORTHOREF
  2

  9
$UCSORTHOVIEW
 70
     0
  9
$UCSORGTOP
 10
0.0
 20
0.0
 30
0.0
  9
$UCSORGBOTTOM
 10
0.0
 20
0.0
 30
0.0
  9
$UCSORGLEFT
 10
0.0
 20
0.0
 30
0.0
  9
$UCSORGRIGHT
 10
0.0
 20
0.0
 30
0.0
  9
$UCSORGFRONT
 10
0.0
 20
0.0
 30
0.0
  9
$UCSORGBACK
 10
0.0
 20
0.0
 30
0.0
  9
$PUCSBASE
  2

  9
$PUCSNAME
  2

  9
$PUCSORG
 10
0.0
 20
0.0
 30
0.0
  9
$PUCSXDIR
 10
1.0
 20
0.0
 30
0.0
  9
$PUCSYDIR
 10
0.0
 20
1.0
 30
0.0
  9
$PUCSORTHOREF
  2

  9
$PUCSORTHOVIEW
 70
     0
  9
$PUCSORGTOP
 10
0.0
 20
0.0
 30
0.0
  9
$PUCSORGBOTTOM
 10
0.0
 20
0.0
 30
0.0
  9
$PUCSORGLEFT
 10
0.0
 20
0.0
 30
0.0
  9
$PUCSORGRIGHT
 10
0.0
 20
0.0
 30
0.0
  9
$PUCSORGFRONT
 10
0.0
 20
0.0
 30
0.0
  9
$PUCSORGBACK
 10
0.0
 20
0.0
 30
0.0
  9
$USERI1
 70
     0
  9
$USERI2
 70
     0
  9
$USERI3
 70
     0
  9
$USERI4
 70
     0
  9
$USERI5
 70
     0
  9
$USERR1
 40
0.0
  9
$USERR2
 40
0.0
  9
$USERR3
 40
0.0
  9
$USERR4
 40
0.0
  9
$USERR5
 40
0.0
  9
$WORLDVIEW
 70
     1
  9
$SHADEDGE
 70
     3
  9
$SHADEDIF
 70
    70
  9
$TILEMODE
 70
     1
  9
$MAXACTVP
 70
    48
  9
$PINSBASE
 10
0.0
 20
0.0
 30
0.0
  9
$PLIMCHECK
 70
     0
  9
$PEXTMIN
 10
1.049636599258096
 20
0.7996597240971113
 30
-0.0015258207003583
  9
$PEXTMAX
 10
9.450362731076971
 20
7.200340082697458
 30
0.0000000349246037
  9
$PLIMMIN
 10
-0.2500002402958907
 20
-0.2499999962453767
  9
$PLIMMAX
 10
10.74999951940821
 20
8.249999763458731
  9
$UNITMODE
 70
     0
  9
$VISRETAIN
 70
     1
  9
$PLINEGEN
 70
     0
  9
$PSLTSCALE
 70
     1
  9
$TREEDEPTH
 70
  3020
  9
$CMLSTYLE
  2
Standard
  9
$CMLJUST
 70
     0
  9
$CMLSCALE
 40
1.0
  9
$PROXYGRAPHICS
 70
     1
  9
$MEASUREMENT
 70
     0
  9
$CELWEIGHT
370
    -1
  9
$ENDCAPS
280
     0
  9
$JOINSTYLE
280
     0
  9
$LWDISPLAY
290
     0
  9
$INSUNITS
 70
     1
  9
$HYPERLINKBASE
  1

  9
$STYLESHEET
  1

  9
$XEDIT
290
     1
  9
$CEPSNTYPE
380
     0
  9
$PSTYLEMODE
290
     1
  9
$FINGERPRINTGUID
  2
{FDEAD576-A652-11D2-9A35-0060089B3A3F}
  9
$VERSIONGUID
  2
{2EE895AD-31A3-BB44-9BC3-793B203CDF8B}
  9
$EXTNAMES
290
     1
  9
$PSVPSCALE
 40
0.0
  9
$OLESTARTUP
290
     0
  9
$SORTENTS
280
   127
  9
$INDEXCTL
280
     0
  9
$HIDETEXT
280
     1
  9
$XCLIPFRAME
280
     2
  9
$HALOGAP
280
     0
  9
$OBSCOLOR
 70
   257
  9
$OBSLTYPE
280
     0
  9
$INTERSECTIONDISPLAY
280
     0
  9
$INTERSECTIONCOLOR
 70
   257
  9
$DIMASSOC
280
     2
  9
$PROJECTNAME
  1

  9
$CAMERADISPLAY
290
     0
  9
$LENSLENGTH
 40
50.0
  9
$CAMERAHEIGHT
 40
0.0
  9
$STEPSPERSEC
 40
2.0
  9
$STEPSIZE
 40
6.0
  9
$3DDWFPREC
 40
2.0
  9
$PSOLWIDTH
 40
0.25
  9
$PSOLHEIGHT
 40
4.0
  9
$LOFTANG1
 40
1.570796326794896
  9
$LOFTANG2
 40
1.570796326794896
  9
$LOFTMAG1
 40
0.0
  9
$LOFTMAG2
 40
0.0
  9
$LOFTPARAM
 70
     7
  9
$LOFTNORMALS
280
     1
  9
$LATITUDE
 40
37.795
  9
$LONGITUDE
 40
-122.394
  9
$NORTHDIRECTION
 40
0.0
  9
$TIMEZONE
 70
 -8000
  9
$LIGHTGLYPHDISPLAY
280
     1
  9
$TILEMODELIGHTSYNCH
280
     1
  9
$CMATERIAL
347
783
  9
$SOLIDHIST
280
     0
  9
$SHOWHIST
280
     1
  9
$DWFFRAME
280
     2
  9
$DGNFRAME
280
     0
  9
$REALWORLDSCALE
290
     1
  9
$INTERFERECOLOR
 62
     1
  9
$INTERFEREOBJVS
345
7A5
  9
$INTERFEREVPVS
346
8F7
  9
$CSHADOW
280
     0
  9
$SHADOWPLANELOCATION
 40
0.0
  0
ENDSEC
  0
SECTION
  2
CLASSES
  0
CLASS
  1
ACDBDICTIONARYWDFLT
  2
AcDbDictionaryWithDefault
  3
ObjectDBX Classes
 90
        0
 91
        1
280
     0
281
     0
  0
CLASS
  1
ACDBPLACEHOLDER
  2
AcDbPlaceHolder
  3
ObjectDBX Classes
 90
        0
 91
        1
280
     0
281
     0
  0
CLASS
  1
LAYOUT
  2
AcDbLayout
  3
ObjectDBX Classes
 90
        0
 91
        3
280
     0
281
     0
  0
CLASS
  1
DICTIONARYVAR
  2
AcDbDictionaryVar
  3
ObjectDBX Classes
 90
        0
 91
       13
280
     0
281
     0
  0
CLASS
  1
LONG_TRANSACTION
  2
AcDbLongTransaction
  3
ObjectDBX Classes
 90
        0
 91
        0
280
     0
281
     0
  0
CLASS
  1
LWPOLYLINE
  2
AcDbPolyline
  3
ObjectDBX Classes
 90
        0
 91
        1
280
     0
281
     1
  0
CLASS
  1
HATCH
  2
AcDbHatch
  3
ObjectDBX Classes
 90
        0
 91
        0
280
     0
281
     1
  0
CLASS
  1
XRECORD
  2
AcDbXrecord
  3
ObjectDBX Classes
 90
        0
 91
       59
280
     0
281
     0
  0
CLASS
  1
LONG_TRANSACTION
  2
AcDbLongTransaction
  3
ObjectDBX Classes
 90
        0
 91
        0
280
     0
281
     0
  0
CLASS
  1
LWPOLYLINE
  2
AcDbPolyline
  3
ObjectDBX Classes
 90
        0
 91
        1
280
     0
281
     1
  0
CLASS
  1
HATCH
  2
AcDbHatch
  3
ObjectDBX Classes
 90
        0
 91
        0
280
     0
281
     1
  0
CLASS
  1
XRECORD
  2
AcDbXrecord
  3
ObjectDBX Classes
 90
        0
 91
       59
280
     0
281
     0
  0
CLASS
  1
LONG_TRANSACTION
  2
AcDbLongTransaction
  3
ObjectDBX Classes
 90
        0
 91
        0
280
     0
281
     0
  0
CLASS
  1
LWPOLYLINE
  2
AcDbPolyline
  3
ObjectDBX Classes
 90
        0
 91
        1
280
     0
281
     1
  0
CLASS
  1
HATCH
  2
AcDbHatch
  3
ObjectDBX Classes
 90
        0
 91
        0
280
     0
281
     1
  0
CLASS
  1
XRECORD
  2
AcDbXrecord
  3
ObjectDBX Classes
 90
        0
 91
       59
280
     0
281
     0
  0
CLASS
  1
LONG_TRANSACTION
  2
AcDbLongTransaction
  3
ObjectDBX Classes
 90
        0
 91
        0
280
     0
281
     0
  0
CLASS
  1
LWPOLYLINE
  2
AcDbPolyline
  3
ObjectDBX Classes
 90
        0
 91
        1
280
     0
281
     1
  0
CLASS
  1
HATCH
  2
AcDbHatch
  3
ObjectDBX Classes
 90
        0
 91
        0
280
     0
281
     1
  0
CLASS
  1
XRECORD
  2
AcDbXrecord
  3
ObjectDBX Classes
 90
        0
 91
       59
280
     0
281
     0
  0
CLASS
  1
LONG_TRANSACTION
  2
AcDbLongTransaction
  3
ObjectDBX Classes
 90
        0
 91
        0
280
     0
281
     0
  0
CLASS
  1
LWPOLYLINE
  2
AcDbPolyline
  3
ObjectDBX Classes
 90
        0
 91
        1
280
     0
281
     1
  0
CLASS
  1
HATCH
  2
AcDbHatch
  3
ObjectDBX Classes
 90
        0
 91
        0
280
     0
281
     1
  0
CLASS
  1
XRECORD
  2
AcDbXrecord
  3
ObjectDBX Classes
 90
        0
 91
       59
280
     0
281
     0
  0
CLASS
  1
LONG_TRANSACTION
  2
AcDbLongTransaction
  3
ObjectDBX Classes
 90
        0
 91
        0
280
     0
281
     0
  0
CLASS
  1
LWPOLYLINE
  2
AcDbPolyline
  3
ObjectDBX Classes
 90
        0
 91
        1
280
     0
281
     1
  0
CLASS
  1
HATCH
  2
AcDbHatch
  3
ObjectDBX Classes
 90
        0
 91
        0
280
     0
281
     1
  0
CLASS
  1
XRECORD
  2
AcDbXrecord
  3
ObjectDBX Classes
 90
        0
 91
       59
280
     0
281
     0
  0
CLASS
  1
LONG_TRANSACTION
  2
AcDbLongTransaction
  3
ObjectDBX Classes
 90
        0
 91
        0
280
     0
281
     0
  0
CLASS
  1
LWPOLYLINE
  2
AcDbPolyline
  3
ObjectDBX Classes
 90
        0
 91
        1
280
     0
281
     1
  0
CLASS
  1
HATCH
  2
AcDbHatch
  3
ObjectDBX Classes
 90
        0
 91
        0
280
     0
281
     1
  0
CLASS
  1
XRECORD
  2
AcDbXrecord
  3
ObjectDBX Classes
 90
        0
 91
       59
280
     0
281
     0
  0
CLASS
  1
LONG_TRANSACTION
  2
AcDbLongTransaction
  3
ObjectDBX Classes
 90
        0
 91
        0
280
     0
281
     0
  0
CLASS
  1
LWPOLYLINE
  2
AcDbPolyline
  3
ObjectDBX Classes
 90
        0
 91
        1
280
     0
281
     1
  0
CLASS
  1
HATCH
  2
AcDbHatch
  3
ObjectDBX Classes
 90
        0
 91
        0
280
     0
281
     1
  0
CLASS
  1
XRECORD
  2
AcDbXrecord
  3
ObjectDBX Classes
 90
        0
 91
       59
280
     0
281
     0
  0
CLASS
  1
LONG_TRANSACTION
  2
AcDbLongTransaction
  3
ObjectDBX Classes
 90
        0
 91
        0
280
     0
281
     0
  0
CLASS
  1
LWPOLYLINE
  2
AcDbPolyline
  3
ObjectDBX Classes
 90
        0
 91
        1
280
     0
281
     1
  0
CLASS
  1
HATCH
  2
AcDbHatch
  3
ObjectDBX Classes
 90
        0
 91
        0
280
     0
281
     1
  0
CLASS
  1
XRECORD
  2
AcDbXrecord
  3
ObjectDBX Classes
 90
        0
 91
       59
280
     0
281
     0
  0
CLASS
  1
LONG_TRANSACTION
  2
AcDbLongTransaction
  3
ObjectDBX Classes
 90
        0
 91
        0
280
     0
281
     0
  0
CLASS
  1
LWPOLYLINE
  2
AcDbPolyline
  3
ObjectDBX Classes
 90
        0
 91
        1
280
     0
281
     1
  0
CLASS
  1
HATCH
  2
AcDbHatch
  3
ObjectDBX Classes
 90
        0
 91
        0
280
     0
281
     1
  0
CLASS
  1
XRECORD
  2
AcDbXrecord
  3
ObjectDBX Classes
 90
        0
 91
       59
280
     0
281
     0
  0
CLASS
  1
LONG_TRANSACTION
  2
AcDbLongTransaction
  3
ObjectDBX Classes
 90
        0
 91
        0
280
     0
281
     0
  0
CLASS
  1
LWPOLYLINE
  2
AcDbPolyline
  3
ObjectDBX Classes
 90
        0
 91
        1
280
     0
281
     1
  0
CLASS
  1
HATCH
  2
AcDbHatch
  3
ObjectDBX Classes
 90
        0
 91
        0
280
     0
281
     1
  0
CLASS
  1
XRECORD
  2
AcDbXrecord
  3
ObjectDBX Classes
 90
        0
 91
       59
280
     0
281
     0
  0
CLASS
  1
LONG_TRANSACTION
  2
AcDbLongTransaction
  3
ObjectDBX Classes
 90
        0
 91
        0
280
     0
281
     0
  0
CLASS
  1
LWPOLYLINE
  2
AcDbPolyline
  3
ObjectDBX Classes
 90
        0
 91
        1
280
     0
281
     1
  0
CLASS
  1
HATCH
  2
AcDbHatch
  3
ObjectDBX Classes
 90
        0
 91
        0
280
     0
281
     1
  0
CLASS
  1
XRECORD
  2
AcDbXrecord
  3
ObjectDBX Classes
 90
        0
 91
       59
280
     0
281
     0
  0
CLASS
  1
LONG_TRANSACTION
  2
AcDbLongTransaction
  3
ObjectDBX Classes
 90
        0
 91
        0
280
     0
281
     0
  0
CLASS
  1
LWPOLYLINE
  2
AcDbPolyline
  3
ObjectDBX Classes
 90
        0
 91
        1
280
     0
281
     1
  0
CLASS
  1
HATCH
  2
AcDbHatch
  3
ObjectDBX Classes
 90
        0
 91
        0
280
     0
281
     1
  0
CLASS
  1
XRECORD
  2
AcDbXrecord
  3
ObjectDBX Classes
 90
        0
 91
       59
280
     0
281
     0
  0
CLASS
  1
LONG_TRANSACTION
  2
AcDbLongTransaction
  3
ObjectDBX Classes
 90
        0
 91
        0
280
     0
281
     0
  0
CLASS
  1
LWPOLYLINE
  2
AcDbPolyline
  3
ObjectDBX Classes
 90
        0
 91
        1
280
     0
281
     1
  0
CLASS
  1
HATCH
  2
AcDbHatch
  3
ObjectDBX Classes
 90
        0
 91
        0
280
     0
281
     1
  0
CLASS
  1
XRECORD
  2
AcDbXrecord
  3
ObjectDBX Classes
 90
        0
 91
       59
280
     0
281
     0
  0
CLASS
  1
LONG_TRANSACTION
  2
AcDbLongTransaction
  3
ObjectDBX Classes
 90
        0
 91
        0
280
     0
281
     0
  0
CLASS
  1
LWPOLYLINE
  2
AcDbPolyline
  3
ObjectDBX Classes
 90
        0
 91
        1
280
     0
281
     1
  0
CLASS
  1
HATCH
  2
AcDbHatch
  3
ObjectDBX Classes
 90
        0
 91
        0
280
     0
281
     1
  0
CLASS
  1
XRECORD
  2
AcDbXrecord
  3
ObjectDBX Classes
 90
        0
 91
       59
280
     0
281
     0
  0
CLASS
  1
MATERIAL
  2
AcDbMaterial
  3
ObjectDBX Classes
 90
     1153
 91
        3
280
     0
281
     0
  0
CLASS
  1
VISUALSTYLE
  2
AcDbVisualStyle
  3
ObjectDBX Classes
 90
     4095
 91
       26
280
     0
281
     0
  0
CLASS
  1
TABLESTYLE
  2
AcDbTableStyle
  3
ObjectDBX Classes
 90
     4095
 91
        1
280
     0
281
     0
  0
CLASS
  1
SCALE
  2
AcDbScale
  3
ObjectDBX Classes
 90
     1153
 91
       33
280
     0
281
     0
  0
CLASS
  1
MLEADERSTYLE
  2
AcDbMLeaderStyle
  3
ACDB_MLEADERSTYLE_CLASS
 90
     4095
 91
        1
280
     0
281
     0
  0
CLASS
  1
ACME_DOCUMENT
  2
AcMeDbDoc
  3
AcMeServices
 90
     1024
 91
        0
280
     0
281
     0
  0
CLASS
  1
AMGSETTINGSOBJ
  2
AmgSettingsObj
  3
"AcadM|Product Description: AutoCAD Mechanical|Company: Autodesk, Inc."
 90
     1024
 91
        0
280
     0
281
     0
  0
CLASS
  1
ACMESCOPE
  2
AcMeScope
  3
AcMeServices
 90
     1024
 91
        0
280
     0
281
     0
  0
CLASS
  1
ACMECOMMANDHISTORY
  2
AcMeCommandHistory
  3
AcMeServices
 90
     1024
 91
        0
280
     0
281
     0
  0
CLASS
  1
ACIMSYSVARMAN
  2
AcImSysVarManager
  3
AcMeServices
 90
     1024
 91
        2
280
     0
281
     0
  0
CLASS
  1
ACIMINTSYSVAR
  2
AcImIntSysVar
  3
AcMeServices
 90
     1024
 91
        0
280
     0
281
     0
  0
CLASS
  1
ACMEDRAWINGMAN
  2
AcMeDrawingMan
  3
AcMeServices
 90
     1024
 91
        0
280
     0
281
     0
  0
CLASS
  1
ACMEVIEW
  2
AcMeView
  3
AcMeServices
 90
     1024
 91
        0
280
     0
281
     0
  0
CLASS
  1
ACDBENTITYCACHE
  2
AcMeEntityCache
  3
AcMeServices
 90
     1024
 91
        0
280
     0
281
     0
  0
CLASS
  1
GSMANAGER
  2
AcMeGSManager
  3
AcMeServices
 90
     1024
 91
        0
280
     0
281
     0
  0
CLASS
  1
AMDTINTERNALREACTOR
  2
AmdtInternalReactor
  3
AcMeServices
 90
     1024
 91
        0
280
     0
281
     0
  0
CLASS
  1
ACMESTATEMGR
  2
AcMeStateMgr
  3
AcMeServices
 90
     1024
 91
        0
280
     0
281
     0
  0
CLASS
  1
ACGREFMASTER
  2
AcGrefMaster
  3
AcAttribServices
 90
     1024
 91
        0
280
     0
281
     0
  0
CLASS
  1
AM_DRAWING_MGR
  2
AcDmDwgMgr
  3
AcMechDwgViewMgmt
 90
     1024
 91
        0
280
     0
281
     0
  0
CLASS
  1
AM_DWG_DOCUMENT
  2
AcDmDwgDocument
  3
AcMechDwgViewMgmt
 90
     1024
 91
        0
280
     0
281
     0
  0
CLASS
  1
AM_DWG_SHEET
  2
AcDmSheet
  3
AcMechDwgViewMgmt
 90
     1024
 91
        0
280
     0
281
     0
  0
CLASS
  1
AM_VIEWDIMPARMAP
  2
AcDmViewDimParMap
  3
AcMechDwgViewMgmt
 90
     1024
 91
        0
280
     0
281
     0
  0
CLASS
  1
ACIMREALSYSVAR
  2
AcImRealSysVar
  3
AcMeServices
 90
     1024
 91
        0
280
     0
281
     0
  0
CLASS
  1
AM_DWGMGR_NAME
  2
AcDmDwgMgrName
  3
AcMechDwgViewMgmt
 90
     1024
 91
        0
280
     0
281
     0
  0
CLASS
  1
ACME_DATABASE
  2
AcMeDbDatabase
  3
AcMeServices
 90
     1024
 91
        0
280
     0
281
     0
  0
CLASS
  1
ACRFINSADJUSTERMGR
  2
AcRfInsAdjusterMgr
  3
AcMeServices
 90
     1024
 91
        0
280
     0
281
     0
  0
CLASS
  1
ACGREFACADMASTER
  2
AcGrefacadMaster
  3
AcGrefServices
 90
     1024
 91
        0
280
     0
281
     0
  0
CLASS
  1
AMDTMENUSTATEMGR
  2
AmdtMenuStateMgr
  3
McadcomServices
 90
     1024
 91
        0
280
     0
281
     0
  0
CLASS
  1
AMDTMCOMMENUSTATE
  2
AmdtMcomMenuState
  3
McadcomServices
 90
     1024
 91
        0
280
     0
281
     0
  0
CLASS
  1
AMIMASTER
  2
AmiMaster
  3
AmiServices
 90
     1024
 91
        0
280
     0
281
     0
  0
CLASS
  1
MAPIAMMOUDLE
  2
MApiAmModule
  3
MApiAmServices
 90
     1024
 91
        0
280
     0
281
     0
  0
CLASS
  1
ACIMSTRSYSVAR
  2
AcImStrSysVar
  3
AcMeServices
 90
     1024
 91
        0
280
     0
281
     0
  0
CLASS
  1
AMDTADMENUSTATE
  2
AmdtAdMenuState
  3
DesignerServices
 90
     1024
 91
        0
280
     0
281
     0
  0
CLASS
  1
ADAPPL
  2
AcAdAppl
  3
DesignerServices
 90
     1024
 91
        0
280
     0
281
     0
  0
CLASS
  1
DEPMGR
  2
AcAdDepMgr
  3
DesignerServices
 90
     1024
 91
        0
280
     0
281
     0
  0
CLASS
  1
PARAMMGR
  2
AcAdParamMgr
  3
DesignerServices
 90
     1024
 91
        0
280
     0
281
     0
  0
CLASS
  1
PARAMSCOPE
  2
AcAdParamScope
  3
DesignerServices
 90
     1024
 91
        0
280
     0
281
     0
  0
CLASS
  1
NAMEDAPPL
  2
AcAdNamedAppl
  3
DesignerServices
 90
     1024
 91
        0
280
     0
281
     0
  0
CLASS
  1
AMDTDMMENUSTATE
  2
AmdtDmMenuState
  3
AcMechDwgViewMgmt
 90
     1024
 91
        0
280
     0
281
     0
  0
CLASS
  1
AMDTAMMENUSTATE
  2
AmdtAmMenuState
  3
DesignerAssemblies
 90
     1024
 91
        0
280
     0
281
     0
  0
CLASS
  1
ACAMPROJECT
  2
AcAmProject
  3
DesignerAssemblies
 90
     1024
 91
        0
280
     0
281
     0
  0
CLASS
  1
ACAMGRCOMPDEF
  2
AcAmGrCompDef
  3
DesignerAssemblies
 90
     1024
 91
        0
280
     0
281
     0
  0
CLASS
  1
ACCMCONTEXT
  2
AcCmContext
  3
DesignerAssemblies
 90
     1024
 91
        0
280
     0
281
     0
  0
CLASS
  1
ACAMCOMPDEF
  2
AcAmCompDef
  3
DesignerAssemblies
 90
     1024
 91
        0
280
     0
281
     0
  0
CLASS
  1
ACAMCOMPDEFMGR
  2
AcAmCompDefMgr
  3
DesignerAssemblies
 90
     1024
 91
        0
280
     0
281
     0
  0
CLASS
  1
AMCONTEXTMGR
  2
AcAmContextMgr
  3
DesignerAssemblies
 90
     1024
 91
        0
280
     0
281
     0
  0
CLASS
  1
ACAMCONTEXTMODELER
  2
AcAmContextModeler
  3
DesignerAssemblies
 90
     1024
 91
        0
280
     0
281
     0
  0
CLASS
  1
ACMDATADICTIONARY
  2
AcmDataDictionary
  3
"AcmSymBB|Product Description: AutoCAD Mechanical|Company: Autodesk, Inc."
 90
     1024
 91
        0
280
     0
281
     0
  0
CLASS
  1
CATALOGSTATE
  2
AcAmCatalogState
  3
DesignerAssemblies
 90
     1024
 91
        0
280
     0
281
     0
  0
CLASS
  1
ACAMGRCOMPDEFSET
  2
AcAmGrCompDefSet
  3
DesignerAssemblies
 90
     1024
 91
        0
280
     0
281
     0
  0
CLASS
  1
AMDTBROWSERDBTAB
  2
AmdtBrowserDbTab
  3
McadcomServices
 90
     1024
 91
        0
280
     0
281
     0
  0
CLASS
  1
CBROWSERAPPOBJECT
  2
CBrowserAppObject
  3
McadcomServices
 90
     1024
 91
        0
280
     0
281
     0
  0
CLASS
  1
DM_PLACEHOLDER
  2
AcDmSelsetPlaceholder
  3
AcMechDwgViewMgmt
 90
     1024
 91
        0
280
     0
281
     0
  0
CLASS
  1
EXACXREFPANELOBJECT
  2
ExAcXREFPanelObject
  3
EXAC_ESW
 90
     1025
 91
        0
280
     0
281
     0
  0
CLASS
  1
NPOCOLLECTION
  2
AcDbImpNonPersistentObjectsCollection
  3
ObjectDBX Classes
 90
     1153
 91
        0
280
     0
281
     0
  0
CLASS
  1
ACMSTANDARDANSI
  2
AcmStandardANSI
  3
"Amdt_StdImp|Product Description: AutoCAD Mechanical|Company: Autodesk, Inc."
 90
     1024
 91
        0
280
     0
281
     0
  0
CLASS
  1
ACMSURFSTANDARDANSI
  2
AcmSurfTextStdANSI
  3
"Amdt_StdImp|Product Description: AutoCAD Mechanical|Company: Autodesk, Inc."
 90
     1024
 91
        0
280
     0
281
     0
  0
CLASS
  1
ACMFCFSTANDARDANSI
  2
AcmFCFStdANSI
  3
"Amdt_StdImp|Product Description: AutoCAD Mechanical|Company: Autodesk, Inc."
 90
     1024
 91
        0
280
     0
281
     0
  0
CLASS
  1
ACMWELDSTANDARDANSI
  2
AcmWeldingStdANSI
  3
"Amdt_StdImp|Product Description: AutoCAD Mechanical|Company: Autodesk, Inc."
 90
     1024
 91
        0
280
     0
281
     0
  0
CLASS
  1
ACMIDSTANDARDANSI
  2
AcmIdStdANSI
  3
"Amdt_StdImp|Product Description: AutoCAD Mechanical|Company: Autodesk, Inc."
 90
     1024
 91
        0
280
     0
281
     0
  0
CLASS
  1
ACMDATUMSTANDARDANSI
  2
AcmDatumStdANSI
  3
"Amdt_StdImp|Product Description: AutoCAD Mechanical|Company: Autodesk, Inc."
 90
     1024
 91
        0
280
     0
281
     0
  0
CLASS
  1
ACMBOMSTANDARDANSI
  2
AcmBOMStdANSI
  3
"Amdt_StdImp|Product Description: AutoCAD Mechanical|Company: Autodesk, Inc."
 90
     1024
 91
        0
280
     0
281
     0
  0
CLASS
  1
ACMDETAILSTANDARDANSI
  2
AmdtDetailSymStdANSI
  3
"Amdt_StdImp|Product Description: AutoCAD Mechanical|Company: Autodesk, Inc."
 90
     1024
 91
        0
280
     0
281
     0
  0
CLASS
  1
ACMSECTIONSTANDARDANSI
  2
AmdtSectionSymStdANSI
  3
"Amdt_StdImp|Product Description: AutoCAD Mechanical|Company: Autodesk, Inc."
 90
     1024
 91
        0
280
     0
281
     0
  0
CLASS
  1
ACMCENTERLINESTANDARDANSI
  2
AmdtCenterLineStdANSI
  3
"Amdt_StdImp|Product Description: AutoCAD Mechanical|Company: Autodesk, Inc."
 90
     1024
 91
        0
280
     0
281
     0
  0
CLASS
  1
ACMTHREADLINESTANDARDANSI
  2
AmdtThreadLineStdANSI
  3
"Amdt_StdImp|Product Description: AutoCAD Mechanical|Company: Autodesk, Inc."
 90
     1024
 91
        0
280
     0
281
     0
  0
CLASS
  1
ACMNOTESTANDARDANSI
  2
AmdtNoteStdANSI
  3
"Amdt_StdImp|Product Description: AutoCAD Mechanical|Company: Autodesk, Inc."
 90
     1024
 91
        0
280
     0
281
     0
  0
CLASS
  1
ACMTAPERSTANDARDANSI
  2
AcmTaperStdANSI
  3
"Amdt_StdImp|Product Description: AutoCAD Mechanical|Company: Autodesk, Inc."
 90
     1024
 91
        0
280
     0
281
     0
  0
CLASS
  1
ACMANOOTATIONVIEWSTANDARDANSI
  2
AmdtAnViewStdANSI
  3
"Amdt_StdImp|Product Description: AutoCAD Mechanical|Company: Autodesk, Inc."
 90
     1024
 91
        0
280
     0
281
     0
  0
CLASS
  1
ACAMGLAYSTD
  2
AcAmgLayStd
  3
"AmgLay|Product Description: AutoCAD Mechanical|Company: Autodesk, Inc."
 90
     1024
 91
        0
280
     0
281
     0
  0
CLASS
  1
ACAMGDIMSTD
  2
AcAmgDimStd
  3
"AmgDim|Product Description: AutoCAD Mechanical|Company: Autodesk, Inc."
 90
     1024
 91
        0
280
     0
281
     0
  0
CLASS
  1
AMGOBJPROPCFG
  2
AmgObjPropCfg
  3
"AmgLay|Product Description: AutoCAD Mechanical|Company: Autodesk, Inc."
 90
     1025
 91
        0
280
     0
281
     0
  0
CLASS
  1
ACAMGHOLECHARTSTDANSI
  2
AcAmgHoleChartStdANSI
  3
AmgDim|Product Description: AutoCAD Mechanical|Company: Autodesk, Inc.
 90
     1024
 91
        0
280
     0
281
     0
  0
CLASS
  1
ACAMGTITLESTD
  2
AcAmgTitleStd
  3
"AmgTitle|Product Description: AutoCAD Mechanical|Company: Autodesk, Inc."
 90
     4095
 91
        0
280
     0
281
     0
  0
CLASS
  1
AMDTNOTETEMPLATEDB
  2
AmdtNoteTemplateDB
  3
AcmSymBB|Product Description: AutoCAD Mechanical|Company: Autodesk, Inc.
 90
     1024
 91
        0
280
     0
281
     0
  0
CLASS
  1
ACAMGFILTERDAT
  2
AcAmgFilterDat
  3
"AcadM|Product Description: AutoCAD Mechanical|Company: Autodesk, Inc."
 90
     1024
 91
        0
280
     0
281
     0
  0
CLASS
  1
CELLSTYLEMAP
  2
AcDbCellStyleMap
  3
ObjectDBX Classes
 90
     1152
 91
        1
280
     0
281
     0
  0
CLASS
  1
ACAD_PROXY_OBJECT_WRAPPER
  2
AcDbProxyObjectWrapper
  3
ObjectDBX Classes
 90
        0
 91
        0
280
     0
281
     0
  0
CLASS
  1
LONG_TRANSACTION
  2
AcDbLongTransaction
  3
ObjectDBX Classes
 90
        0
 91
        0
280
     0
281
     0
  0
CLASS
  1
LWPOLYLINE
  2
AcDbPolyline
  3
ObjectDBX Classes
 90
        0
 91
        1
280
     0
281
     1
  0
CLASS
  1
HATCH
  2
AcDbHatch
  3
ObjectDBX Classes
 90
        0
 91
        0
280
     0
281
     1
  0
CLASS
  1
XRECORD
  2
AcDbXrecord
  3
ObjectDBX Classes
 90
        0
 91
       59
280
     0
281
     0
  0
CLASS
  1
ACDBSECTIONVIEWSTYLE
  2
AcDbSectionViewStyle
  3
ObjectDBX Classes
 90
     1025
 91
        2
280
     0
281
     0
  0
CLASS
  1
ACDBDETAILVIEWSTYLE
  2
AcDbDetailViewStyle
  3
ObjectDBX Classes
 90
     1025
 91
        2
280
     0
281
     0
  0
CLASS
  1
SORTENTSTABLE
  2
AcDbSortentsTable
  3
ObjectDBX Classes
 90
        0
 91
        0
280
     0
281
     0
  0
ENDSEC
  0
SECTION
  2
TABLES
  0
TABLE
  2
VPORT
  5
8
102
{ACAD_XDICTIONARY
360
88A
102
}
330
0
100
AcDbSymbolTable
 70
     1
  0
VPORT
  5
8AD
330
8
100
AcDbSymbolTableRecord
100
AcDbViewportTableRecord
  2
*Active
 70
     0
 10
0.0
 20
0.0
 11
1.0
 21
1.0
 12
-300.1329591637166
 22
918.5285854298255
 13
0.0
 23
0.0
 14
0.5
 24
0.5
 15
0.5
 25
0.5
 16
0.0
 26
0.0
 36
1.0
 17
0.0
 27
0.0
 37
0.0
 40
1630.892901511149
 41
2.310443490701001
 42
50.0
 43
0.0
 44
0.0
 50
0.0
 51
0.0
 71
     0
 72
   100
 73
     1
 74
     3
 75
     0
 76
     0
 77
     0
 78
     0
281
     0
 65
     1
110
0.0
120
0.0
130
0.0
111
1.0
121
0.0
131
0.0
112
0.0
122
1.0
132
0.0
 79
     0
146
0.0
348
7A1
 60
     3
 61
     5
292
     1
282
     1
141
0.0
142
0.0
 63
   250
421
  3355443
1001
ACAD_NAV_VCDISPLAY
1070
     3
  0
ENDTAB
  0
TABLE
  2
LTYPE
  5
5
330
0
100
AcDbSymbolTable
 70
     2
  0
LTYPE
  5
14
330
5
100
AcDbSymbolTableRecord
100
AcDbLinetypeTableRecord
  2
ByBlock
 70
     0
  3

 72
    65
 73
     0
 40
0.0
  0
LTYPE
  5
15
330
5
100
AcDbSymbolTableRecord
100
AcDbLinetypeTableRecord
  2
ByLayer
 70
     0
  3

 72
    65
 73
     0
 40
0.0
  0
LTYPE
  5
16
330
5
100
AcDbSymbolTableRecord
100
AcDbLinetypeTableRecord
  2
Continuous
 70
     0
  3
Solid line
 72
    65
 73
     0
 40
0.0
  0
LTYPE
  5
DD
330
5
100
AcDbSymbolTableRecord
100
AcDbLinetypeTableRecord
  2
CENTER
 70
     0
  3
__ . __
 72
    65
 73
     4
 40
7.0
 49
4.0
 74
     0
 49
-1.0
 74
     0
 49
1.0
 74
     0
 49
-1.0
 74
     0
  0
ENDTAB
  0
TABLE
  2
LAYER
  5
2
102
{ACAD_XDICTIONARY
360
E4
102
}
330
0
100
AcDbSymbolTable
 70
     1
  0
LAYER
  5
10
102
{ACAD_XDICTIONARY
360
884
102
}
330
2
100
AcDbSymbolTableRecord
100
AcDbLayerTableRecord
  2
0
 70
     0
 62
     7
  6
Continuous
370
    -3
390
F
347
793
  0
ENDTAB
  0
TABLE
  2
STYLE
  5
3
330
0
100
AcDbSymbolTable
 70
     1
  0
STYLE
  5
11
330
3
100
AcDbSymbolTableRecord
100
AcDbTextStyleTableRecord
  2
Standard
 70
     0
 40
0.0
 41
1.0
 50
0.0
 71
     0
 42
0.2
  3
txt
  4

  0
ENDTAB
  0
TABLE
  2
VIEW
  5
6
330
0
100
AcDbSymbolTable
 70
     0
  0
ENDTAB
  0
TABLE
  2
UCS
  5
7
330
0
100
AcDbSymbolTable
 70
     0
  0
ENDTAB
  0
TABLE
  2
APPID
  5
9
330
0
100
AcDbSymbolTable
 70
    25
  0
APPID
  5
12
330
9
100
AcDbSymbolTableRecord
100
AcDbRegAppTableRecord
  2
ACAD
 70
     0
  0
APPID
  5
E0
330
9
100
AcDbSymbolTableRecord
100
AcDbRegAppTableRecord
  2
GENIUS_GENODEF_13
 70
     0
  0
APPID
  5
E1
330
9
100
AcDbSymbolTableRecord
100
AcDbRegAppTableRecord
  2
ACAD_DSTYLE_DIMARC_LENGTH_SYMBOL
 70
     0
  0
APPID
  5
E2
330
9
100
AcDbSymbolTableRecord
100
AcDbRegAppTableRecord
  2
ACAD_DSTYLE_DIMJOGGED_JOGANGLE_SYMBOL
 70
     0
  0
APPID
  5
E3
330
9
100
AcDbSymbolTableRecord
100
AcDbRegAppTableRecord
  2
GENIUS_GENOBJ-N-FIL_13
 70
     0
  0
APPID
  5
656
330
9
100
AcDbSymbolTableRecord
100
AcDbRegAppTableRecord
  2
GENIUS_GENOREF_13
 70
     0
  0
APPID
  5
657
330
9
100
AcDbSymbolTableRecord
100
AcDbRegAppTableRecord
  2
GENIUS_GENFIL_13
 70
     0
  0
APPID
  5
658
330
9
100
AcDbSymbolTableRecord
100
AcDbRegAppTableRecord
  2
GENIUS_GENOBJ-N-CHA_13
 70
     0
  0
APPID
  5
7D3
330
9
100
AcDbSymbolTableRecord
100
AcDbRegAppTableRecord
  2
ACAD_MLEADERVER
 70
     0
  0
APPID
  5
7DC
330
9
100
AcDbSymbolTableRecord
100
AcDbRegAppTableRecord
  2
MCAD_NO_VIS
 70
     0
  0
APPID
  5
7DD
330
9
100
AcDbSymbolTableRecord
100
AcDbRegAppTableRecord
  2
ACAD_TEMP_GRAPHIC
 70
     0
  0
APPID
  5
80E
330
9
100
AcDbSymbolTableRecord
100
AcDbRegAppTableRecord
  2
AD_DRAW
 70
     0
  0
APPID
  5
811
330
9
100
AcDbSymbolTableRecord
100
AcDbRegAppTableRecord
  2
ACATTRIBSERVICES
 70
     0
  0
APPID
  5
832
330
9
100
AcDbSymbolTableRecord
100
AcDbRegAppTableRecord
  2
DESIGNERASSEMBLIES
 70
     0
  0
APPID
  5
838
330
9
100
AcDbSymbolTableRecord
100
AcDbRegAppTableRecord
  2
ACADM_DIM_EDIT
 70
     0
  0
APPID
  5
839
330
9
100
AcDbSymbolTableRecord
100
AcDbRegAppTableRecord
  2
AMDT_DM_ADJ
 70
     0
  0
APPID
  5
874
330
9
100
AcDbSymbolTableRecord
100
AcDbRegAppTableRecord
  2
GENIUS_GENSCREG_15
 70
     0
  0
APPID
  5
875
330
9
100
AcDbSymbolTableRecord
100
AcDbRegAppTableRecord
  2
GENIUS_GENOBJ-N-SDF_13
 70
     0
  0
APPID
  5
876
330
9
100
AcDbSymbolTableRecord
100
AcDbRegAppTableRecord
  2
ACAD_EXEMPT_FROM_CAD_STANDARDS
 70
     0
  0
APPID
  5
89E
330
9
100
AcDbSymbolTableRecord
100
AcDbRegAppTableRecord
  2
ACAD_DSTYLE_DIM_LINETYPE
 70
     0
  0
APPID
  5
89F
330
9
100
AcDbSymbolTableRecord
100
AcDbRegAppTableRecord
  2
ACAD_DSTYLE_DIM_EXT1_LINETYPE
 70
     0
  0
APPID
  5
8A0
330
9
100
AcDbSymbolTableRecord
100
AcDbRegAppTableRecord
  2
ACAD_DSTYLE_DIM_EXT2_LINETYPE
 70
     0
  0
APPID
  5
901
330
9
100
AcDbSymbolTableRecord
100
AcDbRegAppTableRecord
  2
AcadCodePageInfo
 70
     0
  0
APPID
  5
909
330
9
100
AcDbSymbolTableRecord
100
AcDbRegAppTableRecord
  2
ACAD_NAV_VCDISPLAY
 70
     0
  0
APPID
  5
95F
330
9
100
AcDbSymbolTableRecord
100
AcDbRegAppTableRecord
  2
ACAD_PSEXT
 70
     0
  0
ENDTAB
  0
TABLE
  2
DIMSTYLE
  5
A
330
0
100
AcDbSymbolTable
 70
     2
100
AcDbDimStyleTable
 71
     0
  0
DIMSTYLE
105
27
330
A
100
AcDbSymbolTableRecord
100
AcDbDimStyleTableRecord
  2
Standard
 70
     0
340
11
  0
DIMSTYLE
105
95E
330
A
100
AcDbSymbolTableRecord
100
AcDbDimStyleTableRecord
  2
ISO-25
 70
     0
 41
2.5
 42
0.625
 43
3.75
 44
1.25
 73
     0
 74
     0
 77
     1
 78
     8
140
2.5
141
2.5
143
0.03937007874016
147
0.625
171
     3
172
     1
271
     2
272
     2
274
     3
278
    44
283
     0
284
     8
340
11
  0
ENDTAB
  0
TABLE
  2
BLOCK_RECORD
  5
1
330
0
100
AcDbSymbolTable
 70
     1
  0
BLOCK_RECORD
  5
1F
102
{ACAD_XDICTIONARY
360
91
102
}
330
1
100
AcDbSymbolTableRecord
100
AcDbBlockTableRecord
  2
*Model_Space
340
22
 70
     0
280
     1
281
     0
  0
BLOCK_RECORD
  5
5D
102
{ACAD_XDICTIONARY
360
93
102
}
330
1
100
AcDbSymbolTableRecord
100
AcDbBlockTableRecord
  2
*Paper_Space
340
5E
 70
     0
280
     1
281
     0
  0
BLOCK_RECORD
  5
58
102
{ACAD_XDICTIONARY
360
95
102
}
330
1
100
AcDbSymbolTableRecord
100
AcDbBlockTableRecord
  2
*Paper_Space0
340
59
 70
     0
280
     1
281
     0
  0
ENDTAB
  0
ENDSEC
  0
SECTION
  2
BLOCKS
  0
BLOCK
  5
20
330
1F
100
AcDbEntity
  8
0
100
AcDbBlockBegin
  2
*Model_Space
 70
     0
 10
0.0
 20
0.0
 30
0.0
  3
*Model_Space
  1

  0
ENDBLK
  5
21
330
1F
100
AcDbEntity
  8
0
100
AcDbBlockEnd
  0
BLOCK
  5
5F
330
5D
100
AcDbEntity
 67
     1
  8
0
100
AcDbBlockBegin
  2
*Paper_Space
 70
     0
 10
0.0
 20
0.0
 30
0.0
  3
*Paper_Space
  1

  0
ENDBLK
  5
60
330
5D
100
AcDbEntity
 67
     1
  8
0
100
AcDbBlockEnd
  0
BLOCK
  5
5A
330
58
100
AcDbEntity
 67
     1
  8
0
100
AcDbBlockBegin
  2
*Paper_Space0
 70
     0
 10
0.0
 20
0.0
 30
0.0
  3
*Paper_Space0
  1

  0
VIEWPORT
  5
73
330
58
100
AcDbEntity
 67
     1
  8
0
100
AcDbViewport
 10
5.249999639556162
 20
3.999999883606676
 30
0.0
 40
15.01558029761351
 41
8.593922408982605
 68
     0
 69
     0
 12
5.249999639556162
 22
3.999999883606676
 13
0.0
 23
0.0
 14
10.0
 24
10.0
 15
10.0
 25
10.0
 16
0.0
 26
0.0
 36
1.0
 17
0.0
 27
0.0
 37
0.0
 42
50.0
 43
0.0
 44
0.0
 45
8.593922408982605
 50
0.0
 51
0.0
 72
   100
 90
    32800
  1

281
     0
 71
     1
 74
     0
110
0.0
120
0.0
130
0.0
111
1.0
121
0.0
131
0.0
112
0.0
122
1.0
132
0.0
 79
     0
146
0.0
170
     0
 61
     5
348
7A1
292
     1
282
     1
141
0.0
142
0.0
 63
   250
421
  3355443
1001
GENIUS_GENSCREG_15
1000
PF
1040
1.0
1000
DF
1040
1.0
1000
MIN
1011
-2.257790509250597
1021
-0.2969613208846251
1031
0.0
1000
MAX
1011
12.75778978836292
1021
8.29696108809798
1031
0.0
1000
FLAGS
1070
     4
1001
GENIUS_GENODEF_13
1002
{
1000
HIER
1070
     0
1002
}
1002
{
1000
MANEDIT
1070
     0
1002
}
1002
{
1000
NOSEL
1070
     0
1002
}
1002
{
1000
BEHIND
1070
     0
1002
}
1002
{
1000
OTHER
1070
     0
1002
}
1002
{
1000
REACTOR
1002
}
1001
GENIUS_GENOBJ-N-SDF_13
1002
{
1000
OWNER
1000
GEN
1002
}
  0
VIEWPORT
  5
75
330
58
100
AcDbEntity
 67
     1
  8
0
100
AcDbViewport
 10
5.24999976158142
 20
3.99999976158142
 30
0.0
 40
8.399999618530271
 41
6.399999618530272
 68
     0
 69
     0
 12
6.0
 22
4.5
 13
0.0
 23
0.0
 14
0.5
 24
0.5
 15
0.5
 25
0.5
 16
0.0
 26
0.0
 36
1.0
 17
0.0
 27
0.0
 37
0.0
 42
50.0
 43
0.0
 44
0.0
 45
9.259079771746701
 50
0.0
 51
0.0
 72
   100
 90
    32864
  1

281
     0
 71
     1
 74
     0
110
0.0
120
0.0
130
0.0
111
1.0
121
0.0
131
0.0
112
0.0
122
1.0
132
0.0
 79
     0
146
0.0
170
     0
 61
     5
348
7A1
292
     1
282
     1
141
0.0
142
0.0
 63
   250
421
  3355443
1001
GENIUS_GENSCREG_15
1000
PF
1040
0.0
1000
DF
1040
0.0
1000
MIN
1011
1.049999952316284
1021
0.7999999523162842
1031
0.0
1000
MAX
1011
9.449999570846555
1021
7.199999570846556
1031
0.0
1000
FLAGS
1070
     4
1001
GENIUS_GENOBJ-N-SDF_13
1002
{
1000
OWNER
1000
GEN
1002
}
1001
GENIUS_GENODEF_13
1002
{
1000
HIER
1070
     0
1002
}
1002
{
1000
MANEDIT
1070
     0
1002
}
1002
{
1000
NOSEL
1070
     0
1002
}
1002
{
1000
BEHIND
1070
     0
1002
}
1002
{
1000
OTHER
1070
     0
1002
}
1002
{
1000
REACTOR
1002
}
  0
ENDBLK
  5
5B
330
58
100
AcDbEntity
 67
     1
  8
0
100
AcDbBlockEnd
  0
ENDSEC
  0
SECTION
  2
ENTITIES
  0
LINE
  5
BCC
330
1F
100
AcDbEntity
  8
0
100
AcDbLine
 10
-775.7519980223713
 20
421.1456240962078
 30
0.0
 11
-775.7519980223713
 21
376.9337055700329
 31
0.0
  0
LINE
  5
BCD
330
1F
100
AcDbEntity
  8
0
100
AcDbLine
 10
-658.2519921473715
 20
421.1456240962078
 30
0.0
 11
-658.2519921473715
 21
376.9337055700329
 31
0.0
  0
LINE
  5
BCE
330
1F
100
AcDbEntity
  8
0
100
AcDbLine
 10
-659.2519921973714
 20
375.933705520033
 30
0.0
 11
-774.7519979723713
 21
375.933705520033
 31
0.0
  0
ARC
  5
BCF
330
1F
100
AcDbEntity
  8
0
100
AcDbCircle
 10
-659.2519921973714
 20
376.9337055700329
 30
0.0
 40
1.000000049999999
100
AcDbArc
 50
270.0
 51
0.0
1001
GENIUS_GENODEF_13
1002
{
1000
HIER
1070
     0
1002
}
1002
{
1000
MANEDIT
1070
     0
1002
}
1002
{
1000
NOSEL
1070
     0
1002
}
1002
{
1000
BEHIND
1070
     0
1002
}
1002
{
1000
OTHER
1070
     0
1002
}
1002
{
1000
REACTOR
1002
}
1001
GENIUS_GENOBJ-N-FIL_13
1002
{
1000
OWNER
1000
GEN
1002
}
  0
ARC
  5
BD0
330
1F
100
AcDbEntity
  8
0
100
AcDbCircle
 10
-774.7519979723713
 20
376.9337055700329
 30
0.0
 40
1.000000049999999
100
AcDbArc
 50
180.0
 51
270.0
1001
GENIUS_GENOBJ-N-FIL_13
1002
{
1000
OWNER
1000
GEN
1002
}
1001
GENIUS_GENODEF_13
1002
{
1000
HIER
1070
     0
1002
}
1002
{
1000
MANEDIT
1070
     0
1002
}
1002
{
1000
NOSEL
1070
     0
1002
}
1002
{
1000
BEHIND
1070
     0
1002
}
1002
{
1000
OTHER
1070
     0
1002
}
1002
{
1000
REACTOR
1002
}
  0
LINE
  5
BD1
330
1F
100
AcDbEntity
  8
0
100
AcDbLine
 10
-775.7519980223713
 20
380.4337057450329
 30
0.0
 11
-658.2519921473715
 21
380.4337057450329
 31
0.0
  0
LINE
  5
BD2
330
1F
100
AcDbEntity
  8
0
100
AcDbLine
 10
-774.1519979423713
 20
561.9337055200331
 30
0.0
 11
-774.1519979423713
 21
439.4337086950326
 31
0.0
  0
ARC
  5
BD3
330
1F
100
AcDbEntity
  8
0
100
AcDbCircle
 10
-772.1519979423712
 20
561.9337055200331
 30
0.0
 40
2.0
100
AcDbArc
 50
90.0
 51
180.0
1001
GENIUS_GENOBJ-N-FIL_13
1002
{
1000
OWNER
1000
GEN
1002
}
1001
GENIUS_GENODEF_13
1002
{
1000
HIER
1070
     0
1002
}
1002
{
1000
MANEDIT
1070
     0
1002
}
1002
{
1000
NOSEL
1070
     0
1002
}
1002
{
1000
BEHIND
1070
     0
1002
}
1002
{
1000
OTHER
1070
     0
1002
}
1002
{
1000
REACTOR
1002
}
  0
LINE
  5
BD4
330
1F
100
AcDbEntity
  8
0
100
AcDbLine
 10
-659.851992227371
 20
561.9337055200331
 30
0.0
 11
-659.851992227371
 21
439.433708695033
 31
0.0
  0
ARC
  5
BD5
330
1F
100
AcDbEntity
  8
0
100
AcDbCircle
 10
-661.851992227371
 20
561.9337055200331
 30
0.0
 40
2.0
100
AcDbArc
 50
0.0
 51
90.0
1001
GENIUS_GENODEF_13
1002
{
1000
HIER
1070
     0
1002
}
1002
{
1000
MANEDIT
1070
     0
1002
}
1002
{
1000
NOSEL
1070
     0
1002
}
1002
{
1000
BEHIND
1070
     0
1002
}
1002
{
1000
OTHER
1070
     0
1002
}
1002
{
1000
REACTOR
1002
}
1001
GENIUS_GENOBJ-N-FIL_13
1002
{
1000
OWNER
1000
GEN
1002
}
  0
LINE
  5
BD6
330
1F
100
AcDbEntity
  8
0
100
AcDbLine
 10
-661.851992227371
 20
563.933705520033
 30
0.0
 11
-772.1519979423712
 21
563.933705520033
 31
0.0
  0
LINE
  5
BD7
330
1F
100
AcDbEntity
  8
0
100
AcDbLine
 10
-775.7519980223713
 20
421.1456240962078
 30
0.0
 11
-774.1519979423713
 21
439.433708695033
 31
0.0
  0
LINE
  5
BD8
330
1F
100
AcDbEntity
  8
0
100
AcDbLine
 10
-658.2519921473715
 20
421.1456240962078
 30
0.0
 11
-659.851992227371
 21
439.433708695033
 31
0.0
  0
LINE
  5
BD9
330
1F
100
AcDbEntity
  8
0
  6
Continuous
100
AcDbLine
 10
-659.851992227371
 20
439.433708695033
 30
0.0
 11
-774.1519979423713
 21
439.433708695033
 31
0.0
  0
LINE
  5
BDA
330
1F
100
AcDbEntity
  8
0
  6
Continuous
100
AcDbLine
 10
-658.2519921473715
 20
421.1456240962078
 30
0.0
 11
-775.7519980223713
 21
421.1456240962078
 31
0.0
  0
LINE
  5
BDB
330
1F
100
AcDbEntity
  8
0
100
AcDbLine
 10
-714.5019949598711
 20
571.9337063200327
 30
0.0
 11
-719.5019952098712
 21
571.9337063200327
 31
0.0
  0
LINE
  5
BDC
330
1F
100
AcDbEntity
  8
0
100
AcDbLine
 10
-720.0019952348713
 20
569.1337056000334
 30
0.0
 11
-720.0019952348713
 21
571.433706295033
 31
0.0
  0
LINE
  5
BDD
330
1F
100
AcDbEntity
  8
0
100
AcDbLine
 10
-714.0019949348709
 20
569.1337056000334
 30
0.0
 11
-714.0019949348718
 21
571.433706295033
 31
0.0
  0
LINE
  5
BDE
330
1F
100
AcDbEntity
  8
0
100
AcDbLine
 10
-714.5019949598711
 20
571.9337063200327
 30
0.0
 11
-714.0019949348718
 21
571.433706295033
 31
0.0
  0
LINE
  5
BDF
330
1F
100
AcDbEntity
  8
0
100
AcDbLine
 10
-719.5019952098712
 20
571.9337063200327
 30
0.0
 11
-720.0019952348713
 21
571.433706295033
 31
0.0
  0
LINE
  5
BE0
330
1F
100
AcDbEntity
  8
0
100
AcDbLine
 10
-711.0019947848716
 20
563.933705520033
 30
0.0
 11
-711.0019947848716
 21
565.533705600033
 31
0.0
  0
LINE
  5
BE1
330
1F
100
AcDbEntity
  8
0
100
AcDbLine
 10
-711.0019947848716
 20
565.533705600033
 30
0.0
 11
-723.0019953848716
 21
565.533705600033
 31
0.0
  0
LINE
  5
BE2
330
1F
100
AcDbEntity
  8
0
100
AcDbLine
 10
-723.0019953848716
 20
565.533705600033
 30
0.0
 11
-723.0019953848716
 21
563.933705520033
 31
0.0
  0
LINE
  5
BE3
330
1F
100
AcDbEntity
  8
0
100
AcDbLine
 10
-705.001973084871
 20
587.4337360376116
 30
0.0
 11
-705.001973084871
 21
566.9337360376117
 31
0.0
  0
LINE
  5
BE4
330
1F
100
AcDbEntity
  8
0
100
AcDbLine
 10
-706.001973084871
 20
565.9337360376116
 30
0.0
 11
-712.0019950848711
 21
565.9337360376116
 31
0.0
  0
LINE
  5
BE5
330
1F
100
AcDbEntity
  8
0
100
AcDbLine
 10
-722.0019950848711
 20
565.9337360376116
 30
0.0
 11
-728.0019730848709
 21
565.9337360376116
 31
0.0
  0
LINE
  5
BE6
330
1F
100
AcDbEntity
  8
0
100
AcDbLine
 10
-706.001973084871
 20
588.4337360376116
 30
0.0
 11
-728.0019730848709
 21
588.4337360376116
 31
0.0
  0
LINE
  5
BE7
330
1F
100
AcDbEntity
  8
0
100
AcDbLine
 10
-710.001973084871
 20
563.9337360376116
 30
0.0
 11
-710.001973084871
 21
565.9337360376116
 31
0.0
  0
LINE
  5
BE8
330
1F
100
AcDbEntity
  8
0
100
AcDbLine
 10
-724.0019730848709
 20
565.9337360376116
 30
0.0
 11
-724.0019730848709
 21
563.9337360376116
 31
0.0
  0
LINE
  5
BE9
330
1F
100
AcDbEntity
  8
0
100
AcDbLine
 10
-729.001973084871
 20
587.4337360376116
 30
0.0
 11
-729.001973084871
 21
566.9337360376117
 31
0.0
  0
ARC
  5
BEA
330
1F
100
AcDbEntity
  8
0
100
AcDbCircle
 10
-728.0019730848709
 20
566.9337360376117
 30
0.0
 40
1.0
100
AcDbArc
 50
180.0
 51
270.0000025044948
  0
ARC
  5
BEB
330
1F
100
AcDbEntity
  8
0
100
AcDbCircle
 10
-706.001973084871
 20
566.9337360376117
 30
0.0
 40
1.0
100
AcDbArc
 50
270.0000025044948
 51
0.0000050089374039
  0
ARC
  5
BEC
330
1F
100
AcDbEntity
  8
0
100
AcDbCircle
 10
-706.001973084871
 20
587.4337360376116
 30
0.0
 40
1.0
100
AcDbArc
 50
359.9999949910105
 51
89.99999749553131
  0
ARC
  5
BED
330
1F
100
AcDbEntity
  8
0
100
AcDbCircle
 10
-728.0019730848709
 20
587.4337360376116
 30
0.0
 40
1.0
100
AcDbArc
 50
89.99999749553131
 51
180.0
  0
LINE
  5
BEE
330
1F
100
AcDbEntity
  8
0
  6
ByBlock
 62
     0
 48
0.3
100
AcDbLine
 10
-722.0019950848711
 20
569.1337056000329
 30
0.0
 11
-712.0019950848711
 21
569.1337056000334
 31
0.0
  0
ARC
  5
BEF
330
1F
100
AcDbEntity
  8
0
  6
ByBlock
 62
     0
 48
0.3
100
AcDbCircle
 10
-719.5019950848712
 20
561.8550204733851
 30
0.0
 40
7.220950126647949
100
AcDbArc
 50
69.74444580078172
 51
110.2555541992183
  0
LINE
  5
BF0
330
1F
100
AcDbEntity
  8
0
  6
ByBlock
 62
     0
 48
0.3
100
AcDbLine
 10
-721.9019950848717
 20
565.533705600033
 30
0.0
 11
-712.1019950848715
 21
565.533705600033
 31
0.0
  0
ARC
  5
BF1
330
1F
100
AcDbEntity
  8
0
  6
ByBlock
 62
     0
 48
0.3
100
AcDbCircle
 10
-714.5019950848712
 20
561.8550204733851
 30
0.0
 40
7.220950126647949
100
AcDbArc
 50
69.74444580078172
 51
110.2555541992183
  0
LINE
  5
BF2
330
1F
100
AcDbEntity
  8
0
  6
ByBlock
 62
     0
 48
0.3
100
AcDbLine
 10
-712.0019950848711
 20
565.533705600033
 30
0.0
 11
-712.0019950848711
 21
569.1337056000334
 31
0.0
  0
LINE
  5
BF3
330
1F
100
AcDbEntity
  8
0
  6
ByBlock
 62
     0
 48
0.3
100
AcDbLine
 10
-717.0019950848711
 20
565.533705600033
 30
0.0
 11
-717.0019950848711
 21
568.6293903750334
 31
0.0
  0
LINE
  5
BF4
330
1F
100
AcDbEntity
  8
0
  6
ByBlock
 62
     0
 48
0.3
100
AcDbLine
 10
-722.0019950848711
 20
565.533705600033
 30
0.0
 11
-722.0019950848711
 21
569.1337056000329
 31
0.0
  0
LINE
  5
BF5
330
1F
100
AcDbEntity
  8
0
100
AcDbLine
 10
-653.1880273036215
 20
394.433737212611
 30
0.0
 11
-653.1880273036215
 21
404.4337219538219
 31
0.0
  0
LINE
  5
BF6
330
1F
100
AcDbEntity
  8
0
100
AcDbLine
 10
-653.1880273036215
 20
394.6837219538219
 30
0.0
 11
-655.1880273036215
 21
394.6837219538219
 31
0.0
  0
LINE
  5
BF7
330
1F
100
AcDbEntity
  8
0
100
AcDbLine
 10
-655.1866179197543
 20
404.1837408067658
 30
0.0
 11
-658.2519921473715
 21
404.0879478850028
 31
0.0
  0
LINE
  5
BF8
330
1F
100
AcDbEntity
  8
0
100
AcDbLine
 10
-653.1880273036215
 20
404.1837372126109
 30
0.0
 11
-655.1880273036215
 21
404.1837372126109
 31
0.0
  0
LINE
  5
BF9
330
1F
100
AcDbEntity
  8
0
100
AcDbLine
 10
-640.6880578211996
 20
404.4337219538219
 30
0.0
 11
-653.1880273036215
 21
404.4337219538219
 31
0.0
  0
LINE
  5
BFA
330
1F
100
AcDbEntity
  8
0
100
AcDbLine
 10
-640.6880578211996
 20
394.433737212611
 30
0.0
 11
-640.6880578211996
 21
404.4337219538219
 31
0.0
  0
LINE
  5
BFB
330
1F
100
AcDbEntity
  8
0
100
AcDbLine
 10
-655.1880699782007
 20
394.6837327967186
 30
0.0
 11
-658.2519921473715
 21
394.7794803416659
 31
0.0
  0
LINE
  5
BFC
330
1F
100
AcDbEntity
  8
0
100
AcDbLine
 10
-640.6880578211996
 20
394.433737212611
 30
0.0
 11
-653.1880273036215
 21
394.433737212611
 31
0.0
  0
LINE
  5
BFD
330
1F
100
AcDbEntity
  8
0
100
AcDbLine
 10
-656.2519921473715
 20
394.7169098200329
 30
0.0
 11
-656.2519921473715
 21
404.1504577936656
 31
0.0
  0
LINE
  5
BFE
330
1F
100
AcDbEntity
  8
0
100
AcDbLine
 10
-602.0021141802806
 20
296.433701704459
 30
0.0
 11
-602.0021141802806
 21
177.433701704459
 31
0.0
  0
LINE
  5
BFF
330
1F
100
AcDbEntity
  8
0
100
AcDbLine
 10
-605.1394953170536
 20
295.6441258894273
 30
0.0
 11
-607.5396858555921
 21
289.0496568185417
 31
0.0
  0
LINE
  5
C00
330
1F
100
AcDbEntity
  8
0
100
AcDbLine
 10
-602.0021141802806
 20
296.433701704459
 30
0.0
 11
-604.0118641768347
 21
296.433701704459
 31
0.0
  0
ARC
  5
C01
330
1F
100
AcDbEntity
  8
0
100
AcDbCircle
 10
-604.0118641768347
 20
295.2337017044582
 30
0.0
 40
1.199999999999999
100
AcDbArc
 50
90.0
 51
159.9999993406004
  0
ARC
  5
C02
330
1F
100
AcDbEntity
  8
0
100
AcDbCircle
 10
-609.4190710892915
 20
289.7336971268223
 30
0.0
 40
2.0
100
AcDbArc
 50
270.0
 51
339.9999993406003
  0
LINE
  5
C03
330
1F
100
AcDbEntity
  8
0
100
AcDbLine
 10
-602.0021141802806
 20
177.433701704459
 30
0.0
 11
-604.0118641768347
 21
177.433701704459
 31
0.0
  0
ARC
  5
C04
330
1F
100
AcDbEntity
  8
0
100
AcDbCircle
 10
-604.0118641768347
 20
178.6337017044579
 30
0.0
 40
1.199999999999999
100
AcDbArc
 50
200.0000006593996
 51
270.0
  0
ARC
  5
C05
330
1F
100
AcDbEntity
  8
0
100
AcDbCircle
 10
-609.4190710892915
 20
184.1337062820957
 30
0.0
 40
2.0
100
AcDbArc
 50
20.00000065939961
 51
90.0
  0
LINE
  5
C06
330
1F
100
AcDbEntity
  8
0
100
AcDbLine
 10
-605.1394953170536
 20
178.2232775194906
 30
0.0
 11
-607.5396858555921
 21
184.8177465903754
 31
0.0
  0
LINE
  5
C07
330
1F
100
AcDbEntity
  8
0
100
AcDbLine
 10
-609.4190715428792
 20
287.7336971268223
 30
0.0
 11
-636.7521065508879
 21
287.7337033257845
 31
0.0
  0
LINE
  5
C08
330
1F
100
AcDbEntity
  8
0
100
AcDbLine
 10
-832.0021141802806
 20
296.433701704459
 30
0.0
 11
-832.0021141802806
 21
177.433701704459
 31
0.0
  0
LINE
  5
C09
330
1F
100
AcDbEntity
  8
0
100
AcDbLine
 10
-828.8647330435075
 20
295.6441258894273
 30
0.0
 11
-826.4645425049691
 21
289.0496568185417
 31
0.0
  0
LINE
  5
C0A
330
1F
100
AcDbEntity
  8
0
100
AcDbLine
 10
-832.0021141802806
 20
296.433701704459
 30
0.0
 11
-829.9923641837265
 21
296.433701704459
 31
0.0
  0
ARC
  5
C0B
330
1F
100
AcDbEntity
  8
0
100
AcDbCircle
 10
-829.9923641837265
 20
295.2337017044582
 30
0.0
 40
1.199999999999999
100
AcDbArc
 50
20.00000065939961
 51
90.0
  0
ARC
  5
C0C
330
1F
100
AcDbEntity
  8
0
100
AcDbCircle
 10
-824.5851572712696
 20
289.7336971268223
 30
0.0
 40
2.0
100
AcDbArc
 50
200.0000006593996
 51
270.0
  0
LINE
  5
C0D
330
1F
100
AcDbEntity
  8
0
100
AcDbLine
 10
-832.0021141802806
 20
177.433701704459
 30
0.0
 11
-829.9923641837265
 21
177.433701704459
 31
0.0
  0
ARC
  5
C0E
330
1F
100
AcDbEntity
  8
0
100
AcDbCircle
 10
-829.9923641837265
 20
178.6337017044579
 30
0.0
 40
1.199999999999999
100
AcDbArc
 50
270.0
 51
339.9999993406003
  0
ARC
  5
C0F
330
1F
100
AcDbEntity
  8
0
100
AcDbCircle
 10
-824.5851572712696
 20
184.1337062820957
 30
0.0
 40
2.0
100
AcDbArc
 50
90.0
 51
159.9999993406004
  0
LINE
  5
C10
330
1F
100
AcDbEntity
  8
0
100
AcDbLine
 10
-828.8647330435075
 20
178.2232775194906
 30
0.0
 11
-826.4645425049691
 21
184.8177465903754
 31
0.0
  0
LINE
  5
C11
330
1F
100
AcDbEntity
  8
0
100
AcDbLine
 10
-824.5851572090829
 20
186.1337062820957
 30
0.0
 11
-795.002115100118
 21
186.1337053622564
 31
0.0
  0
LINE
  5
C12
330
1F
100
AcDbEntity
  8
0
100
AcDbLine
 10
-824.5851572712696
 20
287.7336971268223
 30
0.0
 11
-795.0021141802806
 21
287.7336971268223
 31
0.0
  0
LINE
  5
C13
330
1F
100
AcDbEntity
  8
0
100
AcDbLine
 10
-781.0021141802806
 20
303.933701704459
 30
0.0
 11
-788.0021141802806
 21
303.933701704459
 31
0.0
  0
ARC
  5
C14
330
1F
100
AcDbEntity
  8
0
100
AcDbCircle
 10
-781.0021141802806
 20
306.933701704459
 30
0.0
 40
3.0
100
AcDbArc
 50
270.0
 51
0.0
1001
GENIUS_GENOBJ-N-FIL_13
1002
{
1000
OWNER
1000
GEN
1002
}
1001
GENIUS_GENODEF_13
1002
{
1000
HIER
1070
     0
1002
}
1002
{
1000
MANEDIT
1070
     0
1002
}
1002
{
1000
NOSEL
1070
     0
1002
}
1002
{
1000
BEHIND
1070
     0
1002
}
1002
{
1000
OTHER
1070
     0
1002
}
1002
{
1000
REACTOR
1002
}
  0
LINE
  5
C15
330
1F
100
AcDbEntity
  8
0
100
AcDbLine
 10
-793.0021141802805
 20
298.933701704459
 30
0.0
 11
-793.0021141802805
 21
236.933701704459
 31
0.0
  0
ARC
  5
C16
330
1F
100
AcDbEntity
  8
0
100
AcDbCircle
 10
-795.0021141802806
 20
289.7336971268223
 30
0.0
 40
2.0
100
AcDbArc
 50
270.0
 51
0.0
1001
GENIUS_GENOBJ-N-FIL_13
1002
{
1000
OWNER
1000
GEN
1002
}
1001
GENIUS_GENODEF_13
1002
{
1000
HIER
1070
     0
1002
}
1002
{
1000
MANEDIT
1070
     0
1002
}
1002
{
1000
NOSEL
1070
     0
1002
}
1002
{
1000
BEHIND
1070
     0
1002
}
1002
{
1000
OTHER
1070
     0
1002
}
1002
{
1000
REACTOR
1002
}
  0
ARC
  5
C17
330
1F
100
AcDbEntity
  8
0
100
AcDbCircle
 10
-788.0021141802806
 20
298.933701704459
 30
0.0
 40
5.0
100
AcDbArc
 50
90.0
 51
180.0
1001
GENIUS_GENODEF_13
1002
{
1000
HIER
1070
     0
1002
}
1002
{
1000
MANEDIT
1070
     0
1002
}
1002
{
1000
NOSEL
1070
     0
1002
}
1002
{
1000
BEHIND
1070
     0
1002
}
1002
{
1000
OTHER
1070
     0
1002
}
1002
{
1000
REACTOR
1002
}
1001
GENIUS_GENOBJ-N-FIL_13
1002
{
1000
OWNER
1000
GEN
1002
}
  0
LINE
  5
C18
330
1F
100
AcDbEntity
  8
0
100
AcDbLine
 10
-778.0021141802806
 20
236.933701704459
 30
0.0
 11
-778.0021141802806
 21
316.433701704459
 31
0.0
  0
LINE
  5
C19
330
1F
100
AcDbEntity
  8
0
100
AcDbLine
 10
-696.0020833581209
 20
321.433701704459
 30
0.0
 11
-662.7521141802806
 21
321.4337017044581
 31
0.0
  0
ARC
  5
C1A
330
1F
100
AcDbEntity
  8
0
100
AcDbCircle
 10
-696.0020833581209
 20
323.433701704459
 30
0.0
 40
2.0
100
AcDbArc
 50
179.9999998663373
 51
270.0
1001
GENIUS_GENODEF_13
1002
{
1000
HIER
1070
     0
1002
}
1002
{
1000
MANEDIT
1070
     0
1002
}
1002
{
1000
NOSEL
1070
     0
1002
}
1002
{
1000
BEHIND
1070
     0
1002
}
1002
{
1000
OTHER
1070
     0
1002
}
1002
{
1000
REACTOR
1002
}
1001
GENIUS_GENOBJ-N-FIL_13
1002
{
1000
OWNER
1000
GEN
1002
}
  0
LINE
  5
C1B
330
1F
100
AcDbEntity
  8
0
100
AcDbLine
 10
-659.4763802325267
 20
338.4336978897617
 30
0.0
 11
-640.0278416616617
 21
338.4336978897617
 31
0.0
  0
LINE
  5
C1C
330
1F
100
AcDbEntity
  8
0
100
AcDbLine
 10
-698.0020833523333
 20
325.9337055165351
 30
0.0
 11
-699.5020833523333
 21
325.933705520033
 31
0.0
  0
LINE
  5
C1D
330
1F
100
AcDbEntity
  8
0
100
AcDbLine
 10
-698.0020833522887
 20
325.9337055166879
 30
0.0
 11
-698.0020833581209
 21
323.4337017091238
 31
0.0
  0
LINE
  5
C1E
330
1F
100
AcDbEntity
  8
0
100
AcDbLine
 10
-736.0021450082278
 20
325.9337055165351
 30
0.0
 11
-734.5021450082279
 21
325.933705520033
 31
0.0
  0
LINE
  5
C1F
330
1F
100
AcDbEntity
  8
0
100
AcDbLine
 10
-736.002145008272
 20
325.9337055166879
 30
0.0
 11
-736.0021450082278
 21
323.4335495537989
 31
0.0
  0
LINE
  5
C20
330
1F
100
AcDbEntity
  8
0
100
AcDbLine
 10
-705.5020836636601
 20
150.433701709122
 30
0.0
 11
-705.5020836750043
 21
145.5684501363593
 31
0.0
  0
ARC
  5
C21
330
1F
100
AcDbEntity
  8
0
100
AcDbCircle
 10
-703.5020836636602
 20
150.433701704459
 30
0.0
 40
2.0
100
AcDbArc
 50
90.0
 51
179.9999998663894
1001
GENIUS_GENODEF_13
1002
{
1000
HIER
1070
     0
1002
}
1002
{
1000
MANEDIT
1070
     0
1002
}
1002
{
1000
NOSEL
1070
     0
1002
}
1002
{
1000
BEHIND
1070
     0
1002
}
1002
{
1000
OTHER
1070
     0
1002
}
1002
{
1000
REACTOR
1002
}
1001
GENIUS_GENOBJ-N-FIL_13
1002
{
1000
OWNER
1000
GEN
1002
}
  0
LINE
  5
C22
330
1F
100
AcDbEntity
  8
0
100
AcDbLine
 10
-728.5020989224437
 20
150.4337016997951
 30
0.0
 11
-728.5020989337883
 21
145.5684501900595
 31
0.0
  0
ARC
  5
C23
330
1F
100
AcDbEntity
  8
0
100
AcDbCircle
 10
-730.5020989224438
 20
150.433701704459
 30
0.0
 40
2.0
100
AcDbArc
 50
359.9999998663894
 51
90.0
1001
GENIUS_GENODEF_13
1002
{
1000
HIER
1070
     0
1002
}
1002
{
1000
MANEDIT
1070
     0
1002
}
1002
{
1000
NOSEL
1070
     0
1002
}
1002
{
1000
BEHIND
1070
     0
1002
}
1002
{
1000
OTHER
1070
     0
1002
}
1002
{
1000
REACTOR
1002
}
1001
GENIUS_GENOBJ-N-FIL_13
1002
{
1000
OWNER
1000
GEN
1002
}
  0
LINE
  5
C24
330
1F
100
AcDbEntity
  8
0
100
AcDbLine
 10
-717.0021159002033
 20
144.9337051345719
 30
0.0
 11
-731.5019614988917
 21
144.9337052021973
 31
0.0
  0
LINE
  5
C25
330
1F
100
AcDbEntity
  8
0
100
AcDbLine
 10
-734.5020073172338
 20
135.9337023551661
 30
0.0
 11
-734.5020072892505
 21
141.9336994941431
 31
0.0
  0
LINE
  5
C26
330
1F
100
AcDbEntity
  8
0
100
AcDbLine
 10
-707.502007354545
 20
127.9337098586356
 30
0.0
 11
-726.5019920957558
 21
127.9337099472495
 31
0.0
  0
LINE
  5
C27
330
1F
100
AcDbEntity
  8
0
100
AcDbLine
 10
-699.5019920584447
 20
135.9337021919299
 30
0.0
 11
-699.5019920304614
 21
141.933699330907
 31
0.0
  0
LINE
  5
C28
330
1F
100
AcDbEntity
  8
0
100
AcDbLine
 10
-702.5019920164697
 20
144.9337050669446
 30
0.0
 11
-717.0021159002033
 21
144.9337051345709
 31
0.0
  0
ARC
  5
C29
330
1F
100
AcDbEntity
  8
0
100
AcDbCircle
 10
-704.5020990425321
 20
145.5684543626111
 30
0.0
 40
1.000000029802322
100
AcDbArc
 50
179.999991348559
 51
224.9999960159256
  0
ARC
  5
C2A
330
1F
100
AcDbEntity
  8
0
100
AcDbCircle
 10
-729.502083783743
 20
145.5684543626111
 30
0.0
 40
1.000000029802322
100
AcDbArc
 50
315.0000021628506
 51
0.0000085177782529
  0
ARC
  5
C2B
330
1F
100
AcDbEntity
  8
0
100
AcDbCircle
 10
-731.5019617134305
 20
141.9336992280286
 30
0.0
 40
3.0
100
AcDbArc
 50
89.99999567427954
 51
180.0000050089374
  0
ARC
  5
C2C
330
1F
100
AcDbEntity
  8
0
100
AcDbCircle
 10
-726.5019922310086
 20
135.9337020890516
 30
0.0
 40
8.000000238418579
100
AcDbArc
 50
180.0000086513888
 51
270.0000043256683
  0
ARC
  5
C2D
330
1F
100
AcDbEntity
  8
0
100
AcDbCircle
 10
-707.5020074897977
 20
135.9337020890516
 30
0.0
 40
8.000000238418579
100
AcDbArc
 50
269.9999974954792
 51
359.9999912149485
  0
ARC
  5
C2E
330
1F
100
AcDbEntity
  8
0
100
AcDbCircle
 10
-702.5019922310086
 20
141.9336992280286
 30
0.0
 40
3.0
100
AcDbArc
 50
359.9999948573999
 51
89.99998884409036
  0
LINE
  5
C2F
330
1F
100
AcDbEntity
  8
0
100
AcDbLine
 10
-793.0021141802805
 20
174.933701704459
 30
0.0
 11
-793.0021141802801
 21
236.9337017044581
 31
0.0
  0
ARC
  5
C30
330
1F
100
AcDbEntity
  8
0
100
AcDbCircle
 10
-795.0021141802806
 20
184.1337053622573
 30
0.0
 40
2.0
100
AcDbArc
 50
0.0
 51
90.0000263514026
1001
GENIUS_GENOBJ-N-FIL_13
1002
{
1000
OWNER
1000
GEN
1002
}
1001
GENIUS_GENODEF_13
1002
{
1000
HIER
1070
     0
1002
}
1002
{
1000
MANEDIT
1070
     0
1002
}
1002
{
1000
NOSEL
1070
     0
1002
}
1002
{
1000
BEHIND
1070
     0
1002
}
1002
{
1000
OTHER
1070
     0
1002
}
1002
{
1000
REACTOR
1002
}
  0
LINE
  5
C31
330
1F
100
AcDbEntity
  8
0
100
AcDbLine
 10
-778.0021141802806
 20
236.933701704459
 30
0.0
 11
-778.0021141802806
 21
157.433701704459
 31
0.0
  0
LINE
  5
C32
330
1F
100
AcDbEntity
  8
0
100
AcDbLine
 10
-609.4190715428792
 20
186.1337062820957
 30
0.0
 11
-636.7521065508851
 21
186.1337000831317
 31
0.0
  0
LINE
  5
C33
330
1F
100
AcDbEntity
  8
0
100
AcDbLine
 10
-662.7521141802806
 20
144.4337134458446
 30
0.0
 11
-659.4763776125708
 21
135.4337015162545
 31
0.0
  0
LINE
  5
C34
330
1F
100
AcDbEntity
  8
0
100
AcDbLine
 10
-659.4763802325267
 20
135.4337055191562
 30
0.0
 11
-640.0278416616617
 21
135.4337055191562
 31
0.0
  0
LINE
  5
C35
330
1F
100
AcDbEntity
  8
0
100
AcDbLine
 10
-662.7521141802806
 20
236.933701704459
 30
0.0
 11
-662.7521141802802
 21
144.4337134458446
 31
0.0
  0
LINE
  5
C36
330
1F
100
AcDbEntity
  8
0
  6
CENTER
100
AcDbLine
 10
-842.0021141802806
 20
236.933701704459
 30
0.0
 11
-592.0021141802806
 21
236.933701704459
 31
0.0
  0
LINE
  5
C37
330
1F
100
AcDbEntity
  8
0
100
AcDbLine
 10
-781.0021141802806
 20
169.933701704459
 30
0.0
 11
-788.0021141802806
 21
169.933701704459
 31
0.0
  0
ARC
  5
C38
330
1F
100
AcDbEntity
  8
0
100
AcDbCircle
 10
-781.0021141802806
 20
166.933701704459
 30
0.0
 40
3.0
100
AcDbArc
 50
0.0
 51
90.0
1001
GENIUS_GENOBJ-N-FIL_13
1002
{
1000
OWNER
1000
GEN
1002
}
1001
GENIUS_GENODEF_13
1002
{
1000
HIER
1070
     0
1002
}
1002
{
1000
MANEDIT
1070
     0
1002
}
1002
{
1000
NOSEL
1070
     0
1002
}
1002
{
1000
BEHIND
1070
     0
1002
}
1002
{
1000
OTHER
1070
     0
1002
}
1002
{
1000
REACTOR
1002
}
  0
ARC
  5
C39
330
1F
100
AcDbEntity
  8
0
100
AcDbCircle
 10
-788.0021141802806
 20
174.933701704459
 30
0.0
 40
5.0
100
AcDbArc
 50
180.0
 51
270.0
1001
GENIUS_GENODEF_13
1002
{
1000
HIER
1070
     0
1002
}
1002
{
1000
MANEDIT
1070
     0
1002
}
1002
{
1000
NOSEL
1070
     0
1002
}
1002
{
1000
BEHIND
1070
     0
1002
}
1002
{
1000
OTHER
1070
     0
1002
}
1002
{
1000
REACTOR
1002
}
1001
GENIUS_GENOBJ-N-FIL_13
1002
{
1000
OWNER
1000
GEN
1002
}
  0
LINE
  5
C3A
330
1F
100
AcDbEntity
  8
0
100
AcDbLine
 10
-738.0021450024403
 20
321.433701704459
 30
0.0
 11
-773.0021141802806
 21
321.433701704459
 31
0.0
  0
ARC
  5
C3B
330
1F
100
AcDbEntity
  8
0
100
AcDbCircle
 10
-773.0021141802806
 20
316.433701704459
 30
0.0
 40
5.0
100
AcDbArc
 50
90.0
 51
180.0
1001
GENIUS_GENODEF_13
1002
{
1000
HIER
1070
     0
1002
}
1002
{
1000
MANEDIT
1070
     0
1002
}
1002
{
1000
NOSEL
1070
     0
1002
}
1002
{
1000
BEHIND
1070
     0
1002
}
1002
{
1000
OTHER
1070
     0
1002
}
1002
{
1000
REACTOR
1002
}
1001
GENIUS_GENOBJ-N-FIL_13
1002
{
1000
OWNER
1000
GEN
1002
}
  0
ARC
  5
C3C
330
1F
100
AcDbEntity
  8
0
100
AcDbCircle
 10
-738.0021450024403
 20
323.433701704459
 30
0.0
 40
2.0
100
AcDbArc
 50
270.0
 51
0.0000001336626833
1001
GENIUS_GENODEF_13
1002
{
1000
HIER
1070
     0
1002
}
1002
{
1000
MANEDIT
1070
     0
1002
}
1002
{
1000
NOSEL
1070
     0
1002
}
1002
{
1000
BEHIND
1070
     0
1002
}
1002
{
1000
OTHER
1070
     0
1002
}
1002
{
1000
REACTOR
1002
}
1001
GENIUS_GENOBJ-N-FIL_13
1002
{
1000
OWNER
1000
GEN
1002
}
  0
LINE
  5
C3D
330
1F
100
AcDbEntity
  8
0
100
AcDbLine
 10
-703.5020836636602
 20
152.433701704459
 30
0.0
 11
-662.7521141802806
 21
152.4337017044581
 31
0.0
  0
LINE
  5
C3E
330
1F
100
AcDbEntity
  8
0
100
AcDbLine
 10
-730.5020989224438
 20
152.433701704459
 30
0.0
 11
-773.0021141802806
 21
152.433701704459
 31
0.0
  0
ARC
  5
C3F
330
1F
100
AcDbEntity
  8
0
100
AcDbCircle
 10
-773.0021141802806
 20
157.433701704459
 30
0.0
 40
5.0
100
AcDbArc
 50
180.0
 51
270.0
1001
GENIUS_GENODEF_13
1002
{
1000
HIER
1070
     0
1002
}
1002
{
1000
MANEDIT
1070
     0
1002
}
1002
{
1000
NOSEL
1070
     0
1002
}
1002
{
1000
BEHIND
1070
     0
1002
}
1002
{
1000
OTHER
1070
     0
1002
}
1002
{
1000
REACTOR
1002
}
1001
GENIUS_GENOBJ-N-FIL_13
1002
{
1000
OWNER
1000
GEN
1002
}
  0
LINE
  5
C40
330
1F
100
AcDbEntity
  8
0
100
AcDbLine
 10
-706.6899838804413
 20
141.9337099029425
 30
0.0
 11
-706.6899838804413
 21
135.9337099029425
 31
0.0
  0
LINE
  5
C41
330
1F
100
AcDbEntity
  8
0
100
AcDbLine
 10
-727.3140728804417
 20
141.9337099029425
 30
0.0
 11
-727.3140728804417
 21
135.9337099029425
 31
0.0
  0
LINE
  5
C42
330
1F
100
AcDbEntity
  8
0
100
AcDbLine
 10
-724.0907518804412
 20
141.9337099029425
 30
0.0
 11
-724.0907518804412
 21
135.9337099029425
 31
0.0
  0
LINE
  5
C43
330
1F
100
AcDbEntity
  8
0
100
AcDbLine
 10
-734.4027968804414
 20
141.9337099029425
 30
0.0
 11
-734.4027968804414
 21
135.9337099029425
 31
0.0
  0
LINE
  5
C44
330
1F
100
AcDbEntity
  8
0
100
AcDbLine
 10
-709.9133049804411
 20
141.9337099029425
 30
0.0
 11
-709.9133049804411
 21
135.9337099029425
 31
0.0
  0
LINE
  5
C45
330
1F
100
AcDbEntity
  8
0
100
AcDbLine
 10
-699.6012598804416
 20
141.9337099029425
 30
0.0
 11
-699.6012598804416
 21
135.9337099029425
 31
0.0
  0
ELLIPSE
  5
C46
330
1F
100
AcDbEntity
  8
0
100
AcDbEllipse
 10
-703.1456218804412
 20
141.9337099029425
 30
0.0
 11
3.544361799999999
 21
-0.0000000000000004
 31
0.0
210
0.0
220
0.0
230
-1.0
 40
0.7330166500000001
 41
3.1415927
 42
6.283185299999999
  0
ELLIPSE
  5
C47
330
1F
100
AcDbEntity
  8
0
100
AcDbEllipse
 10
-730.8584348804413
 20
141.9337099029425
 30
0.0
 11
-3.544361799999999
 21
0.0000000000000004
 31
0.0
210
0.0
220
0.0
230
-1.0
 40
0.7330166500000001
 41
0.0
 42
3.1415927
  0
ELLIPSE
  5
C48
330
1F
100
AcDbEntity
  8
0
100
AcDbEllipse
 10
-703.1456218804412
 20
135.9337099029425
 30
0.0
 11
-0.0000000000002268
 21
4.663689399999999
 31
0.0
210
0.0
220
0.0
230
-1.0
 40
0.7599909700000001
 41
1.5707963
 42
4.712388999999999
  0
ELLIPSE
  5
C49
330
1F
100
AcDbEntity
  8
0
100
AcDbEllipse
 10
-717.0020285237344
 20
141.9337099029425
 30
0.0
 11
7.088723599999998
 21
-0.0000000000000009
 31
0.0
210
0.0
220
0.0
230
-1.0
 40
0.36650832
 41
3.1415927
 42
6.283185299999999
  0
ELLIPSE
  5
C4A
330
1F
100
AcDbEntity
  8
0
100
AcDbEllipse
 10
-717.0020285237344
 20
135.9337099029425
 30
0.0
 11
-7.088723599999998
 21
0.0000000000000009
 31
0.0
210
0.0
220
0.0
230
-1.0
 40
0.6579025600000001
 41
3.1415927
 42
6.283185299999999
  0
ELLIPSE
  5
C4B
330
1F
100
AcDbEntity
  8
0
100
AcDbEllipse
 10
-730.8584348804413
 20
135.9337099029425
 30
0.0
 11
0.0000000000002262
 21
4.663689399999999
 31
0.0
210
0.0
220
0.0
230
-1.0
 40
0.7599909700000001
 41
1.5707963
 42
4.712388999999999
  0
LINE
  5
C4C
330
1F
100
AcDbEntity
  8
0
100
AcDbLine
 10
-604.8521132123949
 20
295.6441258894273
 30
0.0
 11
-604.8521132123944
 21
236.933701704459
 31
0.0
  0
LINE
  5
C4D
330
1F
100
AcDbEntity
  8
0
100
AcDbLine
 10
-608.0186560300228
 20
287.7336971268223
 30
0.0
 11
-608.0186560300228
 21
236.933701704459
 31
0.0
  0
LINE
  5
C4E
330
1F
100
AcDbEntity
  8
0
100
AcDbLine
 10
-604.8521132123949
 20
178.2232775194906
 30
0.0
 11
-604.8521132123944
 21
236.933701704459
 31
0.0
  0
LINE
  5
C4F
330
1F
100
AcDbEntity
  8
0
100
AcDbLine
 10
-608.0186560300228
 20
186.1337062820957
 30
0.0
 11
-608.0186560300228
 21
236.9337017044581
 31
0.0
  0
LINE
  5
C50
330
1F
100
AcDbEntity
  8
0
100
AcDbLine
 10
-697.0021380270233
 20
331.9337017076813
 30
0.0
 11
-697.0021380270233
 21
329.9337017076813
 31
0.0
  0
LINE
  5
C51
330
1F
100
AcDbEntity
  8
0
100
AcDbLine
 10
-829.1521152243969
 20
295.6441367172455
 30
0.0
 11
-829.1521208927509
 21
236.9337125322772
 31
0.0
  0
LINE
  5
C52
330
1F
100
AcDbEntity
  8
0
100
AcDbLine
 10
-825.9855731705021
 20
287.7337076489193
 30
0.0
 11
-825.9855780751225
 21
236.933712226556
 31
0.0
  0
LINE
  5
C53
330
1F
100
AcDbEntity
  8
0
100
AcDbLine
 10
-829.1521265611038
 20
178.2232883473097
 30
0.0
 11
-829.1521208927509
 21
236.9337125322772
 31
0.0
  0
LINE
  5
C54
330
1F
100
AcDbEntity
  8
0
100
AcDbLine
 10
-825.9855829797427
 20
186.1337168041927
 30
0.0
 11
-825.9855780751225
 21
236.9337122265551
 31
0.0
  0
LINE
  5
C55
330
1F
100
AcDbEntity
  8
0
100
AcDbLine
 10
-659.4763790695081
 20
255.4336940750645
 30
0.0
 11
-659.4763790695081
 21
338.4336978897617
 31
0.0
  0
LINE
  5
C56
330
1F
100
AcDbEntity
  8
0
100
AcDbLine
 10
-640.0278416616617
 20
255.4336940750645
 30
0.0
 11
-640.0278416616617
 21
338.4336978897617
 31
0.0
  0
LINE
  5
C57
330
1F
100
AcDbEntity
  8
0
100
AcDbLine
 10
-659.4763790695081
 20
218.4337093338535
 30
0.0
 11
-659.4763790695081
 21
135.433705519158
 31
0.0
  0
LINE
  5
C58
330
1F
100
AcDbEntity
  8
0
100
AcDbLine
 10
-640.0278416616617
 20
218.4337093338535
 30
0.0
 11
-640.0278416616617
 21
135.433705519158
 31
0.0
  0
LINE
  5
C59
330
1F
100
AcDbEntity
  8
0
  6
Continuous
 62
     0
100
AcDbLine
 10
-331.9312750704637
 20
312.4594014263775
 30
0.0
 11
-323.195298285623
 21
316.5330542490019
 31
0.0
  0
LINE
  5
C5A
330
1F
100
AcDbEntity
  8
0
  6
Continuous
 62
     0
100
AcDbLine
 10
-341.7183866587655
 20
158.5223088106276
 30
0.0
 11
-342.8905155962273
 21
145.1248137107422
 31
0.0
  0
LINE
  5
C5B
330
1F
100
AcDbEntity
  8
0
  6
Continuous
 62
     0
100
AcDbLine
 10
-340.9843128627197
 20
161.1757790035889
 30
0.0
 11
-342.0464068753929
 21
149.0359888528427
 31
0.0
  0
LINE
  5
C5C
330
1F
100
AcDbEntity
  8
0
  6
Continuous
 62
     0
100
AcDbLine
 10
-492.1730521602087
 20
192.2152950272129
 30
0.0
 11
-492.1730521602087
 21
178.3170635208652
 31
0.0
  0
LINE
  5
C5D
330
1F
100
AcDbEntity
  8
0
  6
Continuous
 62
     0
100
AcDbLine
 10
-507.1730521602087
 20
192.2152950272129
 30
0.0
 11
-507.1730521602087
 21
178.3170635208652
 31
0.0
  0
LINE
  5
C5E
330
1F
100
AcDbEntity
  8
0
  6
Continuous
 62
     0
100
AcDbLine
 10
-490.1991089122223
 20
175.4979859393733
 30
0.0
 11
-485.1990913323532
 21
173.6781283043273
 31
0.0
  0
LINE
  5
C5F
330
1F
100
AcDbEntity
  8
0
  6
Continuous
 62
     0
100
AcDbLine
 10
-490.847090057425
 20
210.662083573834
 30
0.0
 11
-491.5076270706315
 21
198.0582865943333
 31
0.0
  0
LINE
  5
C60
330
1F
100
AcDbEntity
  8
0
  6
Continuous
 62
     0
100
AcDbLine
 10
-508.498996594393
 20
210.6620877200666
 30
0.0
 11
-507.838459581186
 21
198.058290740565
 31
0.0
  0
LINE
  5
C61
330
1F
100
AcDbEntity
  8
0
  6
Continuous
 62
     0
100
AcDbLine
 10
-504.1730521602087
 20
195.2152950272129
 30
0.0
 11
-495.1730521602087
 21
195.2152950272129
 31
0.0
  0
LINE
  5
C62
330
1F
100
AcDbEntity
  8
0
  6
Continuous
 62
     0
100
AcDbLine
 10
-494.6730369014196
 20
195.2152950272129
 30
0.0
 11
-494.5035041255407
 21
195.2152950272129
 31
0.0
  0
LINE
  5
C63
330
1F
100
AcDbEntity
  8
0
  6
Continuous
 62
     0
100
AcDbLine
 10
-509.1469731301669
 20
175.4979820373664
 30
0.0
 11
-514.1469692021789
 21
173.6781322305405
 31
0.0
  0
LINE
  5
C64
330
1F
100
AcDbEntity
  8
0
  6
Continuous
 62
     0
100
AcDbLine
 10
-504.6730477299049
 20
193.1836755384783
 30
0.0
 11
-503.673046651201
 21
192.1836744597739
 31
0.0
  0
LINE
  5
C65
330
1F
100
AcDbEntity
  8
0
  6
Continuous
 62
     0
100
AcDbLine
 10
-490.9230369014196
 20
214.8427593216465
 30
0.0
 11
-490.9230369014196
 21
211.8922664627598
 31
0.0
  0
LINE
  5
C66
330
1F
100
AcDbEntity
  8
0
  6
Continuous
 62
     0
100
AcDbLine
 10
-481.1730369014196
 20
184.7127773270176
 30
0.0
 11
-481.1730369014196
 21
176.4972240433262
 31
0.0
  0
LINE
  5
C67
330
1F
100
AcDbEntity
  8
0
  6
Continuous
 62
     0
100
AcDbLine
 10
-489.5833070221399
 20
206.8922720238651
 30
0.0
 11
-487.1609589670717
 21
202.6966421941751
 31
0.0
  0
LINE
  5
C68
330
1F
100
AcDbEntity
  8
0
  6
Continuous
 62
     0
100
AcDbLine
 10
-494.6730597896032
 20
193.1836723393998
 30
0.0
 11
-494.6730597896032
 21
195.1733362083559
 31
0.0
  0
LINE
  5
C69
330
1F
100
AcDbEntity
  8
0
  6
Continuous
 62
     0
100
AcDbLine
 10
-504.6730445308141
 20
193.1836723393998
 30
0.0
 11
-504.6730445308141
 21
195.1733362083559
 31
0.0
  0
LINE
  5
C6A
330
1F
100
AcDbEntity
  8
0
  6
Continuous
 62
     0
100
AcDbLine
 10
-508.4230445308142
 20
214.8427593216465
 30
0.0
 11
-508.4230445308142
 21
211.8922664627598
 31
0.0
  0
LINE
  5
C6B
330
1F
100
AcDbEntity
  8
0
  6
Continuous
 62
     0
100
AcDbLine
 10
-518.1730445308142
 20
184.7127773270176
 30
0.0
 11
-518.1730445308142
 21
176.4972240433262
 31
0.0
  0
LINE
  5
C6C
330
1F
100
AcDbEntity
  8
0
  6
Continuous
 62
     0
100
AcDbLine
 10
-509.7627702074662
 20
206.8922642567367
 30
0.0
 11
-512.1851239845812
 21
202.696624516172
 31
0.0
  0
LINE
  5
C6D
330
1F
100
AcDbEntity
  8
0
  6
Continuous
 62
     0
100
AcDbLine
 10
-472.509219266821
 20
247.6604704724804
 30
0.0
 11
-485.9728246854008
 21
255.4336868246755
 31
0.0
  0
LINE
  5
C6E
330
1F
100
AcDbEntity
  8
0
  6
Continuous
 62
     0
100
AcDbLine
 10
-504.6730445308141
 20
232.9336940750645
 30
0.0
 11
-504.6730445308141
 21
240.9337093338535
 31
0.0
  0
LINE
  5
C6F
330
1F
100
AcDbEntity
  8
0
  6
Continuous
 62
     0
100
AcDbLine
 10
-488.437403051322
 20
255.4336940750645
 30
0.0
 11
-507.1730521602087
 21
255.4336940750645
 31
0.0
  0
LINE
  5
C70
330
1F
100
AcDbEntity
  8
0
  6
Continuous
 62
     0
100
AcDbLine
 10
-503.6730738958738
 20
192.183701704459
 30
0.0
 11
-495.6730445308141
 21
192.183701704459
 31
0.0
  0
LINE
  5
C71
330
1F
100
AcDbEntity
  8
0
  6
Continuous
 62
     0
100
AcDbLine
 10
-494.6730369014196
 20
232.9336940750645
 30
0.0
 11
-494.6730369014196
 21
240.9337093338535
 31
0.0
  0
LINE
  5
C72
330
1F
100
AcDbEntity
  8
0
  6
Continuous
 62
     0
100
AcDbLine
 10
-472.5092192668196
 20
226.2069329364376
 30
0.0
 11
-485.9728246853994
 21
218.4337165842434
 31
0.0
  0
LINE
  5
C73
330
1F
100
AcDbEntity
  8
0
  6
Continuous
 62
     0
100
AcDbLine
 10
-341.7183738616507
 20
315.3450755487947
 30
0.0
 11
-342.8905039868916
 21
328.7425842250513
 31
0.0
  0
LINE
  5
C74
330
1F
100
AcDbEntity
  8
0
  6
Continuous
 62
     0
100
AcDbLine
 10
-331.9312750704614
 20
161.4080019825496
 30
0.0
 11
-323.1952982856208
 21
157.3343491599252
 31
0.0
  0
LINE
  5
C75
330
1F
100
AcDbEntity
  8
0
  6
Continuous
 62
     0
100
AcDbLine
 10
-475.900423376029
 20
240.9337093338535
 30
0.0
 11
-507.1785818030487
 21
240.9337093338535
 31
0.0
  0
LINE
  5
C76
330
1F
100
AcDbEntity
  8
0
  6
Continuous
 62
     0
100
AcDbLine
 10
-475.900423376029
 20
232.9336940750645
 30
0.0
 11
-507.1785818030487
 21
232.9336940750645
 31
0.0
  0
LINE
  5
C77
330
1F
100
AcDbEntity
  8
0
  6
Continuous
 62
     0
100
AcDbLine
 10
-343.159121328996
 20
159.9201534231078
 30
0.0
 11
-342.2919500608762
 21
159.5157848251737
 31
0.0
  0
LINE
  5
C78
330
1F
100
AcDbEntity
  8
0
  6
Continuous
 62
     0
100
AcDbLine
 10
-347.5621049386148
 20
142.4918160097576
 30
0.0
 11
-335.6831489553517
 21
141.4525420297331
 31
0.0
  0
LINE
  5
C79
330
1F
100
AcDbEntity
  8
0
  6
Continuous
 62
     0
100
AcDbLine
 10
-323.6894531851765
 20
156.274675952206
 30
0.0
 11
-328.7288886149165
 21
145.4675716554401
 31
0.0
  0
LINE
  5
C7A
330
1F
100
AcDbEntity
  8
0
  6
Continuous
 62
     0
100
AcDbLine
 10
-355.018651898454
 20
323.864345246543
 30
0.0
 11
-343.7242253115649
 21
329.1310227891671
 31
0.0
  0
LINE
  5
C7B
330
1F
100
AcDbEntity
  8
0
  6
Continuous
 62
     0
100
AcDbLine
 10
-343.1591257159409
 20
313.9472506437004
 30
0.0
 11
-342.2919544478211
 21
314.3516192416354
 31
0.0
  0
LINE
  5
C7C
330
1F
100
AcDbEntity
  8
0
  6
Continuous
 62
     0
100
AcDbLine
 10
-347.5620485341644
 20
331.3755951404264
 30
0.0
 11
-335.6831381530758
 21
332.4148651307786
 31
0.0
  0
LINE
  5
C7D
330
1F
100
AcDbEntity
  8
0
  6
Continuous
 62
     0
100
AcDbLine
 10
-340.9843000656026
 20
312.6916053558352
 30
0.0
 11
-342.0463948358167
 21
324.8314041653129
 31
0.0
  0
LINE
  5
C7E
330
1F
100
AcDbEntity
  8
0
  6
Continuous
 62
     0
100
AcDbLine
 10
-323.6894107536429
 20
317.5926818701154
 30
0.0
 11
-328.728872258115
 21
328.3998420843245
 31
0.0
  0
LINE
  5
C7F
330
1F
100
AcDbEntity
  8
0
  6
Continuous
 62
     0
100
AcDbLine
 10
-494.6730328967634
 20
193.1836795845829
 30
0.0
 11
-495.6730319524183
 21
192.1836805289285
 31
0.0
  0
LINE
  5
C80
330
1F
100
AcDbEntity
  8
0
  6
Continuous
 62
     0
100
AcDbLine
 10
-488.437403051322
 20
218.4337093338535
 30
0.0
 11
-491.1730445308141
 21
218.4337093338535
 31
0.0
  0
LINE
  5
C81
330
1F
100
AcDbEntity
  8
0
  6
Continuous
 62
     0
100
AcDbLine
 10
-508.1730369014196
 20
241.9336940750645
 30
0.0
 11
-508.1730369014196
 21
254.4337093338535
 31
0.0
  0
LINE
  5
C82
330
1F
100
AcDbEntity
  8
0
  6
Continuous
 62
     0
100
AcDbLine
 10
-508.1730369014196
 20
218.4337093338535
 30
0.0
 11
-508.1730369014196
 21
231.9337093338535
 31
0.0
  0
LINE
  5
C83
330
1F
100
AcDbEntity
  8
0
  6
Continuous
 62
     0
100
AcDbLine
 10
-355.0186518984503
 20
150.0030581623804
 30
0.0
 11
-343.7242253115612
 21
144.7363806197572
 31
0.0
  0
ARC
  5
C84
330
1F
100
AcDbEntity
  8
0
  6
Continuous
 62
     0
100
AcDbCircle
 10
-331.5086463374548
 20
311.5531055435703
 30
0.0
 40
1.000000029802322
100
AcDbArc
 50
114.9999993295882
 51
233.7743901091132
  0
ARC
  5
C85
330
1F
100
AcDbEntity
  8
0
  6
Continuous
 62
     0
100
AcDbCircle
 10
-386.1730445308142
 20
236.933701704459
 30
0.0
 40
95.19999504089355
100
AcDbArc
 50
297.4775796948204
 51
297.8350150409444
  0
ARC
  5
C86
330
1F
100
AcDbEntity
  8
0
  6
Continuous
 62
     0
100
AcDbCircle
 10
-488.1730445308142
 20
184.7127773270176
 30
0.0
 40
30.0
100
AcDbArc
 50
143.1686044667677
 51
179.9999974955313
  0
ARC
  5
C87
330
1F
100
AcDbEntity
  8
0
  6
Continuous
 62
     0
100
AcDbCircle
 10
-511.1730369014196
 20
184.7127773270176
 30
0.0
 40
30.0
100
AcDbArc
 50
0.0000086513888259
 51
36.83139393938279
  0
ARC
  5
C88
330
1F
100
AcDbEntity
  8
0
  6
Continuous
 62
     0
100
AcDbCircle
 10
-499.6730521602087
 20
214.8427593216465
 30
0.0
 40
8.750000238418579
100
AcDbArc
 50
0.0000086513888259
 51
27.31810487635177
  0
ARC
  5
C89
330
1F
100
AcDbEntity
  8
0
  6
Continuous
 62
     0
100
AcDbCircle
 10
-499.6730521602087
 20
214.8427593216465
 30
0.0
 40
8.750000238418579
100
AcDbArc
 50
152.6820237036846
 51
179.9999974955313
  0
ARC
  5
C8A
330
1F
100
AcDbEntity
  8
0
  6
Continuous
 62
     0
100
AcDbCircle
 10
-515.1730445308142
 20
176.4972240433262
 30
0.0
 40
3.0
100
AcDbArc
 50
179.9999974955313
 51
289.9999985075693
  0
ARC
  5
C8B
330
1F
100
AcDbEntity
  8
0
  6
Continuous
 62
     0
100
AcDbCircle
 10
-495.1730521602087
 20
192.2152950272129
 30
0.0
 40
3.0
100
AcDbArc
 50
0.0000086513888259
 51
90.00000432572047
  0
ARC
  5
C8C
330
1F
100
AcDbEntity
  8
0
  6
Continuous
 62
     0
100
AcDbCircle
 10
-504.1730521602087
 20
192.2152950272129
 30
0.0
 40
3.0
100
AcDbArc
 50
89.99999749553131
 51
179.9999974955313
  0
ARC
  5
C8D
330
1F
100
AcDbEntity
  8
0
  6
Continuous
 62
     0
100
AcDbCircle
 10
-504.8425773066931
 20
198.2152950272129
 30
0.0
 40
3.0
100
AcDbArc
 50
183.0000009372934
 51
270.0000025044687
  0
ARC
  5
C8E
330
1F
100
AcDbEntity
  8
0
  6
Continuous
 62
     0
100
AcDbCircle
 10
-494.5035041255407
 20
198.2152950272129
 30
0.0
 40
3.0
100
AcDbArc
 50
270.0000025044687
 51
356.9999946801726
  0
ARC
  5
C8F
330
1F
100
AcDbEntity
  8
0
  6
Continuous
 62
     0
100
AcDbCircle
 10
-480.9230521602087
 20
211.8922664627598
 30
0.0
 40
9.999999761581419
100
AcDbArc
 50
179.9999974955313
 51
209.9999974197263
  0
ARC
  5
C90
330
1F
100
AcDbEntity
  8
0
  6
Continuous
 62
     0
100
AcDbCircle
 10
-518.4230521602087
 20
211.8922664627598
 30
0.0
 40
9.999999761581419
100
AcDbArc
 50
329.9999973439112
 51
0.0000050089374039
  0
ARC
  5
C91
330
1F
100
AcDbEntity
  8
0
  6
Continuous
 62
     0
100
AcDbCircle
 10
-484.1730369014197
 20
176.4972240433262
 30
0.0
 40
3.0
100
AcDbArc
 50
249.9999996711921
 51
0.0000050089374039
  0
ARC
  5
C92
330
1F
100
AcDbEntity
  8
0
  6
Continuous
 62
     0
100
AcDbCircle
 10
-510.1730521602087
 20
178.3170635208652
 30
0.0
 40
3.0
100
AcDbArc
 50
289.9999985075693
 51
0.0000050089374039
  0
ARC
  5
C93
330
1F
100
AcDbEntity
  8
0
  6
Continuous
 62
     0
100
AcDbCircle
 10
-489.1730521602087
 20
178.3170635208652
 30
0.0
 40
3.0
100
AcDbArc
 50
179.9999974955313
 51
249.9999996711921
  0
ARC
  5
C94
330
1F
100
AcDbEntity
  8
0
  6
Continuous
 62
     0
100
AcDbCircle
 10
-331.5086463374548
 20
162.3142978653477
 30
0.0
 40
1.000000029802322
100
AcDbArc
 50
126.2256098908868
 51
245.0000006704117
  0
ARC
  5
C95
330
1F
100
AcDbEntity
  8
0
  6
Continuous
 62
     0
100
AcDbCircle
 10
-488.437403051322
 20
215.4337093338535
 30
0.0
 40
3.0
100
AcDbArc
 50
11.87291282526515
 51
89.99999749553131
  0
ARC
  5
C96
330
1F
100
AcDbEntity
  8
0
  6
Continuous
 62
     0
100
AcDbCircle
 10
-478.9593833369665
 20
254.8485805496738
 30
0.0
 40
3.0
100
AcDbArc
 50
240.0000016696571
 51
349.0719892048677
  0
ARC
  5
C97
330
1F
100
AcDbEntity
  8
0
  6
Continuous
 62
     0
100
AcDbCircle
 10
-478.9593833369665
 20
219.0188228592441
 30
0.0
 40
3.0
100
AcDbArc
 50
10.92801079513235
 51
119.9999983303429
  0
CIRCLE
  5
C98
330
1F
100
AcDbEntity
  8
0
  6
Continuous
 62
     0
100
AcDbCircle
 10
-499.6730521602087
 20
248.183701704459
 30
0.0
 40
4.999992370605468
  0
ARC
  5
C99
330
1F
100
AcDbEntity
  8
0
  6
Continuous
 62
     0
100
AcDbCircle
 10
-475.900423376029
 20
243.9337093338535
 30
0.0
 40
3.0
100
AcDbArc
 50
270.0000025044687
 51
355.5391538205329
  0
ARC
  5
C9A
330
1F
100
AcDbEntity
  8
0
  6
Continuous
 62
     0
100
AcDbCircle
 10
-386.1730445308142
 20
236.933701704459
 30
0.0
 40
91.5
100
AcDbArc
 50
306.2256171005673
 51
53.77439853315315
  0
ARC
  5
C9B
330
1F
100
AcDbEntity
  8
0
  6
Continuous
 62
     0
100
AcDbCircle
 10
-386.1730445308142
 20
236.933701704459
 30
0.0
 40
101.4999961853027
100
AcDbArc
 50
308.9948160611078
 51
51.0051547566877
  0
ARC
  5
C9C
330
1F
100
AcDbEntity
  8
0
  6
Continuous
 62
     0
100
AcDbCircle
 10
-319.1578718078087
 20
319.7057731559771
 30
0.0
 40
5.0
100
AcDbArc
 50
204.9999997111708
 51
231.0051547566879
  0
ARC
  5
C9D
330
1F
100
AcDbEntity
  8
0
  6
Continuous
 62
     0
100
AcDbCircle
 10
-386.1730445308142
 20
236.933701704459
 30
0.0
 40
101.4999961853027
100
AcDbArc
 50
64.75884900264091
 51
168.127083019575
  0
ARC
  5
C9E
330
1F
100
AcDbEntity
  8
0
  6
Continuous
 62
     0
100
AcDbCircle
 10
-488.437403051322
 20
258.4336940750645
 30
0.0
 40
3.0
100
AcDbArc
 50
270.0000025044687
 51
348.1270871747349
  0
ARC
  5
C9F
330
1F
100
AcDbEntity
  8
0
  6
Continuous
 62
     0
100
AcDbCircle
 10
-386.1730445308142
 20
236.933701704459
 30
0.0
 40
87.0
100
AcDbArc
 50
302.3644918865736
 51
57.64085057587844
  0
ARC
  5
CA0
330
1F
100
AcDbEntity
  8
0
  6
Continuous
 62
     0
100
AcDbCircle
 10
-386.1730445308142
 20
236.933701704459
 30
0.0
 40
91.5
100
AcDbArc
 50
71.56313126512633
 51
169.0719876109904
  0
ARC
  5
CA1
330
1F
100
AcDbEntity
  8
0
  6
Continuous
 62
     0
100
AcDbCircle
 10
-475.900423376029
 20
229.9336940750645
 30
0.0
 40
3.0
100
AcDbArc
 50
4.460846179467099
 51
89.99999749553131
  0
ARC
  5
CA2
330
1F
100
AcDbEntity
  8
0
  6
Continuous
 62
     0
100
AcDbCircle
 10
-344.4269660396033
 20
157.2012264236972
 30
0.0
 40
3.0
100
AcDbArc
 50
64.99999566148055
 51
117.635502952913
  0
CIRCLE
  5
CA3
330
1F
100
AcDbEntity
  8
0
  6
Continuous
 62
     0
100
AcDbCircle
 10
-335.0730231685095
 20
148.4258968338535
 30
0.0
 40
3.099999904632568
  0
ARC
  5
CA4
330
1F
100
AcDbEntity
  8
0
  6
Continuous
 62
     0
100
AcDbCircle
 10
-337.995752660697
 20
160.9143306717441
 30
0.0
 40
3.0
100
AcDbArc
 50
122.3644937077871
 51
175.0000001454467
  0
ARC
  5
CA5
330
1F
100
AcDbEntity
  8
0
  6
Continuous
 62
     0
100
AcDbCircle
 10
-342.7145636958532
 20
158.6094676956699
 30
0.0
 40
1.000000029802322
100
AcDbArc
 50
355.0000060081634
 51
65.0000056793708
  0
ARC
  5
CA6
330
1F
100
AcDbEntity
  8
0
  6
Continuous
 62
     0
100
AcDbCircle
 10
-347.9978888911658
 20
137.5108425125644
 30
0.0
 40
4.999999880790709
100
AcDbArc
 50
84.99999849474892
 51
111.0051856085898
  0
ARC
  5
CA7
330
1F
100
AcDbEntity
  8
0
  6
Continuous
 62
     0
100
AcDbCircle
 10
-319.1579078120642
 20
154.1615840897129
 30
0.0
 40
4.999999880790709
100
AcDbArc
 50
128.9948110520946
 51
154.9999998734823
  0
ARC
  5
CA8
330
1F
100
AcDbEntity
  8
0
  6
Continuous
 62
     0
100
AcDbCircle
 10
-386.1730445308142
 20
236.933701704459
 30
0.0
 40
87.0
100
AcDbArc
 50
184.46084350452
 51
297.6355011316903
  0
ARC
  5
CA9
330
1F
100
AcDbEntity
  8
0
  6
Continuous
 62
     0
100
AcDbCircle
 10
-335.0730231685095
 20
148.4258968338535
 30
0.0
 40
6.99999976158142
100
AcDbArc
 50
175.0000000145164
 51
335.1333867755729
  0
ARC
  5
CAA
330
1F
100
AcDbEntity
  8
0
  6
Continuous
 62
     0
100
AcDbCircle
 10
-356.286524145072
 20
326.5832721695469
 30
0.0
 40
3.0
100
AcDbArc
 50
251.5631362740726
 51
295.0000043385194
  0
ARC
  5
CAB
330
1F
100
AcDbEntity
  8
0
  6
Continuous
 62
     0
100
AcDbCircle
 10
-344.4269660396033
 20
316.6661655411289
 30
0.0
 40
3.0
100
AcDbArc
 50
242.364497047087
 51
295.0000043385194
  0
ARC
  5
CAC
330
1F
100
AcDbEntity
  8
0
  6
Continuous
 62
     0
100
AcDbCircle
 10
-335.0730231685095
 20
325.4414951309727
 30
0.0
 40
6.99999976158142
100
AcDbArc
 50
95.00000332647644
 51
184.9999999854835
  0
CIRCLE
  5
CAD
330
1F
100
AcDbEntity
  8
0
  6
Continuous
 62
     0
100
AcDbCircle
 10
-335.0730231685095
 20
325.4414951309727
 30
0.0
 40
3.099999904632568
  0
ARC
  5
CAE
330
1F
100
AcDbEntity
  8
0
  6
Continuous
 62
     0
100
AcDbCircle
 10
-337.995752660697
 20
312.9530841812656
 30
0.0
 40
3.0
100
AcDbArc
 50
184.9999998545532
 51
237.6355062922129
  0
ARC
  5
CAF
330
1F
100
AcDbEntity
  8
0
  6
Continuous
 62
     0
100
AcDbCircle
 10
-342.7145636958532
 20
315.2579242691563
 30
0.0
 40
1.000000029802322
100
AcDbArc
 50
295.0000043385194
 51
5.000004009739115
  0
ARC
  5
CB0
330
1F
100
AcDbEntity
  8
0
  6
Continuous
 62
     0
100
AcDbCircle
 10
-347.9978888911658
 20
336.3565608963535
 30
0.0
 40
4.999999880790709
100
AcDbArc
 50
248.9948143914102
 51
275.0000015052511
  0
ARC
  5
CB1
330
1F
100
AcDbEntity
  8
0
  6
Continuous
 62
     0
100
AcDbCircle
 10
-386.1730445308142
 20
236.933701704459
 30
0.0
 40
95.19999504089355
100
AcDbArc
 50
62.16497701680765
 51
62.52241239461156
  0
ARC
  5
CB2
330
1F
100
AcDbEntity
  8
0
  6
Continuous
 62
     0
100
AcDbCircle
 10
-356.286524145072
 20
147.2841312393711
 30
0.0
 40
3.0
100
AcDbArc
 50
64.99999566148055
 51
108.4368637259274
  0
ARC
  5
CB3
330
1F
100
AcDbEntity
  8
0
  6
Continuous
 62
     0
100
AcDbCircle
 10
-335.0730231685095
 20
325.4414951309727
 30
0.0
 40
6.99999976158142
100
AcDbArc
 50
24.99998999492929
 51
59.99999666066767
  0
ARC
  5
CB4
330
1F
100
AcDbEntity
  8
0
  6
Continuous
 62
     0
100
AcDbCircle
 10
-335.0730231685095
 20
325.4414951309727
 30
0.0
 40
6.99999976158142
100
AcDbArc
 50
59.99999666066767
 51
95.00000332647644
  0
ARC
  5
CB5
330
1F
100
AcDbEntity
  8
0
  6
Continuous
 62
     0
100
AcDbCircle
 10
-507.1730521602087
 20
254.4337093338535
 30
0.0
 40
1.000000029802322
100
AcDbArc
 50
89.99999749553131
 51
180.0
  0
ARC
  5
CB6
330
1F
100
AcDbEntity
  8
0
  6
Continuous
 62
     0
100
AcDbCircle
 10
-507.1730521602087
 20
241.9336940750645
 30
0.0
 40
1.000000029802322
100
AcDbArc
 50
180.0
 51
270.0000025044687
  0
ARC
  5
CB7
330
1F
100
AcDbEntity
  8
0
  6
Continuous
 62
     0
100
AcDbCircle
 10
-507.1730521602087
 20
231.9337093338535
 30
0.0
 40
1.000000029802322
100
AcDbArc
 50
89.99999749553131
 51
180.0
  0
ARC
  5
CB8
330
1F
100
AcDbEntity
  8
0
  6
Continuous
 62
     0
100
AcDbCircle
 10
-386.1730445308142
 20
236.933701704459
 30
0.0
 40
101.4999961853027
100
AcDbArc
 50
191.8729169804249
 51
295.2411399496025
  0
ARC
  5
CB9
330
1F
100
AcDbEntity
  8
0
  6
Continuous
 62
     0
100
AcDbCircle
 10
-386.1730445308142
 20
236.933701704459
 30
0.0
 40
91.5
100
AcDbArc
 50
190.9280123890095
 51
288.4368687348736
  0
ARC
  5
CBA
330
1F
100
AcDbEntity
  8
0
  6
Continuous
 62
     0
100
AcDbCircle
 10
-386.1730445308142
 20
236.933701704459
 30
0.0
 40
87.0
100
AcDbArc
 50
62.43226800527767
 51
175.5391564954799
  0
SPLINE
  5
CBB
330
1F
100
AcDbEntity
  8
0
  6
Continuous
 62
     0
100
AcDbSpline
210
0.0
220
0.0
230
1.0
 70
  1064
 71
     3
 72
     9
 73
     5
 74
     3
 42
0.000000001
 43
0.0000000001
 44
0.0000000001
 12
-0.8522434547228021
 22
0.5231453850337811
 32
0.0
 13
-0.8522434547228019
 23
-0.5231453850337815
 33
0.0
 40
0.0
 40
0.0
 40
0.0
 40
0.0
 40
8.891354270436988
 40
17.78268666010006
 40
17.78268666010006
 40
17.78268666010006
 40
17.78268666010006
 10
-491.1730445308141
 20
218.4337093338535
 30
0.0
 10
-493.6989106910147
 20
219.9841996516134
 30
0.0
 10
-499.6730457945535
 20
222.1009028086715
 30
0.0
 10
-505.6471769571346
 20
219.9841958360047
 30
0.0
 10
-508.1730369014196
 20
218.4337093338535
 30
0.0
 11
-491.1730445308141
 21
218.4337093338535
 31
0.0
 11
-499.6730521602087
 21
221.0425502762364
 31
0.0
 11
-508.1730369014196
 21
218.4337093338535
 31
0.0
  0
LINE
  5
CBC
330
1F
100
AcDbEntity
  8
0
100
AcDbLine
 10
-386.1730536434195
 20
296.433701704459
 30
0.0
 11
-388.1828036399736
 21
296.433701704459
 31
0.0
  0
LINE
  5
CBD
330
1F
100
AcDbEntity
  8
0
  6
CENTER
100
AcDbLine
 10
-514.6730450738648
 20
236.933701704459
 30
0.0
 11
-274.6730488885621
 21
236.933701704459
 31
0.0
  0
CIRCLE
  5
CBE
330
1F
100
AcDbEntity
  8
0
100
AcDbCircle
 10
-386.1730445308142
 20
236.933701704459
 30
0.0
 40
59.5
  0
CIRCLE
  5
CBF
330
1F
100
AcDbEntity
  8
0
100
AcDbCircle
 10
-386.1730445308142
 20
236.933701704459
 30
0.0
 40
48.79999237060474
  0
CIRCLE
  5
CC0
330
1F
100
AcDbEntity
  8
0
100
AcDbCircle
 10
-386.1730445308142
 20
236.933701704459
 30
0.0
 40
65.0
  0
LINE
  5
CC1
330
1F
100
AcDbEntity
  8
0
  6
CENTER
100
AcDbLine
 10
-386.1730417081678
 20
598.433736037612
 30
0.0
 11
-386.17305364342
 21
125.4337055191562
 31
0.0
  0
LINE
  5
CC2
330
1F
100
AcDbEntity
  8
0
100
AcDbLine
 10
-636.7521065508851
 20
144.4337134458446
 30
0.0
 11
-640.027843118595
 21
135.4337015162545
 31
0.0
  0
LINE
  5
CC3
330
1F
100
AcDbEntity
  8
0
100
AcDbLine
 10
-636.7521065508851
 20
236.933701704459
 30
0.0
 11
-636.7521065508851
 21
144.4337134458446
 31
0.0
  0
LINE
  5
CC4
330
1F
100
AcDbEntity
  8
0
100
AcDbLine
 10
-662.7521141802851
 20
329.4336899630734
 30
0.0
 11
-659.4763776125762
 21
338.4337018926625
 31
0.0
  0
LINE
  5
CC5
330
1F
100
AcDbEntity
  8
0
100
AcDbLine
 10
-662.7521141802806
 20
236.933701704459
 30
0.0
 11
-662.7521141802851
 21
329.4336899630734
 31
0.0
  0
LINE
  5
CC6
330
1F
100
AcDbEntity
  8
0
100
AcDbLine
 10
-636.7521065508896
 20
329.4336899630752
 30
0.0
 11
-640.0278431186004
 21
338.4337018926644
 31
0.0
  0
LINE
  5
CC7
330
1F
100
AcDbEntity
  8
0
100
AcDbLine
 10
-636.7521065508851
 20
236.9337017044608
 30
0.0
 11
-636.7521065508902
 21
329.4336899630752
 31
0.0
  0
LINE
  5
CC8
330
1F
100
AcDbEntity
  8
0
  6
Continuous
 62
     0
100
AcDbLine
 10
-654.7521065508861
 20
221.2127696976231
 30
0.0
 11
-654.7521065508861
 21
253.7738658890293
 31
0.0
  0
LINE
  5
CC9
330
1F
100
AcDbEntity
  8
0
  6
Continuous
 62
     0
100
AcDbLine
 10
-644.7521218096751
 20
221.2127696976231
 30
0.0
 11
-644.7521218096751
 21
253.7738658890293
 31
0.0
  0
LINE
  5
CCA
330
1F
100
AcDbEntity
  8
0
  6
Continuous
 62
     0
100
AcDbLine
 10
-652.6021127393384
 20
206.3627707809373
 30
0.0
 11
-652.6021127393384
 21
176.619697384759
 31
0.0
  0
LINE
  5
CCB
330
1F
100
AcDbEntity
  8
0
  6
Continuous
 62
     0
100
AcDbLine
 10
-658.5021106578367
 20
209.2127638677056
 30
0.0
 11
-657.9232938065081
 21
198.1682804601177
 31
0.0
  0
LINE
  5
CCC
330
1F
100
AcDbEntity
  8
0
  6
Continuous
 62
     0
100
AcDbLine
 10
-641.0021139195102
 20
214.8427667612004
 30
0.0
 11
-641.0021139195102
 21
209.2127540812052
 31
0.0
  0
LINE
  5
CCD
330
1F
100
AcDbEntity
  8
0
  6
Continuous
 62
     0
100
AcDbLine
 10
-658.5021144410509
 20
214.8427667612004
 30
0.0
 11
-658.5021144410509
 21
209.2128151163642
 31
0.0
  0
LINE
  5
CCE
330
1F
100
AcDbEntity
  8
0
  6
Continuous
 62
     0
100
AcDbLine
 10
-646.9021156212227
 20
206.3627707809373
 30
0.0
 11
-646.9021156212227
 21
176.619697384759
 31
0.0
  0
LINE
  5
CCF
330
1F
100
AcDbEntity
  8
0
  6
Continuous
 62
     0
100
AcDbLine
 10
-652.5087628178336
 20
176.1978159945174
 30
0.0
 11
-651.5211243061937
 21
174.0753318504284
 31
0.0
  0
LINE
  5
CD0
330
1F
100
AcDbEntity
  8
0
  6
Continuous
 62
     0
100
AcDbLine
 10
-646.9954670321315
 20
176.1978082726399
 30
0.0
 11
-647.9831055437714
 21
174.0753241285501
 31
0.0
  0
LINE
  5
CD1
330
1F
100
AcDbEntity
  8
0
  6
Continuous
 62
     0
100
AcDbLine
 10
-650.6144761139401
 20
173.4972149918976
 30
0.0
 11
-648.8897522466211
 21
173.4972149918976
 31
0.0
  0
LINE
  5
CD2
330
1F
100
AcDbEntity
  8
0
  6
Continuous
 62
     0
100
AcDbLine
 10
-646.9021156212227
 20
195.3252872366628
 30
0.0
 11
-644.5768172425975
 21
195.3252872366628
 31
0.0
  0
LINE
  5
CD3
330
1F
100
AcDbEntity
  8
0
  6
Continuous
 62
     0
100
AcDbLine
 10
-641.0021144463351
 20
209.2127713369099
 30
0.0
 11
-641.580931696955
 21
198.168280310384
 31
0.0
  0
LINE
  5
CD4
330
1F
100
AcDbEntity
  8
0
  6
Continuous
 62
     0
100
AcDbLine
 10
-654.9274073032663
 20
195.3252872366628
 30
0.0
 11
-652.6021127393384
 21
195.3252872366628
 31
0.0
  0
LINE
  5
CD5
330
1F
100
AcDbEntity
  8
0
  6
Continuous
 62
     0
100
AcDbLine
 10
-655.0021141802806
 20
221.2127696976231
 30
0.0
 11
-644.5021141802806
 21
221.2127696976231
 31
0.0
  0
LINE
  5
CD6
330
1F
100
AcDbEntity
  8
0
  6
Continuous
 62
     0
100
AcDbLine
 10
-645.7520924446155
 20
192.183701704459
 30
0.0
 11
-646.9021156212227
 21
192.183701704459
 31
0.0
  0
LINE
  5
CD7
330
1F
100
AcDbEntity
  8
0
  6
Continuous
 62
     0
100
AcDbLine
 10
-644.7521218096751
 20
193.1836723393989
 30
0.0
 11
-644.7521218096751
 21
195.3252872366628
 31
0.0
  0
LINE
  5
CD8
330
1F
100
AcDbEntity
  8
0
  6
Continuous
 62
     0
100
AcDbLine
 10
-654.7521065508861
 20
193.1836723393989
 30
0.0
 11
-654.7521065508861
 21
195.3252872366628
 31
0.0
  0
LINE
  5
CD9
330
1F
100
AcDbEntity
  8
0
  6
Continuous
 62
     0
100
AcDbLine
 10
-654.7521334437226
 20
193.1836795845838
 30
0.0
 11
-653.7521343880678
 21
192.1836805289294
 31
0.0
  0
LINE
  5
CDA
330
1F
100
AcDbEntity
  8
0
  6
Continuous
 62
     0
100
AcDbLine
 10
-644.7521186105839
 20
193.1836755384774
 30
0.0
 11
-645.7521196892878
 21
192.1836744597739
 31
0.0
  0
LINE
  5
CDB
330
1F
100
AcDbEntity
  8
0
  6
Continuous
 62
     0
100
AcDbLine
 10
-646.9021156212227
 20
193.1836723393989
 30
0.0
 11
-644.7521218096751
 21
193.1836723393989
 31
0.0
  0
LINE
  5
CDC
330
1F
100
AcDbEntity
  8
0
  6
Continuous
 62
     0
100
AcDbLine
 10
-652.6021127393384
 20
192.183701704459
 30
0.0
 11
-653.7521218096751
 21
192.183701704459
 31
0.0
  0
LINE
  5
CDD
330
1F
100
AcDbEntity
  8
0
  6
Continuous
 62
     0
100
AcDbLine
 10
-654.7521065508861
 20
193.1836723393989
 30
0.0
 11
-652.6021127393384
 21
193.1836723393989
 31
0.0
  0
LINE
  5
CDE
330
1F
100
AcDbEntity
  8
0
  6
Continuous
 62
     0
100
AcDbLine
 10
-644.7521218096751
 20
244.6837093338535
 30
0.0
 11
-644.5021141802806
 21
244.6837093338535
 31
0.0
  0
LINE
  5
CDF
330
1F
100
AcDbEntity
  8
0
  6
Continuous
 62
     0
100
AcDbLine
 10
-644.7521218096751
 20
251.6836940750645
 30
0.0
 11
-644.5021141802806
 21
251.6836940750645
 31
0.0
  0
LINE
  5
CE0
330
1F
100
AcDbEntity
  8
0
  6
Continuous
 62
     0
100
AcDbLine
 10
-655.0021141802806
 20
219.4337093338535
 30
0.0
 11
-655.0021141802806
 21
231.9336940750645
 31
0.0
  0
LINE
  5
CE1
330
1F
100
AcDbEntity
  8
0
  6
Continuous
 62
     0
100
AcDbLine
 10
-655.0021141802806
 20
241.9337093338535
 30
0.0
 11
-655.0021141802806
 21
254.4336940750645
 31
0.0
  0
LINE
  5
CE2
330
1F
100
AcDbEntity
  8
0
  6
Continuous
 62
     0
100
AcDbLine
 10
-661.7521141802805
 20
240.9337093338535
 30
0.0
 11
-654.7521065508861
 21
240.9337093338535
 31
0.0
  0
LINE
  5
CE3
330
1F
100
AcDbEntity
  8
0
  6
Continuous
 62
     0
100
AcDbLine
 10
-661.7521141802805
 20
232.9336940750645
 30
0.0
 11
-654.7521065508861
 21
232.9336940750645
 31
0.0
  0
LINE
  5
CE4
330
1F
100
AcDbEntity
  8
0
  6
Continuous
 62
     0
100
AcDbLine
 10
-643.5021141802806
 20
218.4337093338535
 30
0.0
 11
-637.7521141802806
 21
218.4337093338535
 31
0.0
  0
LINE
  5
CE5
330
1F
100
AcDbEntity
  8
0
  6
Continuous
 62
     0
100
AcDbLine
 10
-644.7521218096751
 20
232.9336940750645
 30
0.0
 11
-637.7521141802806
 21
232.9336940750645
 31
0.0
  0
LINE
  5
CE6
330
1F
100
AcDbEntity
  8
0
  6
Continuous
 62
     0
100
AcDbLine
 10
-644.5021141802806
 20
241.9337093338535
 30
0.0
 11
-644.5021141802806
 21
254.4336940750645
 31
0.0
  0
LINE
  5
CE7
330
1F
100
AcDbEntity
  8
0
  6
Continuous
 62
     0
100
AcDbLine
 10
-644.5021141802806
 20
219.4337093338535
 30
0.0
 11
-644.5021141802806
 21
231.9336940750645
 31
0.0
  0
LINE
  5
CE8
330
1F
100
AcDbEntity
  8
0
  6
Continuous
 62
     0
100
AcDbLine
 10
-635.252106550886
 20
244.2836925491856
 30
0.0
 11
-635.252106550886
 21
252.0837108597324
 31
0.0
  0
LINE
  5
CE9
330
1F
100
AcDbEntity
  8
0
  6
Continuous
 62
     0
100
AcDbLine
 10
-663.7521065508861
 20
243.1837093338535
 30
0.0
 11
-662.7521218096751
 21
243.1837093338535
 31
0.0
  0
LINE
  5
CEA
330
1F
100
AcDbEntity
  8
0
  6
Continuous
 62
     0
100
AcDbLine
 10
-655.0021141802806
 20
251.6836940750645
 30
0.0
 11
-654.7521065508861
 21
251.6836940750645
 31
0.0
  0
LINE
  5
CEB
330
1F
100
AcDbEntity
  8
0
  6
Continuous
 62
     0
100
AcDbLine
 10
-655.0021141802806
 20
244.6837093338535
 30
0.0
 11
-654.7521065508861
 21
244.6837093338535
 31
0.0
  0
LINE
  5
CEC
330
1F
100
AcDbEntity
  8
0
  6
Continuous
 62
     0
100
AcDbLine
 10
-663.7521065508861
 20
253.1836940750645
 30
0.0
 11
-662.7521218096751
 21
253.1836940750645
 31
0.0
  0
LINE
  5
CED
330
1F
100
AcDbEntity
  8
0
  6
Continuous
 62
     0
100
AcDbLine
 10
-647.8317989389299
 20
255.4336940750645
 30
0.0
 11
-637.7521141802806
 21
255.4336940750645
 31
0.0
  0
LINE
  5
CEE
330
1F
100
AcDbEntity
  8
0
  6
Continuous
 62
     0
100
AcDbLine
 10
-644.7521218096751
 20
240.9337093338535
 30
0.0
 11
-637.7521141802806
 21
240.9337093338535
 31
0.0
  0
LINE
  5
CEF
330
1F
100
AcDbEntity
  8
0
  6
Continuous
 62
     0
100
AcDbLine
 10
-661.7521141802805
 20
255.4336940750645
 30
0.0
 11
-651.6724294216308
 21
255.4336940750645
 31
0.0
  0
LINE
  5
CF0
330
1F
100
AcDbEntity
  8
0
  6
Continuous
 62
     0
100
AcDbLine
 10
-661.7521141802805
 20
218.4337093338535
 30
0.0
 11
-656.0021141802806
 21
218.4337093338535
 31
0.0
  0
LINE
  5
CF1
330
1F
100
AcDbEntity
  8
0
  6
Continuous
 62
     0
100
AcDbLine
 10
-636.752106550886
 20
252.8337108597324
 30
0.0
 11
-636.0021065508861
 21
252.8337108597324
 31
0.0
  0
LINE
  5
CF2
330
1F
100
AcDbEntity
  8
0
  6
Continuous
 62
     0
100
AcDbLine
 10
-636.752106550886
 20
243.5336925491855
 30
0.0
 11
-636.0021065508861
 21
243.5336925491855
 31
0.0
  0
ARC
  5
CF3
330
1F
100
AcDbEntity
  8
0
  6
Continuous
 62
     0
100
AcDbCircle
 10
-649.7521141802806
 20
248.183701704459
 30
0.0
 40
7.500000000000001
100
AcDbArc
 50
48.18968593424259
 51
131.8103156596174
  0
ARC
  5
CF4
330
1F
100
AcDbEntity
  8
0
  6
Continuous
 62
     0
100
AcDbCircle
 10
-649.7521141802806
 20
212.8627671599551
 30
0.0
 40
6.000000178813935
100
AcDbArc
 50
311.8103174808585
 51
340.5287784594139
  0
ARC
  5
CF5
330
1F
100
AcDbEntity
  8
0
  6
Continuous
 62
     0
100
AcDbCircle
 10
-647.902115651025
 20
176.619697384759
 30
0.0
 40
1.000000029802322
100
AcDbArc
 50
335.0464041786914
 51
0.0000025044687019
  0
ARC
  5
CF6
330
1F
100
AcDbEntity
  8
0
  6
Continuous
 62
     0
100
AcDbCircle
 10
-648.8897522466211
 20
174.4972150216999
 30
0.0
 40
1.000000029802322
100
AcDbArc
 50
269.9999974955052
 51
335.0464041786914
  0
ARC
  5
CF7
330
1F
100
AcDbEntity
  8
0
  6
Continuous
 62
     0
100
AcDbCircle
 10
-650.6144761139401
 20
174.4972150216999
 30
0.0
 40
1.000000029802322
100
AcDbArc
 50
204.9535993500819
 51
269.9999974955052
  0
ARC
  5
CF8
330
1F
100
AcDbEntity
  8
0
  6
Continuous
 62
     0
100
AcDbCircle
 10
-651.6021127095362
 20
176.619697384759
 30
0.0
 40
1.000000029802322
100
AcDbArc
 50
179.9999949910626
 51
204.9535993500819
  0
ARC
  5
CF9
330
1F
100
AcDbEntity
  8
0
  6
Continuous
 62
     0
100
AcDbCircle
 10
-644.5768172425975
 20
198.3252873260698
 30
0.0
 40
3.000000089406967
100
AcDbArc
 50
269.9999974955052
 51
356.9999990627591
  0
ARC
  5
CFA
330
1F
100
AcDbEntity
  8
0
  6
Continuous
 62
     0
100
AcDbCircle
 10
-654.9274073032663
 20
198.3252873260698
 30
0.0
 40
3.000000089406967
100
AcDbArc
 50
183.0000053198273
 51
269.9999974955052
  0
ARC
  5
CFB
330
1F
100
AcDbEntity
  8
0
  6
Continuous
 62
     0
100
AcDbCircle
 10
-649.7521141802806
 20
212.8627671599551
 30
0.0
 40
6.000000178813935
100
AcDbArc
 50
199.4712250693253
 51
228.1896843403826
  0
ARC
  5
CFC
330
1F
100
AcDbEntity
  8
0
  6
Continuous
 62
     0
100
AcDbCircle
 10
-649.7521141802806
 20
206.3627707809373
 30
0.0
 40
2.849999989569183
100
AcDbArc
 50
0.0574064728786134
 51
180.0000086514409
  0
ARC
  5
CFD
330
1F
100
AcDbEntity
  8
0
  6
Continuous
 62
     0
100
AcDbCircle
 10
-649.7521141802806
 20
214.8427667612004
 30
0.0
 40
8.750000260770322
100
AcDbArc
 50
155.7704484832497
 51
179.999991348559
  0
ARC
  5
CFE
330
1F
100
AcDbEntity
  8
0
  6
Continuous
 62
     0
100
AcDbCircle
 10
-649.7521141802806
 20
214.8427667612004
 30
0.0
 40
8.750000260770322
100
AcDbArc
 50
0.0000025044687019
 51
24.22955151675033
  0
ARC
  5
CFF
330
1F
100
AcDbEntity
  8
0
  6
Continuous
 62
     0
100
AcDbCircle
 10
-637.7521141802806
 20
219.4336940750645
 30
0.0
 40
1.000000029802322
100
AcDbArc
 50
269.9999974955052
 51
0.0
  0
ARC
  5
D00
330
1F
100
AcDbEntity
  8
0
  6
Continuous
 62
     0
100
AcDbCircle
 10
-637.7521141802806
 20
254.4337093338535
 30
0.0
 40
1.000000029802322
100
AcDbArc
 50
0.0
 51
90.00000250446868
  0
ARC
  5
D01
330
1F
100
AcDbEntity
  8
0
  6
Continuous
 62
     0
100
AcDbCircle
 10
-661.7521141802805
 20
254.4337093338535
 30
0.0
 40
1.000000029802322
100
AcDbArc
 50
89.999999316757
 51
180.0000086514409
  0
ARC
  5
D02
330
1F
100
AcDbEntity
  8
0
  6
Continuous
 62
     0
100
AcDbCircle
 10
-656.0021141802806
 20
241.9337093338535
 30
0.0
 40
1.0
100
AcDbArc
 50
270.0
 51
0.0
  0
ARC
  5
D03
330
1F
100
AcDbEntity
  8
0
  6
Continuous
 62
     0
100
AcDbCircle
 10
-643.5021141802806
 20
231.9336940750645
 30
0.0
 40
1.0
100
AcDbArc
 50
90.0
 51
180.0
  0
ARC
  5
D04
330
1F
100
AcDbEntity
  8
0
  6
Continuous
 62
     0
100
AcDbCircle
 10
-643.5021141802806
 20
219.4337093338535
 30
0.0
 40
1.0
100
AcDbArc
 50
180.0
 51
270.0
  0
ARC
  5
D05
330
1F
100
AcDbEntity
  8
0
  6
Continuous
 62
     0
100
AcDbCircle
 10
-656.0021141802806
 20
219.4337093338535
 30
0.0
 40
1.0
100
AcDbArc
 50
270.0
 51
0.0
  0
ARC
  5
D06
330
1F
100
AcDbEntity
  8
0
  6
Continuous
 62
     0
100
AcDbCircle
 10
-657.6449669634837
 20
248.183701704459
 30
0.0
 40
7.89285707473755
100
AcDbArc
 50
140.6923519402574
 51
219.3076517022049
  0
ARC
  5
D07
330
1F
100
AcDbEntity
  8
0
  6
Continuous
 62
     0
100
AcDbCircle
 10
-661.7521141802805
 20
241.9336940750645
 30
0.0
 40
1.000000029802322
100
AcDbArc
 50
179.9999949910626
 51
269.9999974955052
  0
ARC
  5
D08
330
1F
100
AcDbEntity
  8
0
  6
Continuous
 62
     0
100
AcDbCircle
 10
-637.7521141802806
 20
231.9337093338535
 30
0.0
 40
1.000000029802322
100
AcDbArc
 50
0.0
 51
90.00000250446868
  0
ARC
  5
D09
330
1F
100
AcDbEntity
  8
0
  6
Continuous
 62
     0
100
AcDbCircle
 10
-656.0021141802806
 20
231.9336940750645
 30
0.0
 40
1.0
100
AcDbArc
 50
0.0
 51
90.0
  0
ARC
  5
D0A
330
1F
100
AcDbEntity
  8
0
  6
Continuous
 62
     0
100
AcDbCircle
 10
-637.7521141802806
 20
241.9336940750645
 30
0.0
 40
1.000000029802322
100
AcDbArc
 50
269.9999974955052
 51
0.0
  0
ARC
  5
D0B
330
1F
100
AcDbEntity
  8
0
  6
Continuous
 62
     0
100
AcDbCircle
 10
-661.7521141802805
 20
231.9337093338535
 30
0.0
 40
1.000000029802322
100
AcDbArc
 50
89.999999316757
 51
180.0000086514409
  0
ARC
  5
D0C
330
1F
100
AcDbEntity
  8
0
  6
Continuous
 62
     0
100
AcDbCircle
 10
-661.7521141802805
 20
219.4336940750645
 30
0.0
 40
1.000000029802322
100
AcDbArc
 50
179.9999949910626
 51
269.9999974955052
  0
ARC
  5
D0D
330
1F
100
AcDbEntity
  8
0
  6
Continuous
 62
     0
100
AcDbCircle
 10
-643.5021141802806
 20
254.4336940750645
 30
0.0
 40
1.0
100
AcDbArc
 50
90.0
 51
180.0
  0
ARC
  5
D0E
330
1F
100
AcDbEntity
  8
0
  6
Continuous
 62
     0
100
AcDbCircle
 10
-656.0021141802806
 20
254.4336940750645
 30
0.0
 40
1.0
100
AcDbArc
 50
0.0
 51
90.0
  0
ARC
  5
D0F
330
1F
100
AcDbEntity
  8
0
  6
Continuous
 62
     0
100
AcDbCircle
 10
-643.5021141802806
 20
241.9337093338535
 30
0.0
 40
1.0
100
AcDbArc
 50
180.0
 51
270.0
  0
ARC
  5
D10
330
1F
100
AcDbEntity
  8
0
  6
Continuous
 62
     0
100
AcDbCircle
 10
-636.0021065508861
 20
244.2836925491856
 30
0.0
 40
0.7500000000000002
100
AcDbArc
 50
269.9999974955052
 51
0.0
  0
ARC
  5
D11
330
1F
100
AcDbEntity
  8
0
  6
Continuous
 62
     0
100
AcDbCircle
 10
-636.0021065508861
 20
252.0837108597324
 30
0.0
 40
0.7500000000000002
100
AcDbArc
 50
0.0
 51
90.00000250446868
  0
LINE
  5
D12
330
1F
100
AcDbEntity
  8
0
100
AcDbLine
 10
-699.5020180848817
 20
339.9341095200325
 30
0.0
 11
-699.5020180848817
 21
337.9341095200325
 31
0.0
  0
LINE
  5
D13
330
1F
100
AcDbEntity
  8
0
100
AcDbLine
 10
-698.0020160848814
 20
325.933705520033
 30
0.0
 11
-697.0020180848816
 21
326.933705520033
 31
0.0
  0
LINE
  5
D14
330
1F
100
AcDbEntity
  8
0
100
AcDbLine
 10
-737.0020180848817
 20
326.933705520033
 30
0.0
 11
-736.0020200848814
 21
325.933705520033
 31
0.0
  0
LINE
  5
D15
330
1F
100
AcDbEntity
  8
0
100
AcDbLine
 10
-698.0020200848814
 20
337.933705520033
 30
0.0
 11
-697.0020180848816
 21
336.933705520033
 31
0.0
  0
LINE
  5
D16
330
1F
100
AcDbEntity
  8
0
100
AcDbLine
 10
-736.0020160848814
 20
337.933705520033
 30
0.0
 11
-737.0020180848817
 21
336.933705520033
 31
0.0
  0
LINE
  5
D17
330
1F
100
AcDbEntity
  8
0
100
AcDbLine
 10
-749.5020180848817
 20
375.933705520033
 30
0.0
 11
-684.5020180848816
 21
375.933705520033
 31
0.0
  0
LINE
  5
D18
330
1F
100
AcDbEntity
  8
0
100
AcDbLine
 10
-704.5020180848816
 20
337.933705520033
 30
0.0
 11
-698.0020180848817
 21
337.933705520033
 31
0.0
  0
LINE
  5
D19
330
1F
100
AcDbEntity
  8
0
100
AcDbLine
 10
-735.1562520848813
 20
361.933705520033
 30
0.0
 11
-734.2902280848814
 21
362.433705520033
 31
0.0
  0
LINE
  5
D1A
330
1F
100
AcDbEntity
  8
0
100
AcDbLine
 10
-746.4242020848817
 20
361.9337155200327
 30
0.0
 11
-747.2902280848813
 21
362.4337155200328
 31
0.0
  0
LINE
  5
D1B
330
1F
100
AcDbEntity
  8
0
100
AcDbLine
 10
-747.2902260848816
 20
362.433705520033
 30
0.0
 11
-734.2902260848816
 21
362.433705520033
 31
0.0
  0
LINE
  5
D1C
330
1F
100
AcDbEntity
  8
0
100
AcDbLine
 10
-747.2902260848816
 20
368.683705520033
 30
0.0
 11
-734.2902260848816
 21
368.683705520033
 31
0.0
  0
LINE
  5
D1D
330
1F
100
AcDbEntity
  8
0
100
AcDbLine
 10
-734.2902260848816
 20
362.433705520033
 30
0.0
 11
-734.2902260848816
 21
369.933705520033
 31
0.0
  0
LINE
  5
D1E
330
1F
100
AcDbEntity
  8
0
100
AcDbLine
 10
-747.2902260848816
 20
362.433705520033
 30
0.0
 11
-747.2902260848816
 21
369.933705520033
 31
0.0
  0
LINE
  5
D1F
330
1F
100
AcDbEntity
  8
0
100
AcDbLine
 10
-713.6567185848814
 20
336.6337025200327
 30
0.0
 11
-711.3473177848816
 21
336.6337025200327
 31
0.0
  0
LINE
  5
D20
330
1F
100
AcDbEntity
  8
0
100
AcDbLine
 10
-746.4242000848814
 20
361.933705520033
 30
0.0
 11
-735.1562520848813
 21
361.933705520033
 31
0.0
  0
LINE
  5
D21
330
1F
100
AcDbEntity
  8
0
100
AcDbLine
 10
-711.3473168848815
 20
336.6337105200327
 30
0.0
 11
-710.1926155848816
 21
334.6337025200327
 31
0.0
  0
LINE
  5
D22
330
1F
100
AcDbEntity
  8
0
100
AcDbLine
 10
-748.4902270848817
 20
369.933705520033
 30
0.0
 11
-733.0902270848817
 21
369.933705520033
 31
0.0
  0
LINE
  5
D23
330
1F
100
AcDbEntity
  8
0
100
AcDbLine
 10
-733.0902270848817
 20
369.933705520033
 30
0.0
 11
-733.0902270848817
 21
371.933705520033
 31
0.0
  0
LINE
  5
D24
330
1F
100
AcDbEntity
  8
0
100
AcDbLine
 10
-713.6567166848815
 20
336.6337025200327
 30
0.0
 11
-714.8114178848816
 21
334.6337025200327
 31
0.0
  0
LINE
  5
D25
330
1F
100
AcDbEntity
  8
0
100
AcDbLine
 10
-700.9136890848814
 20
369.933705520033
 30
0.0
 11
-700.9136890848814
 21
371.933705520033
 31
0.0
  0
LINE
  5
D26
330
1F
100
AcDbEntity
  8
0
100
AcDbLine
 10
-707.5020180848817
 20
334.6337025200327
 30
0.0
 11
-707.5020180848817
 21
332.933705520033
 31
0.0
  0
LINE
  5
D27
330
1F
100
AcDbEntity
  8
0
100
AcDbLine
 10
-685.5136890848814
 20
369.933705520033
 30
0.0
 11
-685.5136890848814
 21
371.933705520033
 31
0.0
  0
LINE
  5
D28
330
1F
100
AcDbEntity
  8
0
100
AcDbLine
 10
-714.8114186848817
 20
334.6337105200327
 30
0.0
 11
-713.6567173848813
 21
332.6337025200327
 31
0.0
  0
LINE
  5
D29
330
1F
100
AcDbEntity
  8
0
100
AcDbLine
 10
-710.1926151848813
 20
334.6337025200327
 30
0.0
 11
-711.3473163848814
 21
332.6337025200327
 31
0.0
  0
LINE
  5
D2A
330
1F
100
AcDbEntity
  8
0
100
AcDbLine
 10
-711.3473177848816
 20
332.6337025200327
 30
0.0
 11
-713.6567185848814
 21
332.6337025200327
 31
0.0
  0
LINE
  5
D2B
330
1F
100
AcDbEntity
  8
0
100
AcDbLine
 10
-687.5797180848815
 20
361.933705520033
 30
0.0
 11
-686.7136920848817
 21
362.433705520033
 31
0.0
  0
LINE
  5
D2C
330
1F
100
AcDbEntity
  8
0
100
AcDbLine
 10
-698.8476600848814
 20
361.933705520033
 30
0.0
 11
-699.7136860848816
 21
362.433705520033
 31
0.0
  0
LINE
  5
D2D
330
1F
100
AcDbEntity
  8
0
100
AcDbLine
 10
-699.7136880848813
 20
362.433705520033
 30
0.0
 11
-686.7136880848813
 21
362.433705520033
 31
0.0
  0
LINE
  5
D2E
330
1F
100
AcDbEntity
  8
0
100
AcDbLine
 10
-699.7136880848813
 20
368.683705520033
 30
0.0
 11
-686.7136880848813
 21
368.683705520033
 31
0.0
  0
LINE
  5
D2F
330
1F
100
AcDbEntity
  8
0
100
AcDbLine
 10
-686.7136880848813
 20
362.433705520033
 30
0.0
 11
-686.7136880848813
 21
369.933705520033
 31
0.0
  0
LINE
  5
D30
330
1F
100
AcDbEntity
  8
0
100
AcDbLine
 10
-699.7136880848813
 20
362.433705520033
 30
0.0
 11
-699.7136880848813
 21
369.933705520033
 31
0.0
  0
LINE
  5
D31
330
1F
100
AcDbEntity
  8
0
100
AcDbLine
 10
-698.8476620848817
 20
361.933705520033
 30
0.0
 11
-687.5797140848815
 21
361.933705520033
 31
0.0
  0
LINE
  5
D32
330
1F
100
AcDbEntity
  8
0
100
AcDbLine
 10
-700.9136890848814
 20
369.933705520033
 30
0.0
 11
-685.5136890848814
 21
369.933705520033
 31
0.0
  0
LINE
  5
D33
330
1F
100
AcDbEntity
  8
0
100
AcDbLine
 10
-748.4902270848817
 20
369.933705520033
 30
0.0
 11
-748.4902270848817
 21
371.933705520033
 31
0.0
  0
LINE
  5
D34
330
1F
100
AcDbEntity
  8
0
100
AcDbLine
 10
-758.0020180848817
 20
339.9341095200325
 30
0.0
 11
-758.0020180848817
 21
337.9341095200325
 31
0.0
  0
LINE
  5
D35
330
1F
100
AcDbEntity
  8
0
100
AcDbLine
 10
-731.7520180848816
 20
371.5305791625178
 30
0.0
 11
-731.7520180848816
 21
341.9337205200335
 31
0.0
  0
LINE
  5
D36
330
1F
100
AcDbEntity
  8
0
100
AcDbLine
 10
-702.2520180848816
 20
371.5305791625178
 30
0.0
 11
-702.2520180848816
 21
341.9337205200335
 31
0.0
  0
LINE
  5
D37
330
1F
100
AcDbEntity
  8
0
100
AcDbLine
 10
-749.5020180848817
 20
375.933705520033
 30
0.0
 11
-749.5020180848817
 21
371.933705520033
 31
0.0
  0
LINE
  5
D38
330
1F
100
AcDbEntity
  8
0
100
AcDbLine
 10
-704.5020180848816
 20
367.933705520033
 30
0.0
 11
-704.5020180848816
 21
332.933705520033
 31
0.0
  0
LINE
  5
D39
330
1F
100
AcDbEntity
  8
0
100
AcDbLine
 10
-702.0020180848817
 20
341.9337205200335
 30
0.0
 11
-702.0020180848817
 21
339.933705520033
 31
0.0
  0
LINE
  5
D3A
330
1F
100
AcDbEntity
  8
0
100
AcDbLine
 10
-758.0020180848817
 20
337.933705520033
 30
0.0
 11
-729.5020180848816
 21
337.933705520033
 31
0.0
  0
LINE
  5
D3B
330
1F
100
AcDbEntity
  8
0
100
AcDbLine
 10
-732.0019950848816
 20
341.9337205200335
 30
0.0
 11
-732.0019950848816
 21
339.933705520033
 31
0.0
  0
LINE
  5
D3C
330
1F
100
AcDbEntity
  8
0
100
AcDbLine
 10
-684.5020180848816
 20
375.933705520033
 30
0.0
 11
-684.5020180848816
 21
371.933705520033
 31
0.0
  0
LINE
  5
D3D
330
1F
100
AcDbEntity
  8
0
100
AcDbLine
 10
-699.5020180848817
 20
339.933705520033
 30
0.0
 11
-704.5020180848816
 21
339.933705520033
 31
0.0
  0
LINE
  5
D3E
330
1F
100
AcDbEntity
  8
0
100
AcDbLine
 10
-698.0020100848816
 20
325.933705520033
 30
0.0
 11
-736.0019800848816
 21
325.933705520033
 31
0.0
  0
LINE
  5
D3F
330
1F
100
AcDbEntity
  8
0
100
AcDbLine
 10
-729.5020180848816
 20
341.9337205200335
 30
0.0
 11
-732.0019950848816
 21
341.9337205200335
 31
0.0
  0
LINE
  5
D40
330
1F
100
AcDbEntity
  8
0
100
AcDbLine
 10
-749.5020180848817
 20
371.933705520033
 30
0.0
 11
-684.5020180848816
 21
371.933705520033
 31
0.0
  0
LINE
  5
D41
330
1F
100
AcDbEntity
  8
0
100
AcDbLine
 10
-697.0020180848816
 20
336.933705520033
 30
0.0
 11
-697.0020180848816
 21
326.933705520033
 31
0.0
  0
LINE
  5
D42
330
1F
100
AcDbEntity
  8
0
100
AcDbLine
 10
-702.0020180848817
 20
341.9337205200335
 30
0.0
 11
-704.5020180848816
 21
341.9337205200335
 31
0.0
  0
LINE
  5
D43
330
1F
100
AcDbEntity
  8
0
100
AcDbLine
 10
-729.5020180848816
 20
339.933705520033
 30
0.0
 11
-758.0020180848817
 21
339.933705520033
 31
0.0
  0
LINE
  5
D44
330
1F
100
AcDbEntity
  8
0
100
AcDbLine
 10
-737.0020180848817
 20
336.933705520033
 30
0.0
 11
-737.0020180848817
 21
326.933705520033
 31
0.0
  0
LINE
  5
D45
330
1F
100
AcDbEntity
  8
0
100
AcDbLine
 10
-729.5020180848816
 20
367.933705520033
 30
0.0
 11
-729.5020180848816
 21
332.933705520033
 31
0.0
  0
CIRCLE
  5
D46
330
1F
100
AcDbEntity
  8
0
100
AcDbCircle
 10
-712.5020180848816
 20
334.6337025200327
 30
0.0
 40
4.25
  0
CIRCLE
  5
D47
330
1F
100
AcDbEntity
  8
0
100
AcDbCircle
 10
-712.5020180848816
 20
334.6337025200327
 30
0.0
 40
3.730384799999999
  0
ARC
  5
D48
330
1F
100
AcDbEntity
  8
0
100
AcDbCircle
 10
-712.5020180848816
 20
334.6337025200327
 30
0.0
 40
5.0
100
AcDbArc
 50
0.0
 51
180.0
  0
ARC
  5
D49
330
1F
100
AcDbEntity
  8
0
100
AcDbCircle
 10
-700.5020180848816
 20
367.933705520033
 30
0.0
 40
4.0
100
AcDbArc
 50
90.0
 51
180.0233392300958
  0
ARC
  5
D4A
330
1F
100
AcDbEntity
  8
0
100
AcDbCircle
 10
-733.5020180848816
 20
367.933705520033
 30
0.0
 40
4.0
100
AcDbArc
 50
0.0
 51
90.01166961506642
  0
LINE
  5
D4B
330
1F
100
AcDbEntity
  8
0
  6
CENTER
100
AcDbLine
 10
-717.001973084871
 20
598.4337360376116
 30
0.0
 11
-717.0019950848816
 21
117.9337099029434
 31
0.0
  0
LINE
  5
D4C
330
1F
100
AcDbEntity
  8
0
100
AcDbLine
 10
-412.4730090277478
 20
338.3640875200326
 30
0.0
 11
-412.4730090277478
 21
334.9671733985633
 31
0.0
  0
LINE
  5
D4D
330
1F
100
AcDbEntity
  8
0
100
AcDbLine
 10
-413.0708670277479
 20
339.6337025200327
 30
0.0
 11
-411.337364027748
 21
339.6337025200327
 31
0.0
  0
LINE
  5
D4E
330
1F
100
AcDbEntity
  8
0
100
AcDbLine
 10
-371.8639240277478
 20
337.933705520033
 30
0.0
 11
-371.0362026208782
 21
337.2986605633049
 31
0.0
  0
LINE
  5
D4F
330
1F
100
AcDbEntity
  8
0
100
AcDbLine
 10
-412.1730080277477
 20
338.8837025200327
 30
0.0
 11
-412.1730080277477
 21
335.0471645810148
 31
0.0
  0
LINE
  5
D50
330
1F
100
AcDbEntity
  8
0
100
AcDbLine
 10
-412.4730070277475
 20
338.3640875200326
 30
0.0
 11
-412.1730080277477
 21
338.8837025200327
 31
0.0
  0
LINE
  5
D51
330
1F
100
AcDbEntity
  8
0
100
AcDbLine
 10
-412.1730080277477
 20
338.8837025200327
 30
0.0
 11
-410.9750800277477
 21
338.8837025200327
 31
0.0
  0
LINE
  5
D52
330
1F
100
AcDbEntity
  8
0
100
AcDbLine
 10
-401.6730080277477
 20
339.933705520033
 30
0.0
 11
-401.6730080277477
 21
337.933705520033
 31
0.0
  0
LINE
  5
D53
330
1F
100
AcDbEntity
  8
0
100
AcDbLine
 10
-371.1730080277478
 20
341.933705520033
 30
0.0
 11
-371.1730080277478
 21
339.933705520033
 31
0.0
  0
LINE
  5
D54
330
1F
100
AcDbEntity
  8
0
100
AcDbLine
 10
-418.6730100277475
 20
371.933705520033
 30
0.0
 11
-353.6730100277475
 21
371.933705520033
 31
0.0
  0
LINE
  5
D55
330
1F
100
AcDbEntity
  8
0
100
AcDbLine
 10
-404.8812960277476
 20
337.933705520033
 30
0.0
 11
-396.2352827637753
 21
337.933705520033
 31
0.0
  0
LINE
  5
D56
330
1F
100
AcDbEntity
  8
0
100
AcDbLine
 10
-376.1108245230641
 20
337.933705520033
 30
0.0
 11
-367.4647210277478
 21
337.933705520033
 31
0.0
  0
LINE
  5
D57
330
1F
100
AcDbEntity
  8
0
100
AcDbLine
 10
-418.6730100277475
 20
375.933705520033
 30
0.0
 11
-418.6730100277475
 21
371.933705520033
 31
0.0
  0
LINE
  5
D58
330
1F
100
AcDbEntity
  8
0
100
AcDbLine
 10
-353.6730100277475
 20
375.933705520033
 30
0.0
 11
-353.6730100277475
 21
371.933705520033
 31
0.0
  0
LINE
  5
D59
330
1F
100
AcDbEntity
  8
0
100
AcDbLine
 10
-401.6730080277477
 20
339.933705520033
 30
0.0
 11
-370.6730080277477
 21
339.933705520033
 31
0.0
  0
LINE
  5
D5A
330
1F
100
AcDbEntity
  8
0
100
AcDbLine
 10
-400.4820910277478
 20
337.933705520033
 30
0.0
 11
-401.3097922392578
 21
337.2986775192211
 31
0.0
  0
LINE
  5
D5B
330
1F
100
AcDbEntity
  8
0
100
AcDbLine
 10
-415.595190027748
 20
361.933705520033
 30
0.0
 11
-416.4612160277476
 21
362.433705520033
 31
0.0
  0
LINE
  5
D5C
330
1F
100
AcDbEntity
  8
0
100
AcDbLine
 10
-416.4612160277476
 20
362.433705520033
 30
0.0
 11
-403.4612160277476
 21
362.433705520033
 31
0.0
  0
LINE
  5
D5D
330
1F
100
AcDbEntity
  8
0
100
AcDbLine
 10
-416.4612160277476
 20
368.683705520033
 30
0.0
 11
-403.4612160277476
 21
368.683705520033
 31
0.0
  0
LINE
  5
D5E
330
1F
100
AcDbEntity
  8
0
100
AcDbLine
 10
-404.3272400277476
 20
361.933705520033
 30
0.0
 11
-403.4612140277479
 21
362.433705520033
 31
0.0
  0
LINE
  5
D5F
330
1F
100
AcDbEntity
  8
0
100
AcDbLine
 10
-403.4612160277476
 20
362.433705520033
 30
0.0
 11
-403.4612160277476
 21
369.933705520033
 31
0.0
  0
LINE
  5
D60
330
1F
100
AcDbEntity
  8
0
100
AcDbLine
 10
-416.4612160277476
 20
362.433705520033
 30
0.0
 11
-416.4612160277476
 21
369.933705520033
 31
0.0
  0
LINE
  5
D61
330
1F
100
AcDbEntity
  8
0
100
AcDbLine
 10
-415.595190027748
 20
361.933705520033
 30
0.0
 11
-404.3272420277478
 21
361.933705520033
 31
0.0
  0
LINE
  5
D62
330
1F
100
AcDbEntity
  8
0
100
AcDbLine
 10
-417.6612160277479
 20
369.933705520033
 30
0.0
 11
-402.2612170277477
 21
369.933705520033
 31
0.0
  0
LINE
  5
D63
330
1F
100
AcDbEntity
  8
0
100
AcDbLine
 10
-402.2612170277477
 20
369.933705520033
 30
0.0
 11
-402.2612170277477
 21
371.933705520033
 31
0.0
  0
LINE
  5
D64
330
1F
100
AcDbEntity
  8
0
100
AcDbLine
 10
-354.684679027748
 20
369.933705520033
 30
0.0
 11
-354.684679027748
 21
371.933705520033
 31
0.0
  0
LINE
  5
D65
330
1F
100
AcDbEntity
  8
0
100
AcDbLine
 10
-370.0846780277477
 20
369.933705520033
 30
0.0
 11
-370.0846780277477
 21
371.933705520033
 31
0.0
  0
LINE
  5
D66
330
1F
100
AcDbEntity
  8
0
100
AcDbLine
 10
-368.0186560277477
 20
361.933705520033
 30
0.0
 11
-368.8846800277477
 21
362.433705520033
 31
0.0
  0
LINE
  5
D67
330
1F
100
AcDbEntity
  8
0
100
AcDbLine
 10
-368.8846780277479
 20
362.433705520033
 30
0.0
 11
-355.8846780277479
 21
362.433705520033
 31
0.0
  0
LINE
  5
D68
330
1F
100
AcDbEntity
  8
0
100
AcDbLine
 10
-368.8846780277479
 20
368.683705520033
 30
0.0
 11
-355.8846780277479
 21
368.683705520033
 31
0.0
  0
LINE
  5
D69
330
1F
100
AcDbEntity
  8
0
100
AcDbLine
 10
-355.8846780277479
 20
362.433705520033
 30
0.0
 11
-355.8846780277479
 21
369.933705520033
 31
0.0
  0
LINE
  5
D6A
330
1F
100
AcDbEntity
  8
0
100
AcDbLine
 10
-356.7507020277478
 20
361.933705520033
 30
0.0
 11
-355.8846760277477
 21
362.433705520033
 31
0.0
  0
LINE
  5
D6B
330
1F
100
AcDbEntity
  8
0
100
AcDbLine
 10
-368.8846780277479
 20
362.433705520033
 30
0.0
 11
-368.8846780277479
 21
369.933705520033
 31
0.0
  0
LINE
  5
D6C
330
1F
100
AcDbEntity
  8
0
100
AcDbLine
 10
-370.0846780277477
 20
369.933705520033
 30
0.0
 11
-354.684679027748
 21
369.933705520033
 31
0.0
  0
LINE
  5
D6D
330
1F
100
AcDbEntity
  8
0
100
AcDbLine
 10
-417.6612160277479
 20
369.933705520033
 30
0.0
 11
-417.6612160277479
 21
371.933705520033
 31
0.0
  0
LINE
  5
D6E
330
1F
100
AcDbEntity
  8
0
100
AcDbLine
 10
-368.0186520277477
 20
361.933705520033
 30
0.0
 11
-356.7507040277476
 21
361.933705520033
 31
0.0
  0
LINE
  5
D6F
330
1F
100
AcDbEntity
  8
0
100
AcDbLine
 10
-358.6730080277478
 20
361.933705520033
 30
0.0
 11
-358.6730080277478
 21
342.8703665200327
 31
0.0
  0
LINE
  5
D70
330
1F
100
AcDbEntity
  8
0
100
AcDbLine
 10
-413.6730080277478
 20
361.933705520033
 30
0.0
 11
-413.6730080277478
 21
342.8703665200327
 31
0.0
  0
LINE
  5
D71
330
1F
100
AcDbEntity
  8
0
100
AcDbLine
 10
-367.4647210277478
 20
361.933705520033
 30
0.0
 11
-367.4647210277478
 21
337.933705520033
 31
0.0
  0
LINE
  5
D72
330
1F
100
AcDbEntity
  8
0
100
AcDbLine
 10
-404.8812960277476
 20
361.933705520033
 30
0.0
 11
-404.8812960277476
 21
337.933705520033
 31
0.0
  0
LINE
  5
D73
330
1F
100
AcDbEntity
  8
0
100
AcDbLine
 10
-401.1730080277478
 20
341.933705520033
 30
0.0
 11
-401.1730080277478
 21
339.933705520033
 31
0.0
  0
LINE
  5
D74
330
1F
100
AcDbEntity
  8
0
100
AcDbLine
 10
-371.4230080277478
 20
371.933705520033
 30
0.0
 11
-371.4230080277478
 21
341.933705520033
 31
0.0
  0
LINE
  5
D75
330
1F
100
AcDbEntity
  8
0
100
AcDbLine
 10
-400.9230080277477
 20
371.933705520033
 30
0.0
 11
-400.9230080277477
 21
341.933705520033
 31
0.0
  0
LINE
  5
D76
330
1F
100
AcDbEntity
  8
0
100
AcDbLine
 10
-401.1730080277478
 20
341.933705520033
 30
0.0
 11
-371.1730080277478
 21
341.933705520033
 31
0.0
  0
LINE
  5
D77
330
1F
100
AcDbEntity
  8
0
100
AcDbLine
 10
-370.6730080277477
 20
339.933705520033
 30
0.0
 11
-370.6730080277477
 21
337.933705520033
 31
0.0
  0
ARC
  5
D78
330
1F
100
AcDbEntity
  8
0
100
AcDbCircle
 10
-404.6730080277477
 20
342.8703665200327
 30
0.0
 40
9.0
100
AcDbArc
 50
180.0
 51
201.0774300000375
  0
ARC
  5
D79
330
1F
100
AcDbEntity
  8
0
100
AcDbCircle
 10
-367.6730080277478
 20
342.8703665200327
 30
0.0
 40
9.0
100
AcDbArc
 50
305.0000000000137
 51
0.0
  0
SPLINE
  5
D7A
330
1F
100
AcDbEntity
  8
0
100
AcDbSpline
210
0.0
220
0.0
230
1.0
 70
     8
 71
     3
 72
    13
 73
     9
 74
     0
 42
0.000000001
 43
0.0000000001
 40
0.0
 40
0.0
 40
0.0
 40
0.0
 40
0.9157018415224083
 40
1.831685203806716
 40
2.747945857576099
 40
3.664036041423222
 40
4.580433597745646
 40
4.705759024405759
 40
4.705759024405759
 40
4.705759024405759
 40
4.705759024405759
 10
-411.337364027748
 20
339.6337025200327
 30
0.0
 10
-411.2164353436789
 20
339.3534454668178
 30
0.0
 10
-410.948148990122
 20
338.8038083254595
 30
0.0
 10
-410.4698402338174
 20
338.0210739002159
 30
0.0
 10
-409.9174935130861
 20
337.2882663872087
 30
0.0
 10
-409.2921336130864
 20
336.6162151959706
 30
0.0
 10
-408.7983746199451
 20
336.1877762344083
 30
0.0
 10
-408.5235999469155
 20
335.9751509494553
 30
0.0
 10
-408.4903730182811
 20
335.9497937377081
 30
0.0
  0
LWPOLYLINE
  5
D7B
330
1F
100
AcDbEntity
  8
0
 62
     1
100
AcDbPolyline
 90
        4
 70
     1
 43
0.0
 10
-1058.7056611581
 20
1427.637130944897
 10
-16.70601757740292
 20
1427.637130944897
 10
-16.70601757740292
 20
-3.370163425687735
 10
-1058.7056611581
 20
-3.370163425687735
  0
LINE
  5
D7C
330
1F
100
AcDbEntity
  8
0
100
AcDbLine
 10
-327.4230431157196
 20
421.1456240962078
 30
0.0
 11
-327.4230431157196
 21
376.9337055700334
 31
0.0
  0
LINE
  5
D7D
330
1F
100
AcDbEntity
  8
0
100
AcDbLine
 10
-444.9230489907188
 20
421.1456240962078
 30
0.0
 11
-444.9230489907188
 21
376.9337055700334
 31
0.0
  0
LINE
  5
D7E
330
1F
100
AcDbEntity
  8
0
100
AcDbLine
 10
-443.9230489407184
 20
375.933705520033
 30
0.0
 11
-328.423043165719
 21
375.933705520033
 31
0.0
  0
ARC
  5
D7F
330
1F
100
AcDbEntity
  8
0
100
AcDbCircle
 10
-443.9230489407184
 20
376.9337055700334
 30
0.0
 40
1.000000049999999
100
AcDbArc
 50
180.0
 51
270.0
1001
GENIUS_GENODEF_13
1002
{
1000
HIER
1070
     0
1002
}
1002
{
1000
MANEDIT
1070
     0
1002
}
1002
{
1000
NOSEL
1070
     0
1002
}
1002
{
1000
BEHIND
1070
     0
1002
}
1002
{
1000
OTHER
1070
     0
1002
}
1002
{
1000
REACTOR
1002
}
1001
GENIUS_GENOBJ-N-FIL_13
1002
{
1000
OWNER
1000
GEN
1002
}
  0
ARC
  5
D80
330
1F
100
AcDbEntity
  8
0
100
AcDbCircle
 10
-328.423043165719
 20
376.9337055700334
 30
0.0
 40
1.000000049999999
100
AcDbArc
 50
270.0
 51
0.0
1001
GENIUS_GENOBJ-N-FIL_13
1002
{
1000
OWNER
1000
GEN
1002
}
1001
GENIUS_GENODEF_13
1002
{
1000
HIER
1070
     0
1002
}
1002
{
1000
MANEDIT
1070
     0
1002
}
1002
{
1000
NOSEL
1070
     0
1002
}
1002
{
1000
BEHIND
1070
     0
1002
}
1002
{
1000
OTHER
1070
     0
1002
}
1002
{
1000
REACTOR
1002
}
  0
LINE
  5
D81
330
1F
100
AcDbEntity
  8
0
100
AcDbLine
 10
-327.4230431157196
 20
380.4337057450329
 30
0.0
 11
-444.9230489907188
 21
380.4337057450329
 31
0.0
  0
LINE
  5
D82
330
1F
100
AcDbEntity
  8
0
100
AcDbLine
 10
-329.0230431957191
 20
561.9337055200331
 30
0.0
 11
-329.0230431957191
 21
439.433708695034
 31
0.0
  0
ARC
  5
D83
330
1F
100
AcDbEntity
  8
0
100
AcDbCircle
 10
-331.0230431957191
 20
561.9337055200331
 30
0.0
 40
2.0
100
AcDbArc
 50
0.0
 51
90.0
1001
GENIUS_GENOBJ-N-FIL_13
1002
{
1000
OWNER
1000
GEN
1002
}
1001
GENIUS_GENODEF_13
1002
{
1000
HIER
1070
     0
1002
}
1002
{
1000
MANEDIT
1070
     0
1002
}
1002
{
1000
NOSEL
1070
     0
1002
}
1002
{
1000
BEHIND
1070
     0
1002
}
1002
{
1000
OTHER
1070
     0
1002
}
1002
{
1000
REACTOR
1002
}
  0
LINE
  5
D84
330
1F
100
AcDbEntity
  8
0
100
AcDbLine
 10
-443.3230489107192
 20
561.9337055200331
 30
0.0
 11
-443.3230489107192
 21
439.433708695034
 31
0.0
  0
ARC
  5
D85
330
1F
100
AcDbEntity
  8
0
100
AcDbCircle
 10
-441.3230489107193
 20
561.9337055200331
 30
0.0
 40
2.0
100
AcDbArc
 50
90.0
 51
180.0
1001
GENIUS_GENODEF_13
1002
{
1000
HIER
1070
     0
1002
}
1002
{
1000
MANEDIT
1070
     0
1002
}
1002
{
1000
NOSEL
1070
     0
1002
}
1002
{
1000
BEHIND
1070
     0
1002
}
1002
{
1000
OTHER
1070
     0
1002
}
1002
{
1000
REACTOR
1002
}
1001
GENIUS_GENOBJ-N-FIL_13
1002
{
1000
OWNER
1000
GEN
1002
}
  0
LINE
  5
D86
330
1F
100
AcDbEntity
  8
0
100
AcDbLine
 10
-441.3230489107193
 20
563.933705520033
 30
0.0
 11
-331.0230431957191
 21
563.933705520033
 31
0.0
  0
LINE
  5
D87
330
1F
100
AcDbEntity
  8
0
100
AcDbLine
 10
-327.4230431157196
 20
421.1456240962078
 30
0.0
 11
-329.0230431957191
 21
439.4337086950335
 31
0.0
  0
LINE
  5
D88
330
1F
100
AcDbEntity
  8
0
100
AcDbLine
 10
-444.9230489907188
 20
421.1456240962078
 30
0.0
 11
-443.3230489107192
 21
439.4337086950335
 31
0.0
  0
LINE
  5
D89
330
1F
100
AcDbEntity
  8
0
100
AcDbLine
 10
-410.1730472532183
 20
571.9337063200336
 30
0.0
 11
-415.1730475032183
 21
571.9337063200336
 31
0.0
  0
LINE
  5
D8A
330
1F
100
AcDbEntity
  8
0
100
AcDbLine
 10
-415.6730475282186
 20
569.1337056000329
 30
0.0
 11
-415.6730475282186
 21
571.4337062950335
 31
0.0
  0
LINE
  5
D8B
330
1F
100
AcDbEntity
  8
0
100
AcDbLine
 10
-409.6730472282181
 20
569.1337056000329
 30
0.0
 11
-409.6730472282181
 21
571.4337062950335
 31
0.0
  0
LINE
  5
D8C
330
1F
100
AcDbEntity
  8
0
100
AcDbLine
 10
-410.1730472532183
 20
571.9337063200336
 30
0.0
 11
-409.6730472282181
 21
571.4337062950335
 31
0.0
  0
LINE
  5
D8D
330
1F
100
AcDbEntity
  8
0
100
AcDbLine
 10
-415.1730475032183
 20
571.9337063200336
 30
0.0
 11
-415.6730475282186
 21
571.4337062950335
 31
0.0
  0
LINE
  5
D8E
330
1F
100
AcDbEntity
  8
0
100
AcDbLine
 10
-406.6730470782188
 20
563.933705520033
 30
0.0
 11
-406.6730470782188
 21
565.5337056000335
 31
0.0
  0
LINE
  5
D8F
330
1F
100
AcDbEntity
  8
0
100
AcDbLine
 10
-406.6730470782188
 20
565.5337056000335
 30
0.0
 11
-418.6730476782188
 21
565.5337056000335
 31
0.0
  0
LINE
  5
D90
330
1F
100
AcDbEntity
  8
0
100
AcDbLine
 10
-418.6730476782188
 20
565.5337056000335
 30
0.0
 11
-418.6730476782188
 21
563.933705520033
 31
0.0
  0
CIRCLE
  5
D91
330
1F
100
AcDbEntity
  8
0
  6
Continuous
100
AcDbCircle
 10
-386.1730460532183
 20
556.433705520033
 30
0.0
 40
4.158030207901447
  0
CIRCLE
  5
D92
330
1F
100
AcDbEntity
  8
0
  6
Continuous
100
AcDbCircle
 10
-386.1730460532183
 20
556.433705520033
 30
0.0
 40
4.738999924450126
  0
LINE
  5
D93
330
1F
100
AcDbEntity
  8
0
  6
Continuous
100
AcDbLine
 10
-443.3230489107192
 20
439.4337086950335
 30
0.0
 11
-329.0230431957191
 21
439.4337086950335
 31
0.0
  0
LINE
  5
D94
330
1F
100
AcDbEntity
  8
0
  6
Continuous
100
AcDbLine
 10
-444.9230489907188
 20
421.1456240962078
 30
0.0
 11
-327.4230431157196
 21
421.1456240962078
 31
0.0
  0
LINE
  5
D95
330
1F
100
AcDbEntity
  8
0
  6
ByBlock
 62
     0
 48
0.3
100
AcDbLine
 10
-406.8995473782181
 20
568.6293903750329
 30
0.0
 11
-407.7730473782187
 21
569.1337056000329
 31
0.0
  0
LINE
  5
D96
330
1F
100
AcDbEntity
  8
0
  6
ByBlock
 62
     0
 48
0.3
100
AcDbLine
 10
-418.4465473782186
 20
568.6293903750329
 30
0.0
 11
-417.5730473782189
 21
569.1337056000329
 31
0.0
  0
ARC
  5
D97
330
1F
100
AcDbEntity
  8
0
  6
ByBlock
 62
     0
 48
0.3
100
AcDbCircle
 10
-412.6730473782193
 20
560.6195273239709
 30
0.0
 40
8.514178276062013
100
AcDbArc
 50
70.18086675656697
 51
109.819133243433
  0
ARC
  5
D98
330
1F
100
AcDbEntity
  8
0
  6
ByBlock
 62
     0
 48
0.3
100
AcDbCircle
 10
-417.0031723782187
 20
566.1293902237521
 30
0.0
 40
2.886751174926758
100
AcDbArc
 50
60.00001306886933
 51
119.9999869311306
  0
ARC
  5
D99
330
1F
100
AcDbEntity
  8
0
  6
ByBlock
 62
     0
 48
0.3
100
AcDbCircle
 10
-408.3429223782188
 20
566.1293902237521
 30
0.0
 40
2.886751174926758
100
AcDbArc
 50
60.00001306886933
 51
119.9999869311306
  0
LINE
  5
D9A
330
1F
100
AcDbEntity
  8
0
  6
ByBlock
 62
     0
 48
0.3
100
AcDbLine
 10
-407.7730473782187
 20
569.1337056000329
 30
0.0
 11
-417.5730473782189
 21
569.1337056000329
 31
0.0
  0
LINE
  5
D9B
330
1F
100
AcDbEntity
  8
0
  6
ByBlock
 62
     0
 48
0.3
100
AcDbLine
 10
-407.7730473782187
 20
565.5337056000335
 30
0.0
 11
-417.5730473782189
 21
565.5337056000335
 31
0.0
  0
LINE
  5
D9C
330
1F
100
AcDbEntity
  8
0
  6
ByBlock
 62
     0
 48
0.3
100
AcDbLine
 10
-415.5597973782189
 20
565.5337056000335
 30
0.0
 11
-415.5597973782189
 21
568.6293903750329
 31
0.0
  0
LINE
  5
D9D
330
1F
100
AcDbEntity
  8
0
  6
ByBlock
 62
     0
 48
0.3
100
AcDbLine
 10
-418.4465473782186
 20
565.5337056000335
 30
0.0
 11
-418.4465473782186
 21
568.6293903750329
 31
0.0
  0
LINE
  5
D9E
330
1F
100
AcDbEntity
  8
0
  6
ByBlock
 62
     0
 48
0.3
100
AcDbLine
 10
-409.7862973782187
 20
565.5337056000335
 30
0.0
 11
-409.7862973782187
 21
568.6293903750329
 31
0.0
  0
LINE
  5
D9F
330
1F
100
AcDbEntity
  8
0
  6
ByBlock
 62
     0
 48
0.3
100
AcDbLine
 10
-406.8995473782181
 20
565.5337056000335
 30
0.0
 11
-406.8995473782181
 21
568.6293903750329
 31
0.0
  0
LINE
  5
DA0
330
1F
100
AcDbEntity
  8
0
100
AcDbLine
 10
-362.1730448532192
 20
571.9337063200336
 30
0.0
 11
-357.1730446032191
 21
571.9337063200336
 31
0.0
  0
LINE
  5
DA1
330
1F
100
AcDbEntity
  8
0
100
AcDbLine
 10
-356.6730445782189
 20
569.1337056000329
 30
0.0
 11
-356.6730445782189
 21
571.4337062950335
 31
0.0
  0
LINE
  5
DA2
330
1F
100
AcDbEntity
  8
0
100
AcDbLine
 10
-362.6730448782193
 20
569.1337056000329
 30
0.0
 11
-362.6730448782184
 21
571.4337062950335
 31
0.0
  0
LINE
  5
DA3
330
1F
100
AcDbEntity
  8
0
100
AcDbLine
 10
-362.1730448532192
 20
571.9337063200336
 30
0.0
 11
-362.6730448782184
 21
571.4337062950335
 31
0.0
  0
LINE
  5
DA4
330
1F
100
AcDbEntity
  8
0
100
AcDbLine
 10
-357.1730446032191
 20
571.9337063200336
 30
0.0
 11
-356.6730445782189
 21
571.4337062950335
 31
0.0
  0
LINE
  5
DA5
330
1F
100
AcDbEntity
  8
0
100
AcDbLine
 10
-365.6730450282196
 20
563.933705520033
 30
0.0
 11
-365.6730450282196
 21
565.5337056000335
 31
0.0
  0
LINE
  5
DA6
330
1F
100
AcDbEntity
  8
0
100
AcDbLine
 10
-365.6730450282196
 20
565.5337056000335
 30
0.0
 11
-353.6730444282186
 21
565.5337056000335
 31
0.0
  0
LINE
  5
DA7
330
1F
100
AcDbEntity
  8
0
100
AcDbLine
 10
-353.6730444282186
 20
565.5337056000335
 30
0.0
 11
-353.6730444282186
 21
563.933705520033
 31
0.0
  0
LINE
  5
DA8
330
1F
100
AcDbEntity
  8
0
  6
ByBlock
 62
     0
 48
0.3
100
AcDbLine
 10
-365.4465447282185
 20
568.6293903750329
 30
0.0
 11
-364.5730447282188
 21
569.1337056000329
 31
0.0
  0
LINE
  5
DA9
330
1F
100
AcDbEntity
  8
0
  6
ByBlock
 62
     0
 48
0.3
100
AcDbLine
 10
-353.8995447282189
 20
568.6293903750329
 30
0.0
 11
-354.7730447282195
 21
569.1337056000329
 31
0.0
  0
ARC
  5
DAA
330
1F
100
AcDbEntity
  8
0
  6
ByBlock
 62
     0
 48
0.3
100
AcDbCircle
 10
-359.6730447282191
 20
560.6195273239709
 30
0.0
 40
8.514178276062013
100
AcDbArc
 50
70.18086675660939
 51
109.8191332433906
  0
ARC
  5
DAB
330
1F
100
AcDbEntity
  8
0
  6
ByBlock
 62
     0
 48
0.3
100
AcDbCircle
 10
-355.3429197282187
 20
566.1293902237521
 30
0.0
 40
2.886751174926758
100
AcDbArc
 50
60.00001306886933
 51
119.9999869311306
  0
ARC
  5
DAC
330
1F
100
AcDbEntity
  8
0
  6
ByBlock
 62
     0
 48
0.3
100
AcDbCircle
 10
-364.0031697282195
 20
566.1293902237521
 30
0.0
 40
2.886751174926758
100
AcDbArc
 50
60.00001306886933
 51
119.9999869311306
  0
LINE
  5
DAD
330
1F
100
AcDbEntity
  8
0
  6
ByBlock
 62
     0
 48
0.3
100
AcDbLine
 10
-364.5730447282188
 20
569.1337056000329
 30
0.0
 11
-354.7730447282195
 21
569.1337056000329
 31
0.0
  0
LINE
  5
DAE
330
1F
100
AcDbEntity
  8
0
  6
ByBlock
 62
     0
 48
0.3
100
AcDbLine
 10
-364.5730447282188
 20
565.5337056000335
 30
0.0
 11
-354.7730447282195
 21
565.5337056000335
 31
0.0
  0
LINE
  5
DAF
330
1F
100
AcDbEntity
  8
0
  6
ByBlock
 62
     0
 48
0.3
100
AcDbLine
 10
-356.7862947282194
 20
565.5337056000335
 30
0.0
 11
-356.7862947282194
 21
568.6293903750329
 31
0.0
  0
LINE
  5
DB0
330
1F
100
AcDbEntity
  8
0
  6
ByBlock
 62
     0
 48
0.3
100
AcDbLine
 10
-353.8995447282189
 20
565.5337056000335
 30
0.0
 11
-353.8995447282189
 21
568.6293903750329
 31
0.0
  0
LINE
  5
DB1
330
1F
100
AcDbEntity
  8
0
  6
ByBlock
 62
     0
 48
0.3
100
AcDbLine
 10
-362.5597947282188
 20
565.5337056000335
 30
0.0
 11
-362.5597947282188
 21
568.6293903750329
 31
0.0
  0
LINE
  5
DB2
330
1F
100
AcDbEntity
  8
0
  6
ByBlock
 62
     0
 48
0.3
100
AcDbLine
 10
-365.4465447282185
 20
565.5337056000335
 30
0.0
 11
-365.4465447282185
 21
568.6293903750329
 31
0.0
  0
LINE
  5
DB3
330
1F
100
AcDbEntity
  8
0
100
AcDbLine
 10
-398.1730680532185
 20
587.4337360376121
 30
0.0
 11
-398.1730680532185
 21
566.9337360376121
 31
0.0
  0
LINE
  5
DB4
330
1F
100
AcDbEntity
  8
0
100
AcDbLine
 10
-397.1730680532185
 20
565.933736037612
 30
0.0
 11
-375.1730680532185
 21
565.933736037612
 31
0.0
  0
LINE
  5
DB5
330
1F
100
AcDbEntity
  8
0
100
AcDbLine
 10
-397.1730680532185
 20
588.4337360376121
 30
0.0
 11
-375.1730680532185
 21
588.4337360376121
 31
0.0
  0
LINE
  5
DB6
330
1F
100
AcDbEntity
  8
0
100
AcDbLine
 10
-393.1730680532185
 20
563.9337360376121
 30
0.0
 11
-393.1730680532185
 21
565.933736037612
 31
0.0
  0
LINE
  5
DB7
330
1F
100
AcDbEntity
  8
0
100
AcDbLine
 10
-379.1730680532185
 20
565.933736037612
 30
0.0
 11
-379.1730680532185
 21
563.9337360376121
 31
0.0
  0
LINE
  5
DB8
330
1F
100
AcDbEntity
  8
0
100
AcDbLine
 10
-374.1730680532185
 20
587.4337360376121
 30
0.0
 11
-374.1730680532185
 21
566.9337360376121
 31
0.0
  0
ARC
  5
DB9
330
1F
100
AcDbEntity
  8
0
100
AcDbCircle
 10
-375.1730680532185
 20
566.9337360376121
 30
0.0
 40
1.0
100
AcDbArc
 50
269.9999974954792
 51
0.0
  0
ARC
  5
DBA
330
1F
100
AcDbEntity
  8
0
100
AcDbCircle
 10
-397.1730680532185
 20
566.9337360376121
 30
0.0
 40
1.0
100
AcDbArc
 50
179.9999949910105
 51
269.9999974954792
  0
ARC
  5
DBB
330
1F
100
AcDbEntity
  8
0
100
AcDbCircle
 10
-397.1730680532185
 20
587.4337360376121
 30
0.0
 40
1.0
100
AcDbArc
 50
90.00000250446868
 51
180.0000050089374
  0
ARC
  5
DBC
330
1F
100
AcDbEntity
  8
0
100
AcDbCircle
 10
-375.1730680532185
 20
587.4337360376121
 30
0.0
 40
1.0
100
AcDbArc
 50
0.0
 51
90.00000250446868
  0
CIRCLE
  5
DBD
330
1F
100
AcDbEntity
  8
0
  6
Continuous
100
AcDbCircle
 10
-386.1730460532183
 20
399.4337066950329
 30
0.0
 40
5.095811114288901
  0
LINE
  5
DBE
330
1F
100
AcDbEntity
  8
0
  6
CENTER
100
AcDbLine
 10
-842.001792279307
 20
889.097799589039
 30
0.0
 11
-592.001792279307
 21
889.097799589039
 31
0.0
  0
LINE
  5
DBF
330
1F
100
AcDbEntity
  8
0
100
AcDbLine
 10
-602.0017922793069
 20
829.5977995890389
 30
0.0
 11
-602.0017922793069
 21
889.097799589039
 31
0.0
  0
LINE
  5
DC0
330
1F
100
AcDbEntity
  8
0
100
AcDbLine
 10
-602.0017922793069
 20
889.097799589039
 30
0.0
 11
-602.0017922793069
 21
948.5977995890388
 31
0.0
  0
LINE
  5
DC1
330
1F
100
AcDbEntity
  8
0
100
AcDbLine
 10
-605.13917341608
 20
830.3873754040704
 30
0.0
 11
-607.5393639546184
 21
836.9818444749562
 31
0.0
  0
LINE
  5
DC2
330
1F
100
AcDbEntity
  8
0
100
AcDbLine
 10
-602.0017922793069
 20
829.5977995890389
 30
0.0
 11
-604.011542275861
 21
829.5977995890389
 31
0.0
  0
ARC
  5
DC3
330
1F
100
AcDbEntity
  8
0
100
AcDbCircle
 10
-604.011542275861
 20
830.7977995890396
 30
0.0
 40
1.199999999999999
100
AcDbArc
 50
200.0000006593996
 51
270.0
  0
ARC
  5
DC4
330
1F
100
AcDbEntity
  8
0
100
AcDbCircle
 10
-609.4187491883178
 20
836.2978041666757
 30
0.0
 40
2.0
100
AcDbArc
 50
20.00000065939961
 51
90.0
  0
LINE
  5
DC5
330
1F
100
AcDbEntity
  8
0
100
AcDbLine
 10
-602.0017922793069
 20
948.5977995890388
 30
0.0
 11
-604.011542275861
 21
948.5977995890388
 31
0.0
  0
ARC
  5
DC6
330
1F
100
AcDbEntity
  8
0
100
AcDbCircle
 10
-604.011542275861
 20
947.39779958904
 30
0.0
 40
1.199999999999999
100
AcDbArc
 50
90.0
 51
159.9999993406004
  0
ARC
  5
DC7
330
1F
100
AcDbEntity
  8
0
100
AcDbCircle
 10
-609.4187491883178
 20
941.8977950114022
 30
0.0
 40
2.0
100
AcDbArc
 50
270.0
 51
339.9999993406003
  0
LINE
  5
DC8
330
1F
100
AcDbEntity
  8
0
100
AcDbLine
 10
-605.13917341608
 20
947.8082237740073
 30
0.0
 11
-607.5393639546184
 21
941.2137547031225
 31
0.0
  0
LINE
  5
DC9
330
1F
100
AcDbEntity
  8
0
100
AcDbLine
 10
-609.4187496419055
 20
838.2978041666756
 30
0.0
 11
-636.7517820299638
 21
838.2977979677143
 31
0.0
  0
LINE
  5
DCA
330
1F
100
AcDbEntity
  8
0
100
AcDbLine
 10
-832.001792279307
 20
829.5977995890389
 30
0.0
 11
-832.001792279307
 21
948.5977995890388
 31
0.0
  0
LINE
  5
DCB
330
1F
100
AcDbEntity
  8
0
100
AcDbLine
 10
-828.8644111425339
 20
830.3873754040704
 30
0.0
 11
-826.4642206039955
 21
836.9818444749562
 31
0.0
  0
LINE
  5
DCC
330
1F
100
AcDbEntity
  8
0
100
AcDbLine
 10
-832.001792279307
 20
829.5977995890389
 30
0.0
 11
-829.9920422827529
 21
829.5977995890389
 31
0.0
  0
ARC
  5
DCD
330
1F
100
AcDbEntity
  8
0
100
AcDbCircle
 10
-829.9920422827529
 20
830.7977995890396
 30
0.0
 40
1.199999999999999
100
AcDbArc
 50
270.0
 51
339.9999993406003
  0
ARC
  5
DCE
330
1F
100
AcDbEntity
  8
0
100
AcDbCircle
 10
-824.584835370296
 20
836.2978041666757
 30
0.0
 40
2.0
100
AcDbArc
 50
90.0
 51
159.9999993406004
  0
LINE
  5
DCF
330
1F
100
AcDbEntity
  8
0
100
AcDbLine
 10
-832.001792279307
 20
948.5977995890388
 30
0.0
 11
-829.9920422827529
 21
948.5977995890388
 31
0.0
  0
ARC
  5
DD0
330
1F
100
AcDbEntity
  8
0
100
AcDbCircle
 10
-829.9920422827529
 20
947.39779958904
 30
0.0
 40
1.199999999999999
100
AcDbArc
 50
20.00000065939961
 51
90.0
  0
ARC
  5
DD1
330
1F
100
AcDbEntity
  8
0
100
AcDbCircle
 10
-824.584835370296
 20
941.8977950114022
 30
0.0
 40
2.0
100
AcDbArc
 50
200.0000006593996
 51
270.0
  0
LINE
  5
DD2
330
1F
100
AcDbEntity
  8
0
100
AcDbLine
 10
-828.8644111425339
 20
947.8082237740073
 30
0.0
 11
-826.4642206039955
 21
941.2137547031225
 31
0.0
  0
LINE
  5
DD3
330
1F
100
AcDbEntity
  8
0
100
AcDbLine
 10
-824.5848353081093
 20
939.8977950114021
 30
0.0
 11
-795.0017931991444
 21
939.8977959312414
 31
0.0
  0
LINE
  5
DD4
330
1F
100
AcDbEntity
  8
0
100
AcDbLine
 10
-824.584835370296
 20
838.2978041666756
 30
0.0
 11
-795.001792279307
 21
838.2978041666756
 31
0.0
  0
LINE
  5
DD5
330
1F
100
AcDbEntity
  8
0
100
AcDbLine
 10
-781.0017922793069
 20
822.097799589039
 30
0.0
 11
-788.001792279307
 21
822.097799589039
 31
0.0
  0
ARC
  5
DD6
330
1F
100
AcDbEntity
  8
0
100
AcDbCircle
 10
-781.0017922793069
 20
819.0977995890388
 30
0.0
 40
3.0
100
AcDbArc
 50
0.0
 51
90.0
1001
GENIUS_GENOBJ-N-FIL_13
1002
{
1000
OWNER
1000
GEN
1002
}
1001
GENIUS_GENODEF_13
1002
{
1000
HIER
1070
     0
1002
}
1002
{
1000
MANEDIT
1070
     0
1002
}
1002
{
1000
NOSEL
1070
     0
1002
}
1002
{
1000
BEHIND
1070
     0
1002
}
1002
{
1000
OTHER
1070
     0
1002
}
1002
{
1000
REACTOR
1002
}
  0
LINE
  5
DD7
330
1F
100
AcDbEntity
  8
0
100
AcDbLine
 10
-793.0017922793069
 20
827.0977995890389
 30
0.0
 11
-793.0017922793069
 21
889.097799589039
 31
0.0
  0
ARC
  5
DD8
330
1F
100
AcDbEntity
  8
0
100
AcDbCircle
 10
-795.001792279307
 20
836.2978041666757
 30
0.0
 40
2.0
100
AcDbArc
 50
0.0
 51
90.0
1001
GENIUS_GENOBJ-N-FIL_13
1002
{
1000
OWNER
1000
GEN
1002
}
1001
GENIUS_GENODEF_13
1002
{
1000
HIER
1070
     0
1002
}
1002
{
1000
MANEDIT
1070
     0
1002
}
1002
{
1000
NOSEL
1070
     0
1002
}
1002
{
1000
BEHIND
1070
     0
1002
}
1002
{
1000
OTHER
1070
     0
1002
}
1002
{
1000
REACTOR
1002
}
  0
ARC
  5
DD9
330
1F
100
AcDbEntity
  8
0
100
AcDbCircle
 10
-788.001792279307
 20
827.0977995890389
 30
0.0
 40
5.0
100
AcDbArc
 50
180.0
 51
270.0
1001
GENIUS_GENODEF_13
1002
{
1000
HIER
1070
     0
1002
}
1002
{
1000
MANEDIT
1070
     0
1002
}
1002
{
1000
NOSEL
1070
     0
1002
}
1002
{
1000
BEHIND
1070
     0
1002
}
1002
{
1000
OTHER
1070
     0
1002
}
1002
{
1000
REACTOR
1002
}
1001
GENIUS_GENOBJ-N-FIL_13
1002
{
1000
OWNER
1000
GEN
1002
}
  0
LINE
  5
DDA
330
1F
100
AcDbEntity
  8
0
100
AcDbLine
 10
-778.001792279307
 20
889.097799589039
 30
0.0
 11
-778.001792279307
 21
809.597799589039
 31
0.0
  0
LINE
  5
DDB
330
1F
100
AcDbEntity
  8
0
100
AcDbLine
 10
-793.0017922793069
 20
951.0977995890389
 30
0.0
 11
-793.0017922793069
 21
889.0977995890398
 31
0.0
  0
ARC
  5
DDC
330
1F
100
AcDbEntity
  8
0
100
AcDbCircle
 10
-795.001792279307
 20
941.8977959312405
 30
0.0
 40
2.0
100
AcDbArc
 50
269.9999736485974
 51
0.0
1001
GENIUS_GENOBJ-N-FIL_13
1002
{
1000
OWNER
1000
GEN
1002
}
1001
GENIUS_GENODEF_13
1002
{
1000
HIER
1070
     0
1002
}
1002
{
1000
MANEDIT
1070
     0
1002
}
1002
{
1000
NOSEL
1070
     0
1002
}
1002
{
1000
BEHIND
1070
     0
1002
}
1002
{
1000
OTHER
1070
     0
1002
}
1002
{
1000
REACTOR
1002
}
  0
LINE
  5
DDD
330
1F
100
AcDbEntity
  8
0
100
AcDbLine
 10
-778.001792279307
 20
889.097799589039
 30
0.0
 11
-778.001792279307
 21
968.5977995890389
 31
0.0
  0
LINE
  5
DDE
330
1F
100
AcDbEntity
  8
0
100
AcDbLine
 10
-609.4187496419055
 20
939.8977950114021
 30
0.0
 11
-636.751782029961
 21
939.8978012103661
 31
0.0
  0
LINE
  5
DDF
330
1F
100
AcDbEntity
  8
0
100
AcDbLine
 10
-662.7517922793069
 20
981.5977878476532
 30
0.0
 11
-659.4760557115971
 21
990.5977997772433
 31
0.0
  0
LINE
  5
DE0
330
1F
100
AcDbEntity
  8
0
100
AcDbLine
 10
-662.7517922793069
 20
911.6478047366422
 30
0.0
 11
-662.7517922793069
 21
981.5977878476532
 31
0.0
  0
LINE
  5
DE1
330
1F
100
AcDbEntity
  8
0
100
AcDbLine
 10
-781.0017922793069
 20
956.0977995890389
 30
0.0
 11
-788.001792279307
 21
956.0977995890389
 31
0.0
  0
ARC
  5
DE2
330
1F
100
AcDbEntity
  8
0
100
AcDbCircle
 10
-781.0017922793069
 20
959.0977995890389
 30
0.0
 40
3.0
100
AcDbArc
 50
270.0
 51
0.0
1001
GENIUS_GENOBJ-N-FIL_13
1002
{
1000
OWNER
1000
GEN
1002
}
1001
GENIUS_GENODEF_13
1002
{
1000
HIER
1070
     0
1002
}
1002
{
1000
MANEDIT
1070
     0
1002
}
1002
{
1000
NOSEL
1070
     0
1002
}
1002
{
1000
BEHIND
1070
     0
1002
}
1002
{
1000
OTHER
1070
     0
1002
}
1002
{
1000
REACTOR
1002
}
  0
ARC
  5
DE3
330
1F
100
AcDbEntity
  8
0
100
AcDbCircle
 10
-788.001792279307
 20
951.0977995890389
 30
0.0
 40
5.0
100
AcDbArc
 50
90.0
 51
180.0
1001
GENIUS_GENODEF_13
1002
{
1000
HIER
1070
     0
1002
}
1002
{
1000
MANEDIT
1070
     0
1002
}
1002
{
1000
NOSEL
1070
     0
1002
}
1002
{
1000
BEHIND
1070
     0
1002
}
1002
{
1000
OTHER
1070
     0
1002
}
1002
{
1000
REACTOR
1002
}
1001
GENIUS_GENOBJ-N-FIL_13
1002
{
1000
OWNER
1000
GEN
1002
}
  0
LINE
  5
DE4
330
1F
100
AcDbEntity
  8
0
100
AcDbLine
 10
-662.751792279311
 20
804.5977995890389
 30
0.0
 11
-773.0017922793069
 21
804.5977995890389
 31
0.0
  0
ARC
  5
DE5
330
1F
100
AcDbEntity
  8
0
100
AcDbCircle
 10
-773.0017922793069
 20
809.597799589039
 30
0.0
 40
5.0
100
AcDbArc
 50
180.0
 51
270.0
1001
GENIUS_GENODEF_13
1002
{
1000
HIER
1070
     0
1002
}
1002
{
1000
MANEDIT
1070
     0
1002
}
1002
{
1000
NOSEL
1070
     0
1002
}
1002
{
1000
BEHIND
1070
     0
1002
}
1002
{
1000
OTHER
1070
     0
1002
}
1002
{
1000
REACTOR
1002
}
1001
GENIUS_GENOBJ-N-FIL_13
1002
{
1000
OWNER
1000
GEN
1002
}
  0
LINE
  5
DE6
330
1F
100
AcDbEntity
  8
0
100
AcDbLine
 10
-662.7517922793065
 20
973.5977995890388
 30
0.0
 11
-773.0017922793069
 21
973.5977995890388
 31
0.0
  0
ARC
  5
DE7
330
1F
100
AcDbEntity
  8
0
100
AcDbCircle
 10
-773.0017922793069
 20
968.5977995890389
 30
0.0
 40
5.0
100
AcDbArc
 50
90.0
 51
180.0
1001
GENIUS_GENODEF_13
1002
{
1000
HIER
1070
     0
1002
}
1002
{
1000
MANEDIT
1070
     0
1002
}
1002
{
1000
NOSEL
1070
     0
1002
}
1002
{
1000
BEHIND
1070
     0
1002
}
1002
{
1000
OTHER
1070
     0
1002
}
1002
{
1000
REACTOR
1002
}
1001
GENIUS_GENOBJ-N-FIL_13
1002
{
1000
OWNER
1000
GEN
1002
}
  0
LINE
  5
DE8
330
1F
100
AcDbEntity
  8
0
100
AcDbLine
 10
-604.8517913114213
 20
830.3873754040704
 30
0.0
 11
-604.8517913114198
 21
889.0977995890398
 31
0.0
  0
LINE
  5
DE9
330
1F
100
AcDbEntity
  8
0
100
AcDbLine
 10
-608.0183341290497
 20
838.2978041666756
 30
0.0
 11
-608.0183341290482
 21
889.097799589039
 31
0.0
  0
LINE
  5
DEA
330
1F
100
AcDbEntity
  8
0
100
AcDbLine
 10
-604.8517913114213
 20
947.8082237740073
 30
0.0
 11
-604.8517913114198
 21
889.0977995890398
 31
0.0
  0
LINE
  5
DEB
330
1F
100
AcDbEntity
  8
0
100
AcDbLine
 10
-608.0183341290497
 20
939.8977950114021
 30
0.0
 11
-608.0183341290482
 21
889.0977995890398
 31
0.0
  0
LINE
  5
DEC
330
1F
100
AcDbEntity
  8
0
100
AcDbLine
 10
-829.1517933234239
 20
830.3873645762523
 30
0.0
 11
-829.1517989917776
 21
889.0977887612207
 31
0.0
  0
LINE
  5
DED
330
1F
100
AcDbEntity
  8
0
100
AcDbLine
 10
-825.9852512695291
 20
838.2977936445787
 30
0.0
 11
-825.9852561741492
 21
889.0977890669418
 31
0.0
  0
LINE
  5
DEE
330
1F
100
AcDbEntity
  8
0
100
AcDbLine
 10
-829.1518046601307
 20
947.8082129461881
 30
0.0
 11
-829.1517989917776
 21
889.0977887612207
 31
0.0
  0
LINE
  5
DEF
330
1F
100
AcDbEntity
  8
0
100
AcDbLine
 10
-825.9852610787696
 20
939.8977844893051
 30
0.0
 11
-825.9852561741492
 21
889.0977890669429
 31
0.0
  0
LINE
  5
DF0
330
1F
100
AcDbEntity
  8
0
100
AcDbLine
 10
-659.4760571685348
 20
877.1665307439151
 30
0.0
 11
-659.4760571685348
 21
787.5978034037362
 31
0.0
  0
LINE
  5
DF1
330
1F
100
AcDbEntity
  8
0
100
AcDbLine
 10
-659.4760571685348
 20
901.0290684341629
 30
0.0
 11
-659.4760571685348
 21
990.5977957743399
 31
0.0
  0
LINE
  5
DF2
330
1F
100
AcDbEntity
  8
0
100
AcDbLine
 10
-662.7517922793079
 20
866.5477944414337
 30
0.0
 11
-662.7517922793115
 21
796.5978113304245
 31
0.0
  0
LINE
  5
DF3
330
1F
100
AcDbEntity
  8
0
100
AcDbLine
 10
-662.7517922793115
 20
787.5977994008353
 30
0.0
 11
-636.751782029966
 21
787.5977994008344
 31
0.0
  0
LINE
  5
DF4
330
1F
100
AcDbEntity
  8
0
100
AcDbLine
 10
-659.4760557116026
 20
990.5977917714407
 30
0.0
 11
-640.0275171407376
 21
990.5977917714407
 31
0.0
  0
LINE
  5
DF5
330
1F
100
AcDbEntity
  8
0
100
AcDbLine
 10
-640.0275171407386
 20
889.097799589039
 30
0.0
 11
-640.0275171407376
 21
787.5977994008353
 31
0.0
  0
LINE
  5
DF6
330
1F
100
AcDbEntity
  8
0
100
AcDbLine
 10
-640.0275171407386
 20
889.097799589039
 30
0.0
 11
-640.0275171407376
 21
990.5977917714389
 31
0.0
  0
LINE
  5
DF7
330
1F
100
AcDbEntity
  8
0
100
AcDbLine
 10
-636.751782029961
 20
981.5977838447524
 30
0.0
 11
-640.0275185976709
 21
990.5977957743425
 31
0.0
  0
LINE
  5
DF8
330
1F
100
AcDbEntity
  8
0
100
AcDbLine
 10
-636.751782029961
 20
889.097799589039
 30
0.0
 11
-636.751782029961
 21
981.5977838447524
 31
0.0
  0
LINE
  5
DF9
330
1F
100
AcDbEntity
  8
0
100
AcDbLine
 10
-636.7517820299606
 20
889.097799589039
 30
0.0
 11
-636.7517820299665
 21
796.5978073275218
 31
0.0
  0
LINE
  5
DFA
330
1F
100
AcDbEntity
  8
0
100
AcDbLine
 10
-657.7517922793115
 20
767.0977891071961
 30
0.0
 11
-641.7517820299656
 21
767.0977891071961
 31
0.0
  0
LINE
  5
DFB
330
1F
100
AcDbEntity
  8
0
100
AcDbLine
 10
-636.7517820299665
 20
796.5978073275218
 30
0.0
 11
-636.7517820299656
 21
772.0977891071961
 31
0.0
  0
ARC
  5
DFC
330
1F
100
AcDbEntity
  8
0
100
AcDbCircle
 10
-641.7517820299656
 20
772.0977891071961
 30
0.0
 40
5.0
100
AcDbArc
 50
270.0
 51
0.0
  0
LINE
  5
DFD
330
1F
100
AcDbEntity
  8
0
100
AcDbLine
 10
-644.5017820299661
 20
777.0977891071961
 30
0.0
 11
-644.5017820299656
 21
767.0977891071952
 31
0.0
  0
LINE
  5
DFE
330
1F
100
AcDbEntity
  8
0
100
AcDbLine
 10
-662.7517922793115
 20
796.5978113304245
 30
0.0
 11
-662.7517922793115
 21
772.0977891071961
 31
0.0
  0
ARC
  5
DFF
330
1F
100
AcDbEntity
  8
0
100
AcDbCircle
 10
-657.7517922793115
 20
772.0977891071961
 30
0.0
 40
5.0
100
AcDbArc
 50
180.0
 51
270.0
  0
LINE
  5
E00
330
1F
100
AcDbEntity
  8
0
100
AcDbLine
 10
-655.0017922793115
 20
777.0977891071961
 30
0.0
 11
-655.0017922793115
 21
767.0977891071961
 31
0.0
  0
LINE
  5
E01
330
1F
100
AcDbEntity
  8
0
100
AcDbLine
 10
-652.6017864261705
 20
767.0977891071961
 30
0.0
 11
-652.6017864261705
 21
759.9477967663924
 31
0.0
  0
LINE
  5
E02
330
1F
100
AcDbEntity
  8
0
100
AcDbLine
 10
-646.901786426168
 20
767.0977891071961
 30
0.0
 11
-646.9017864261688
 21
759.9477967663924
 31
0.0
  0
ARC
  5
E03
330
1F
100
AcDbEntity
  8
0
100
AcDbCircle
 10
-649.7517864261701
 20
759.9477967663924
 30
0.0
 40
2.850000000000363
100
AcDbArc
 50
180.0
 51
0.0
  0
LINE
  5
E04
330
1F
100
AcDbEntity
  8
0
  6
CENTER
100
AcDbLine
 10
-717.876792279307
 20
983.5977995890388
 30
0.0
 11
-717.001973084871
 21
794.5977995890388
 31
0.0
  0
ARC
  5
E05
330
1F
100
AcDbEntity
  8
0
100
AcDbCircle
 10
-649.7517871546385
 20
777.0977891071961
 30
0.0
 40
5.250005124673066
100
AcDbArc
 50
0.0
 51
180.0
  0
LINE
  5
E06
330
1F
100
AcDbEntity
  8
0
100
AcDbLine
 10
-717.001671922211
 20
920.2165967917812
 30
0.0
 11
-713.0016431052361
 21
917.9071790360845
 31
0.0
  0
LINE
  5
E07
330
1F
100
AcDbEntity
  8
0
100
AcDbLine
 10
-721.00170924414
 20
860.2883818644295
 30
0.0
 11
-721.00170924414
 21
864.9072173136483
 31
0.0
  0
LINE
  5
E08
330
1F
100
AcDbEntity
  8
0
100
AcDbLine
 10
-713.0016329778116
 20
913.2884194496623
 30
0.0
 11
-717.0016617947865
 21
910.9790016939655
 31
0.0
  0
LINE
  5
E09
330
1F
100
AcDbEntity
  8
0
100
AcDbLine
 10
-713.0016482089838
 20
917.9072173136487
 30
0.0
 11
-713.0016482089838
 21
913.28838186443
 31
0.0
  0
LINE
  5
E0A
330
1F
100
AcDbEntity
  8
0
100
AcDbLine
 10
-713.0016482089838
 20
860.2883818644295
 30
0.0
 11
-713.0016482089838
 21
864.9072173136483
 31
0.0
  0
LINE
  5
E0B
330
1F
100
AcDbEntity
  8
0
100
AcDbLine
 10
-717.0016335478473
 20
857.9790145174293
 30
0.0
 11
-713.0016047308715
 21
860.2884322731261
 31
0.0
  0
LINE
  5
E0C
330
1F
100
AcDbEntity
  8
0
100
AcDbLine
 10
-717.001606692065
 20
867.2166387759389
 30
0.0
 11
-721.0016355090399
 21
864.9072210202421
 31
0.0
  0
LINE
  5
E0D
330
1F
100
AcDbEntity
  8
0
100
AcDbLine
 10
-717.0016330316563
 20
920.2166226488502
 30
0.0
 11
-721.0016618486313
 21
917.9072048931534
 31
0.0
  0
LINE
  5
E0E
330
1F
100
AcDbEntity
  8
0
100
AcDbLine
 10
-717.0016941572619
 20
857.9789797716312
 30
0.0
 11
-721.0017229742377
 21
860.2883975273281
 31
0.0
  0
LINE
  5
E0F
330
1F
100
AcDbEntity
  8
0
100
AcDbLine
 10
-717.0015821239237
 20
910.9790815528873
 30
0.0
 11
-721.0016109408987
 21
913.288499308584
 31
0.0
  0
LINE
  5
E10
330
1F
100
AcDbEntity
  8
0
100
AcDbLine
 10
-721.00170924414
 20
917.9072173136487
 30
0.0
 11
-721.00170924414
 21
913.28838186443
 31
0.0
  0
LINE
  5
E11
330
1F
100
AcDbEntity
  8
0
100
AcDbLine
 10
-713.0016635858389
 20
864.9072358288149
 30
0.0
 11
-717.0016924028138
 21
867.2166535845118
 31
0.0
  0
CIRCLE
  5
E12
330
1F
100
AcDbEntity
  8
0
100
AcDbCircle
 10
-717.0017702792963
 20
889.0977995890393
 30
0.0
 40
12.0
  0
CIRCLE
  5
E13
330
1F
100
AcDbEntity
  8
0
100
AcDbCircle
 10
-717.0017702792963
 20
889.0977995890393
 30
0.0
 40
7.75
  0
CIRCLE
  5
E14
330
1F
100
AcDbEntity
  8
0
100
AcDbCircle
 10
-738.2149965976557
 20
867.8846190470467
 30
0.0
 40
3.0
  0
CIRCLE
  5
E15
330
1F
100
AcDbEntity
  8
0
100
AcDbCircle
 10
-738.2149965976557
 20
910.3109877604261
 30
0.0
 40
3.0
  0
CIRCLE
  5
E16
330
1F
100
AcDbEntity
  8
0
100
AcDbCircle
 10
-695.788543960937
 20
867.8846190470467
 30
0.0
 40
3.0
  0
CIRCLE
  5
E17
330
1F
100
AcDbEntity
  8
0
100
AcDbCircle
 10
-738.2149965976557
 20
910.3109877604261
 30
0.0
 40
2.599999904632568
  0
CIRCLE
  5
E18
330
1F
100
AcDbEntity
  8
0
100
AcDbCircle
 10
-738.2149965976557
 20
867.8846190470467
 30
0.0
 40
2.599999904632568
  0
CIRCLE
  5
E19
330
1F
100
AcDbEntity
  8
0
100
AcDbCircle
 10
-695.788574478515
 20
910.3109877604261
 30
0.0
 40
3.0
  0
CIRCLE
  5
E1A
330
1F
100
AcDbEntity
  8
0
100
AcDbCircle
 10
-695.788574478515
 20
910.3109877604261
 30
0.0
 40
2.599999904632568
  0
CIRCLE
  5
E1B
330
1F
100
AcDbEntity
  8
0
100
AcDbCircle
 10
-695.788543960937
 20
867.8846190470467
 30
0.0
 40
2.599999904632568
  0
CIRCLE
  5
E1C
330
1F
100
AcDbEntity
  8
0
100
AcDbCircle
 10
-717.0017702792963
 20
862.5977995890389
 30
0.0
 40
4.0
  0
CIRCLE
  5
E1D
330
1F
100
AcDbEntity
  8
0
100
AcDbCircle
 10
-717.0017702792963
 20
915.5977995890394
 30
0.0
 40
4.0
  0
CIRCLE
  5
E1E
330
1F
100
AcDbEntity
  8
0
100
AcDbCircle
 10
-717.0017702792963
 20
862.5977995890389
 30
0.0
 40
2.0
  0
CIRCLE
  5
E1F
330
1F
100
AcDbEntity
  8
0
100
AcDbCircle
 10
-717.0017702792963
 20
915.5977995890394
 30
0.0
 40
2.0
  0
CIRCLE
  5
E20
330
1F
100
AcDbEntity
  8
0
100
AcDbCircle
 10
-717.0017702792963
 20
915.5977995890394
 30
0.0
 40
2.5
  0
CIRCLE
  5
E21
330
1F
100
AcDbEntity
  8
0
100
AcDbCircle
 10
-717.0017702792963
 20
862.5977995890389
 30
0.0
 40
2.5
  0
CIRCLE
  5
E22
330
1F
100
AcDbEntity
  8
0
100
AcDbCircle
 10
-717.0017702792963
 20
915.5977995890394
 30
0.0
 40
5.0
  0
CIRCLE
  5
E23
330
1F
100
AcDbEntity
  8
0
100
AcDbCircle
 10
-717.0017702792963
 20
862.5977995890389
 30
0.0
 40
5.0
  0
LINE
  5
E24
330
1F
100
AcDbEntity
  8
0
100
AcDbLine
 10
-653.1878024980467
 20
894.0977690714612
 30
0.0
 11
-653.1878024980467
 21
884.0977843302503
 31
0.0
  0
LINE
  5
E25
330
1F
100
AcDbEntity
  8
0
100
AcDbLine
 10
-653.1878024980467
 20
893.8477843302504
 30
0.0
 11
-655.1878024980467
 21
893.8477843302504
 31
0.0
  0
LINE
  5
E26
330
1F
100
AcDbEntity
  8
0
100
AcDbLine
 10
-655.1863931141795
 20
884.3477654773055
 30
0.0
 11
-658.4891503024843
 21
884.4509766148208
 31
0.0
  0
LINE
  5
E27
330
1F
100
AcDbEntity
  8
0
100
AcDbLine
 10
-653.1878024980467
 20
884.3477690714612
 30
0.0
 11
-655.1878024980467
 21
884.3477690714612
 31
0.0
  0
LINE
  5
E28
330
1F
100
AcDbEntity
  8
0
100
AcDbLine
 10
-640.6878330156248
 20
884.0977843302503
 30
0.0
 11
-653.1878024980467
 21
884.0977843302503
 31
0.0
  0
LINE
  5
E29
330
1F
100
AcDbEntity
  8
0
100
AcDbLine
 10
-640.6878330156248
 20
894.0977690714612
 30
0.0
 11
-640.6878330156248
 21
884.0977843302503
 31
0.0
  0
LINE
  5
E2A
330
1F
100
AcDbEntity
  8
0
100
AcDbLine
 10
-655.1878451726259
 20
893.8477734873536
 30
0.0
 11
-658.4891487875145
 21
893.7446077739965
 31
0.0
  0
LINE
  5
E2B
330
1F
100
AcDbEntity
  8
0
100
AcDbLine
 10
-640.6878330156248
 20
894.0977690714612
 30
0.0
 11
-653.1878024980467
 21
894.0977690714612
 31
0.0
  0
LINE
  5
E2C
330
1F
100
AcDbEntity
  8
0
100
AcDbLine
 10
-656.2517673417967
 20
893.8145964640394
 30
0.0
 11
-656.2517673417967
 21
884.3810484904066
 31
0.0
  0
CIRCLE
  5
E2D
330
1F
100
AcDbEntity
  8
0
  6
Continuous
100
AcDbCircle
 10
-717.0017702792963
 20
889.0977995890393
 30
0.0
 40
58.75000293749997
  0
CIRCLE
  5
E2E
330
1F
100
AcDbEntity
  8
0
  6
Continuous
100
AcDbCircle
 10
-717.0017702792963
 20
889.0977995890393
 30
0.0
 40
57.1500028575
  0
TEXT
  5
E2F
330
1F
100
AcDbEntity
  8
0
100
AcDbText
 10
-882.5270164127996
 20
1234.72102069344
 30
0.0
 40
50.0
  1
2MA__V11000 4S
 72
     4
 11
-561.6936830794664
 21
1255.554354026773
 31
0.0
100
AcDbText
  0
VIEWPORT
  5
79
330
5D
100
AcDbEntity
 67
     1
  8
0
100
AcDbViewport
 10
5.249999639556162
 20
3.999999883606676
 30
0.0
 40
15.01558029761351
 41
8.593922408982605
 68
     1
 69
     1
 12
5.249999639556162
 22
3.999999883606676
 13
0.0
 23
0.0
 14
10.0
 24
10.0
 15
10.0
 25
10.0
 16
0.0
 26
0.0
 36
1.0
 17
0.0
 27
0.0
 37
0.0
 42
50.0
 43
0.0
 44
0.0
 45
8.593922408982605
 50
0.0
 51
0.0
 72
   100
 90
    32800
  1

281
     0
 71
     1
 74
     0
110
0.0
120
0.0
130
0.0
111
1.0
121
0.0
131
0.0
112
0.0
122
1.0
132
0.0
 79
     0
146
0.0
170
     0
 61
     5
348
7A1
292
     1
282
     1
141
0.0
142
0.0
 63
   250
421
  3355443
1001
GENIUS_GENSCREG_15
1000
PF
1040
1.0
1000
DF
1040
1.0
1000
MIN
1011
-2.257790509250597
1021
-0.2969613208846251
1031
0.0
1000
MAX
1011
12.75778978836292
1021
8.29696108809798
1031
0.0
1000
FLAGS
1070
     4
1001
GENIUS_GENODEF_13
1002
{
1000
HIER
1070
     0
1002
}
1002
{
1000
MANEDIT
1070
     0
1002
}
1002
{
1000
NOSEL
1070
     0
1002
}
1002
{
1000
BEHIND
1070
     0
1002
}
1002
{
1000
OTHER
1070
     0
1002
}
1002
{
1000
REACTOR
1002
}
1001
GENIUS_GENOBJ-N-SDF_13
1002
{
1000
OWNER
1000
GEN
1002
}
  0
VIEWPORT
  5
7B
330
5D
100
AcDbEntity
 67
     1
  8
0
100
AcDbViewport
 10
5.24999976158142
 20
3.99999976158142
 30
0.0
 40
8.399999618530271
 41
6.399999618530272
 68
     2
 69
     2
 12
6.0
 22
4.5
 13
0.0
 23
0.0
 14
0.5
 24
0.5
 15
0.5
 25
0.5
 16
0.0
 26
0.0
 36
1.0
 17
0.0
 27
0.0
 37
0.0
 42
50.0
 43
0.0
 44
0.0
 45
9.259079771746701
 50
0.0
 51
0.0
 72
   100
 90
    32864
  1

281
     0
 71
     1
 74
     0
110
0.0
120
0.0
130
0.0
111
1.0
121
0.0
131
0.0
112
0.0
122
1.0
132
0.0
 79
     0
146
0.0
170
     0
 61
     5
348
7A1
292
     1
282
     1
141
0.0
142
0.0
 63
   250
421
  3355443
1001
GENIUS_GENSCREG_15
1000
PF
1040
0.0
1000
DF
1040
0.0
1000
MIN
1011
1.049999952316284
1021
0.7999999523162842
1031
0.0
1000
MAX
1011
9.449999570846555
1021
7.199999570846556
1031
0.0
1000
FLAGS
1070
     4
1001
GENIUS_GENOBJ-N-SDF_13
1002
{
1000
OWNER
1000
GEN
1002
}
1001
GENIUS_GENODEF_13
1002
{
1000
HIER
1070
     0
1002
}
1002
{
1000
MANEDIT
1070
     0
1002
}
1002
{
1000
NOSEL
1070
     0
1002
}
1002
{
1000
BEHIND
1070
     0
1002
}
1002
{
1000
OTHER
1070
     0
1002
}
1002
{
1000
REACTOR
1002
}
  0
ENDSEC
  0
SECTION
  2
OBJECTS
  0
DICTIONARY
  5
C
330
0
100
AcDbDictionary
281
     1
  3
ACAD_CIP_PREVIOUS_PRODUCT_INFO
350
908
  3
ACAD_COLOR
350
7AC
  3
ACAD_DETAILVIEWSTYLE
350
904
  3
ACAD_GROUP
350
D
  3
ACAD_LAYOUT
350
1A
  3
ACAD_MATERIAL
350
782
  3
ACAD_MLEADERSTYLE
350
7D1
  3
ACAD_MLINESTYLE
350
17
  3
ACAD_PLOTSETTINGS
350
19
  3
ACAD_PLOTSTYLENAME
350
E
  3
ACAD_SCALELIST
350
7AF
  3
ACAD_SECTIONVIEWSTYLE
350
902
  3
ACAD_TABLESTYLE
350
7AD
  3
ACAD_VISUALSTYLE
350
79B
  3
ACDB_RECOMPOSE_DATA
350
E9C
  3
AcDbVariableDictionary
350
66
  3
AcDsDecomposeData
350
EA2
  3
AcmDictionary
350
833
  3
AcmSystemVariableManager
350
8A1
  3
AMG
350
7D7
  3
AMGSNAPSETTINGS
350
878
  0
DICTIONARY
  5
88A
330
8
100
AcDbDictionary
280
     1
281
     1
  0
DICTIONARY
  5
E4
330
2
100
AcDbDictionary
280
     1
281
     1
  3
ACAD_LAYERSTATES
360
E5
  0
DICTIONARY
  5
884
330
10
100
AcDbDictionary
280
     1
281
     1
  3
ADSK_XREC_LAYER_RECONCILED
360
885
  0
DICTIONARY
  5
91
330
1F
100
AcDbDictionary
280
     1
281
     1
  3
ACAD_LAYOUTSELFREF
360
8E7
  0
DICTIONARY
  5
93
330
5D
100
AcDbDictionary
280
     1
281
     1
  3
ACAD_LAYOUTSELFREF
360
8E9
  0
DICTIONARY
  5
95
330
58
100
AcDbDictionary
280
     1
281
     1
  3
ACAD_LAYOUTSELFREF
360
8E8
  0
XRECORD
  5
908
102
{ACAD_REACTORS
330
C
102
}
330
C
100
AcDbXrecord
280
     1
300
ACDLT
300
2019
300
ACDLT_F_S
  0
DICTIONARY
  5
7AC
102
{ACAD_REACTORS
330
C
102
}
330
C
100
AcDbDictionary
281
     1
  0
DICTIONARY
  5
904
102
{ACAD_REACTORS
330
C
102
}
330
C
100
AcDbDictionary
281
     1
  3
Imperial24
350
905
  3
Metric50
350
961
  0
DICTIONARY
  5
D
102
{ACAD_REACTORS
330
C
102
}
330
C
100
AcDbDictionary
281
     1
  0
DICTIONARY
  5
1A
102
{ACAD_REACTORS
330
C
102
}
330
C
100
AcDbDictionary
281
     1
  3
Model
350
22
  3
ﾚｲｱｳﾄ1
350
59
  3
ﾚｲｱｳﾄ2
350
5E
  0
DICTIONARY
  5
782
102
{ACAD_REACTORS
330
C
102
}
330
C
100
AcDbDictionary
281
     1
  3
ByBlock
350
78B
  3
ByLayer
350
783
  3
Global
350
793
  0
DICTIONARY
  5
7D1
102
{ACAD_REACTORS
330
C
102
}
330
C
100
AcDbDictionary
281
     1
  3
Standard
350
7D2
  0
DICTIONARY
  5
17
102
{ACAD_REACTORS
330
C
102
}
330
C
100
AcDbDictionary
281
     1
  3
Standard
350
18
  0
DICTIONARY
  5
19
102
{ACAD_REACTORS
330
C
102
}
330
C
100
AcDbDictionary
281
     1
  0
ACDBDICTIONARYWDFLT
  5
E
102
{ACAD_REACTORS
330
C
102
}
330
C
100
AcDbDictionary
281
     1
  3
Normal
350
F
100
AcDbDictionaryWithDefault
340
F
  0
DICTIONARY
  5
7AF
102
{ACAD_REACTORS
330
C
102
}
330
C
100
AcDbDictionary
281
     1
  3
A0
350
7B0
  3
A1
350
7B1
  3
A2
350
7B2
  3
A3
350
7B3
  3
A4
350
7B4
  3
A5
350
7B5
  3
A6
350
7B6
  3
A7
350
7B7
  3
A8
350
7B8
  3
A9
350
7B9
  3
B0
350
7BA
  3
B1
350
7BB
  3
B2
350
7BC
  3
B3
350
7BD
  3
B4
350
7BE
  3
B5
350
7BF
  3
B6
350
7C0
  3
B7
350
7C1
  3
B8
350
7C2
  3
B9
350
7C3
  3
C0
350
7C4
  3
C1
350
7C5
  3
C2
350
7C6
  3
C3
350
7C7
  3
C4
350
7C8
  3
C5
350
7C9
  3
C6
350
7CA
  3
C7
350
7CB
  3
C8
350
7CC
  3
C9
350
7CD
  3
D0
350
7CE
  3
D1
350
7CF
  3
D2
350
7D0
  0
DICTIONARY
  5
902
102
{ACAD_REACTORS
330
C
102
}
330
C
100
AcDbDictionary
281
     1
  3
Imperial24
350
903
  3
Metric50
350
960
  0
DICTIONARY
  5
7AD
102
{ACAD_REACTORS
330
C
102
}
330
C
100
AcDbDictionary
281
     1
  3
Standard
350
7AE
  0
DICTIONARY
  5
79B
102
{ACAD_REACTORS
330
C
102
}
330
C
100
AcDbDictionary
281
     1
  3
2dWireframe
350
7A1
  3
3D Hidden
350
7A3
  3
3dWireframe
350
7A2
  3
Basic
350
7A0
  3
Brighten
350
7A7
  3
ColorChange
350
7AB
  3
Conceptual
350
7A4
  3
Dim
350
7A6
  3
EdgeColorOff
350
900
  3
Facepattern
350
7AA
  3
Flat
350
79C
  3
FlatWithEdges
350
79D
  3
Gouraud
350
79E
  3
GouraudWithEdges
350
79F
  3
Hidden
350
8F8
  3
JitterOff
350
8FE
  3
Linepattern
350
7A9
  3
OverhangOff
350
8FF
  3
Realistic
350
7A5
  3
Shaded
350
8FD
  3
Shaded with edges
350
8FC
  3
Shades of Gray
350
8F9
  3
Sketchy
350
8FA
  3
Thicken
350
7A8
  3
Wireframe
350
8F7
  3
X-Ray
350
8FB
  0
XRECORD
  5
E9C
102
{ACAD_REACTORS
330
C
102
}
330
C
100
AcDbXrecord
280
     1
 90
        1
330
7AE
  0
DICTIONARY
  5
66
102
{ACAD_REACTORS
330
C
102
}
330
C
100
AcDbDictionary
281
     1
  3
CANNOSCALE
350
8A5
  3
CMLEADERSTYLE
350
8A4
  3
CTABLESTYLE
350
8A3
  3
CVIEWDETAILSTYLE
350
958
  3
CVIEWSECTIONSTYLE
350
959
  3
DIMASSOC
350
67
  3
HIDETEXT
350
6B
  3
INDEXCTL
350
8A7
  3
LAYEREVAL
350
E92
  3
LAYERNOTIFY
350
E93
  3
LIGHTINGUNITS
350
E91
  3
MSLTSCALE
350
E90
  3
SORTENTS
350
8A6
  0
DICTIONARY
  5
EA2
102
{ACAD_REACTORS
330
C
102
}
330
C
100
AcDbDictionary
281
     1
  3
AcDsRecords
350
EA4
  3
AcDsSchemas
350
EA3
1001
ACAD
1070
     2
  0
DICTIONARY
  5
833
102
{ACAD_REACTORS
330
C
102
}
330
C
100
AcDbDictionary
281
     1
  3
AcmStdDictionary
350
840
  0
ACAD_PROXY_OBJECT
  5
8A1
102
{ACAD_REACTORS
330
C
102
}
330
C
100
AcDbProxyObject
 90
      499
 91
      573
 95
   983063
 70
     0
161
                32
310
9014220000
330
0
 94
        0
1001
AcadCodePageInfo
1000
CodePage
1070
    38
1001
ACAD
1000
AcRTDxfName
1000
ACIMSYSVARMAN
1000
AcRTDxfName
1000
ACIMSYSVARMAN
  0
DICTIONARY
  5
7D7
102
{ACAD_REACTORS
330
C
102
}
330
C
100
AcDbDictionary
281
     1
  0
DICTIONARY
  5
878
102
{ACAD_REACTORS
330
C
102
}
330
C
100
AcDbDictionary
281
     1
  0
DICTIONARY
  5
E5
102
{ACAD_REACTORS
330
E4
102
}
330
E4
100
AcDbDictionary
281
     1
  0
XRECORD
  5
885
102
{ACAD_REACTORS
330
884
102
}
330
884
100
AcDbXrecord
280
     1
290
     1
  0
XRECORD
  5
8E7
102
{ACAD_REACTORS
330
91
102
}
330
91
100
AcDbXrecord
280
     1
340
1F
  0
XRECORD
  5
8E9
102
{ACAD_REACTORS
330
93
102
}
330
93
100
AcDbXrecord
280
     1
340
5D
  0
XRECORD
  5
8E8
102
{ACAD_REACTORS
330
95
102
}
330
95
100
AcDbXrecord
280
     1
340
58
  0
ACDBDETAILVIEWSTYLE
  5
905
102
{ACAD_XDICTIONARY
360
EDB
102
}
102
{ACAD_REACTORS
330
904
102
}
330
904
100
AcDbModelDocViewStyle
 70
     0
  3
Imperial24
290
     0
100
AcDbDetailViewStyle
 70
     0
 71
     0
 90
        3
 71
     1
340
11
 62
   256
 40
0.24
340
0
 62
   256
 40
0.24
300

 40
0.36
280
     3
 71
     2
340
16
 90
       25
 62
   256
 71
     3
340
11
 62
   256
 40
0.24
 90
        1
 40
0.75
 90
        1
300
%<\AcVar ViewType \f "%tc1">% %<\AcVar ViewDetailId>%\PSCALE %<\AcVar ViewScale \f "%sn">%
 71
     4
340
16
 90
       25
 62
   256
340
16
 90
       25
 62
   256
280
     0
  0
ACDBDETAILVIEWSTYLE
  5
961
102
{ACAD_XDICTIONARY
360
EDF
102
}
102
{ACAD_REACTORS
330
904
102
}
330
904
100
AcDbModelDocViewStyle
 70
     0
  3
Metric50
290
     0
100
AcDbDetailViewStyle
 70
     0
 71
     0
 90
        3
 71
     1
340
11
 62
   256
 40
5.0
340
0
 62
   256
 40
5.0
300

 40
0.0
280
     1
 71
     2
340
16
 90
       25
 62
   256
 71
     3
340
11
 62
   256
 40
5.0
 90
        0
 40
15.0
 90
        1
300
%<\AcVar ViewDetailId>% (%<\AcVar ViewScale \f "%sn">%)
 71
     4
340
16
 90
       25
 62
   256
340
16
 90
       25
 62
   256
280
     0
  0
LAYOUT
  5
22
102
{ACAD_REACTORS
330
1A
102
}
330
1A
100
AcDbPlotSettings
  1

  2
none_device
  4
ANSI_A_(8.50_x_11.00_Inches)
  6

 40
6.349999904632568
 41
19.04999923706055
 42
6.350006103515625
 43
19.04998779296875
 44
215.8999938964844
 45
279.3999938964844
 46
0.0
 47
0.0
 48
0.0
 49
0.0
140
0.0
141
0.0
142
1.0
143
2.584895464708373
 70
 11952
 72
     0
 73
     1
 74
     0
  7

 75
     0
147
0.3868628397755418
 76
     0
 77
     2
 78
   300
148
0.0
149
0.0
100
AcDbLayout
  1
Model
 70
     1
 71
     0
 10
0.0
 20
0.0
 11
12.0
 21
9.0
 12
0.0
 22
0.0
 32
0.0
 14
0.0
 24
0.0
 34
0.0
 15
0.0
 25
0.0
 35
0.0
146
0.0
 13
0.0
 23
0.0
 33
0.0
 16
1.0
 26
0.0
 36
0.0
 17
0.0
 27
1.0
 37
0.0
 76
     0
330
1F
331
8AD
  0
LAYOUT
  5
59
102
{ACAD_REACTORS
330
1A
102
}
330
1A
100
AcDbPlotSettings
  1

  2
none_device
  4
Letter_(8.50_x_11.00_Inches)
  6

 40
6.349999904632568
 41
6.349999904632568
 42
6.350006103515625
 43
6.350006103515625
 44
215.8999938964844
 45
279.3999938964844
 46
0.0
 47
0.0
 48
0.0
 49
0.0
140
0.0
141
0.0
142
1.0
143
1.0
 70
   688
 72
     0
 73
     1
 74
     5
  7

 75
    16
147
1.0
 76
     0
 77
     2
 78
   300
148
0.0
149
0.0
100
AcDbLayout
  1
ﾚｲｱｳﾄ1
 70
     1
 71
     1
 10
-0.2500002402958907
 20
-0.2499999962453767
 11
10.74999951940821
 21
8.249999763458731
 12
0.0
 22
0.0
 32
0.0
 14
1.049636599258096
 24
0.7996597240971113
 34
-0.0015258207003583
 15
9.450362731076971
 25
7.200340082697458
 35
0.0000000349246037
146
0.0
 13
0.0
 23
0.0
 33
0.0
 16
1.0
 26
0.0
 36
0.0
 17
0.0
 27
1.0
 37
0.0
 76
     0
330
58
331
73
  0
LAYOUT
  5
5E
102
{ACAD_REACTORS
330
1A
102
}
330
1A
100
AcDbPlotSettings
  1

  2
none_device
  4
Letter_(8.50_x_11.00_Inches)
  6

 40
6.349999904632568
 41
6.349999904632568
 42
6.350006103515625
 43
6.350006103515625
 44
215.8999938964844
 45
279.3999938964844
 46
0.0
 47
0.0
 48
0.0
 49
0.0
140
0.0
141
0.0
142
1.0
143
1.0
 70
   688
 72
     0
 73
     1
 74
     5
  7

 75
    16
147
1.0
 76
     0
 77
     2
 78
   300
148
0.0
149
0.0
100
AcDbLayout
  1
ﾚｲｱｳﾄ2
 70
     1
 71
     2
 10
-0.2500002402958907
 20
-0.2499999962453767
 11
10.74999951940821
 21
8.249999763458731
 12
0.0
 22
0.0
 32
0.0
 14
1.049636599258096
 24
0.7996597240971113
 34
-0.0015258207003583
 15
9.450362731076971
 25
7.200340082697458
 35
0.0000000349246037
146
0.0
 13
0.0
 23
0.0
 33
0.0
 16
1.0
 26
0.0
 36
0.0
 17
0.0
 27
1.0
 37
0.0
 76
     0
330
5D
331
79
  0
MATERIAL
  5
78B
102
{ACAD_XDICTIONARY
360
78C
102
}
102
{ACAD_REACTORS
330
782
102
}
330
782
100
AcDbMaterial
  1
ByBlock
 72
     0
 43
0.0208333333333333
 43
0.0
 43
0.0
 43
0.0
 43
0.0
 43
0.0208333333333333
 43
0.0
 43
0.0
 43
0.0
 43
0.0
 43
1.0
 43
0.0
 43
0.0
 43
0.0
 43
0.0
 43
1.0
 77
     0
 47
0.0208333333333333
 47
0.0
 47
0.0
 47
0.0
 47
0.0
 47
0.0208333333333333
 47
0.0
 47
0.0
 47
0.0
 47
0.0
 47
1.0
 47
0.0
 47
0.0
 47
0.0
 47
0.0
 47
1.0
171
     0
 49
0.0208333333333333
 49
0.0
 49
0.0
 49
0.0
 49
0.0
 49
0.0208333333333333
 49
0.0
 49
0.0
 49
0.0
 49
0.0
 49
1.0
 49
0.0
 49
0.0
 49
0.0
 49
0.0
 49
1.0
175
     0
142
0.0208333333333333
142
0.0
142
0.0
142
0.0
142
0.0
142
0.0208333333333333
142
0.0
142
0.0
142
0.0
142
0.0
142
1.0
142
0.0
142
0.0
142
0.0
142
0.0
142
1.0
179
     0
144
0.0208333333333333
144
0.0
144
0.0
144
0.0
144
0.0
144
0.0208333333333333
144
0.0
144
0.0
144
0.0
144
0.0
144
1.0
144
0.0
144
0.0
144
0.0
144
0.0
144
1.0
147
0.0208333333333333
147
0.0
147
0.0
147
0.0
147
0.0
147
0.0208333333333333
147
0.0
147
0.0
147
0.0
147
0.0
147
1.0
147
0.0
147
0.0
147
0.0
147
0.0
147
1.0
  0
MATERIAL
  5
783
102
{ACAD_XDICTIONARY
360
784
102
}
102
{ACAD_REACTORS
330
782
102
}
330
782
100
AcDbMaterial
  1
ByLayer
 72
     0
 43
0.0208333333333333
 43
0.0
 43
0.0
 43
0.0
 43
0.0
 43
0.0208333333333333
 43
0.0
 43
0.0
 43
0.0
 43
0.0
 43
1.0
 43
0.0
 43
0.0
 43
0.0
 43
0.0
 43
1.0
 77
     0
 47
0.0208333333333333
 47
0.0
 47
0.0
 47
0.0
 47
0.0
 47
0.0208333333333333
 47
0.0
 47
0.0
 47
0.0
 47
0.0
 47
1.0
 47
0.0
 47
0.0
 47
0.0
 47
0.0
 47
1.0
171
     0
 49
0.0208333333333333
 49
0.0
 49
0.0
 49
0.0
 49
0.0
 49
0.0208333333333333
 49
0.0
 49
0.0
 49
0.0
 49
0.0
 49
1.0
 49
0.0
 49
0.0
 49
0.0
 49
0.0
 49
1.0
175
     0
142
0.0208333333333333
142
0.0
142
0.0
142
0.0
142
0.0
142
0.0208333333333333
142
0.0
142
0.0
142
0.0
142
0.0
142
1.0
142
0.0
142
0.0
142
0.0
142
0.0
142
1.0
179
     0
144
0.0208333333333333
144
0.0
144
0.0
144
0.0
144
0.0
144
0.0208333333333333
144
0.0
144
0.0
144
0.0
144
0.0
144
1.0
144
0.0
144
0.0
144
0.0
144
0.0
144
1.0
147
0.0208333333333333
147
0.0
147
0.0
147
0.0
147
0.0
147
0.0208333333333333
147
0.0
147
0.0
147
0.0
147
0.0
147
1.0
147
0.0
147
0.0
147
0.0
147
0.0
147
1.0
  0
MATERIAL
  5
793
102
{ACAD_XDICTIONARY
360
794
102
}
102
{ACAD_REACTORS
330
782
102
}
330
782
100
AcDbMaterial
  1
Global
 72
     0
 43
0.0208333333333333
 43
0.0
 43
0.0
 43
0.0
 43
0.0
 43
0.0208333333333333
 43
0.0
 43
0.0
 43
0.0
 43
0.0
 43
1.0
 43
0.0
 43
0.0
 43
0.0
 43
0.0
 43
1.0
 77
     0
 47
0.0208333333333333
 47
0.0
 47
0.0
 47
0.0
 47
0.0
 47
0.0208333333333333
 47
0.0
 47
0.0
 47
0.0
 47
0.0
 47
1.0
 47
0.0
 47
0.0
 47
0.0
 47
0.0
 47
1.0
171
     0
 49
0.0208333333333333
 49
0.0
 49
0.0
 49
0.0
 49
0.0
 49
0.0208333333333333
 49
0.0
 49
0.0
 49
0.0
 49
0.0
 49
1.0
 49
0.0
 49
0.0
 49
0.0
 49
0.0
 49
1.0
175
     0
142
0.0208333333333333
142
0.0
142
0.0
142
0.0
142
0.0
142
0.0208333333333333
142
0.0
142
0.0
142
0.0
142
0.0
142
1.0
142
0.0
142
0.0
142
0.0
142
0.0
142
1.0
179
     0
144
0.0208333333333333
144
0.0
144
0.0
144
0.0
144
0.0
144
0.0208333333333333
144
0.0
144
0.0
144
0.0
144
0.0
144
1.0
144
0.0
144
0.0
144
0.0
144
0.0
144
1.0
147
0.0208333333333333
147
0.0
147
0.0
147
0.0
147
0.0
147
0.0208333333333333
147
0.0
147
0.0
147
0.0
147
0.0
147
1.0
147
0.0
147
0.0
147
0.0
147
0.0
147
1.0
  0
MLEADERSTYLE
  5
7D2
102
{ACAD_REACTORS
330
7D1
102
}
330
7D1
100
AcDbMLeaderStyle
179
     2
170
     2
171
     1
172
     0
 90
        2
 40
0.0
 41
0.0
173
     1
 91
-1056964608
340
14
 92
       -2
290
     1
 42
0.09
291
     1
 43
0.36
  3
Standard
 44
0.18
300

342
11
174
     1
178
     6
175
     1
176
     0
 93
-1056964608
 45
0.18
292
     0
297
     0
 46
0.18
 94
-1056964608
 47
1.0
 49
1.0
140
1.0
293
     1
141
0.0
294
     1
177
     0
142
1.0
295
     0
296
     0
143
0.125
271
     0
272
     9
273
     9
  0
MLINESTYLE
  5
18
102
{ACAD_REACTORS
330
17
102
}
330
17
100
AcDbMlineStyle
  2
STANDARD
 70
     0
  3

 62
   256
 51
90.0
 52
90.0
 71
     2
 49
0.5
 62
   256
  6
BYLAYER
 49
-0.5
 62
   256
  6
BYLAYER
  0
ACDBPLACEHOLDER
  5
F
102
{ACAD_REACTORS
330
E
102
}
330
E
  0
SCALE
  5
7B0
102
{ACAD_REACTORS
330
7AF
102
}
330
7AF
100
AcDbScale
 70
     0
300
1:1
140
1.0
141
1.0
290
     1
  0
SCALE
  5
7B1
102
{ACAD_REACTORS
330
7AF
102
}
330
7AF
100
AcDbScale
 70
     0
300
1:2
140
1.0
141
2.0
290
     0
  0
SCALE
  5
7B2
102
{ACAD_REACTORS
330
7AF
102
}
330
7AF
100
AcDbScale
 70
     0
300
1:4
140
1.0
141
4.0
290
     0
  0
SCALE
  5
7B3
102
{ACAD_REACTORS
330
7AF
102
}
330
7AF
100
AcDbScale
 70
     0
300
1:5
140
1.0
141
5.0
290
     0
  0
SCALE
  5
7B4
102
{ACAD_REACTORS
330
7AF
102
}
330
7AF
100
AcDbScale
 70
     0
300
1:8
140
1.0
141
8.0
290
     0
  0
SCALE
  5
7B5
102
{ACAD_REACTORS
330
7AF
102
}
330
7AF
100
AcDbScale
 70
     0
300
1:10
140
1.0
141
10.0
290
     0
  0
SCALE
  5
7B6
102
{ACAD_REACTORS
330
7AF
102
}
330
7AF
100
AcDbScale
 70
     0
300
1:16
140
1.0
141
16.0
290
     0
  0
SCALE
  5
7B7
102
{ACAD_REACTORS
330
7AF
102
}
330
7AF
100
AcDbScale
 70
     0
300
1:20
140
1.0
141
20.0
290
     0
  0
SCALE
  5
7B8
102
{ACAD_REACTORS
330
7AF
102
}
330
7AF
100
AcDbScale
 70
     0
300
1:30
140
1.0
141
30.0
290
     0
  0
SCALE
  5
7B9
102
{ACAD_REACTORS
330
7AF
102
}
330
7AF
100
AcDbScale
 70
     0
300
1:40
140
1.0
141
40.0
290
     0
  0
SCALE
  5
7BA
102
{ACAD_REACTORS
330
7AF
102
}
330
7AF
100
AcDbScale
 70
     0
300
1:50
140
1.0
141
50.0
290
     0
  0
SCALE
  5
7BB
102
{ACAD_REACTORS
330
7AF
102
}
330
7AF
100
AcDbScale
 70
     0
300
1:100
140
1.0
141
100.0
290
     0
  0
SCALE
  5
7BC
102
{ACAD_REACTORS
330
7AF
102
}
330
7AF
100
AcDbScale
 70
     0
300
2:1
140
2.0
141
1.0
290
     0
  0
SCALE
  5
7BD
102
{ACAD_REACTORS
330
7AF
102
}
330
7AF
100
AcDbScale
 70
     0
300
4:1
140
4.0
141
1.0
290
     0
  0
SCALE
  5
7BE
102
{ACAD_REACTORS
330
7AF
102
}
330
7AF
100
AcDbScale
 70
     0
300
8:1
140
8.0
141
1.0
290
     0
  0
SCALE
  5
7BF
102
{ACAD_REACTORS
330
7AF
102
}
330
7AF
100
AcDbScale
 70
     0
300
10:1
140
10.0
141
1.0
290
     0
  0
SCALE
  5
7C0
102
{ACAD_REACTORS
330
7AF
102
}
330
7AF
100
AcDbScale
 70
     0
300
100:1
140
100.0
141
1.0
290
     0
  0
SCALE
  5
7C1
102
{ACAD_REACTORS
330
7AF
102
}
330
7AF
100
AcDbScale
 70
     0
300
1/128" = 1'-0"
140
0.0078125
141
12.0
290
     0
  0
SCALE
  5
7C2
102
{ACAD_REACTORS
330
7AF
102
}
330
7AF
100
AcDbScale
 70
     0
300
1/64" = 1'-0"
140
0.015625
141
12.0
290
     0
  0
SCALE
  5
7C3
102
{ACAD_REACTORS
330
7AF
102
}
330
7AF
100
AcDbScale
 70
     0
300
1/32" = 1'-0"
140
0.03125
141
12.0
290
     0
  0
SCALE
  5
7C4
102
{ACAD_REACTORS
330
7AF
102
}
330
7AF
100
AcDbScale
 70
     0
300
1/16" = 1'-0"
140
0.0625
141
12.0
290
     0
  0
SCALE
  5
7C5
102
{ACAD_REACTORS
330
7AF
102
}
330
7AF
100
AcDbScale
 70
     0
300
3/32" = 1'-0"
140
0.09375
141
12.0
290
     0
  0
SCALE
  5
7C6
102
{ACAD_REACTORS
330
7AF
102
}
330
7AF
100
AcDbScale
 70
     0
300
1/8" = 1'-0"
140
0.125
141
12.0
290
     0
  0
SCALE
  5
7C7
102
{ACAD_REACTORS
330
7AF
102
}
330
7AF
100
AcDbScale
 70
     0
300
3/16" = 1'-0"
140
0.1875
141
12.0
290
     0
  0
SCALE
  5
7C8
102
{ACAD_REACTORS
330
7AF
102
}
330
7AF
100
AcDbScale
 70
     0
300
1/4" = 1'-0"
140
0.25
141
12.0
290
     0
  0
SCALE
  5
7C9
102
{ACAD_REACTORS
330
7AF
102
}
330
7AF
100
AcDbScale
 70
     0
300
3/8" = 1'-0"
140
0.375
141
12.0
290
     0
  0
SCALE
  5
7CA
102
{ACAD_REACTORS
330
7AF
102
}
330
7AF
100
AcDbScale
 70
     0
300
1/2" = 1'-0"
140
0.5
141
12.0
290
     0
  0
SCALE
  5
7CB
102
{ACAD_REACTORS
330
7AF
102
}
330
7AF
100
AcDbScale
 70
     0
300
3/4" = 1'-0"
140
0.75
141
12.0
290
     0
  0
SCALE
  5
7CC
102
{ACAD_REACTORS
330
7AF
102
}
330
7AF
100
AcDbScale
 70
     0
300
1" = 1'-0"
140
1.0
141
12.0
290
     0
  0
SCALE
  5
7CD
102
{ACAD_REACTORS
330
7AF
102
}
330
7AF
100
AcDbScale
 70
     0
300
1-1/2" = 1'-0"
140
1.5
141
12.0
290
     0
  0
SCALE
  5
7CE
102
{ACAD_REACTORS
330
7AF
102
}
330
7AF
100
AcDbScale
 70
     0
300
3" = 1'-0"
140
3.0
141
12.0
290
     0
  0
SCALE
  5
7CF
102
{ACAD_REACTORS
330
7AF
102
}
330
7AF
100
AcDbScale
 70
     0
300
6" = 1'-0"
140
6.0
141
12.0
290
     0
  0
SCALE
  5
7D0
102
{ACAD_REACTORS
330
7AF
102
}
330
7AF
100
AcDbScale
 70
     0
300
1'-0" = 1'-0"
140
12.0
141
12.0
290
     0
  0
ACDBSECTIONVIEWSTYLE
  5
903
102
{ACAD_XDICTIONARY
360
ED9
102
}
102
{ACAD_REACTORS
330
902
102
}
330
902
100
AcDbModelDocViewStyle
 70
     0
  3
Imperial24
290
     0
100
AcDbSectionViewStyle
 70
     0
 71
     0
 90
       78
 71
     1
340
11
 62
   256
 40
0.24
340
0
340
0
 62
   256
 40
0.24
300
I, O, Q, S, X, Z
 40
0.48
 90
        3
 40
0.18
 90
        1
 71
     2
340
16
 90
       25
 62
   256
340
16
 90
       50
 62
   256
 40
0.24
 40
0.0
 40
0.24
 71
     3
340
11
 62
   256
 40
0.24
 90
        1
 40
0.75
 90
        1
300
%<\AcVar ViewType \f "%tc1">% %<\AcVar ViewSectionStartId>%-%<\AcVar ViewSectionEndId>%\PSCALE %<\AcVar ViewScale \f "%sn">%
 71
     4
 62
   256
 62
   257
300
ANSI31
 40
1.0
 90
        0
290
     0
290
     0
 90
        6
 40
0.0
 40
1.570796326794896
 40
0.2617993877991494
 40
1.308996938995747
 40
-0.2617993877991494
 40
1.832595714594046
  0
ACDBSECTIONVIEWSTYLE
  5
960
102
{ACAD_XDICTIONARY
360
EDD
102
}
102
{ACAD_REACTORS
330
902
102
}
330
902
100
AcDbModelDocViewStyle
 70
     0
  3
Metric50
290
     0
100
AcDbSectionViewStyle
 70
     0
 71
     0
 90
      102
 71
     1
340
11
 62
   256
 40
5.0
340
0
340
0
 62
   256
 40
5.0
300
I, O, Q, S, X, Z
 40
10.0
 90
        0
 40
2.5
 90
        0
 71
     2
340
16
 90
       25
 62
   256
340
16
 90
       50
 62
   256
 40
5.0
 40
2.5
 40
5.0
 71
     3
340
11
 62
   256
 40
5.0
 90
        0
 40
15.0
 90
        1
300
%<\AcVar ViewSectionStartId>%-%<\AcVar ViewSectionEndId>% (%<\AcVar ViewScale \f "%sn">%)
 71
     4
 62
   256
 62
   257
300
ANSI31
 40
1.0
 90
        0
290
     0
290
     0
 90
        6
 40
0.0
 40
1.570796326794896
 40
0.2617993877991494
 40
1.308996938995747
 40
-0.2617993877991494
 40
1.832595714594046
  0
TABLESTYLE
  5
7AE
102
{ACAD_XDICTIONARY
360
886
102
}
102
{ACAD_REACTORS
330
7AD
102
}
330
7AD
100
AcDbTableStyle
280
     0
  3
Standard
 70
     0
 71
     0
 40
0.06
 41
0.06
280
     0
281
     0
  7
Standard
140
0.18
170
     2
 62
     0
 63
     7
283
     0
 90
      512
 91
        0
  1

274
    -2
284
     1
 64
     0
275
    -2
285
     1
 65
     0
276
    -2
286
     1
 66
     0
277
    -2
287
     1
 67
     0
278
    -2
288
     1
 68
     0
279
    -2
289
     1
 69
     0
  7
Standard
140
0.25
170
     5
 62
     0
 63
     7
283
     0
 90
      512
 91
        0
  1

274
    -2
284
     1
 64
     0
275
    -2
285
     1
 65
     0
276
    -2
286
     1
 66
     0
277
    -2
287
     1
 67
     0
278
    -2
288
     1
 68
     0
279
    -2
289
     1
 69
     0
  7
Standard
140
0.18
170
     5
 62
     0
 63
     7
283
     0
 90
      512
 91
        0
  1

274
    -2
284
     1
 64
     0
275
    -2
285
     1
 65
     0
276
    -2
286
     1
 66
     0
277
    -2
287
     1
 67
     0
278
    -2
288
     1
 68
     0
279
    -2
289
     1
 69
     0
  0
VISUALSTYLE
  5
7A1
102
{ACAD_XDICTIONARY
360
EAF
102
}
102
{ACAD_REACTORS
330
79B
102
}
330
79B
100
AcDbVisualStyle
  2
2dWireframe
 70
     4
177
     2
291
     0
 71
     0
176
     1
 72
     2
176
     1
 73
     0
176
     1
 90
        0
176
     1
 40
0.6
176
     1
 41
30.0
176
     1
 63
     7
176
     1
 74
     1
176
     1
 91
        4
176
     1
 64
     7
176
     1
 65
   257
176
     1
 75
     1
176
     1
175
     1
176
     1
 42
1.0
176
     1
 92
        0
176
     1
 66
   257
176
     1
 43
1.0
176
     1
 76
     1
176
     1
 77
     6
176
     1
 78
     2
176
     1
 67
     7
176
     1
 79
     5
176
     1
170
     0
176
     1
171
     0
176
     1
290
     0
176
     1
 93
        1
176
     1
 44
0.0
176
     1
173
     0
176
     1
1001
ACAD
1000
AcDbSavedByObjectVersion
1070
     0
  0
VISUALSTYLE
  5
7A3
102
{ACAD_XDICTIONARY
360
EB3
102
}
102
{ACAD_REACTORS
330
79B
102
}
330
79B
100
AcDbVisualStyle
  2
3D Hidden
 70
     6
177
     2
291
     0
 71
     1
176
     1
 72
     2
176
     1
 73
     2
176
     1
 90
        0
176
     1
 40
0.6
176
     1
 41
30.0
176
     1
 63
     7
176
     1
 74
     2
176
     1
 91
        2
176
     1
 64
     7
176
     1
 65
   257
176
     1
 75
     2
176
     1
175
     1
176
     1
 42
40.0
176
     1
 92
        0
176
     1
 66
   257
176
     1
 43
1.0
176
     1
 76
     1
176
     1
 77
     6
176
     1
 78
     2
176
     1
 67
     7
176
     1
 79
     3
176
     1
170
     0
176
     1
171
     0
176
     1
290
     0
176
     1
 93
        1
176
     1
 44
0.0
176
     1
173
     0
176
     1
1001
ACAD
1000
AcDbSavedByObjectVersion
1070
     0
  0
VISUALSTYLE
  5
7A2
102
{ACAD_XDICTIONARY
360
EB1
102
}
102
{ACAD_REACTORS
330
79B
102
}
330
79B
100
AcDbVisualStyle
  2
3dWireframe
 70
     5
177
     2
291
     0
 71
     0
176
     1
 72
     2
176
     1
 73
     0
176
     1
 90
        0
176
     1
 40
0.6
176
     1
 41
30.0
176
     1
 63
     7
176
     1
 74
     1
176
     1
 91
        4
176
     1
 64
     7
176
     1
 65
   257
176
     1
 75
     1
176
     1
175
     1
176
     1
 42
1.0
176
     1
 92
        0
176
     1
 66
   257
176
     1
 43
1.0
176
     1
 76
     1
176
     1
 77
     6
176
     1
 78
     2
176
     1
 67
     7
176
     1
 79
     5
176
     1
170
     0
176
     1
171
     0
176
     1
290
     0
176
     1
 93
        1
176
     1
 44
0.0
176
     1
173
     0
176
     1
1001
ACAD
1000
AcDbSavedByObjectVersion
1070
     0
  0
VISUALSTYLE
  5
7A0
102
{ACAD_XDICTIONARY
360
EAD
102
}
102
{ACAD_REACTORS
330
79B
102
}
330
79B
100
AcDbVisualStyle
  2
Basic
 70
     7
177
     2
291
     1
 71
     1
176
     1
 72
     0
176
     1
 73
     1
176
     1
 90
        0
176
     1
 40
0.6
176
     1
 41
30.0
176
     1
 63
     7
176
     1
 74
     0
176
     1
 91
        4
176
     1
 64
     7
176
     1
 65
   257
176
     1
 75
     1
176
     1
175
     1
176
     1
 42
1.0
176
     1
 92
        8
176
     1
 66
     7
176
     1
 43
1.0
176
     1
 76
     1
176
     1
 77
     6
176
     1
 78
     2
176
     1
 67
     7
176
     1
 79
     5
176
     1
170
     0
176
     1
171
     0
176
     1
290
     0
176
     1
 93
        1
176
     1
 44
0.0
176
     1
173
     0
176
     1
1001
ACAD
1000
AcDbSavedByObjectVersion
1070
     0
  0
VISUALSTYLE
  5
7A7
102
{ACAD_XDICTIONARY
360
EBB
102
}
102
{ACAD_REACTORS
330
79B
102
}
330
79B
100
AcDbVisualStyle
  2
Brighten
 70
    12
177
     2
291
     1
 71
     2
176
     1
 72
     2
176
     1
 73
     0
176
     1
 90
        0
176
     1
 40
0.6
176
     1
 41
30.0
176
     1
 63
     7
176
     1
 74
     1
176
     1
 91
        4
176
     1
 64
     7
176
     1
 65
   257
176
     1
 75
     1
176
     1
175
     1
176
     1
 42
1.0
176
     1
 92
        8
176
     1
 66
     7
176
     1
 43
1.0
176
     1
 76
     1
176
     1
 77
     6
176
     1
 78
     2
176
     1
 67
     7
176
     1
 79
     5
176
     1
170
     0
176
     1
171
     0
176
     1
290
     0
176
     1
 93
        1
176
     1
 44
50.0
176
     1
173
     0
176
     1
1001
ACAD
1000
AcDbSavedByObjectVersion
1070
     0
  0
VISUALSTYLE
  5
7AB
102
{ACAD_XDICTIONARY
360
EC3
102
}
102
{ACAD_REACTORS
330
79B
102
}
330
79B
100
AcDbVisualStyle
  2
ColorChange
 70
    16
177
     2
291
     1
 71
     2
176
     1
 72
     2
176
     1
 73
     3
176
     1
 90
        0
176
     1
 40
0.6
176
     1
 41
30.0
176
     1
 63
     8
176
     1
 74
     1
176
     1
 91
        4
176
     1
 64
     7
176
     1
 65
   257
176
     1
 75
     1
176
     1
175
     1
176
     1
 42
1.0
176
     1
 92
        8
176
     1
 66
     8
176
     1
 43
1.0
176
     1
 76
     1
176
     1
 77
     6
176
     1
 78
     2
176
     1
 67
     7
176
     1
 79
     5
176
     1
170
     0
176
     1
171
     0
176
     1
290
     0
176
     1
 93
        1
176
     1
 44
0.0
176
     1
173
     0
176
     1
1001
ACAD
1000
AcDbSavedByObjectVersion
1070
     0
  0
VISUALSTYLE
  5
7A4
102
{ACAD_XDICTIONARY
360
EB5
102
}
102
{ACAD_REACTORS
330
79B
102
}
330
79B
100
AcDbVisualStyle
  2
Conceptual
 70
     9
177
     2
291
     0
 71
     3
176
     1
 72
     2
176
     1
 73
     0
176
     1
 90
        0
176
     1
 40
0.6
176
     1
 41
30.0
176
     1
 63
     7
176
     1
 74
     2
176
     1
 91
        2
176
     1
 64
     7
176
     1
 65
   257
176
     1
 75
     1
176
     1
175
     1
176
     1
 42
40.0
176
     1
 92
        8
176
     1
 66
     7
176
     1
 43
1.0
176
     1
 76
     1
176
     1
 77
     6
176
     1
 78
     2
176
     1
 67
     7
176
     1
 79
     3
176
     1
170
     0
176
     1
171
     0
176
     1
290
     0
176
     1
 93
        1
176
     1
 44
0.0
176
     1
173
     0
176
     1
1001
ACAD
1000
AcDbSavedByObjectVersion
1070
     0
  0
VISUALSTYLE
  5
7A6
102
{ACAD_XDICTIONARY
360
EB9
102
}
102
{ACAD_REACTORS
330
79B
102
}
330
79B
100
AcDbVisualStyle
  2
Dim
 70
    11
177
     2
291
     1
 71
     2
176
     1
 72
     2
176
     1
 73
     0
176
     1
 90
        0
176
     1
 40
0.6
176
     1
 41
30.0
176
     1
 63
     7
176
     1
 74
     1
176
     1
 91
        4
176
     1
 64
     7
176
     1
 65
   257
176
     1
 75
     1
176
     1
175
     1
176
     1
 42
1.0
176
     1
 92
        8
176
     1
 66
     7
176
     1
 43
1.0
176
     1
 76
     1
176
     1
 77
     6
176
     1
 78
     2
176
     1
 67
     7
176
     1
 79
     5
176
     1
170
     0
176
     1
171
     0
176
     1
290
     0
176
     1
 93
        1
176
     1
 44
-50.0
176
     1
173
     0
176
     1
1001
ACAD
1000
AcDbSavedByObjectVersion
1070
     0
  0
VISUALSTYLE
  5
900
102
{ACAD_XDICTIONARY
360
ED7
102
}
102
{ACAD_REACTORS
330
79B
102
}
330
79B
100
AcDbVisualStyle
  2
EdgeColorOff
 70
    22
177
     2
291
     1
 71
     2
176
     0
 72
     2
176
     0
 73
     0
176
     0
 90
        0
176
     0
 40
0.6
176
     0
 41
30.0
176
     0
 63
     7
176
     0
 74
     1
176
     0
 91
        4
176
     0
 64
     7
176
     0
 65
   257
176
     0
 75
     1
176
     0
175
     1
176
     0
 42
1.0
176
     0
 92
        8
176
     2
 66
     7
176
     0
 43
1.0
176
     0
 76
     1
176
     0
 77
     6
176
     0
 78
     2
176
     0
 67
     7
176
     0
 79
     5
176
     0
170
     0
176
     0
171
     0
176
     0
290
     0
176
     0
 93
        1
176
     0
 44
0.0
176
     0
173
     0
176
     0
1001
ACAD
1000
AcDbSavedByObjectVersion
1070
     0
  0
VISUALSTYLE
  5
7AA
102
{ACAD_XDICTIONARY
360
EC1
102
}
102
{ACAD_REACTORS
330
79B
102
}
330
79B
100
AcDbVisualStyle
  2
Facepattern
 70
    15
177
     2
291
     1
 71
     2
176
     1
 72
     2
176
     1
 73
     0
176
     1
 90
        0
176
     1
 40
0.6
176
     1
 41
30.0
176
     1
 63
     7
176
     1
 74
     1
176
     1
 91
        4
176
     1
 64
     7
176
     1
 65
   257
176
     1
 75
     1
176
     1
175
     1
176
     1
 42
1.0
176
     1
 92
        8
176
     1
 66
     7
176
     1
 43
1.0
176
     1
 76
     1
176
     1
 77
     6
176
     1
 78
     2
176
     1
 67
     7
176
     1
 79
     5
176
     1
170
     0
176
     1
171
     0
176
     1
290
     0
176
     1
 93
        1
176
     1
 44
0.0
176
     1
173
     0
176
     1
1001
ACAD
1000
AcDbSavedByObjectVersion
1070
     0
  0
VISUALSTYLE
  5
79C
102
{ACAD_XDICTIONARY
360
EA5
102
}
102
{ACAD_REACTORS
330
79B
102
}
330
79B
100
AcDbVisualStyle
  2
Flat
 70
     0
177
     2
291
     1
 71
     2
176
     1
 72
     1
176
     1
 73
     1
176
     1
 90
        2
176
     1
 40
0.6
176
     1
 41
30.0
176
     1
 63
     7
176
     1
 74
     0
176
     1
 91
        4
176
     1
 64
     7
176
     1
 65
   257
176
     1
 75
     1
176
     1
175
     1
176
     1
 42
1.0
176
     1
 92
        8
176
     1
 66
     7
176
     1
 43
1.0
176
     1
 76
     1
176
     1
 77
     6
176
     1
 78
     2
176
     1
 67
     7
176
     1
 79
     5
176
     1
170
     0
176
     1
171
     0
176
     1
290
     0
176
     1
 93
       13
176
     1
 44
0.0
176
     1
173
     0
176
     1
1001
ACAD
1000
AcDbSavedByObjectVersion
1070
     0
  0
VISUALSTYLE
  5
79D
102
{ACAD_XDICTIONARY
360
EA7
102
}
102
{ACAD_REACTORS
330
79B
102
}
330
79B
100
AcDbVisualStyle
  2
FlatWithEdges
 70
     1
177
     2
291
     1
 71
     2
176
     1
 72
     1
176
     1
 73
     1
176
     1
 90
        2
176
     1
 40
0.6
176
     1
 41
30.0
176
     1
 63
     7
176
     1
 74
     1
176
     1
 91
        4
176
     1
 64
     7
176
     1
 65
   257
176
     1
 75
     1
176
     1
175
     1
176
     1
 42
1.0
176
     1
 92
        0
176
     1
 66
   257
176
     1
 43
1.0
176
     1
 76
     1
176
     1
 77
     6
176
     1
 78
     2
176
     1
 67
     7
176
     1
 79
     5
176
     1
170
     0
176
     1
171
     0
176
     1
290
     0
176
     1
 93
       13
176
     1
 44
0.0
176
     1
173
     0
176
     1
1001
ACAD
1000
AcDbSavedByObjectVersion
1070
     0
  0
VISUALSTYLE
  5
79E
102
{ACAD_XDICTIONARY
360
EA9
102
}
102
{ACAD_REACTORS
330
79B
102
}
330
79B
100
AcDbVisualStyle
  2
Gouraud
 70
     2
177
     2
291
     1
 71
     2
176
     1
 72
     2
176
     1
 73
     1
176
     1
 90
        2
176
     1
 40
0.6
176
     1
 41
30.0
176
     1
 63
     7
176
     1
 74
     0
176
     1
 91
        4
176
     1
 64
     7
176
     1
 65
   257
176
     1
 75
     1
176
     1
175
     1
176
     1
 42
1.0
176
     1
 92
        0
176
     1
 66
     7
176
     1
 43
1.0
176
     1
 76
     1
176
     1
 77
     6
176
     1
 78
     2
176
     1
 67
     7
176
     1
 79
     5
176
     1
170
     0
176
     1
171
     0
176
     1
290
     0
176
     1
 93
       13
176
     1
 44
0.0
176
     1
173
     0
176
     1
1001
ACAD
1000
AcDbSavedByObjectVersion
1070
     0
  0
VISUALSTYLE
  5
79F
102
{ACAD_XDICTIONARY
360
EAB
102
}
102
{ACAD_REACTORS
330
79B
102
}
330
79B
100
AcDbVisualStyle
  2
GouraudWithEdges
 70
     3
177
     2
291
     1
 71
     2
176
     1
 72
     2
176
     1
 73
     1
176
     1
 90
        2
176
     1
 40
0.6
176
     1
 41
30.0
176
     1
 63
     7
176
     1
 74
     1
176
     1
 91
        4
176
     1
 64
     7
176
     1
 65
   257
176
     1
 75
     1
176
     1
175
     1
176
     1
 42
1.0
176
     1
 92
        0
176
     1
 66
   257
176
     1
 43
1.0
176
     1
 76
     1
176
     1
 77
     6
176
     1
 78
     2
176
     1
 67
     7
176
     1
 79
     5
176
     1
170
     0
176
     1
171
     0
176
     1
290
     0
176
     1
 93
       13
176
     1
 44
0.0
176
     1
173
     0
176
     1
1001
ACAD
1000
AcDbSavedByObjectVersion
1070
     0
  0
VISUALSTYLE
  5
8F8
102
{ACAD_XDICTIONARY
360
EC7
102
}
102
{ACAD_REACTORS
330
79B
102
}
330
79B
100
AcDbVisualStyle
  2
Hidden
 70
     6
177
     2
291
     0
 71
     1
176
     1
 72
     2
176
     1
 73
     2
176
     1
 90
        0
176
     1
 40
0.6
176
     1
 41
30.0
176
     1
 63
     7
176
     1
 74
     2
176
     1
 91
        2
176
     1
 64
     7
176
     1
 65
   257
176
     1
 75
     2
176
     1
175
     1
176
     1
 42
40.0
176
     1
 92
        0
176
     1
 66
   257
176
     1
 43
1.0
176
     1
 76
     1
176
     1
 77
     6
176
     1
 78
     2
176
     1
 67
     7
176
     1
 79
     3
176
     1
170
     0
176
     1
171
     0
176
     1
290
     0
176
     1
 93
        1
176
     1
 44
0.0
176
     1
173
     0
176
     1
1001
ACAD
1000
AcDbSavedByObjectVersion
1070
     0
  0
VISUALSTYLE
  5
8FE
102
{ACAD_XDICTIONARY
360
ED3
102
}
102
{ACAD_REACTORS
330
79B
102
}
330
79B
100
AcDbVisualStyle
  2
JitterOff
 70
    20
177
     2
291
     1
 71
     2
176
     0
 72
     2
176
     0
 73
     0
176
     0
 90
        0
176
     0
 40
0.6
176
     0
 41
30.0
176
     0
 63
     7
176
     0
 74
     1
176
     0
 91
        4
176
     0
 64
     7
176
     0
 65
   257
176
     0
 75
     1
176
     0
175
     1
176
     0
 42
1.0
176
     0
 92
       10
176
     2
 66
     7
176
     0
 43
1.0
176
     0
 76
     1
176
     0
 77
     6
176
     0
 78
     2
176
     0
 67
     7
176
     0
 79
     5
176
     0
170
     0
176
     0
171
     0
176
     0
290
     0
176
     0
 93
        1
176
     0
 44
0.0
176
     0
173
     0
176
     0
1001
ACAD
1000
AcDbSavedByObjectVersion
1070
     0
  0
VISUALSTYLE
  5
7A9
102
{ACAD_XDICTIONARY
360
EBF
102
}
102
{ACAD_REACTORS
330
79B
102
}
330
79B
100
AcDbVisualStyle
  2
Linepattern
 70
    14
177
     2
291
     1
 71
     2
176
     1
 72
     2
176
     1
 73
     0
176
     1
 90
        0
176
     1
 40
0.6
176
     1
 41
30.0
176
     1
 63
     7
176
     1
 74
     1
176
     1
 91
        4
176
     1
 64
     7
176
     1
 65
   257
176
     1
 75
     7
176
     1
175
     7
176
     1
 42
1.0
176
     1
 92
        8
176
     1
 66
     7
176
     1
 43
1.0
176
     1
 76
     1
176
     1
 77
     6
176
     1
 78
     2
176
     1
 67
     7
176
     1
 79
     5
176
     1
170
     0
176
     1
171
     0
176
     1
290
     0
176
     1
 93
        1
176
     1
 44
0.0
176
     1
173
     0
176
     1
1001
ACAD
1000
AcDbSavedByObjectVersion
1070
     0
  0
VISUALSTYLE
  5
8FF
102
{ACAD_XDICTIONARY
360
ED5
102
}
102
{ACAD_REACTORS
330
79B
102
}
330
79B
100
AcDbVisualStyle
  2
OverhangOff
 70
    21
177
     2
291
     1
 71
     2
176
     0
 72
     2
176
     0
 73
     0
176
     0
 90
        0
176
     0
 40
0.6
176
     0
 41
30.0
176
     0
 63
     7
176
     0
 74
     1
176
     0
 91
        4
176
     0
 64
     7
176
     0
 65
   257
176
     0
 75
     1
176
     0
175
     1
176
     0
 42
1.0
176
     0
 92
        9
176
     2
 66
     7
176
     0
 43
1.0
176
     0
 76
     1
176
     0
 77
     6
176
     0
 78
     2
176
     0
 67
     7
176
     0
 79
     5
176
     0
170
     0
176
     0
171
     0
176
     0
290
     0
176
     0
 93
        1
176
     0
 44
0.0
176
     0
173
     0
176
     0
1001
ACAD
1000
AcDbSavedByObjectVersion
1070
     0
  0
VISUALSTYLE
  5
7A5
102
{ACAD_XDICTIONARY
360
EB7
102
}
102
{ACAD_REACTORS
330
79B
102
}
330
79B
100
AcDbVisualStyle
  2
Realistic
 70
     8
177
     2
291
     0
 71
     2
176
     1
 72
     2
176
     1
 73
     0
176
     1
 90
        0
176
     1
 40
0.6
176
     1
 41
30.0
176
     1
 63
     7
176
     1
 74
     1
176
     1
 91
        0
176
     1
 64
     7
176
     1
 65
   257
176
     1
 75
     1
176
     1
175
     1
176
     1
 42
1.0
176
     1
 92
        8
176
     1
 66
     8
176
     1
 43
1.0
176
     1
 76
     1
176
     1
 77
     6
176
     1
 78
     2
176
     1
 67
     7
176
     1
 79
     5
176
     1
170
     0
176
     1
171
     0
176
     1
290
     0
176
     1
 93
       13
176
     1
 44
0.0
176
     1
173
     0
176
     1
1001
ACAD
1000
AcDbSavedByObjectVersion
1070
     0
  0
VISUALSTYLE
  5
8FD
102
{ACAD_XDICTIONARY
360
ED1
102
}
102
{ACAD_REACTORS
330
79B
102
}
330
79B
100
AcDbVisualStyle
  2
Shaded
 70
    27
177
     2
291
     0
 71
     2
176
     1
 72
     2
176
     1
 73
     1
176
     1
 90
        2
176
     1
 40
0.6
176
     1
 41
30.0
176
     1
 63
     7
176
     1
 74
     0
176
     1
 91
        4
176
     1
 64
     7
176
     1
 65
   257
176
     1
 75
     1
176
     1
175
     1
176
     1
 42
1.0
176
     1
 92
        8
176
     1
 66
   257
176
     1
 43
1.0
176
     1
 76
     1
176
     1
 77
     6
176
     1
 78
     2
176
     1
 67
     8
176
     1
 79
     3
176
     1
170
     0
176
     1
171
     0
176
     1
290
     0
176
     1
 93
        5
176
     1
 44
0.0
176
     1
173
     0
176
     1
1001
ACAD
1000
AcDbSavedByObjectVersion
1070
     0
  0
VISUALSTYLE
  5
8FC
102
{ACAD_XDICTIONARY
360
ECF
102
}
102
{ACAD_REACTORS
330
79B
102
}
330
79B
100
AcDbVisualStyle
  2
Shaded with edges
 70
    26
177
     2
291
     0
 71
     2
176
     1
 72
     2
176
     1
 73
     1
176
     1
 90
        2
176
     1
 40
0.6
176
     1
 41
30.0
176
     1
 63
     7
176
     1
 74
     1
176
     1
 91
        2
176
     1
 64
     7
176
     1
 65
   257
176
     1
 75
     2
176
     1
175
     1
176
     1
 42
1.0
176
     1
 92
        8
176
     1
 66
   257
176
     1
 43
1.0
176
     1
 76
     1
176
     1
 77
     6
176
     1
 78
     2
176
     1
 67
     7
176
     1
 79
     3
176
     1
170
     0
176
     1
171
     0
176
     1
290
     0
176
     1
 93
        5
176
     1
 44
0.0
176
     1
173
     0
176
     1
1001
ACAD
1000
AcDbSavedByObjectVersion
1070
     0
  0
VISUALSTYLE
  5
8F9
102
{ACAD_XDICTIONARY
360
EC9
102
}
102
{ACAD_REACTORS
330
79B
102
}
330
79B
100
AcDbVisualStyle
  2
Shades of Gray
 70
    23
177
     2
291
     0
 71
     2
176
     1
 72
     2
176
     1
 73
     3
176
     1
 90
        0
176
     1
 40
0.6
176
     1
 41
30.0
176
     1
 63
     7
176
     1
 74
     2
176
     1
 91
        2
176
     1
 64
     7
176
     1
 65
     7
176
     1
 75
     1
176
     1
175
     1
176
     1
 42
40.0
176
     1
 92
        8
176
     1
 66
     7
176
     1
 43
1.0
176
     1
 76
     1
176
     1
 77
     6
176
     1
 78
     2
176
     1
 67
     7
176
     1
 79
     3
176
     1
170
     0
176
     1
171
     0
176
     1
290
     0
176
     1
 93
        1
176
     1
 44
0.0
176
     1
173
     0
176
     1
1001
ACAD
1000
AcDbSavedByObjectVersion
1070
     0
  0
VISUALSTYLE
  5
8FA
102
{ACAD_XDICTIONARY
360
ECB
102
}
102
{ACAD_REACTORS
330
79B
102
}
330
79B
100
AcDbVisualStyle
  2
Sketchy
 70
    24
177
     2
291
     0
 71
     1
176
     1
 72
     2
176
     1
 73
     2
176
     1
 90
        0
176
     1
 40
0.6
176
     1
 41
30.0
176
     1
 63
     7
176
     1
 74
     2
176
     1
 91
        2
176
     1
 64
     7
176
     1
 65
     7
176
     1
 75
     1
176
     1
175
     1
176
     1
 42
40.0
176
     1
 92
       11
176
     1
 66
     7
176
     1
 43
1.0
176
     1
 76
     1
176
     1
 77
     6
176
     1
 78
     2
176
     1
 67
     7
176
     1
 79
     6
176
     1
170
     0
176
     1
171
     0
176
     1
290
     0
176
     1
 93
        1
176
     1
 44
0.0
176
     1
173
     0
176
     1
1001
ACAD
1000
AcDbSavedByObjectVersion
1070
     0
  0
VISUALSTYLE
  5
7A8
102
{ACAD_XDICTIONARY
360
EBD
102
}
102
{ACAD_REACTORS
330
79B
102
}
330
79B
100
AcDbVisualStyle
  2
Thicken
 70
    13
177
     2
291
     1
 71
     2
176
     1
 72
     2
176
     1
 73
     0
176
     1
 90
        0
176
     1
 40
0.6
176
     1
 41
30.0
176
     1
 63
     7
176
     1
 74
     1
176
     1
 91
        4
176
     1
 64
     7
176
     1
 65
   257
176
     1
 75
     1
176
     1
175
     1
176
     1
 42
1.0
176
     1
 92
       12
176
     1
 66
     7
176
     1
 43
1.0
176
     1
 76
     1
176
     1
 77
     6
176
     1
 78
     2
176
     1
 67
     7
176
     1
 79
     5
176
     1
170
     0
176
     1
171
     0
176
     1
290
     0
176
     1
 93
        1
176
     1
 44
0.0
176
     1
173
     0
176
     1
1001
ACAD
1000
AcDbSavedByObjectVersion
1070
     0
  0
VISUALSTYLE
  5
8F7
102
{ACAD_XDICTIONARY
360
EC5
102
}
102
{ACAD_REACTORS
330
79B
102
}
330
79B
100
AcDbVisualStyle
  2
Wireframe
 70
     5
177
     2
291
     0
 71
     0
176
     1
 72
     2
176
     1
 73
     0
176
     1
 90
        0
176
     1
 40
0.6
176
     1
 41
30.0
176
     1
 63
     7
176
     1
 74
     1
176
     1
 91
        4
176
     1
 64
     7
176
     1
 65
   257
176
     1
 75
     1
176
     1
175
     1
176
     1
 42
1.0
176
     1
 92
        0
176
     1
 66
   257
176
     1
 43
1.0
176
     1
 76
     1
176
     1
 77
     6
176
     1
 78
     2
176
     1
 67
     7
176
     1
 79
     3
176
     1
170
     0
176
     1
171
     0
176
     1
290
     0
176
     1
 93
        1
176
     1
 44
0.0
176
     1
173
     0
176
     1
1001
ACAD
1000
AcDbSavedByObjectVersion
1070
     0
  0
VISUALSTYLE
  5
8FB
102
{ACAD_XDICTIONARY
360
ECD
102
}
102
{ACAD_REACTORS
330
79B
102
}
330
79B
100
AcDbVisualStyle
  2
X-Ray
 70
    25
177
     2
291
     0
 71
     2
176
     1
 72
     2
176
     1
 73
     1
176
     1
 90
        1
176
     1
 40
0.5
176
     1
 41
30.0
176
     1
 63
     7
176
     1
 74
     1
176
     1
 91
        0
176
     1
 64
     7
176
     1
 65
   257
176
     1
 75
     1
176
     1
175
     1
176
     1
 42
1.0
176
     1
 92
        8
176
     1
 66
     7
176
     1
 43
1.0
176
     1
 76
     1
176
     1
 77
     6
176
     1
 78
     2
176
     1
 67
     7
176
     1
 79
     3
176
     1
170
     0
176
     1
171
     0
176
     1
290
     0
176
     1
 93
       13
176
     1
 44
0.0
176
     1
173
     0
176
     1
1001
ACAD
1000
AcDbSavedByObjectVersion
1070
     0
  0
DICTIONARYVAR
  5
8A5
102
{ACAD_REACTORS
330
66
102
}
330
66
100
DictionaryVariables
280
     0
  1
1:1
  0
DICTIONARYVAR
  5
8A4
102
{ACAD_REACTORS
330
66
102
}
330
66
100
DictionaryVariables
280
     0
  1
STANDARD
  0
DICTIONARYVAR
  5
8A3
102
{ACAD_REACTORS
330
66
102
}
330
66
100
DictionaryVariables
280
     0
  1
STANDARD
  0
DICTIONARYVAR
  5
958
102
{ACAD_REACTORS
330
66
102
}
330
66
100
DictionaryVariables
280
     0
  1
Imperial24
  0
DICTIONARYVAR
  5
959
102
{ACAD_REACTORS
330
66
102
}
330
66
100
DictionaryVariables
280
     0
  1
Imperial24
  0
DICTIONARYVAR
  5
67
102
{ACAD_REACTORS
330
66
102
}
330
66
100
DictionaryVariables
280
     0
  1
2
  0
DICTIONARYVAR
  5
6B
102
{ACAD_REACTORS
330
66
102
}
330
66
100
DictionaryVariables
280
     0
  1
1
  0
DICTIONARYVAR
  5
8A7
102
{ACAD_REACTORS
330
66
102
}
330
66
100
DictionaryVariables
280
     0
  1
0
  0
DICTIONARYVAR
  5
E92
102
{ACAD_REACTORS
330
66
102
}
330
66
100
DictionaryVariables
280
     0
  1
1
  0
DICTIONARYVAR
  5
E93
102
{ACAD_REACTORS
330
66
102
}
330
66
100
DictionaryVariables
280
     0
  1
15
  0
DICTIONARYVAR
  5
E91
102
{ACAD_REACTORS
330
66
102
}
330
66
100
DictionaryVariables
280
     0
  1
0
  0
DICTIONARYVAR
  5
E90
102
{ACAD_REACTORS
330
66
102
}
330
66
100
DictionaryVariables
280
     0
  1
0
  0
DICTIONARYVAR
  5
8A6
102
{ACAD_REACTORS
330
66
102
}
330
66
100
DictionaryVariables
280
     0
  1
127
  0
DICTIONARY
  5
EA4
102
{ACAD_REACTORS
330
EA2
102
}
330
EA2
100
AcDbDictionary
281
     1
  0
DICTIONARY
  5
EA3
102
{ACAD_REACTORS
330
EA2
102
}
330
EA2
100
AcDbDictionary
281
     1
  3
2603964480208
350
E9D
  3
2603964480224
350
E9E
  3
2603964480240
350
E9F
  3
2603964480256
350
EA0
  3
2603964480272
350
EA1
  0
DICTIONARY
  5
840
102
{ACAD_REACTORS
330
833
102
}
330
833
100
AcDbDictionary
281
     1
  0
DICTIONARY
  5
EDB
330
905
100
AcDbDictionary
280
     1
281
     1
  3
ACAD_XREC_ROUNDTRIP
360
EDC
  0
DICTIONARY
  5
EDF
330
961
100
AcDbDictionary
280
     1
281
     1
  3
ACAD_XREC_ROUNDTRIP
360
EE0
  0
DICTIONARY
  5
78C
330
78B
100
AcDbDictionary
280
     1
281
     1
  3
BUMPTILE
360
78E
  3
DIFFUSETILE
360
78D
  3
OPACITYTILE
360
791
  3
REFLECTIONTILE
360
790
  3
REFRACTIONTILE
360
792
  3
SPECULARTILE
360
78F
  0
DICTIONARY
  5
784
330
783
100
AcDbDictionary
280
     1
281
     1
  3
BUMPTILE
360
786
  3
DIFFUSETILE
360
785
  3
OPACITYTILE
360
789
  3
REFLECTIONTILE
360
788
  3
REFRACTIONTILE
360
78A
  3
SPECULARTILE
360
787
  0
DICTIONARY
  5
794
330
793
100
AcDbDictionary
280
     1
281
     1
  3
BUMPTILE
360
796
  3
DIFFUSETILE
360
795
  3
OPACITYTILE
360
799
  3
REFLECTIONTILE
360
798
  3
REFRACTIONTILE
360
79A
  3
SPECULARTILE
360
797
  0
DICTIONARY
  5
ED9
330
903
100
AcDbDictionary
280
     1
281
     1
  3
ACAD_XREC_ROUNDTRIP
360
EDA
  0
DICTIONARY
  5
EDD
330
960
100
AcDbDictionary
280
     1
281
     1
  3
ACAD_XREC_ROUNDTRIP
360
EDE
  0
DICTIONARY
  5
886
330
7AE
100
AcDbDictionary
280
     1
281
     1
  3
ACAD_ROUNDTRIP_2008_TABLESTYLE_CELLSTYLEMAP
360
E9B
  0
DICTIONARY
  5
EAF
330
7A1
100
AcDbDictionary
280
     1
281
     1
  3
ACAD_XREC_ROUNDTRIP
360
EB0
  0
DICTIONARY
  5
EB3
330
7A3
100
AcDbDictionary
280
     1
281
     1
  3
ACAD_XREC_ROUNDTRIP
360
EB4
  0
DICTIONARY
  5
EB1
330
7A2
100
AcDbDictionary
280
     1
281
     1
  3
ACAD_XREC_ROUNDTRIP
360
EB2
  0
DICTIONARY
  5
EAD
330
7A0
100
AcDbDictionary
280
     1
281
     1
  3
ACAD_XREC_ROUNDTRIP
360
EAE
  0
DICTIONARY
  5
EBB
330
7A7
100
AcDbDictionary
280
     1
281
     1
  3
ACAD_XREC_ROUNDTRIP
360
EBC
  0
DICTIONARY
  5
EC3
330
7AB
100
AcDbDictionary
280
     1
281
     1
  3
ACAD_XREC_ROUNDTRIP
360
EC4
  0
DICTIONARY
  5
EB5
330
7A4
100
AcDbDictionary
280
     1
281
     1
  3
ACAD_XREC_ROUNDTRIP
360
EB6
  0
DICTIONARY
  5
EB9
330
7A6
100
AcDbDictionary
280
     1
281
     1
  3
ACAD_XREC_ROUNDTRIP
360
EBA
  0
DICTIONARY
  5
ED7
330
900
100
AcDbDictionary
280
     1
281
     1
  3
ACAD_XREC_ROUNDTRIP
360
ED8
  0
DICTIONARY
  5
EC1
330
7AA
100
AcDbDictionary
280
     1
281
     1
  3
ACAD_XREC_ROUNDTRIP
360
EC2
  0
DICTIONARY
  5
EA5
330
79C
100
AcDbDictionary
280
     1
281
     1
  3
ACAD_XREC_ROUNDTRIP
360
EA6
  0
DICTIONARY
  5
EA7
330
79D
100
AcDbDictionary
280
     1
281
     1
  3
ACAD_XREC_ROUNDTRIP
360
EA8
  0
DICTIONARY
  5
EA9
330
79E
100
AcDbDictionary
280
     1
281
     1
  3
ACAD_XREC_ROUNDTRIP
360
EAA
  0
DICTIONARY
  5
EAB
330
79F
100
AcDbDictionary
280
     1
281
     1
  3
ACAD_XREC_ROUNDTRIP
360
EAC
  0
DICTIONARY
  5
EC7
330
8F8
100
AcDbDictionary
280
     1
281
     1
  3
ACAD_XREC_ROUNDTRIP
360
EC8
  0
DICTIONARY
  5
ED3
330
8FE
100
AcDbDictionary
280
     1
281
     1
  3
ACAD_XREC_ROUNDTRIP
360
ED4
  0
DICTIONARY
  5
EBF
330
7A9
100
AcDbDictionary
280
     1
281
     1
  3
ACAD_XREC_ROUNDTRIP
360
EC0
  0
DICTIONARY
  5
ED5
330
8FF
100
AcDbDictionary
280
     1
281
     1
  3
ACAD_XREC_ROUNDTRIP
360
ED6
  0
DICTIONARY
  5
EB7
330
7A5
100
AcDbDictionary
280
     1
281
     1
  3
ACAD_XREC_ROUNDTRIP
360
EB8
  0
DICTIONARY
  5
ED1
330
8FD
100
AcDbDictionary
280
     1
281
     1
  3
ACAD_XREC_ROUNDTRIP
360
ED2
  0
DICTIONARY
  5
ECF
330
8FC
100
AcDbDictionary
280
     1
281
     1
  3
ACAD_XREC_ROUNDTRIP
360
ED0
  0
DICTIONARY
  5
EC9
330
8F9
100
AcDbDictionary
280
     1
281
     1
  3
ACAD_XREC_ROUNDTRIP
360
ECA
  0
DICTIONARY
  5
ECB
330
8FA
100
AcDbDictionary
280
     1
281
     1
  3
ACAD_XREC_ROUNDTRIP
360
ECC
  0
DICTIONARY
  5
EBD
330
7A8
100
AcDbDictionary
280
     1
281
     1
  3
ACAD_XREC_ROUNDTRIP
360
EBE
  0
DICTIONARY
  5
EC5
330
8F7
100
AcDbDictionary
280
     1
281
     1
  3
ACAD_XREC_ROUNDTRIP
360
EC6
  0
DICTIONARY
  5
ECD
330
8FB
100
AcDbDictionary
280
     1
281
     1
  3
ACAD_XREC_ROUNDTRIP
360
ECE
  0
XRECORD
  5
E9D
102
{ACAD_REACTORS
330
EA3
102
}
330
EA3
100
AcDbXrecord
280
     1
  1
AcDb_Thumbnail_Schema
102
{ATTRRECORD
341
E9E
  2
AcDbDs::TreatedAsObjectData
280
     1
291
     1
102
ATTRRECORD}
102
{ATTRRECORD
341
E9F
  2
AcDbDs::Legacy
280
     1
291
     1
102
ATTRRECORD}
  2
AcDbDs::ID
280
    10
 91
        8
102
{ATTRRECORD
341
EA0
  2
AcDs:Indexable
280
     1
291
     1
102
ATTRRECORD}
102
{ATTRRECORD
341
EA1
  2
AcDbDs::HandleAttribute
280
     7
282
     1
102
ATTRRECORD}
  2
Thumbnail_Data
280
    15
 91
        0
  0
XRECORD
  5
E9E
102
{ACAD_REACTORS
330
EA3
102
}
330
EA3
100
AcDbXrecord
280
     1
  1
AcDbDs::TreatedAsObjectDataSchema
  2
AcDbDs::TreatedAsObjectData
280
     1
 91
        0
  0
XRECORD
  5
E9F
102
{ACAD_REACTORS
330
EA3
102
}
330
EA3
100
AcDbXrecord
280
     1
  1
AcDbDs::LegacySchema
  2
AcDbDs::Legacy
280
     1
 91
        0
  0
XRECORD
  5
EA0
102
{ACAD_REACTORS
330
EA3
102
}
330
EA3
100
AcDbXrecord
280
     1
  1
AcDbDs::IndexedPropertySchema
  2
AcDs:Indexable
280
     1
 91
        0
  0
XRECORD
  5
EA1
102
{ACAD_REACTORS
330
EA3
102
}
330
EA3
100
AcDbXrecord
280
     1
  1
AcDbDs::HandleAttributeSchema
  2
AcDbDs::HandleAttribute
280
     7
 91
        1
284
     1
  0
XRECORD
  5
EDC
102
{ACAD_REACTORS
330
EDB
102
}
330
EDB
100
AcDbXrecord
280
     1
102
DISPLAYNAME
  1
Imperial24
102
FLAGS
 90
        0
  0
XRECORD
  5
EE0
102
{ACAD_REACTORS
330
EDF
102
}
330
EDF
100
AcDbXrecord
280
     1
102
DISPLAYNAME
  1
Metric50
102
FLAGS
 90
        0
  0
XRECORD
  5
78E
102
{ACAD_REACTORS
330
78C
102
}
330
78C
100
AcDbXrecord
280
     1
270
     1
271
     1
  0
XRECORD
  5
78D
102
{ACAD_REACTORS
330
78C
102
}
330
78C
100
AcDbXrecord
280
     1
270
     1
271
     1
  0
XRECORD
  5
791
102
{ACAD_REACTORS
330
78C
102
}
330
78C
100
AcDbXrecord
280
     1
270
     1
271
     1
  0
XRECORD
  5
790
102
{ACAD_REACTORS
330
78C
102
}
330
78C
100
AcDbXrecord
280
     1
270
     1
271
     1
  0
XRECORD
  5
792
102
{ACAD_REACTORS
330
78C
102
}
330
78C
100
AcDbXrecord
280
     1
270
     1
271
     1
  0
XRECORD
  5
78F
102
{ACAD_REACTORS
330
78C
102
}
330
78C
100
AcDbXrecord
280
     1
270
     1
271
     1
  0
XRECORD
  5
786
102
{ACAD_REACTORS
330
784
102
}
330
784
100
AcDbXrecord
280
     1
270
     1
271
     1
  0
XRECORD
  5
785
102
{ACAD_REACTORS
330
784
102
}
330
784
100
AcDbXrecord
280
     1
270
     1
271
     1
  0
XRECORD
  5
789
102
{ACAD_REACTORS
330
784
102
}
330
784
100
AcDbXrecord
280
     1
270
     1
271
     1
  0
XRECORD
  5
788
102
{ACAD_REACTORS
330
784
102
}
330
784
100
AcDbXrecord
280
     1
270
     1
271
     1
  0
XRECORD
  5
78A
102
{ACAD_REACTORS
330
784
102
}
330
784
100
AcDbXrecord
280
     1
270
     1
271
     1
  0
XRECORD
  5
787
102
{ACAD_REACTORS
330
784
102
}
330
784
100
AcDbXrecord
280
     1
270
     1
271
     1
  0
XRECORD
  5
796
102
{ACAD_REACTORS
330
794
102
}
330
794
100
AcDbXrecord
280
     1
270
     1
271
     1
  0
XRECORD
  5
795
102
{ACAD_REACTORS
330
794
102
}
330
794
100
AcDbXrecord
280
     1
270
     1
271
     1
  0
XRECORD
  5
799
102
{ACAD_REACTORS
330
794
102
}
330
794
100
AcDbXrecord
280
     1
270
     1
271
     1
  0
XRECORD
  5
798
102
{ACAD_REACTORS
330
794
102
}
330
794
100
AcDbXrecord
280
     1
270
     1
271
     1
  0
XRECORD
  5
79A
102
{ACAD_REACTORS
330
794
102
}
330
794
100
AcDbXrecord
280
     1
270
     1
271
     1
  0
XRECORD
  5
797
102
{ACAD_REACTORS
330
794
102
}
330
794
100
AcDbXrecord
280
     1
270
     1
271
     1
  0
XRECORD
  5
EDA
102
{ACAD_REACTORS
330
ED9
102
}
330
ED9
100
AcDbXrecord
280
     1
102
DISPLAYNAME
  1
Imperial24
102
FLAGS
 90
        0
  0
XRECORD
  5
EDE
102
{ACAD_REACTORS
330
EDD
102
}
330
EDD
100
AcDbXrecord
280
     1
102
DISPLAYNAME
  1
Metric50
102
FLAGS
 90
        0
  0
CELLSTYLEMAP
  5
E9B
102
{ACAD_REACTORS
330
886
102
}
330
886
100
AcDbCellStyleMap
 90
        3
300
CELLSTYLE
  1
TABLEFORMAT_BEGIN
 90
        5
170
     1
 91
        0
 92
    32768
 62
   257
 93
        1
300
CONTENTFORMAT
  1
CONTENTFORMAT_BEGIN
 90
        0
 91
        0
 92
      512
 93
        0
300

 40
0.0
140
1.0
 94
        5
 62
     0
340
11
144
0.25
309
CONTENTFORMAT_END
171
     1
301
MARGIN
  1
CELLMARGIN_BEGIN
 40
0.06
 40
0.06
 40
0.06
 40
0.06
 40
0.18
 40
0.18
309
CELLMARGIN_END
 94
        6
 95
        1
302
GRIDFORMAT
  1
GRIDFORMAT_BEGIN
 90
        0
 91
        1
 62
     0
 92
       -2
340
0
 93
        0
 40
0.045
309
GRIDFORMAT_END
 95
        2
302
GRIDFORMAT
  1
GRIDFORMAT_BEGIN
 90
        0
 91
        1
 62
     0
 92
       -2
340
0
 93
        0
 40
0.045
309
GRIDFORMAT_END
 95
        4
302
GRIDFORMAT
  1
GRIDFORMAT_BEGIN
 90
        0
 91
        1
 62
     0
 92
       -2
340
0
 93
        0
 40
0.045
309
GRIDFORMAT_END
 95
        8
302
GRIDFORMAT
  1
GRIDFORMAT_BEGIN
 90
        0
 91
        1
 62
     0
 92
       -2
340
0
 93
        0
 40
0.045
309
GRIDFORMAT_END
 95
       16
302
GRIDFORMAT
  1
GRIDFORMAT_BEGIN
 90
        0
 91
        1
 62
     0
 92
       -2
340
0
 93
        0
 40
0.045
309
GRIDFORMAT_END
 95
       32
302
GRIDFORMAT
  1
GRIDFORMAT_BEGIN
 90
        0
 91
        1
 62
     0
 92
       -2
340
0
 93
        0
 40
0.045
309
GRIDFORMAT_END
309
TABLEFORMAT_END
  1
CELLSTYLE_BEGIN
 90
        1
 91
        1
300
_TITLE
309
CELLSTYLE_END
300
CELLSTYLE
  1
TABLEFORMAT_BEGIN
 90
        5
170
     1
 91
        0
 92
        0
 62
   257
 93
        1
300
CONTENTFORMAT
  1
CONTENTFORMAT_BEGIN
 90
        0
 91
        0
 92
      512
 93
        0
300

 40
0.0
140
1.0
 94
        5
 62
     0
340
11
144
0.18
309
CONTENTFORMAT_END
171
     1
301
MARGIN
  1
CELLMARGIN_BEGIN
 40
0.06
 40
0.06
 40
0.06
 40
0.06
 40
0.18
 40
0.18
309
CELLMARGIN_END
 94
        6
 95
        1
302
GRIDFORMAT
  1
GRIDFORMAT_BEGIN
 90
        0
 91
        1
 62
     0
 92
       -2
340
0
 93
        0
 40
0.045
309
GRIDFORMAT_END
 95
        2
302
GRIDFORMAT
  1
GRIDFORMAT_BEGIN
 90
        0
 91
        1
 62
     0
 92
       -2
340
0
 93
        0
 40
0.045
309
GRIDFORMAT_END
 95
        4
302
GRIDFORMAT
  1
GRIDFORMAT_BEGIN
 90
        0
 91
        1
 62
     0
 92
       -2
340
0
 93
        0
 40
0.045
309
GRIDFORMAT_END
 95
        8
302
GRIDFORMAT
  1
GRIDFORMAT_BEGIN
 90
        0
 91
        1
 62
     0
 92
       -2
340
0
 93
        0
 40
0.045
309
GRIDFORMAT_END
 95
       16
302
GRIDFORMAT
  1
GRIDFORMAT_BEGIN
 90
        0
 91
        1
 62
     0
 92
       -2
340
0
 93
        0
 40
0.045
309
GRIDFORMAT_END
 95
       32
302
GRIDFORMAT
  1
GRIDFORMAT_BEGIN
 90
        0
 91
        1
 62
     0
 92
       -2
340
0
 93
        0
 40
0.045
309
GRIDFORMAT_END
309
TABLEFORMAT_END
  1
CELLSTYLE_BEGIN
 90
        2
 91
        1
300
_HEADER
309
CELLSTYLE_END
300
CELLSTYLE
  1
TABLEFORMAT_BEGIN
 90
        5
170
     1
 91
        0
 92
        0
 62
   257
 93
        1
300
CONTENTFORMAT
  1
CONTENTFORMAT_BEGIN
 90
        0
 91
        0
 92
      512
 93
        0
300

 40
0.0
140
1.0
 94
        2
 62
     0
340
11
144
0.18
309
CONTENTFORMAT_END
171
     1
301
MARGIN
  1
CELLMARGIN_BEGIN
 40
0.06
 40
0.06
 40
0.06
 40
0.06
 40
0.18
 40
0.18
309
CELLMARGIN_END
 94
        6
 95
        1
302
GRIDFORMAT
  1
GRIDFORMAT_BEGIN
 90
        0
 91
        1
 62
     0
 92
       -2
340
0
 93
        0
 40
0.045
309
GRIDFORMAT_END
 95
        2
302
GRIDFORMAT
  1
GRIDFORMAT_BEGIN
 90
        0
 91
        1
 62
     0
 92
       -2
340
0
 93
        0
 40
0.045
309
GRIDFORMAT_END
 95
        4
302
GRIDFORMAT
  1
GRIDFORMAT_BEGIN
 90
        0
 91
        1
 62
     0
 92
       -2
340
0
 93
        0
 40
0.045
309
GRIDFORMAT_END
 95
        8
302
GRIDFORMAT
  1
GRIDFORMAT_BEGIN
 90
        0
 91
        1
 62
     0
 92
       -2
340
0
 93
        0
 40
0.045
309
GRIDFORMAT_END
 95
       16
302
GRIDFORMAT
  1
GRIDFORMAT_BEGIN
 90
        0
 91
        1
 62
     0
 92
       -2
340
0
 93
        0
 40
0.045
309
GRIDFORMAT_END
 95
       32
302
GRIDFORMAT
  1
GRIDFORMAT_BEGIN
 90
        0
 91
        1
 62
     0
 92
       -2
340
0
 93
        0
 40
0.045
309
GRIDFORMAT_END
309
TABLEFORMAT_END
  1
CELLSTYLE_BEGIN
 90
        3
 91
        2
300
_DATA
309
CELLSTYLE_END
  0
XRECORD
  5
EB0
102
{ACAD_REACTORS
330
EAF
102
}
330
EAF
100
AcDbXrecord
280
     1
102
RTVSPost2010Prop28
280
     1
102
RTVSPost2010PropOp28
 70
     1
102
RTVSPost2010Prop29
280
     1
102
RTVSPost2010PropOp29
 70
     1
102
RTVSPost2010Prop30
280
     0
102
RTVSPost2010PropOp30
 70
     1
102
RTVSPost2010Prop31
280
     0
102
RTVSPost2010PropOp31
 70
     1
102
RTVSPost2010Prop32
280
     0
102
RTVSPost2010PropOp32
 70
     1
102
RTVSPost2010Prop33
280
     0
102
RTVSPost2010PropOp33
 70
     1
102
RTVSPost2010Prop34
280
     0
102
RTVSPost2010PropOp34
 70
     1
102
RTVSPost2010Prop35
280
     0
102
RTVSPost2010PropOp35
 70
     1
102
RTVSPost2010Prop36
280
     0
102
RTVSPost2010PropOp36
 70
     1
102
RTVSPost2010Prop37
 90
       50
102
RTVSPost2010PropOp37
 70
     1
102
RTVSPost2010Prop38
140
0.0
102
RTVSPost2010PropOp38
 70
     1
102
RTVSPost2010Prop39
140
1.0
102
RTVSPost2010PropOp39
 70
     1
102
RTVSPost2010Prop40
 90
        0
102
RTVSPost2010PropOp40
 70
     1
102
RTVSPost2010Prop41ColorIndex
 90
       18
102
RTVSPost2010Prop41ColorRGB
 90
        0
102
RTVSPost2010PropOp41
 70
     1
102
RTVSPost2010Prop42
 90
       50
102
RTVSPost2010PropOp42
 70
     1
102
RTVSPost2010Prop43
 90
        3
102
RTVSPost2010PropOp43
 70
     1
102
RTVSPost2010Prop44ColorIndex
 90
        5
102
RTVSPost2010Prop44ColorRGB
 90
      255
102
RTVSPost2010PropOp44
 70
     1
102
RTVSPost2010Prop45
280
     0
102
RTVSPost2010PropOp45
 70
     1
102
RTVSPost2010Prop46
 90
       50
102
RTVSPost2010PropOp46
 70
     1
102
RTVSPost2010Prop47
 90
       50
102
RTVSPost2010PropOp47
 70
     1
102
RTVSPost2010Prop48
 90
       50
102
RTVSPost2010PropOp48
 70
     1
102
RTVSPost2010Prop49
280
     0
102
RTVSPost2010PropOp49
 70
     1
102
RTVSPost2010Prop50
 90
       50
102
RTVSPost2010PropOp50
 70
     1
102
RTVSPost2010Prop51ColorIndex
 90
      256
102
RTVSPost2010Prop51ColorRGB
 90
-16777216
102
RTVSPost2010PropOp51
 70
     0
102
RTVSPost2010Prop52
140
1.0
102
RTVSPost2010PropOp52
 70
     0
102
RTVSPost2010Prop53
 90
        2
102
RTVSPost2010PropOp53
 70
     1
102
RTVSPost2010Prop54
  1
strokes_ogs.tif
102
RTVSPost2010PropOp54
 70
     1
102
RTVSPost2010Prop55
280
     0
102
RTVSPost2010PropOp55
 70
     1
102
RTVSPost2010Prop56
140
1.0
102
RTVSPost2010PropOp56
 70
     1
102
RTVSPost2010Prop57
140
1.0
102
RTVSPost2010PropOp57
 70
     1
  0
XRECORD
  5
EB4
102
{ACAD_REACTORS
330
EB3
102
}
330
EB3
100
AcDbXrecord
280
     1
102
RTVSPost2010Prop28
280
     0
102
RTVSPost2010PropOp28
 70
     1
102
RTVSPost2010Prop29
280
     1
102
RTVSPost2010PropOp29
 70
     1
102
RTVSPost2010Prop30
280
     1
102
RTVSPost2010PropOp30
 70
     1
102
RTVSPost2010Prop31
280
     0
102
RTVSPost2010PropOp31
 70
     1
102
RTVSPost2010Prop32
280
     0
102
RTVSPost2010PropOp32
 70
     1
102
RTVSPost2010Prop33
280
     0
102
RTVSPost2010PropOp33
 70
     1
102
RTVSPost2010Prop34
280
     0
102
RTVSPost2010PropOp34
 70
     1
102
RTVSPost2010Prop35
280
     0
102
RTVSPost2010PropOp35
 70
     1
102
RTVSPost2010Prop36
280
     0
102
RTVSPost2010PropOp36
 70
     1
102
RTVSPost2010Prop37
 90
       50
102
RTVSPost2010PropOp37
 70
     1
102
RTVSPost2010Prop38
140
0.0
102
RTVSPost2010PropOp38
 70
     1
102
RTVSPost2010Prop39
140
1.0
102
RTVSPost2010PropOp39
 70
     1
102
RTVSPost2010Prop40
 90
        0
102
RTVSPost2010PropOp40
 70
     1
102
RTVSPost2010Prop41ColorIndex
 90
       18
102
RTVSPost2010Prop41ColorRGB
 90
        0
102
RTVSPost2010PropOp41
 70
     1
102
RTVSPost2010Prop42
 90
       50
102
RTVSPost2010PropOp42
 70
     1
102
RTVSPost2010Prop43
 90
        3
102
RTVSPost2010PropOp43
 70
     1
102
RTVSPost2010Prop44ColorIndex
 90
        5
102
RTVSPost2010Prop44ColorRGB
 90
      255
102
RTVSPost2010PropOp44
 70
     1
102
RTVSPost2010Prop45
280
     0
102
RTVSPost2010PropOp45
 70
     1
102
RTVSPost2010Prop46
 90
       50
102
RTVSPost2010PropOp46
 70
     1
102
RTVSPost2010Prop47
 90
       50
102
RTVSPost2010PropOp47
 70
     1
102
RTVSPost2010Prop48
 90
       50
102
RTVSPost2010PropOp48
 70
     1
102
RTVSPost2010Prop49
280
     0
102
RTVSPost2010PropOp49
 70
     1
102
RTVSPost2010Prop50
 90
       50
102
RTVSPost2010PropOp50
 70
     1
102
RTVSPost2010Prop51ColorIndex
 90
      256
102
RTVSPost2010Prop51ColorRGB
 90
-16777216
102
RTVSPost2010PropOp51
 70
     0
102
RTVSPost2010Prop52
140
1.0
102
RTVSPost2010PropOp52
 70
     0
102
RTVSPost2010Prop53
 90
        2
102
RTVSPost2010PropOp53
 70
     1
102
RTVSPost2010Prop54
  1
strokes_ogs.tif
102
RTVSPost2010PropOp54
 70
     1
102
RTVSPost2010Prop55
280
     0
102
RTVSPost2010PropOp55
 70
     1
102
RTVSPost2010Prop56
140
1.0
102
RTVSPost2010PropOp56
 70
     1
102
RTVSPost2010Prop57
140
1.0
102
RTVSPost2010PropOp57
 70
     1
  0
XRECORD
  5
EB2
102
{ACAD_REACTORS
330
EB1
102
}
330
EB1
100
AcDbXrecord
280
     1
102
RTVSPost2010Prop28
280
     0
102
RTVSPost2010PropOp28
 70
     1
102
RTVSPost2010Prop29
280
     1
102
RTVSPost2010PropOp29
 70
     1
102
RTVSPost2010Prop30
280
     1
102
RTVSPost2010PropOp30
 70
     1
102
RTVSPost2010Prop31
280
     0
102
RTVSPost2010PropOp31
 70
     1
102
RTVSPost2010Prop32
280
     0
102
RTVSPost2010PropOp32
 70
     1
102
RTVSPost2010Prop33
280
     0
102
RTVSPost2010PropOp33
 70
     1
102
RTVSPost2010Prop34
280
     0
102
RTVSPost2010PropOp34
 70
     1
102
RTVSPost2010Prop35
280
     0
102
RTVSPost2010PropOp35
 70
     1
102
RTVSPost2010Prop36
280
     0
102
RTVSPost2010PropOp36
 70
     1
102
RTVSPost2010Prop37
 90
       50
102
RTVSPost2010PropOp37
 70
     1
102
RTVSPost2010Prop38
140
0.0
102
RTVSPost2010PropOp38
 70
     1
102
RTVSPost2010Prop39
140
1.0
102
RTVSPost2010PropOp39
 70
     1
102
RTVSPost2010Prop40
 90
        0
102
RTVSPost2010PropOp40
 70
     1
102
RTVSPost2010Prop41ColorIndex
 90
       18
102
RTVSPost2010Prop41ColorRGB
 90
        0
102
RTVSPost2010PropOp41
 70
     1
102
RTVSPost2010Prop42
 90
       50
102
RTVSPost2010PropOp42
 70
     1
102
RTVSPost2010Prop43
 90
        3
102
RTVSPost2010PropOp43
 70
     1
102
RTVSPost2010Prop44ColorIndex
 90
        5
102
RTVSPost2010Prop44ColorRGB
 90
      255
102
RTVSPost2010PropOp44
 70
     1
102
RTVSPost2010Prop45
280
     0
102
RTVSPost2010PropOp45
 70
     1
102
RTVSPost2010Prop46
 90
       50
102
RTVSPost2010PropOp46
 70
     1
102
RTVSPost2010Prop47
 90
       50
102
RTVSPost2010PropOp47
 70
     1
102
RTVSPost2010Prop48
 90
       50
102
RTVSPost2010PropOp48
 70
     1
102
RTVSPost2010Prop49
280
     0
102
RTVSPost2010PropOp49
 70
     1
102
RTVSPost2010Prop50
 90
       50
102
RTVSPost2010PropOp50
 70
     1
102
RTVSPost2010Prop51ColorIndex
 90
      256
102
RTVSPost2010Prop51ColorRGB
 90
-16777216
102
RTVSPost2010PropOp51
 70
     0
102
RTVSPost2010Prop52
140
1.0
102
RTVSPost2010PropOp52
 70
     0
102
RTVSPost2010Prop53
 90
        2
102
RTVSPost2010PropOp53
 70
     1
102
RTVSPost2010Prop54
  1
strokes_ogs.tif
102
RTVSPost2010PropOp54
 70
     1
102
RTVSPost2010Prop55
280
     0
102
RTVSPost2010PropOp55
 70
     1
102
RTVSPost2010Prop56
140
1.0
102
RTVSPost2010PropOp56
 70
     1
102
RTVSPost2010Prop57
140
1.0
102
RTVSPost2010PropOp57
 70
     1
  0
XRECORD
  5
EAE
102
{ACAD_REACTORS
330
EAD
102
}
330
EAD
100
AcDbXrecord
280
     1
102
RTVSPost2010Prop28
280
     0
102
RTVSPost2010PropOp28
 70
     1
102
RTVSPost2010Prop29
280
     1
102
RTVSPost2010PropOp29
 70
     1
102
RTVSPost2010Prop30
280
     1
102
RTVSPost2010PropOp30
 70
     1
102
RTVSPost2010Prop31
280
     0
102
RTVSPost2010PropOp31
 70
     1
102
RTVSPost2010Prop32
280
     0
102
RTVSPost2010PropOp32
 70
     1
102
RTVSPost2010Prop33
280
     0
102
RTVSPost2010PropOp33
 70
     1
102
RTVSPost2010Prop34
280
     0
102
RTVSPost2010PropOp34
 70
     1
102
RTVSPost2010Prop35
280
     0
102
RTVSPost2010PropOp35
 70
     1
102
RTVSPost2010Prop36
280
     0
102
RTVSPost2010PropOp36
 70
     1
102
RTVSPost2010Prop37
 90
       50
102
RTVSPost2010PropOp37
 70
     1
102
RTVSPost2010Prop38
140
0.0
102
RTVSPost2010PropOp38
 70
     1
102
RTVSPost2010Prop39
140
1.0
102
RTVSPost2010PropOp39
 70
     1
102
RTVSPost2010Prop40
 90
        0
102
RTVSPost2010PropOp40
 70
     1
102
RTVSPost2010Prop41ColorIndex
 90
       18
102
RTVSPost2010Prop41ColorRGB
 90
        0
102
RTVSPost2010PropOp41
 70
     1
102
RTVSPost2010Prop42
 90
       50
102
RTVSPost2010PropOp42
 70
     1
102
RTVSPost2010Prop43
 90
        3
102
RTVSPost2010PropOp43
 70
     1
102
RTVSPost2010Prop44ColorIndex
 90
        5
102
RTVSPost2010Prop44ColorRGB
 90
      255
102
RTVSPost2010PropOp44
 70
     1
102
RTVSPost2010Prop45
280
     0
102
RTVSPost2010PropOp45
 70
     1
102
RTVSPost2010Prop46
 90
       50
102
RTVSPost2010PropOp46
 70
     1
102
RTVSPost2010Prop47
 90
       50
102
RTVSPost2010PropOp47
 70
     1
102
RTVSPost2010Prop48
 90
       50
102
RTVSPost2010PropOp48
 70
     1
102
RTVSPost2010Prop49
280
     0
102
RTVSPost2010PropOp49
 70
     1
102
RTVSPost2010Prop50
 90
       50
102
RTVSPost2010PropOp50
 70
     1
102
RTVSPost2010Prop51ColorIndex
 90
      256
102
RTVSPost2010Prop51ColorRGB
 90
-16777216
102
RTVSPost2010PropOp51
 70
     0
102
RTVSPost2010Prop52
140
1.0
102
RTVSPost2010PropOp52
 70
     0
102
RTVSPost2010Prop53
 90
        2
102
RTVSPost2010PropOp53
 70
     1
102
RTVSPost2010Prop54
  1
strokes_ogs.tif
102
RTVSPost2010PropOp54
 70
     1
102
RTVSPost2010Prop55
280
     0
102
RTVSPost2010PropOp55
 70
     1
102
RTVSPost2010Prop56
140
1.0
102
RTVSPost2010PropOp56
 70
     1
102
RTVSPost2010Prop57
140
1.0
102
RTVSPost2010PropOp57
 70
     1
  0
XRECORD
  5
EBC
102
{ACAD_REACTORS
330
EBB
102
}
330
EBB
100
AcDbXrecord
280
     1
102
RTVSPost2010Prop28
280
     0
102
RTVSPost2010PropOp28
 70
     1
102
RTVSPost2010Prop29
280
     1
102
RTVSPost2010PropOp29
 70
     1
102
RTVSPost2010Prop30
280
     1
102
RTVSPost2010PropOp30
 70
     1
102
RTVSPost2010Prop31
280
     0
102
RTVSPost2010PropOp31
 70
     1
102
RTVSPost2010Prop32
280
     0
102
RTVSPost2010PropOp32
 70
     1
102
RTVSPost2010Prop33
280
     0
102
RTVSPost2010PropOp33
 70
     1
102
RTVSPost2010Prop34
280
     0
102
RTVSPost2010PropOp34
 70
     1
102
RTVSPost2010Prop35
280
     0
102
RTVSPost2010PropOp35
 70
     1
102
RTVSPost2010Prop36
280
     0
102
RTVSPost2010PropOp36
 70
     1
102
RTVSPost2010Prop37
 90
       50
102
RTVSPost2010PropOp37
 70
     1
102
RTVSPost2010Prop38
140
0.0
102
RTVSPost2010PropOp38
 70
     1
102
RTVSPost2010Prop39
140
1.0
102
RTVSPost2010PropOp39
 70
     1
102
RTVSPost2010Prop40
 90
        0
102
RTVSPost2010PropOp40
 70
     1
102
RTVSPost2010Prop41ColorIndex
 90
       18
102
RTVSPost2010Prop41ColorRGB
 90
        0
102
RTVSPost2010PropOp41
 70
     1
102
RTVSPost2010Prop42
 90
       50
102
RTVSPost2010PropOp42
 70
     1
102
RTVSPost2010Prop43
 90
        3
102
RTVSPost2010PropOp43
 70
     1
102
RTVSPost2010Prop44ColorIndex
 90
        5
102
RTVSPost2010Prop44ColorRGB
 90
      255
102
RTVSPost2010PropOp44
 70
     1
102
RTVSPost2010Prop45
280
     0
102
RTVSPost2010PropOp45
 70
     1
102
RTVSPost2010Prop46
 90
       50
102
RTVSPost2010PropOp46
 70
     1
102
RTVSPost2010Prop47
 90
       50
102
RTVSPost2010PropOp47
 70
     1
102
RTVSPost2010Prop48
 90
       50
102
RTVSPost2010PropOp48
 70
     1
102
RTVSPost2010Prop49
280
     0
102
RTVSPost2010PropOp49
 70
     1
102
RTVSPost2010Prop50
 90
       50
102
RTVSPost2010PropOp50
 70
     1
102
RTVSPost2010Prop51ColorIndex
 90
      256
102
RTVSPost2010Prop51ColorRGB
 90
-16777216
102
RTVSPost2010PropOp51
 70
     0
102
RTVSPost2010Prop52
140
1.0
102
RTVSPost2010PropOp52
 70
     0
102
RTVSPost2010Prop53
 90
        2
102
RTVSPost2010PropOp53
 70
     1
102
RTVSPost2010Prop54
  1
strokes_ogs.tif
102
RTVSPost2010PropOp54
 70
     1
102
RTVSPost2010Prop55
280
     0
102
RTVSPost2010PropOp55
 70
     1
102
RTVSPost2010Prop56
140
1.0
102
RTVSPost2010PropOp56
 70
     1
102
RTVSPost2010Prop57
140
1.0
102
RTVSPost2010PropOp57
 70
     1
  0
XRECORD
  5
EC4
102
{ACAD_REACTORS
330
EC3
102
}
330
EC3
100
AcDbXrecord
280
     1
102
RTVSPost2010Prop28
280
     0
102
RTVSPost2010PropOp28
 70
     1
102
RTVSPost2010Prop29
280
     1
102
RTVSPost2010PropOp29
 70
     1
102
RTVSPost2010Prop30
280
     1
102
RTVSPost2010PropOp30
 70
     1
102
RTVSPost2010Prop31
280
     0
102
RTVSPost2010PropOp31
 70
     1
102
RTVSPost2010Prop32
280
     0
102
RTVSPost2010PropOp32
 70
     1
102
RTVSPost2010Prop33
280
     0
102
RTVSPost2010PropOp33
 70
     1
102
RTVSPost2010Prop34
280
     0
102
RTVSPost2010PropOp34
 70
     1
102
RTVSPost2010Prop35
280
     0
102
RTVSPost2010PropOp35
 70
     1
102
RTVSPost2010Prop36
280
     0
102
RTVSPost2010PropOp36
 70
     1
102
RTVSPost2010Prop37
 90
       50
102
RTVSPost2010PropOp37
 70
     1
102
RTVSPost2010Prop38
140
0.0
102
RTVSPost2010PropOp38
 70
     1
102
RTVSPost2010Prop39
140
1.0
102
RTVSPost2010PropOp39
 70
     1
102
RTVSPost2010Prop40
 90
        0
102
RTVSPost2010PropOp40
 70
     1
102
RTVSPost2010Prop41ColorIndex
 90
       18
102
RTVSPost2010Prop41ColorRGB
 90
        0
102
RTVSPost2010PropOp41
 70
     1
102
RTVSPost2010Prop42
 90
       50
102
RTVSPost2010PropOp42
 70
     1
102
RTVSPost2010Prop43
 90
        3
102
RTVSPost2010PropOp43
 70
     1
102
RTVSPost2010Prop44ColorIndex
 90
        5
102
RTVSPost2010Prop44ColorRGB
 90
      255
102
RTVSPost2010PropOp44
 70
     1
102
RTVSPost2010Prop45
280
     0
102
RTVSPost2010PropOp45
 70
     1
102
RTVSPost2010Prop46
 90
       50
102
RTVSPost2010PropOp46
 70
     1
102
RTVSPost2010Prop47
 90
       50
102
RTVSPost2010PropOp47
 70
     1
102
RTVSPost2010Prop48
 90
       50
102
RTVSPost2010PropOp48
 70
     1
102
RTVSPost2010Prop49
280
     0
102
RTVSPost2010PropOp49
 70
     1
102
RTVSPost2010Prop50
 90
       50
102
RTVSPost2010PropOp50
 70
     1
102
RTVSPost2010Prop51ColorIndex
 90
      256
102
RTVSPost2010Prop51ColorRGB
 90
-16777216
102
RTVSPost2010PropOp51
 70
     0
102
RTVSPost2010Prop52
140
1.0
102
RTVSPost2010PropOp52
 70
     0
102
RTVSPost2010Prop53
 90
        2
102
RTVSPost2010PropOp53
 70
     1
102
RTVSPost2010Prop54
  1
strokes_ogs.tif
102
RTVSPost2010PropOp54
 70
     1
102
RTVSPost2010Prop55
280
     0
102
RTVSPost2010PropOp55
 70
     1
102
RTVSPost2010Prop56
140
1.0
102
RTVSPost2010PropOp56
 70
     1
102
RTVSPost2010Prop57
140
1.0
102
RTVSPost2010PropOp57
 70
     1
  0
XRECORD
  5
EB6
102
{ACAD_REACTORS
330
EB5
102
}
330
EB5
100
AcDbXrecord
280
     1
102
RTVSPost2010Prop28
280
     0
102
RTVSPost2010PropOp28
 70
     1
102
RTVSPost2010Prop29
280
     1
102
RTVSPost2010PropOp29
 70
     1
102
RTVSPost2010Prop30
280
     1
102
RTVSPost2010PropOp30
 70
     1
102
RTVSPost2010Prop31
280
     0
102
RTVSPost2010PropOp31
 70
     1
102
RTVSPost2010Prop32
280
     0
102
RTVSPost2010PropOp32
 70
     1
102
RTVSPost2010Prop33
280
     0
102
RTVSPost2010PropOp33
 70
     1
102
RTVSPost2010Prop34
280
     0
102
RTVSPost2010PropOp34
 70
     1
102
RTVSPost2010Prop35
280
     0
102
RTVSPost2010PropOp35
 70
     1
102
RTVSPost2010Prop36
280
     0
102
RTVSPost2010PropOp36
 70
     1
102
RTVSPost2010Prop37
 90
       50
102
RTVSPost2010PropOp37
 70
     1
102
RTVSPost2010Prop38
140
0.0
102
RTVSPost2010PropOp38
 70
     1
102
RTVSPost2010Prop39
140
1.0
102
RTVSPost2010PropOp39
 70
     1
102
RTVSPost2010Prop40
 90
        0
102
RTVSPost2010PropOp40
 70
     1
102
RTVSPost2010Prop41ColorIndex
 90
       18
102
RTVSPost2010Prop41ColorRGB
 90
        0
102
RTVSPost2010PropOp41
 70
     1
102
RTVSPost2010Prop42
 90
       50
102
RTVSPost2010PropOp42
 70
     1
102
RTVSPost2010Prop43
 90
        3
102
RTVSPost2010PropOp43
 70
     1
102
RTVSPost2010Prop44ColorIndex
 90
        5
102
RTVSPost2010Prop44ColorRGB
 90
      255
102
RTVSPost2010PropOp44
 70
     1
102
RTVSPost2010Prop45
280
     0
102
RTVSPost2010PropOp45
 70
     1
102
RTVSPost2010Prop46
 90
       50
102
RTVSPost2010PropOp46
 70
     1
102
RTVSPost2010Prop47
 90
       50
102
RTVSPost2010PropOp47
 70
     1
102
RTVSPost2010Prop48
 90
       50
102
RTVSPost2010PropOp48
 70
     1
102
RTVSPost2010Prop49
280
     0
102
RTVSPost2010PropOp49
 70
     1
102
RTVSPost2010Prop50
 90
       50
102
RTVSPost2010PropOp50
 70
     1
102
RTVSPost2010Prop51ColorIndex
 90
      256
102
RTVSPost2010Prop51ColorRGB
 90
-16777216
102
RTVSPost2010PropOp51
 70
     0
102
RTVSPost2010Prop52
140
1.0
102
RTVSPost2010PropOp52
 70
     0
102
RTVSPost2010Prop53
 90
        2
102
RTVSPost2010PropOp53
 70
     1
102
RTVSPost2010Prop54
  1
strokes_ogs.tif
102
RTVSPost2010PropOp54
 70
     1
102
RTVSPost2010Prop55
280
     0
102
RTVSPost2010PropOp55
 70
     1
102
RTVSPost2010Prop56
140
1.0
102
RTVSPost2010PropOp56
 70
     1
102
RTVSPost2010Prop57
140
1.0
102
RTVSPost2010PropOp57
 70
     1
  0
XRECORD
  5
EBA
102
{ACAD_REACTORS
330
EB9
102
}
330
EB9
100
AcDbXrecord
280
     1
102
RTVSPost2010Prop28
280
     0
102
RTVSPost2010PropOp28
 70
     1
102
RTVSPost2010Prop29
280
     1
102
RTVSPost2010PropOp29
 70
     1
102
RTVSPost2010Prop30
280
     1
102
RTVSPost2010PropOp30
 70
     1
102
RTVSPost2010Prop31
280
     0
102
RTVSPost2010PropOp31
 70
     1
102
RTVSPost2010Prop32
280
     0
102
RTVSPost2010PropOp32
 70
     1
102
RTVSPost2010Prop33
280
     0
102
RTVSPost2010PropOp33
 70
     1
102
RTVSPost2010Prop34
280
     0
102
RTVSPost2010PropOp34
 70
     1
102
RTVSPost2010Prop35
280
     0
102
RTVSPost2010PropOp35
 70
     1
102
RTVSPost2010Prop36
280
     0
102
RTVSPost2010PropOp36
 70
     1
102
RTVSPost2010Prop37
 90
       50
102
RTVSPost2010PropOp37
 70
     1
102
RTVSPost2010Prop38
140
0.0
102
RTVSPost2010PropOp38
 70
     1
102
RTVSPost2010Prop39
140
1.0
102
RTVSPost2010PropOp39
 70
     1
102
RTVSPost2010Prop40
 90
        0
102
RTVSPost2010PropOp40
 70
     1
102
RTVSPost2010Prop41ColorIndex
 90
       18
102
RTVSPost2010Prop41ColorRGB
 90
        0
102
RTVSPost2010PropOp41
 70
     1
102
RTVSPost2010Prop42
 90
       50
102
RTVSPost2010PropOp42
 70
     1
102
RTVSPost2010Prop43
 90
        3
102
RTVSPost2010PropOp43
 70
     1
102
RTVSPost2010Prop44ColorIndex
 90
        5
102
RTVSPost2010Prop44ColorRGB
 90
      255
102
RTVSPost2010PropOp44
 70
     1
102
RTVSPost2010Prop45
280
     0
102
RTVSPost2010PropOp45
 70
     1
102
RTVSPost2010Prop46
 90
       50
102
RTVSPost2010PropOp46
 70
     1
102
RTVSPost2010Prop47
 90
       50
102
RTVSPost2010PropOp47
 70
     1
102
RTVSPost2010Prop48
 90
       50
102
RTVSPost2010PropOp48
 70
     1
102
RTVSPost2010Prop49
280
     0
102
RTVSPost2010PropOp49
 70
     1
102
RTVSPost2010Prop50
 90
       50
102
RTVSPost2010PropOp50
 70
     1
102
RTVSPost2010Prop51ColorIndex
 90
      256
102
RTVSPost2010Prop51ColorRGB
 90
-16777216
102
RTVSPost2010PropOp51
 70
     0
102
RTVSPost2010Prop52
140
1.0
102
RTVSPost2010PropOp52
 70
     0
102
RTVSPost2010Prop53
 90
        2
102
RTVSPost2010PropOp53
 70
     1
102
RTVSPost2010Prop54
  1
strokes_ogs.tif
102
RTVSPost2010PropOp54
 70
     1
102
RTVSPost2010Prop55
280
     0
102
RTVSPost2010PropOp55
 70
     1
102
RTVSPost2010Prop56
140
1.0
102
RTVSPost2010PropOp56
 70
     1
102
RTVSPost2010Prop57
140
1.0
102
RTVSPost2010PropOp57
 70
     1
  0
XRECORD
  5
ED8
102
{ACAD_REACTORS
330
ED7
102
}
330
ED7
100
AcDbXrecord
280
     1
102
RTVSPost2010Prop28
280
     0
102
RTVSPost2010PropOp28
 70
     0
102
RTVSPost2010Prop29
280
     1
102
RTVSPost2010PropOp29
 70
     0
102
RTVSPost2010Prop30
280
     1
102
RTVSPost2010PropOp30
 70
     0
102
RTVSPost2010Prop31
280
     0
102
RTVSPost2010PropOp31
 70
     0
102
RTVSPost2010Prop32
280
     0
102
RTVSPost2010PropOp32
 70
     0
102
RTVSPost2010Prop33
280
     0
102
RTVSPost2010PropOp33
 70
     0
102
RTVSPost2010Prop34
280
     0
102
RTVSPost2010PropOp34
 70
     0
102
RTVSPost2010Prop35
280
     0
102
RTVSPost2010PropOp35
 70
     0
102
RTVSPost2010Prop36
280
     0
102
RTVSPost2010PropOp36
 70
     0
102
RTVSPost2010Prop37
 90
       50
102
RTVSPost2010PropOp37
 70
     0
102
RTVSPost2010Prop38
140
0.0
102
RTVSPost2010PropOp38
 70
     0
102
RTVSPost2010Prop39
140
1.0
102
RTVSPost2010PropOp39
 70
     0
102
RTVSPost2010Prop40
 90
        0
102
RTVSPost2010PropOp40
 70
     0
102
RTVSPost2010Prop41ColorIndex
 90
       18
102
RTVSPost2010Prop41ColorRGB
 90
        0
102
RTVSPost2010PropOp41
 70
     0
102
RTVSPost2010Prop42
 90
       50
102
RTVSPost2010PropOp42
 70
     0
102
RTVSPost2010Prop43
 90
        3
102
RTVSPost2010PropOp43
 70
     0
102
RTVSPost2010Prop44ColorIndex
 90
        5
102
RTVSPost2010Prop44ColorRGB
 90
      255
102
RTVSPost2010PropOp44
 70
     0
102
RTVSPost2010Prop45
280
     0
102
RTVSPost2010PropOp45
 70
     0
102
RTVSPost2010Prop46
 90
       50
102
RTVSPost2010PropOp46
 70
     0
102
RTVSPost2010Prop47
 90
       50
102
RTVSPost2010PropOp47
 70
     0
102
RTVSPost2010Prop48
 90
       50
102
RTVSPost2010PropOp48
 70
     0
102
RTVSPost2010Prop49
280
     0
102
RTVSPost2010PropOp49
 70
     0
102
RTVSPost2010Prop50
 90
       50
102
RTVSPost2010PropOp50
 70
     0
102
RTVSPost2010Prop51ColorIndex
 90
      256
102
RTVSPost2010Prop51ColorRGB
 90
-16777216
102
RTVSPost2010PropOp51
 70
     0
102
RTVSPost2010Prop52
140
1.0
102
RTVSPost2010PropOp52
 70
     0
102
RTVSPost2010Prop53
 90
        2
102
RTVSPost2010PropOp53
 70
     0
102
RTVSPost2010Prop54
  1
strokes_ogs.tif
102
RTVSPost2010PropOp54
 70
     0
102
RTVSPost2010Prop55
280
     0
102
RTVSPost2010PropOp55
 70
     0
102
RTVSPost2010Prop56
140
1.0
102
RTVSPost2010PropOp56
 70
     0
102
RTVSPost2010Prop57
140
1.0
102
RTVSPost2010PropOp57
 70
     0
  0
XRECORD
  5
EC2
102
{ACAD_REACTORS
330
EC1
102
}
330
EC1
100
AcDbXrecord
280
     1
102
RTVSPost2010Prop28
280
     0
102
RTVSPost2010PropOp28
 70
     1
102
RTVSPost2010Prop29
280
     1
102
RTVSPost2010PropOp29
 70
     1
102
RTVSPost2010Prop30
280
     1
102
RTVSPost2010PropOp30
 70
     1
102
RTVSPost2010Prop31
280
     0
102
RTVSPost2010PropOp31
 70
     1
102
RTVSPost2010Prop32
280
     0
102
RTVSPost2010PropOp32
 70
     1
102
RTVSPost2010Prop33
280
     0
102
RTVSPost2010PropOp33
 70
     1
102
RTVSPost2010Prop34
280
     0
102
RTVSPost2010PropOp34
 70
     1
102
RTVSPost2010Prop35
280
     0
102
RTVSPost2010PropOp35
 70
     1
102
RTVSPost2010Prop36
280
     0
102
RTVSPost2010PropOp36
 70
     1
102
RTVSPost2010Prop37
 90
       50
102
RTVSPost2010PropOp37
 70
     1
102
RTVSPost2010Prop38
140
0.0
102
RTVSPost2010PropOp38
 70
     1
102
RTVSPost2010Prop39
140
1.0
102
RTVSPost2010PropOp39
 70
     1
102
RTVSPost2010Prop40
 90
        0
102
RTVSPost2010PropOp40
 70
     1
102
RTVSPost2010Prop41ColorIndex
 90
       18
102
RTVSPost2010Prop41ColorRGB
 90
        0
102
RTVSPost2010PropOp41
 70
     1
102
RTVSPost2010Prop42
 90
       50
102
RTVSPost2010PropOp42
 70
     1
102
RTVSPost2010Prop43
 90
        3
102
RTVSPost2010PropOp43
 70
     1
102
RTVSPost2010Prop44ColorIndex
 90
        5
102
RTVSPost2010Prop44ColorRGB
 90
      255
102
RTVSPost2010PropOp44
 70
     1
102
RTVSPost2010Prop45
280
     0
102
RTVSPost2010PropOp45
 70
     1
102
RTVSPost2010Prop46
 90
       50
102
RTVSPost2010PropOp46
 70
     1
102
RTVSPost2010Prop47
 90
       50
102
RTVSPost2010PropOp47
 70
     1
102
RTVSPost2010Prop48
 90
       50
102
RTVSPost2010PropOp48
 70
     1
102
RTVSPost2010Prop49
280
     0
102
RTVSPost2010PropOp49
 70
     1
102
RTVSPost2010Prop50
 90
       50
102
RTVSPost2010PropOp50
 70
     1
102
RTVSPost2010Prop51ColorIndex
 90
      256
102
RTVSPost2010Prop51ColorRGB
 90
-16777216
102
RTVSPost2010PropOp51
 70
     0
102
RTVSPost2010Prop52
140
1.0
102
RTVSPost2010PropOp52
 70
     0
102
RTVSPost2010Prop53
 90
        2
102
RTVSPost2010PropOp53
 70
     1
102
RTVSPost2010Prop54
  1
strokes_ogs.tif
102
RTVSPost2010PropOp54
 70
     1
102
RTVSPost2010Prop55
280
     0
102
RTVSPost2010PropOp55
 70
     1
102
RTVSPost2010Prop56
140
1.0
102
RTVSPost2010PropOp56
 70
     1
102
RTVSPost2010Prop57
140
1.0
102
RTVSPost2010PropOp57
 70
     1
  0
XRECORD
  5
EA6
102
{ACAD_REACTORS
330
EA5
102
}
330
EA5
100
AcDbXrecord
280
     1
102
RTVSPost2010Prop28
280
     0
102
RTVSPost2010PropOp28
 70
     1
102
RTVSPost2010Prop29
280
     1
102
RTVSPost2010PropOp29
 70
     1
102
RTVSPost2010Prop30
280
     1
102
RTVSPost2010PropOp30
 70
     1
102
RTVSPost2010Prop31
280
     0
102
RTVSPost2010PropOp31
 70
     1
102
RTVSPost2010Prop32
280
     0
102
RTVSPost2010PropOp32
 70
     1
102
RTVSPost2010Prop33
280
     0
102
RTVSPost2010PropOp33
 70
     1
102
RTVSPost2010Prop34
280
     0
102
RTVSPost2010PropOp34
 70
     1
102
RTVSPost2010Prop35
280
     0
102
RTVSPost2010PropOp35
 70
     1
102
RTVSPost2010Prop36
280
     0
102
RTVSPost2010PropOp36
 70
     1
102
RTVSPost2010Prop37
 90
       50
102
RTVSPost2010PropOp37
 70
     1
102
RTVSPost2010Prop38
140
0.0
102
RTVSPost2010PropOp38
 70
     1
102
RTVSPost2010Prop39
140
1.0
102
RTVSPost2010PropOp39
 70
     1
102
RTVSPost2010Prop40
 90
        0
102
RTVSPost2010PropOp40
 70
     1
102
RTVSPost2010Prop41ColorIndex
 90
       18
102
RTVSPost2010Prop41ColorRGB
 90
        0
102
RTVSPost2010PropOp41
 70
     1
102
RTVSPost2010Prop42
 90
       50
102
RTVSPost2010PropOp42
 70
     1
102
RTVSPost2010Prop43
 90
        3
102
RTVSPost2010PropOp43
 70
     1
102
RTVSPost2010Prop44ColorIndex
 90
        5
102
RTVSPost2010Prop44ColorRGB
 90
      255
102
RTVSPost2010PropOp44
 70
     1
102
RTVSPost2010Prop45
280
     0
102
RTVSPost2010PropOp45
 70
     1
102
RTVSPost2010Prop46
 90
       50
102
RTVSPost2010PropOp46
 70
     1
102
RTVSPost2010Prop47
 90
       50
102
RTVSPost2010PropOp47
 70
     1
102
RTVSPost2010Prop48
 90
       50
102
RTVSPost2010PropOp48
 70
     1
102
RTVSPost2010Prop49
280
     0
102
RTVSPost2010PropOp49
 70
     1
102
RTVSPost2010Prop50
 90
       50
102
RTVSPost2010PropOp50
 70
     1
102
RTVSPost2010Prop51ColorIndex
 90
      256
102
RTVSPost2010Prop51ColorRGB
 90
-16777216
102
RTVSPost2010PropOp51
 70
     0
102
RTVSPost2010Prop52
140
1.0
102
RTVSPost2010PropOp52
 70
     0
102
RTVSPost2010Prop53
 90
        2
102
RTVSPost2010PropOp53
 70
     1
102
RTVSPost2010Prop54
  1
strokes_ogs.tif
102
RTVSPost2010PropOp54
 70
     1
102
RTVSPost2010Prop55
280
     0
102
RTVSPost2010PropOp55
 70
     1
102
RTVSPost2010Prop56
140
1.0
102
RTVSPost2010PropOp56
 70
     1
102
RTVSPost2010Prop57
140
1.0
102
RTVSPost2010PropOp57
 70
     1
  0
XRECORD
  5
EA8
102
{ACAD_REACTORS
330
EA7
102
}
330
EA7
100
AcDbXrecord
280
     1
102
RTVSPost2010Prop28
280
     0
102
RTVSPost2010PropOp28
 70
     1
102
RTVSPost2010Prop29
280
     1
102
RTVSPost2010PropOp29
 70
     1
102
RTVSPost2010Prop30
280
     1
102
RTVSPost2010PropOp30
 70
     1
102
RTVSPost2010Prop31
280
     0
102
RTVSPost2010PropOp31
 70
     1
102
RTVSPost2010Prop32
280
     0
102
RTVSPost2010PropOp32
 70
     1
102
RTVSPost2010Prop33
280
     0
102
RTVSPost2010PropOp33
 70
     1
102
RTVSPost2010Prop34
280
     0
102
RTVSPost2010PropOp34
 70
     1
102
RTVSPost2010Prop35
280
     0
102
RTVSPost2010PropOp35
 70
     1
102
RTVSPost2010Prop36
280
     0
102
RTVSPost2010PropOp36
 70
     1
102
RTVSPost2010Prop37
 90
       50
102
RTVSPost2010PropOp37
 70
     1
102
RTVSPost2010Prop38
140
0.0
102
RTVSPost2010PropOp38
 70
     1
102
RTVSPost2010Prop39
140
1.0
102
RTVSPost2010PropOp39
 70
     1
102
RTVSPost2010Prop40
 90
        0
102
RTVSPost2010PropOp40
 70
     1
102
RTVSPost2010Prop41ColorIndex
 90
       18
102
RTVSPost2010Prop41ColorRGB
 90
        0
102
RTVSPost2010PropOp41
 70
     1
102
RTVSPost2010Prop42
 90
       50
102
RTVSPost2010PropOp42
 70
     1
102
RTVSPost2010Prop43
 90
        3
102
RTVSPost2010PropOp43
 70
     1
102
RTVSPost2010Prop44ColorIndex
 90
        5
102
RTVSPost2010Prop44ColorRGB
 90
      255
102
RTVSPost2010PropOp44
 70
     1
102
RTVSPost2010Prop45
280
     0
102
RTVSPost2010PropOp45
 70
     1
102
RTVSPost2010Prop46
 90
       50
102
RTVSPost2010PropOp46
 70
     1
102
RTVSPost2010Prop47
 90
       50
102
RTVSPost2010PropOp47
 70
     1
102
RTVSPost2010Prop48
 90
       50
102
RTVSPost2010PropOp48
 70
     1
102
RTVSPost2010Prop49
280
     0
102
RTVSPost2010PropOp49
 70
     1
102
RTVSPost2010Prop50
 90
       50
102
RTVSPost2010PropOp50
 70
     1
102
RTVSPost2010Prop51ColorIndex
 90
      256
102
RTVSPost2010Prop51ColorRGB
 90
-16777216
102
RTVSPost2010PropOp51
 70
     0
102
RTVSPost2010Prop52
140
1.0
102
RTVSPost2010PropOp52
 70
     0
102
RTVSPost2010Prop53
 90
        2
102
RTVSPost2010PropOp53
 70
     1
102
RTVSPost2010Prop54
  1
strokes_ogs.tif
102
RTVSPost2010PropOp54
 70
     1
102
RTVSPost2010Prop55
280
     0
102
RTVSPost2010PropOp55
 70
     1
102
RTVSPost2010Prop56
140
1.0
102
RTVSPost2010PropOp56
 70
     1
102
RTVSPost2010Prop57
140
1.0
102
RTVSPost2010PropOp57
 70
     1
  0
XRECORD
  5
EAA
102
{ACAD_REACTORS
330
EA9
102
}
330
EA9
100
AcDbXrecord
280
     1
102
RTVSPost2010Prop28
280
     0
102
RTVSPost2010PropOp28
 70
     1
102
RTVSPost2010Prop29
280
     1
102
RTVSPost2010PropOp29
 70
     1
102
RTVSPost2010Prop30
280
     1
102
RTVSPost2010PropOp30
 70
     1
102
RTVSPost2010Prop31
280
     0
102
RTVSPost2010PropOp31
 70
     1
102
RTVSPost2010Prop32
280
     0
102
RTVSPost2010PropOp32
 70
     1
102
RTVSPost2010Prop33
280
     0
102
RTVSPost2010PropOp33
 70
     1
102
RTVSPost2010Prop34
280
     0
102
RTVSPost2010PropOp34
 70
     1
102
RTVSPost2010Prop35
280
     0
102
RTVSPost2010PropOp35
 70
     1
102
RTVSPost2010Prop36
280
     0
102
RTVSPost2010PropOp36
 70
     1
102
RTVSPost2010Prop37
 90
       50
102
RTVSPost2010PropOp37
 70
     1
102
RTVSPost2010Prop38
140
0.0
102
RTVSPost2010PropOp38
 70
     1
102
RTVSPost2010Prop39
140
1.0
102
RTVSPost2010PropOp39
 70
     1
102
RTVSPost2010Prop40
 90
        0
102
RTVSPost2010PropOp40
 70
     1
102
RTVSPost2010Prop41ColorIndex
 90
       18
102
RTVSPost2010Prop41ColorRGB
 90
        0
102
RTVSPost2010PropOp41
 70
     1
102
RTVSPost2010Prop42
 90
       50
102
RTVSPost2010PropOp42
 70
     1
102
RTVSPost2010Prop43
 90
        3
102
RTVSPost2010PropOp43
 70
     1
102
RTVSPost2010Prop44ColorIndex
 90
        5
102
RTVSPost2010Prop44ColorRGB
 90
      255
102
RTVSPost2010PropOp44
 70
     1
102
RTVSPost2010Prop45
280
     0
102
RTVSPost2010PropOp45
 70
     1
102
RTVSPost2010Prop46
 90
       50
102
RTVSPost2010PropOp46
 70
     1
102
RTVSPost2010Prop47
 90
       50
102
RTVSPost2010PropOp47
 70
     1
102
RTVSPost2010Prop48
 90
       50
102
RTVSPost2010PropOp48
 70
     1
102
RTVSPost2010Prop49
280
     0
102
RTVSPost2010PropOp49
 70
     1
102
RTVSPost2010Prop50
 90
       50
102
RTVSPost2010PropOp50
 70
     1
102
RTVSPost2010Prop51ColorIndex
 90
      256
102
RTVSPost2010Prop51ColorRGB
 90
-16777216
102
RTVSPost2010PropOp51
 70
     0
102
RTVSPost2010Prop52
140
1.0
102
RTVSPost2010PropOp52
 70
     0
102
RTVSPost2010Prop53
 90
        2
102
RTVSPost2010PropOp53
 70
     1
102
RTVSPost2010Prop54
  1
strokes_ogs.tif
102
RTVSPost2010PropOp54
 70
     1
102
RTVSPost2010Prop55
280
     0
102
RTVSPost2010PropOp55
 70
     1
102
RTVSPost2010Prop56
140
1.0
102
RTVSPost2010PropOp56
 70
     1
102
RTVSPost2010Prop57
140
1.0
102
RTVSPost2010PropOp57
 70
     1
  0
XRECORD
  5
EAC
102
{ACAD_REACTORS
330
EAB
102
}
330
EAB
100
AcDbXrecord
280
     1
102
RTVSPost2010Prop28
280
     0
102
RTVSPost2010PropOp28
 70
     1
102
RTVSPost2010Prop29
280
     1
102
RTVSPost2010PropOp29
 70
     1
102
RTVSPost2010Prop30
280
     1
102
RTVSPost2010PropOp30
 70
     1
102
RTVSPost2010Prop31
280
     0
102
RTVSPost2010PropOp31
 70
     1
102
RTVSPost2010Prop32
280
     0
102
RTVSPost2010PropOp32
 70
     1
102
RTVSPost2010Prop33
280
     0
102
RTVSPost2010PropOp33
 70
     1
102
RTVSPost2010Prop34
280
     0
102
RTVSPost2010PropOp34
 70
     1
102
RTVSPost2010Prop35
280
     0
102
RTVSPost2010PropOp35
 70
     1
102
RTVSPost2010Prop36
280
     0
102
RTVSPost2010PropOp36
 70
     1
102
RTVSPost2010Prop37
 90
       50
102
RTVSPost2010PropOp37
 70
     1
102
RTVSPost2010Prop38
140
0.0
102
RTVSPost2010PropOp38
 70
     1
102
RTVSPost2010Prop39
140
1.0
102
RTVSPost2010PropOp39
 70
     1
102
RTVSPost2010Prop40
 90
        0
102
RTVSPost2010PropOp40
 70
     1
102
RTVSPost2010Prop41ColorIndex
 90
       18
102
RTVSPost2010Prop41ColorRGB
 90
        0
102
RTVSPost2010PropOp41
 70
     1
102
RTVSPost2010Prop42
 90
       50
102
RTVSPost2010PropOp42
 70
     1
102
RTVSPost2010Prop43
 90
        3
102
RTVSPost2010PropOp43
 70
     1
102
RTVSPost2010Prop44ColorIndex
 90
        5
102
RTVSPost2010Prop44ColorRGB
 90
      255
102
RTVSPost2010PropOp44
 70
     1
102
RTVSPost2010Prop45
280
     0
102
RTVSPost2010PropOp45
 70
     1
102
RTVSPost2010Prop46
 90
       50
102
RTVSPost2010PropOp46
 70
     1
102
RTVSPost2010Prop47
 90
       50
102
RTVSPost2010PropOp47
 70
     1
102
RTVSPost2010Prop48
 90
       50
102
RTVSPost2010PropOp48
 70
     1
102
RTVSPost2010Prop49
280
     0
102
RTVSPost2010PropOp49
 70
     1
102
RTVSPost2010Prop50
 90
       50
102
RTVSPost2010PropOp50
 70
     1
102
RTVSPost2010Prop51ColorIndex
 90
      256
102
RTVSPost2010Prop51ColorRGB
 90
-16777216
102
RTVSPost2010PropOp51
 70
     0
102
RTVSPost2010Prop52
140
1.0
102
RTVSPost2010PropOp52
 70
     0
102
RTVSPost2010Prop53
 90
        2
102
RTVSPost2010PropOp53
 70
     1
102
RTVSPost2010Prop54
  1
strokes_ogs.tif
102
RTVSPost2010PropOp54
 70
     1
102
RTVSPost2010Prop55
280
     0
102
RTVSPost2010PropOp55
 70
     1
102
RTVSPost2010Prop56
140
1.0
102
RTVSPost2010PropOp56
 70
     1
102
RTVSPost2010Prop57
140
1.0
102
RTVSPost2010PropOp57
 70
     1
  0
XRECORD
  5
EC8
102
{ACAD_REACTORS
330
EC7
102
}
330
EC7
100
AcDbXrecord
280
     1
102
RTVSPost2010Prop28
280
     0
102
RTVSPost2010PropOp28
 70
     1
102
RTVSPost2010Prop29
280
     1
102
RTVSPost2010PropOp29
 70
     1
102
RTVSPost2010Prop30
280
     1
102
RTVSPost2010PropOp30
 70
     1
102
RTVSPost2010Prop31
280
     0
102
RTVSPost2010PropOp31
 70
     1
102
RTVSPost2010Prop32
280
     0
102
RTVSPost2010PropOp32
 70
     1
102
RTVSPost2010Prop33
280
     0
102
RTVSPost2010PropOp33
 70
     1
102
RTVSPost2010Prop34
280
     0
102
RTVSPost2010PropOp34
 70
     1
102
RTVSPost2010Prop35
280
     0
102
RTVSPost2010PropOp35
 70
     1
102
RTVSPost2010Prop36
280
     0
102
RTVSPost2010PropOp36
 70
     1
102
RTVSPost2010Prop37
 90
       50
102
RTVSPost2010PropOp37
 70
     1
102
RTVSPost2010Prop38
140
0.0
102
RTVSPost2010PropOp38
 70
     1
102
RTVSPost2010Prop39
140
1.0
102
RTVSPost2010PropOp39
 70
     1
102
RTVSPost2010Prop40
 90
        0
102
RTVSPost2010PropOp40
 70
     1
102
RTVSPost2010Prop41ColorIndex
 90
       18
102
RTVSPost2010Prop41ColorRGB
 90
        0
102
RTVSPost2010PropOp41
 70
     1
102
RTVSPost2010Prop42
 90
       50
102
RTVSPost2010PropOp42
 70
     1
102
RTVSPost2010Prop43
 90
        3
102
RTVSPost2010PropOp43
 70
     1
102
RTVSPost2010Prop44ColorIndex
 90
        5
102
RTVSPost2010Prop44ColorRGB
 90
      255
102
RTVSPost2010PropOp44
 70
     1
102
RTVSPost2010Prop45
280
     0
102
RTVSPost2010PropOp45
 70
     1
102
RTVSPost2010Prop46
 90
       50
102
RTVSPost2010PropOp46
 70
     1
102
RTVSPost2010Prop47
 90
       50
102
RTVSPost2010PropOp47
 70
     1
102
RTVSPost2010Prop48
 90
       50
102
RTVSPost2010PropOp48
 70
     1
102
RTVSPost2010Prop49
280
     0
102
RTVSPost2010PropOp49
 70
     1
102
RTVSPost2010Prop50
 90
       50
102
RTVSPost2010PropOp50
 70
     1
102
RTVSPost2010Prop51ColorIndex
 90
      256
102
RTVSPost2010Prop51ColorRGB
 90
-16777216
102
RTVSPost2010PropOp51
 70
     0
102
RTVSPost2010Prop52
140
1.0
102
RTVSPost2010PropOp52
 70
     0
102
RTVSPost2010Prop53
 90
        2
102
RTVSPost2010PropOp53
 70
     1
102
RTVSPost2010Prop54
  1
strokes_ogs.tif
102
RTVSPost2010PropOp54
 70
     1
102
RTVSPost2010Prop55
280
     0
102
RTVSPost2010PropOp55
 70
     1
102
RTVSPost2010Prop56
140
1.0
102
RTVSPost2010PropOp56
 70
     1
102
RTVSPost2010Prop57
140
1.0
102
RTVSPost2010PropOp57
 70
     1
  0
XRECORD
  5
ED4
102
{ACAD_REACTORS
330
ED3
102
}
330
ED3
100
AcDbXrecord
280
     1
102
RTVSPost2010Prop28
280
     0
102
RTVSPost2010PropOp28
 70
     0
102
RTVSPost2010Prop29
280
     1
102
RTVSPost2010PropOp29
 70
     0
102
RTVSPost2010Prop30
280
     1
102
RTVSPost2010PropOp30
 70
     0
102
RTVSPost2010Prop31
280
     0
102
RTVSPost2010PropOp31
 70
     0
102
RTVSPost2010Prop32
280
     0
102
RTVSPost2010PropOp32
 70
     0
102
RTVSPost2010Prop33
280
     0
102
RTVSPost2010PropOp33
 70
     0
102
RTVSPost2010Prop34
280
     0
102
RTVSPost2010PropOp34
 70
     0
102
RTVSPost2010Prop35
280
     0
102
RTVSPost2010PropOp35
 70
     0
102
RTVSPost2010Prop36
280
     0
102
RTVSPost2010PropOp36
 70
     0
102
RTVSPost2010Prop37
 90
       50
102
RTVSPost2010PropOp37
 70
     0
102
RTVSPost2010Prop38
140
0.0
102
RTVSPost2010PropOp38
 70
     0
102
RTVSPost2010Prop39
140
1.0
102
RTVSPost2010PropOp39
 70
     0
102
RTVSPost2010Prop40
 90
        0
102
RTVSPost2010PropOp40
 70
     0
102
RTVSPost2010Prop41ColorIndex
 90
       18
102
RTVSPost2010Prop41ColorRGB
 90
        0
102
RTVSPost2010PropOp41
 70
     0
102
RTVSPost2010Prop42
 90
       50
102
RTVSPost2010PropOp42
 70
     0
102
RTVSPost2010Prop43
 90
        3
102
RTVSPost2010PropOp43
 70
     0
102
RTVSPost2010Prop44ColorIndex
 90
        5
102
RTVSPost2010Prop44ColorRGB
 90
      255
102
RTVSPost2010PropOp44
 70
     0
102
RTVSPost2010Prop45
280
     0
102
RTVSPost2010PropOp45
 70
     0
102
RTVSPost2010Prop46
 90
       50
102
RTVSPost2010PropOp46
 70
     0
102
RTVSPost2010Prop47
 90
       50
102
RTVSPost2010PropOp47
 70
     0
102
RTVSPost2010Prop48
 90
       50
102
RTVSPost2010PropOp48
 70
     0
102
RTVSPost2010Prop49
280
     0
102
RTVSPost2010PropOp49
 70
     0
102
RTVSPost2010Prop50
 90
       50
102
RTVSPost2010PropOp50
 70
     0
102
RTVSPost2010Prop51ColorIndex
 90
      256
102
RTVSPost2010Prop51ColorRGB
 90
-16777216
102
RTVSPost2010PropOp51
 70
     0
102
RTVSPost2010Prop52
140
1.0
102
RTVSPost2010PropOp52
 70
     0
102
RTVSPost2010Prop53
 90
        2
102
RTVSPost2010PropOp53
 70
     0
102
RTVSPost2010Prop54
  1
strokes_ogs.tif
102
RTVSPost2010PropOp54
 70
     0
102
RTVSPost2010Prop55
280
     0
102
RTVSPost2010PropOp55
 70
     0
102
RTVSPost2010Prop56
140
1.0
102
RTVSPost2010PropOp56
 70
     0
102
RTVSPost2010Prop57
140
1.0
102
RTVSPost2010PropOp57
 70
     0
  0
XRECORD
  5
EC0
102
{ACAD_REACTORS
330
EBF
102
}
330
EBF
100
AcDbXrecord
280
     1
102
RTVSPost2010Prop28
280
     0
102
RTVSPost2010PropOp28
 70
     1
102
RTVSPost2010Prop29
280
     1
102
RTVSPost2010PropOp29
 70
     1
102
RTVSPost2010Prop30
280
     1
102
RTVSPost2010PropOp30
 70
     1
102
RTVSPost2010Prop31
280
     0
102
RTVSPost2010PropOp31
 70
     1
102
RTVSPost2010Prop32
280
     0
102
RTVSPost2010PropOp32
 70
     1
102
RTVSPost2010Prop33
280
     0
102
RTVSPost2010PropOp33
 70
     1
102
RTVSPost2010Prop34
280
     0
102
RTVSPost2010PropOp34
 70
     1
102
RTVSPost2010Prop35
280
     0
102
RTVSPost2010PropOp35
 70
     1
102
RTVSPost2010Prop36
280
     0
102
RTVSPost2010PropOp36
 70
     1
102
RTVSPost2010Prop37
 90
       50
102
RTVSPost2010PropOp37
 70
     1
102
RTVSPost2010Prop38
140
0.0
102
RTVSPost2010PropOp38
 70
     1
102
RTVSPost2010Prop39
140
1.0
102
RTVSPost2010PropOp39
 70
     1
102
RTVSPost2010Prop40
 90
        0
102
RTVSPost2010PropOp40
 70
     1
102
RTVSPost2010Prop41ColorIndex
 90
       18
102
RTVSPost2010Prop41ColorRGB
 90
        0
102
RTVSPost2010PropOp41
 70
     1
102
RTVSPost2010Prop42
 90
       50
102
RTVSPost2010PropOp42
 70
     1
102
RTVSPost2010Prop43
 90
        3
102
RTVSPost2010PropOp43
 70
     1
102
RTVSPost2010Prop44ColorIndex
 90
        5
102
RTVSPost2010Prop44ColorRGB
 90
      255
102
RTVSPost2010PropOp44
 70
     1
102
RTVSPost2010Prop45
280
     0
102
RTVSPost2010PropOp45
 70
     1
102
RTVSPost2010Prop46
 90
       50
102
RTVSPost2010PropOp46
 70
     1
102
RTVSPost2010Prop47
 90
       50
102
RTVSPost2010PropOp47
 70
     1
102
RTVSPost2010Prop48
 90
       50
102
RTVSPost2010PropOp48
 70
     1
102
RTVSPost2010Prop49
280
     0
102
RTVSPost2010PropOp49
 70
     1
102
RTVSPost2010Prop50
 90
       50
102
RTVSPost2010PropOp50
 70
     1
102
RTVSPost2010Prop51ColorIndex
 90
      256
102
RTVSPost2010Prop51ColorRGB
 90
-16777216
102
RTVSPost2010PropOp51
 70
     0
102
RTVSPost2010Prop52
140
1.0
102
RTVSPost2010PropOp52
 70
     0
102
RTVSPost2010Prop53
 90
        2
102
RTVSPost2010PropOp53
 70
     1
102
RTVSPost2010Prop54
  1
strokes_ogs.tif
102
RTVSPost2010PropOp54
 70
     1
102
RTVSPost2010Prop55
280
     0
102
RTVSPost2010PropOp55
 70
     1
102
RTVSPost2010Prop56
140
1.0
102
RTVSPost2010PropOp56
 70
     1
102
RTVSPost2010Prop57
140
1.0
102
RTVSPost2010PropOp57
 70
     1
  0
XRECORD
  5
ED6
102
{ACAD_REACTORS
330
ED5
102
}
330
ED5
100
AcDbXrecord
280
     1
102
RTVSPost2010Prop28
280
     0
102
RTVSPost2010PropOp28
 70
     0
102
RTVSPost2010Prop29
280
     1
102
RTVSPost2010PropOp29
 70
     0
102
RTVSPost2010Prop30
280
     1
102
RTVSPost2010PropOp30
 70
     0
102
RTVSPost2010Prop31
280
     0
102
RTVSPost2010PropOp31
 70
     0
102
RTVSPost2010Prop32
280
     0
102
RTVSPost2010PropOp32
 70
     0
102
RTVSPost2010Prop33
280
     0
102
RTVSPost2010PropOp33
 70
     0
102
RTVSPost2010Prop34
280
     0
102
RTVSPost2010PropOp34
 70
     0
102
RTVSPost2010Prop35
280
     0
102
RTVSPost2010PropOp35
 70
     0
102
RTVSPost2010Prop36
280
     0
102
RTVSPost2010PropOp36
 70
     0
102
RTVSPost2010Prop37
 90
       50
102
RTVSPost2010PropOp37
 70
     0
102
RTVSPost2010Prop38
140
0.0
102
RTVSPost2010PropOp38
 70
     0
102
RTVSPost2010Prop39
140
1.0
102
RTVSPost2010PropOp39
 70
     0
102
RTVSPost2010Prop40
 90
        0
102
RTVSPost2010PropOp40
 70
     0
102
RTVSPost2010Prop41ColorIndex
 90
       18
102
RTVSPost2010Prop41ColorRGB
 90
        0
102
RTVSPost2010PropOp41
 70
     0
102
RTVSPost2010Prop42
 90
       50
102
RTVSPost2010PropOp42
 70
     0
102
RTVSPost2010Prop43
 90
        3
102
RTVSPost2010PropOp43
 70
     0
102
RTVSPost2010Prop44ColorIndex
 90
        5
102
RTVSPost2010Prop44ColorRGB
 90
      255
102
RTVSPost2010PropOp44
 70
     0
102
RTVSPost2010Prop45
280
     0
102
RTVSPost2010PropOp45
 70
     0
102
RTVSPost2010Prop46
 90
       50
102
RTVSPost2010PropOp46
 70
     0
102
RTVSPost2010Prop47
 90
       50
102
RTVSPost2010PropOp47
 70
     0
102
RTVSPost2010Prop48
 90
       50
102
RTVSPost2010PropOp48
 70
     0
102
RTVSPost2010Prop49
280
     0
102
RTVSPost2010PropOp49
 70
     0
102
RTVSPost2010Prop50
 90
       50
102
RTVSPost2010PropOp50
 70
     0
102
RTVSPost2010Prop51ColorIndex
 90
      256
102
RTVSPost2010Prop51ColorRGB
 90
-16777216
102
RTVSPost2010PropOp51
 70
     0
102
RTVSPost2010Prop52
140
1.0
102
RTVSPost2010PropOp52
 70
     0
102
RTVSPost2010Prop53
 90
        2
102
RTVSPost2010PropOp53
 70
     0
102
RTVSPost2010Prop54
  1
strokes_ogs.tif
102
RTVSPost2010PropOp54
 70
     0
102
RTVSPost2010Prop55
280
     0
102
RTVSPost2010PropOp55
 70
     0
102
RTVSPost2010Prop56
140
1.0
102
RTVSPost2010PropOp56
 70
     0
102
RTVSPost2010Prop57
140
1.0
102
RTVSPost2010PropOp57
 70
     0
  0
XRECORD
  5
EB8
102
{ACAD_REACTORS
330
EB7
102
}
330
EB7
100
AcDbXrecord
280
     1
102
RTVSPost2010Prop28
280
     0
102
RTVSPost2010PropOp28
 70
     1
102
RTVSPost2010Prop29
280
     1
102
RTVSPost2010PropOp29
 70
     1
102
RTVSPost2010Prop30
280
     1
102
RTVSPost2010PropOp30
 70
     1
102
RTVSPost2010Prop31
280
     0
102
RTVSPost2010PropOp31
 70
     1
102
RTVSPost2010Prop32
280
     0
102
RTVSPost2010PropOp32
 70
     1
102
RTVSPost2010Prop33
280
     0
102
RTVSPost2010PropOp33
 70
     1
102
RTVSPost2010Prop34
280
     0
102
RTVSPost2010PropOp34
 70
     1
102
RTVSPost2010Prop35
280
     0
102
RTVSPost2010PropOp35
 70
     1
102
RTVSPost2010Prop36
280
     0
102
RTVSPost2010PropOp36
 70
     1
102
RTVSPost2010Prop37
 90
       50
102
RTVSPost2010PropOp37
 70
     1
102
RTVSPost2010Prop38
140
0.0
102
RTVSPost2010PropOp38
 70
     1
102
RTVSPost2010Prop39
140
1.0
102
RTVSPost2010PropOp39
 70
     1
102
RTVSPost2010Prop40
 90
        0
102
RTVSPost2010PropOp40
 70
     1
102
RTVSPost2010Prop41ColorIndex
 90
       18
102
RTVSPost2010Prop41ColorRGB
 90
        0
102
RTVSPost2010PropOp41
 70
     1
102
RTVSPost2010Prop42
 90
       50
102
RTVSPost2010PropOp42
 70
     1
102
RTVSPost2010Prop43
 90
        3
102
RTVSPost2010PropOp43
 70
     1
102
RTVSPost2010Prop44ColorIndex
 90
        5
102
RTVSPost2010Prop44ColorRGB
 90
      255
102
RTVSPost2010PropOp44
 70
     1
102
RTVSPost2010Prop45
280
     0
102
RTVSPost2010PropOp45
 70
     1
102
RTVSPost2010Prop46
 90
       50
102
RTVSPost2010PropOp46
 70
     1
102
RTVSPost2010Prop47
 90
       50
102
RTVSPost2010PropOp47
 70
     1
102
RTVSPost2010Prop48
 90
       50
102
RTVSPost2010PropOp48
 70
     1
102
RTVSPost2010Prop49
280
     0
102
RTVSPost2010PropOp49
 70
     1
102
RTVSPost2010Prop50
 90
       50
102
RTVSPost2010PropOp50
 70
     1
102
RTVSPost2010Prop51ColorIndex
 90
      256
102
RTVSPost2010Prop51ColorRGB
 90
-16777216
102
RTVSPost2010PropOp51
 70
     0
102
RTVSPost2010Prop52
140
1.0
102
RTVSPost2010PropOp52
 70
     0
102
RTVSPost2010Prop53
 90
        2
102
RTVSPost2010PropOp53
 70
     1
102
RTVSPost2010Prop54
  1
strokes_ogs.tif
102
RTVSPost2010PropOp54
 70
     1
102
RTVSPost2010Prop55
280
     0
102
RTVSPost2010PropOp55
 70
     1
102
RTVSPost2010Prop56
140
1.0
102
RTVSPost2010PropOp56
 70
     1
102
RTVSPost2010Prop57
140
1.0
102
RTVSPost2010PropOp57
 70
     1
  0
XRECORD
  5
ED2
102
{ACAD_REACTORS
330
ED1
102
}
330
ED1
100
AcDbXrecord
280
     1
102
RTVSPost2010Prop28
280
     0
102
RTVSPost2010PropOp28
 70
     1
102
RTVSPost2010Prop29
280
     1
102
RTVSPost2010PropOp29
 70
     1
102
RTVSPost2010Prop30
280
     1
102
RTVSPost2010PropOp30
 70
     1
102
RTVSPost2010Prop31
280
     0
102
RTVSPost2010PropOp31
 70
     1
102
RTVSPost2010Prop32
280
     0
102
RTVSPost2010PropOp32
 70
     1
102
RTVSPost2010Prop33
280
     0
102
RTVSPost2010PropOp33
 70
     1
102
RTVSPost2010Prop34
280
     0
102
RTVSPost2010PropOp34
 70
     1
102
RTVSPost2010Prop35
280
     0
102
RTVSPost2010PropOp35
 70
     1
102
RTVSPost2010Prop36
280
     0
102
RTVSPost2010PropOp36
 70
     1
102
RTVSPost2010Prop37
 90
       50
102
RTVSPost2010PropOp37
 70
     1
102
RTVSPost2010Prop38
140
0.0
102
RTVSPost2010PropOp38
 70
     1
102
RTVSPost2010Prop39
140
1.0
102
RTVSPost2010PropOp39
 70
     1
102
RTVSPost2010Prop40
 90
        0
102
RTVSPost2010PropOp40
 70
     1
102
RTVSPost2010Prop41ColorIndex
 90
       18
102
RTVSPost2010Prop41ColorRGB
 90
        0
102
RTVSPost2010PropOp41
 70
     1
102
RTVSPost2010Prop42
 90
       50
102
RTVSPost2010PropOp42
 70
     1
102
RTVSPost2010Prop43
 90
        3
102
RTVSPost2010PropOp43
 70
     1
102
RTVSPost2010Prop44ColorIndex
 90
        5
102
RTVSPost2010Prop44ColorRGB
 90
      255
102
RTVSPost2010PropOp44
 70
     1
102
RTVSPost2010Prop45
280
     0
102
RTVSPost2010PropOp45
 70
     1
102
RTVSPost2010Prop46
 90
       50
102
RTVSPost2010PropOp46
 70
     1
102
RTVSPost2010Prop47
 90
       50
102
RTVSPost2010PropOp47
 70
     1
102
RTVSPost2010Prop48
 90
       50
102
RTVSPost2010PropOp48
 70
     1
102
RTVSPost2010Prop49
280
     0
102
RTVSPost2010PropOp49
 70
     1
102
RTVSPost2010Prop50
 90
       50
102
RTVSPost2010PropOp50
 70
     1
102
RTVSPost2010Prop51ColorIndex
 90
      256
102
RTVSPost2010Prop51ColorRGB
 90
-16777216
102
RTVSPost2010PropOp51
 70
     0
102
RTVSPost2010Prop52
140
1.0
102
RTVSPost2010PropOp52
 70
     0
102
RTVSPost2010Prop53
 90
        2
102
RTVSPost2010PropOp53
 70
     1
102
RTVSPost2010Prop54
  1
strokes_ogs.tif
102
RTVSPost2010PropOp54
 70
     1
102
RTVSPost2010Prop55
280
     0
102
RTVSPost2010PropOp55
 70
     1
102
RTVSPost2010Prop56
140
1.0
102
RTVSPost2010PropOp56
 70
     1
102
RTVSPost2010Prop57
140
1.0
102
RTVSPost2010PropOp57
 70
     1
  0
XRECORD
  5
ED0
102
{ACAD_REACTORS
330
ECF
102
}
330
ECF
100
AcDbXrecord
280
     1
102
RTVSPost2010Prop28
280
     0
102
RTVSPost2010PropOp28
 70
     1
102
RTVSPost2010Prop29
280
     1
102
RTVSPost2010PropOp29
 70
     1
102
RTVSPost2010Prop30
280
     1
102
RTVSPost2010PropOp30
 70
     1
102
RTVSPost2010Prop31
280
     0
102
RTVSPost2010PropOp31
 70
     1
102
RTVSPost2010Prop32
280
     0
102
RTVSPost2010PropOp32
 70
     1
102
RTVSPost2010Prop33
280
     0
102
RTVSPost2010PropOp33
 70
     1
102
RTVSPost2010Prop34
280
     0
102
RTVSPost2010PropOp34
 70
     1
102
RTVSPost2010Prop35
280
     0
102
RTVSPost2010PropOp35
 70
     1
102
RTVSPost2010Prop36
280
     0
102
RTVSPost2010PropOp36
 70
     1
102
RTVSPost2010Prop37
 90
       50
102
RTVSPost2010PropOp37
 70
     1
102
RTVSPost2010Prop38
140
0.0
102
RTVSPost2010PropOp38
 70
     1
102
RTVSPost2010Prop39
140
1.0
102
RTVSPost2010PropOp39
 70
     1
102
RTVSPost2010Prop40
 90
        0
102
RTVSPost2010PropOp40
 70
     1
102
RTVSPost2010Prop41ColorIndex
 90
       18
102
RTVSPost2010Prop41ColorRGB
 90
        0
102
RTVSPost2010PropOp41
 70
     1
102
RTVSPost2010Prop42
 90
       50
102
RTVSPost2010PropOp42
 70
     1
102
RTVSPost2010Prop43
 90
        3
102
RTVSPost2010PropOp43
 70
     1
102
RTVSPost2010Prop44ColorIndex
 90
        5
102
RTVSPost2010Prop44ColorRGB
 90
      255
102
RTVSPost2010PropOp44
 70
     1
102
RTVSPost2010Prop45
280
     0
102
RTVSPost2010PropOp45
 70
     1
102
RTVSPost2010Prop46
 90
       50
102
RTVSPost2010PropOp46
 70
     1
102
RTVSPost2010Prop47
 90
       50
102
RTVSPost2010PropOp47
 70
     1
102
RTVSPost2010Prop48
 90
       50
102
RTVSPost2010PropOp48
 70
     1
102
RTVSPost2010Prop49
280
     0
102
RTVSPost2010PropOp49
 70
     1
102
RTVSPost2010Prop50
 90
       50
102
RTVSPost2010PropOp50
 70
     1
102
RTVSPost2010Prop51ColorIndex
 90
      256
102
RTVSPost2010Prop51ColorRGB
 90
-16777216
102
RTVSPost2010PropOp51
 70
     0
102
RTVSPost2010Prop52
140
1.0
102
RTVSPost2010PropOp52
 70
     0
102
RTVSPost2010Prop53
 90
        2
102
RTVSPost2010PropOp53
 70
     1
102
RTVSPost2010Prop54
  1
strokes_ogs.tif
102
RTVSPost2010PropOp54
 70
     1
102
RTVSPost2010Prop55
280
     0
102
RTVSPost2010PropOp55
 70
     1
102
RTVSPost2010Prop56
140
1.0
102
RTVSPost2010PropOp56
 70
     1
102
RTVSPost2010Prop57
140
1.0
102
RTVSPost2010PropOp57
 70
     1
  0
XRECORD
  5
ECA
102
{ACAD_REACTORS
330
EC9
102
}
330
EC9
100
AcDbXrecord
280
     1
102
RTVSPost2010Prop28
280
     0
102
RTVSPost2010PropOp28
 70
     1
102
RTVSPost2010Prop29
280
     1
102
RTVSPost2010PropOp29
 70
     1
102
RTVSPost2010Prop30
280
     1
102
RTVSPost2010PropOp30
 70
     1
102
RTVSPost2010Prop31
280
     0
102
RTVSPost2010PropOp31
 70
     1
102
RTVSPost2010Prop32
280
     0
102
RTVSPost2010PropOp32
 70
     1
102
RTVSPost2010Prop33
280
     0
102
RTVSPost2010PropOp33
 70
     1
102
RTVSPost2010Prop34
280
     0
102
RTVSPost2010PropOp34
 70
     1
102
RTVSPost2010Prop35
280
     0
102
RTVSPost2010PropOp35
 70
     1
102
RTVSPost2010Prop36
280
     0
102
RTVSPost2010PropOp36
 70
     1
102
RTVSPost2010Prop37
 90
       50
102
RTVSPost2010PropOp37
 70
     1
102
RTVSPost2010Prop38
140
0.0
102
RTVSPost2010PropOp38
 70
     1
102
RTVSPost2010Prop39
140
1.0
102
RTVSPost2010PropOp39
 70
     1
102
RTVSPost2010Prop40
 90
        0
102
RTVSPost2010PropOp40
 70
     1
102
RTVSPost2010Prop41ColorIndex
 90
       18
102
RTVSPost2010Prop41ColorRGB
 90
        0
102
RTVSPost2010PropOp41
 70
     1
102
RTVSPost2010Prop42
 90
       50
102
RTVSPost2010PropOp42
 70
     1
102
RTVSPost2010Prop43
 90
        3
102
RTVSPost2010PropOp43
 70
     1
102
RTVSPost2010Prop44ColorIndex
 90
        5
102
RTVSPost2010Prop44ColorRGB
 90
      255
102
RTVSPost2010PropOp44
 70
     1
102
RTVSPost2010Prop45
280
     0
102
RTVSPost2010PropOp45
 70
     1
102
RTVSPost2010Prop46
 90
       50
102
RTVSPost2010PropOp46
 70
     1
102
RTVSPost2010Prop47
 90
       50
102
RTVSPost2010PropOp47
 70
     1
102
RTVSPost2010Prop48
 90
       50
102
RTVSPost2010PropOp48
 70
     1
102
RTVSPost2010Prop49
280
     0
102
RTVSPost2010PropOp49
 70
     1
102
RTVSPost2010Prop50
 90
       50
102
RTVSPost2010PropOp50
 70
     1
102
RTVSPost2010Prop51ColorIndex
 90
      256
102
RTVSPost2010Prop51ColorRGB
 90
-16777216
102
RTVSPost2010PropOp51
 70
     0
102
RTVSPost2010Prop52
140
1.0
102
RTVSPost2010PropOp52
 70
     0
102
RTVSPost2010Prop53
 90
        2
102
RTVSPost2010PropOp53
 70
     1
102
RTVSPost2010Prop54
  1
strokes_ogs.tif
102
RTVSPost2010PropOp54
 70
     1
102
RTVSPost2010Prop55
280
     0
102
RTVSPost2010PropOp55
 70
     1
102
RTVSPost2010Prop56
140
1.0
102
RTVSPost2010PropOp56
 70
     1
102
RTVSPost2010Prop57
140
1.0
102
RTVSPost2010PropOp57
 70
     1
  0
XRECORD
  5
ECC
102
{ACAD_REACTORS
330
ECB
102
}
330
ECB
100
AcDbXrecord
280
     1
102
RTVSPost2010Prop28
280
     0
102
RTVSPost2010PropOp28
 70
     1
102
RTVSPost2010Prop29
280
     1
102
RTVSPost2010PropOp29
 70
     1
102
RTVSPost2010Prop30
280
     1
102
RTVSPost2010PropOp30
 70
     1
102
RTVSPost2010Prop31
280
     0
102
RTVSPost2010PropOp31
 70
     1
102
RTVSPost2010Prop32
280
     0
102
RTVSPost2010PropOp32
 70
     1
102
RTVSPost2010Prop33
280
     0
102
RTVSPost2010PropOp33
 70
     1
102
RTVSPost2010Prop34
280
     0
102
RTVSPost2010PropOp34
 70
     1
102
RTVSPost2010Prop35
280
     0
102
RTVSPost2010PropOp35
 70
     1
102
RTVSPost2010Prop36
280
     0
102
RTVSPost2010PropOp36
 70
     1
102
RTVSPost2010Prop37
 90
       50
102
RTVSPost2010PropOp37
 70
     1
102
RTVSPost2010Prop38
140
0.0
102
RTVSPost2010PropOp38
 70
     1
102
RTVSPost2010Prop39
140
1.0
102
RTVSPost2010PropOp39
 70
     1
102
RTVSPost2010Prop40
 90
        0
102
RTVSPost2010PropOp40
 70
     1
102
RTVSPost2010Prop41ColorIndex
 90
       18
102
RTVSPost2010Prop41ColorRGB
 90
        0
102
RTVSPost2010PropOp41
 70
     1
102
RTVSPost2010Prop42
 90
       50
102
RTVSPost2010PropOp42
 70
     1
102
RTVSPost2010Prop43
 90
        3
102
RTVSPost2010PropOp43
 70
     1
102
RTVSPost2010Prop44ColorIndex
 90
        5
102
RTVSPost2010Prop44ColorRGB
 90
      255
102
RTVSPost2010PropOp44
 70
     1
102
RTVSPost2010Prop45
280
     0
102
RTVSPost2010PropOp45
 70
     1
102
RTVSPost2010Prop46
 90
       50
102
RTVSPost2010PropOp46
 70
     1
102
RTVSPost2010Prop47
 90
       50
102
RTVSPost2010PropOp47
 70
     1
102
RTVSPost2010Prop48
 90
       50
102
RTVSPost2010PropOp48
 70
     1
102
RTVSPost2010Prop49
280
     0
102
RTVSPost2010PropOp49
 70
     1
102
RTVSPost2010Prop50
 90
       50
102
RTVSPost2010PropOp50
 70
     1
102
RTVSPost2010Prop51ColorIndex
 90
      256
102
RTVSPost2010Prop51ColorRGB
 90
-16777216
102
RTVSPost2010PropOp51
 70
     0
102
RTVSPost2010Prop52
140
1.0
102
RTVSPost2010PropOp52
 70
     0
102
RTVSPost2010Prop53
 90
        2
102
RTVSPost2010PropOp53
 70
     1
102
RTVSPost2010Prop54
  1
strokes_ogs.tif
102
RTVSPost2010PropOp54
 70
     1
102
RTVSPost2010Prop55
280
     0
102
RTVSPost2010PropOp55
 70
     1
102
RTVSPost2010Prop56
140
1.0
102
RTVSPost2010PropOp56
 70
     1
102
RTVSPost2010Prop57
140
1.0
102
RTVSPost2010PropOp57
 70
     1
  0
XRECORD
  5
EBE
102
{ACAD_REACTORS
330
EBD
102
}
330
EBD
100
AcDbXrecord
280
     1
102
RTVSPost2010Prop28
280
     0
102
RTVSPost2010PropOp28
 70
     1
102
RTVSPost2010Prop29
280
     1
102
RTVSPost2010PropOp29
 70
     1
102
RTVSPost2010Prop30
280
     1
102
RTVSPost2010PropOp30
 70
     1
102
RTVSPost2010Prop31
280
     0
102
RTVSPost2010PropOp31
 70
     1
102
RTVSPost2010Prop32
280
     0
102
RTVSPost2010PropOp32
 70
     1
102
RTVSPost2010Prop33
280
     0
102
RTVSPost2010PropOp33
 70
     1
102
RTVSPost2010Prop34
280
     0
102
RTVSPost2010PropOp34
 70
     1
102
RTVSPost2010Prop35
280
     0
102
RTVSPost2010PropOp35
 70
     1
102
RTVSPost2010Prop36
280
     0
102
RTVSPost2010PropOp36
 70
     1
102
RTVSPost2010Prop37
 90
       50
102
RTVSPost2010PropOp37
 70
     1
102
RTVSPost2010Prop38
140
0.0
102
RTVSPost2010PropOp38
 70
     1
102
RTVSPost2010Prop39
140
1.0
102
RTVSPost2010PropOp39
 70
     1
102
RTVSPost2010Prop40
 90
        0
102
RTVSPost2010PropOp40
 70
     1
102
RTVSPost2010Prop41ColorIndex
 90
       18
102
RTVSPost2010Prop41ColorRGB
 90
        0
102
RTVSPost2010PropOp41
 70
     1
102
RTVSPost2010Prop42
 90
       50
102
RTVSPost2010PropOp42
 70
     1
102
RTVSPost2010Prop43
 90
        3
102
RTVSPost2010PropOp43
 70
     1
102
RTVSPost2010Prop44ColorIndex
 90
        5
102
RTVSPost2010Prop44ColorRGB
 90
      255
102
RTVSPost2010PropOp44
 70
     1
102
RTVSPost2010Prop45
280
     0
102
RTVSPost2010PropOp45
 70
     1
102
RTVSPost2010Prop46
 90
       50
102
RTVSPost2010PropOp46
 70
     1
102
RTVSPost2010Prop47
 90
       50
102
RTVSPost2010PropOp47
 70
     1
102
RTVSPost2010Prop48
 90
       50
102
RTVSPost2010PropOp48
 70
     1
102
RTVSPost2010Prop49
280
     0
102
RTVSPost2010PropOp49
 70
     1
102
RTVSPost2010Prop50
 90
       50
102
RTVSPost2010PropOp50
 70
     1
102
RTVSPost2010Prop51ColorIndex
 90
      256
102
RTVSPost2010Prop51ColorRGB
 90
-16777216
102
RTVSPost2010PropOp51
 70
     0
102
RTVSPost2010Prop52
140
1.0
102
RTVSPost2010PropOp52
 70
     0
102
RTVSPost2010Prop53
 90
        2
102
RTVSPost2010PropOp53
 70
     1
102
RTVSPost2010Prop54
  1
strokes_ogs.tif
102
RTVSPost2010PropOp54
 70
     1
102
RTVSPost2010Prop55
280
     0
102
RTVSPost2010PropOp55
 70
     1
102
RTVSPost2010Prop56
140
1.0
102
RTVSPost2010PropOp56
 70
     1
102
RTVSPost2010Prop57
140
1.0
102
RTVSPost2010PropOp57
 70
     1
  0
XRECORD
  5
EC6
102
{ACAD_REACTORS
330
EC5
102
}
330
EC5
100
AcDbXrecord
280
     1
102
RTVSPost2010Prop28
280
     0
102
RTVSPost2010PropOp28
 70
     1
102
RTVSPost2010Prop29
280
     1
102
RTVSPost2010PropOp29
 70
     1
102
RTVSPost2010Prop30
280
     1
102
RTVSPost2010PropOp30
 70
     1
102
RTVSPost2010Prop31
280
     0
102
RTVSPost2010PropOp31
 70
     1
102
RTVSPost2010Prop32
280
     0
102
RTVSPost2010PropOp32
 70
     1
102
RTVSPost2010Prop33
280
     0
102
RTVSPost2010PropOp33
 70
     1
102
RTVSPost2010Prop34
280
     0
102
RTVSPost2010PropOp34
 70
     1
102
RTVSPost2010Prop35
280
     0
102
RTVSPost2010PropOp35
 70
     1
102
RTVSPost2010Prop36
280
     0
102
RTVSPost2010PropOp36
 70
     1
102
RTVSPost2010Prop37
 90
       50
102
RTVSPost2010PropOp37
 70
     1
102
RTVSPost2010Prop38
140
0.0
102
RTVSPost2010PropOp38
 70
     1
102
RTVSPost2010Prop39
140
1.0
102
RTVSPost2010PropOp39
 70
     1
102
RTVSPost2010Prop40
 90
        0
102
RTVSPost2010PropOp40
 70
     1
102
RTVSPost2010Prop41ColorIndex
 90
       18
102
RTVSPost2010Prop41ColorRGB
 90
        0
102
RTVSPost2010PropOp41
 70
     1
102
RTVSPost2010Prop42
 90
       50
102
RTVSPost2010PropOp42
 70
     1
102
RTVSPost2010Prop43
 90
        3
102
RTVSPost2010PropOp43
 70
     1
102
RTVSPost2010Prop44ColorIndex
 90
        5
102
RTVSPost2010Prop44ColorRGB
 90
      255
102
RTVSPost2010PropOp44
 70
     1
102
RTVSPost2010Prop45
280
     0
102
RTVSPost2010PropOp45
 70
     1
102
RTVSPost2010Prop46
 90
       50
102
RTVSPost2010PropOp46
 70
     1
102
RTVSPost2010Prop47
 90
       50
102
RTVSPost2010PropOp47
 70
     1
102
RTVSPost2010Prop48
 90
       50
102
RTVSPost2010PropOp48
 70
     1
102
RTVSPost2010Prop49
280
     0
102
RTVSPost2010PropOp49
 70
     1
102
RTVSPost2010Prop50
 90
       50
102
RTVSPost2010PropOp50
 70
     1
102
RTVSPost2010Prop51ColorIndex
 90
      256
102
RTVSPost2010Prop51ColorRGB
 90
-16777216
102
RTVSPost2010PropOp51
 70
     0
102
RTVSPost2010Prop52
140
1.0
102
RTVSPost2010PropOp52
 70
     0
102
RTVSPost2010Prop53
 90
        2
102
RTVSPost2010PropOp53
 70
     1
102
RTVSPost2010Prop54
  1
strokes_ogs.tif
102
RTVSPost2010PropOp54
 70
     1
102
RTVSPost2010Prop55
280
     0
102
RTVSPost2010PropOp55
 70
     1
102
RTVSPost2010Prop56
140
1.0
102
RTVSPost2010PropOp56
 70
     1
102
RTVSPost2010Prop57
140
1.0
102
RTVSPost2010PropOp57
 70
     1
  0
XRECORD
  5
ECE
102
{ACAD_REACTORS
330
ECD
102
}
330
ECD
100
AcDbXrecord
280
     1
102
RTVSPost2010Prop28
280
     0
102
RTVSPost2010PropOp28
 70
     1
102
RTVSPost2010Prop29
280
     1
102
RTVSPost2010PropOp29
 70
     1
102
RTVSPost2010Prop30
280
     1
102
RTVSPost2010PropOp30
 70
     1
102
RTVSPost2010Prop31
280
     0
102
RTVSPost2010PropOp31
 70
     1
102
RTVSPost2010Prop32
280
     0
102
RTVSPost2010PropOp32
 70
     1
102
RTVSPost2010Prop33
280
     0
102
RTVSPost2010PropOp33
 70
     1
102
RTVSPost2010Prop34
280
     0
102
RTVSPost2010PropOp34
 70
     1
102
RTVSPost2010Prop35
280
     0
102
RTVSPost2010PropOp35
 70
     1
102
RTVSPost2010Prop36
280
     0
102
RTVSPost2010PropOp36
 70
     1
102
RTVSPost2010Prop37
 90
       50
102
RTVSPost2010PropOp37
 70
     1
102
RTVSPost2010Prop38
140
0.0
102
RTVSPost2010PropOp38
 70
     1
102
RTVSPost2010Prop39
140
1.0
102
RTVSPost2010PropOp39
 70
     1
102
RTVSPost2010Prop40
 90
        0
102
RTVSPost2010PropOp40
 70
     1
102
RTVSPost2010Prop41ColorIndex
 90
       18
102
RTVSPost2010Prop41ColorRGB
 90
        0
102
RTVSPost2010PropOp41
 70
     1
102
RTVSPost2010Prop42
 90
       50
102
RTVSPost2010PropOp42
 70
     1
102
RTVSPost2010Prop43
 90
        3
102
RTVSPost2010PropOp43
 70
     1
102
RTVSPost2010Prop44ColorIndex
 90
        5
102
RTVSPost2010Prop44ColorRGB
 90
      255
102
RTVSPost2010PropOp44
 70
     1
102
RTVSPost2010Prop45
280
     0
102
RTVSPost2010PropOp45
 70
     1
102
RTVSPost2010Prop46
 90
       50
102
RTVSPost2010PropOp46
 70
     1
102
RTVSPost2010Prop47
 90
       50
102
RTVSPost2010PropOp47
 70
     1
102
RTVSPost2010Prop48
 90
       50
102
RTVSPost2010PropOp48
 70
     1
102
RTVSPost2010Prop49
280
     0
102
RTVSPost2010PropOp49
 70
     1
102
RTVSPost2010Prop50
 90
       50
102
RTVSPost2010PropOp50
 70
     1
102
RTVSPost2010Prop51ColorIndex
 90
      256
102
RTVSPost2010Prop51ColorRGB
 90
-16777216
102
RTVSPost2010PropOp51
 70
     0
102
RTVSPost2010Prop52
140
1.0
102
RTVSPost2010PropOp52
 70
     0
102
RTVSPost2010Prop53
 90
        2
102
RTVSPost2010PropOp53
 70
     1
102
RTVSPost2010Prop54
  1
strokes_ogs.tif
102
RTVSPost2010PropOp54
 70
     1
102
RTVSPost2010Prop55
280
     0
102
RTVSPost2010PropOp55
 70
     1
102
RTVSPost2010Prop56
140
1.0
102
RTVSPost2010PropOp56
 70
     1
102
RTVSPost2010Prop57
140
1.0
102
RTVSPost2010PropOp57
 70
     1
  0
ENDSEC
  0
EOF
