  0
SECTION
  2
HEADER
  9
$ACADVER
  1
AC1024
  9
$ACADMAINTVER
 70
   226
  9
$DWGCODEPAGE
  3
ANSI_932
  9
$LASTSAVEDBY
  1
t-kanatani
  9
$INSBASE
 10
0.0
 20
0.0
 30
0.0
  9
$EXTMIN
 10
-1061.282046197173
 20
0.5370411512109286
 30
0.0
  9
$EXTMAX
 10
-19.28240261647579
 20
1243.33873373776
 30
0.0
  9
$LIMMIN
 10
0.0
 20
0.0
  9
$LIMMAX
 10
12.0
 20
9.0
  9
$ORTHOMODE
 70
     0
  9
$REGENMODE
 70
     1
  9
$FILLMODE
 70
     1
  9
$QTEXTMODE
 70
     0
  9
$MIRRTEXT
 70
     1
  9
$LTSCALE
 40
1.0
  9
$ATTMODE
 70
     1
  9
$TEXTSIZE
 40
0.2
  9
$TRACEWID
 40
0.05
  9
$TEXTSTYLE
  7
Standard
  9
$CLAYER
  8
0
  9
$CELTYPE
  6
ByLayer
  9
$CECOLOR
 62
   256
  9
$CELTSCALE
 40
1.0
  9
$DISPSILH
 70
     0
  9
$DIMSCALE
 40
1.0
  9
$DIMASZ
 40
0.18
  9
$DIMEXO
 40
0.0625
  9
$DIMDLI
 40
0.38
  9
$DIMRND
 40
0.0
  9
$DIMDLE
 40
0.0
  9
$DIMEXE
 40
0.18
  9
$DIMTP
 40
0.0
  9
$DIMTM
 40
0.0
  9
$DIMTXT
 40
0.18
  9
$DIMCEN
 40
0.09
  9
$DIMTSZ
 40
0.0
  9
$DIMTOL
 70
     0
  9
$DIMLIM
 70
     0
  9
$DIMTIH
 70
     1
  9
$DIMTOH
 70
     1
  9
$DIMSE1
 70
     0
  9
$DIMSE2
 70
     0
  9
$DIMTAD
 70
     0
  9
$DIMZIN
 70
     0
  9
$DIMBLK
  1

  9
$DIMASO
 70
     1
  9
$DIMSHO
 70
     1
  9
$DIMPOST
  1

  9
$DIMAPOST
  1

  9
$DIMALT
 70
     0
  9
$DIMALTD
 70
     2
  9
$DIMALTF
 40
25.4
  9
$DIMLFAC
 40
1.0
  9
$DIMTOFL
 70
     0
  9
$DIMTVP
 40
0.0
  9
$DIMTIX
 70
     0
  9
$DIMSOXD
 70
     0
  9
$DIMSAH
 70
     0
  9
$DIMBLK1
  1

  9
$DIMBLK2
  1

  9
$DIMSTYLE
  2
Standard
  9
$DIMCLRD
 70
     0
  9
$DIMCLRE
 70
     0
  9
$DIMCLRT
 70
     0
  9
$DIMTFAC
 40
1.0
  9
$DIMGAP
 40
0.09
  9
$DIMJUST
 70
     0
  9
$DIMSD1
 70
     0
  9
$DIMSD2
 70
     0
  9
$DIMTOLJ
 70
     1
  9
$DIMTZIN
 70
     0
  9
$DIMALTZ
 70
     0
  9
$DIMALTTZ
 70
     0
  9
$DIMUPT
 70
     0
  9
$DIMDEC
 70
     4
  9
$DIMTDEC
 70
     4
  9
$DIMALTU
 70
     2
  9
$DIMALTTD
 70
     2
  9
$DIMTXSTY
  7
Standard
  9
$DIMAUNIT
 70
     0
  9
$DIMADEC
 70
     0
  9
$DIMALTRND
 40
0.0
  9
$DIMAZIN
 70
     0
  9
$DIMDSEP
 70
    46
  9
$DIMATFIT
 70
     3
  9
$DIMFRAC
 70
     0
  9
$DIMLDRBLK
  1

  9
$DIMLUNIT
 70
     2
  9
$DIMLWD
 70
    -2
  9
$DIMLWE
 70
    -2
  9
$DIMTMOVE
 70
     0
  9
$DIMFXL
 40
1.0
  9
$DIMFXLON
 70
     0
  9
$DIMJOGANG
 40
0.7853981633974483
  9
$DIMTFILL
 70
     0
  9
$DIMTFILLCLR
 70
     0
  9
$DIMARCSYM
 70
     0
  9
$DIMLTYPE
  6

  9
$DIMLTEX1
  6

  9
$DIMLTEX2
  6

  9
$DIMTXTDIRECTION
 70
     0
  9
$LUNITS
 70
     2
  9
$LUPREC
 70
     4
  9
$SKETCHINC
 40
0.1
  9
$FILLETRAD
 40
0.5
  9
$AUNITS
 70
     0
  9
$AUPREC
 70
     0
  9
$MENU
  1
.
  9
$ELEVATION
 40
0.0
  9
$PELEVATION
 40
0.0
  9
$THICKNESS
 40
0.0
  9
$LIMCHECK
 70
     0
  9
$CHAMFERA
 40
0.5
  9
$CHAMFERB
 40
0.5
  9
$CHAMFERC
 40
1.0
  9
$CHAMFERD
 40
0.0
  9
$SKPOLY
 70
     0
  9
$TDCREATE
 40
2451955.172696759
  9
$TDUCREATE
 40
2451954.797696759
  9
$TDUPDATE
 40
2458905.476817130
  9
$TDUUPDATE
 40
2458905.101817130
  9
$TDINDWG
 40
0.0179475810
  9
$TDUSRTIMER
 40
0.0179474074
  9
$USRTIMER
 70
     1
  9
$ANGBASE
 50
0.0
  9
$ANGDIR
 70
     0
  9
$PDMODE
 70
     0
  9
$PDSIZE
 40
0.0
  9
$PLINEWID
 40
0.0
  9
$SPLFRAME
 70
     0
  9
$SPLINETYPE
 70
     6
  9
$SPLINESEGS
 70
     8
  9
$HANDSEED
  5
1059
  9
$SURFTAB1
 70
     6
  9
$SURFTAB2
 70
     6
  9
$SURFTYPE
 70
     6
  9
$SURFU
 70
     6
  9
$SURFV
 70
     6
  9
$UCSBASE
  2

  9
$UCSNAME
  2

  9
$UCSORG
 10
0.0
 20
0.0
 30
0.0
  9
$UCSXDIR
 10
1.0
 20
0.0
 30
0.0
  9
$UCSYDIR
 10
0.0
 20
1.0
 30
0.0
  9
$UCSORTHOREF
  2

  9
$UCSORTHOVIEW
 70
     0
  9
$UCSORGTOP
 10
0.0
 20
0.0
 30
0.0
  9
$UCSORGBOTTOM
 10
0.0
 20
0.0
 30
0.0
  9
$UCSORGLEFT
 10
0.0
 20
0.0
 30
0.0
  9
$UCSORGRIGHT
 10
0.0
 20
0.0
 30
0.0
  9
$UCSORGFRONT
 10
0.0
 20
0.0
 30
0.0
  9
$UCSORGBACK
 10
0.0
 20
0.0
 30
0.0
  9
$PUCSBASE
  2

  9
$PUCSNAME
  2

  9
$PUCSORG
 10
0.0
 20
0.0
 30
0.0
  9
$PUCSXDIR
 10
1.0
 20
0.0
 30
0.0
  9
$PUCSYDIR
 10
0.0
 20
1.0
 30
0.0
  9
$PUCSORTHOREF
  2

  9
$PUCSORTHOVIEW
 70
     0
  9
$PUCSORGTOP
 10
0.0
 20
0.0
 30
0.0
  9
$PUCSORGBOTTOM
 10
0.0
 20
0.0
 30
0.0
  9
$PUCSORGLEFT
 10
0.0
 20
0.0
 30
0.0
  9
$PUCSORGRIGHT
 10
0.0
 20
0.0
 30
0.0
  9
$PUCSORGFRONT
 10
0.0
 20
0.0
 30
0.0
  9
$PUCSORGBACK
 10
0.0
 20
0.0
 30
0.0
  9
$USERI1
 70
     0
  9
$USERI2
 70
     0
  9
$USERI3
 70
     0
  9
$USERI4
 70
     0
  9
$USERI5
 70
     0
  9
$USERR1
 40
0.0
  9
$USERR2
 40
0.0
  9
$USERR3
 40
0.0
  9
$USERR4
 40
0.0
  9
$USERR5
 40
0.0
  9
$WORLDVIEW
 70
     1
  9
$SHADEDGE
 70
     3
  9
$SHADEDIF
 70
    70
  9
$TILEMODE
 70
     1
  9
$MAXACTVP
 70
    48
  9
$PINSBASE
 10
0.0
 20
0.0
 30
0.0
  9
$PLIMCHECK
 70
     0
  9
$PEXTMIN
 10
1.049636599258096
 20
0.7996597240971113
 30
-0.0015258207003583
  9
$PEXTMAX
 10
9.450362731076971
 20
7.200340082697458
 30
0.0000000349246037
  9
$PLIMMIN
 10
-0.2500002402958907
 20
-0.2499999962453767
  9
$PLIMMAX
 10
10.74999951940821
 20
8.249999763458731
  9
$UNITMODE
 70
     0
  9
$VISRETAIN
 70
     1
  9
$PLINEGEN
 70
     0
  9
$PSLTSCALE
 70
     1
  9
$TREEDEPTH
 70
  3020
  9
$CMLSTYLE
  2
Standard
  9
$CMLJUST
 70
     0
  9
$CMLSCALE
 40
1.0
  9
$PROXYGRAPHICS
 70
     1
  9
$MEASUREMENT
 70
     0
  9
$CELWEIGHT
370
    -1
  9
$ENDCAPS
280
     0
  9
$JOINSTYLE
280
     0
  9
$LWDISPLAY
290
     0
  9
$INSUNITS
 70
     1
  9
$HYPERLINKBASE
  1

  9
$STYLESHEET
  1

  9
$XEDIT
290
     1
  9
$CEPSNTYPE
380
     0
  9
$PSTYLEMODE
290
     1
  9
$FINGERPRINTGUID
  2
{FDEAD576-A652-11D2-9A35-0060089B3A3F}
  9
$VERSIONGUID
  2
{A37F8DB2-E794-1549-8374-FB55A6338378}
  9
$EXTNAMES
290
     1
  9
$PSVPSCALE
 40
0.0
  9
$OLESTARTUP
290
     0
  9
$SORTENTS
280
   127
  9
$INDEXCTL
280
     0
  9
$HIDETEXT
280
     1
  9
$XCLIPFRAME
280
     2
  9
$HALOGAP
280
     0
  9
$OBSCOLOR
 70
   257
  9
$OBSLTYPE
280
     0
  9
$INTERSECTIONDISPLAY
280
     0
  9
$INTERSECTIONCOLOR
 70
   257
  9
$DIMASSOC
280
     2
  9
$PROJECTNAME
  1

  9
$CAMERADISPLAY
290
     0
  9
$LENSLENGTH
 40
50.0
  9
$CAMERAHEIGHT
 40
0.0
  9
$STEPSPERSEC
 40
2.0
  9
$STEPSIZE
 40
6.0
  9
$3DDWFPREC
 40
2.0
  9
$PSOLWIDTH
 40
0.25
  9
$PSOLHEIGHT
 40
4.0
  9
$LOFTANG1
 40
1.570796326794896
  9
$LOFTANG2
 40
1.570796326794896
  9
$LOFTMAG1
 40
0.0
  9
$LOFTMAG2
 40
0.0
  9
$LOFTPARAM
 70
     7
  9
$LOFTNORMALS
280
     1
  9
$LATITUDE
 40
37.795
  9
$LONGITUDE
 40
-122.394
  9
$NORTHDIRECTION
 40
0.0
  9
$TIMEZONE
 70
 -8000
  9
$LIGHTGLYPHDISPLAY
280
     1
  9
$TILEMODELIGHTSYNCH
280
     1
  9
$CMATERIAL
347
783
  9
$SOLIDHIST
280
     0
  9
$SHOWHIST
280
     1
  9
$DWFFRAME
280
     2
  9
$DGNFRAME
280
     0
  9
$REALWORLDSCALE
290
     1
  9
$INTERFERECOLOR
 62
     1
  9
$INTERFEREOBJVS
345
7A5
  9
$INTERFEREVPVS
346
8F7
  9
$CSHADOW
280
     0
  9
$SHADOWPLANELOCATION
 40
0.0
  0
ENDSEC
  0
SECTION
  2
CLASSES
  0
CLASS
  1
ACDBDICTIONARYWDFLT
  2
AcDbDictionaryWithDefault
  3
ObjectDBX Classes
 90
        0
 91
        1
280
     0
281
     0
  0
CLASS
  1
ACDBPLACEHOLDER
  2
AcDbPlaceHolder
  3
ObjectDBX Classes
 90
        0
 91
        1
280
     0
281
     0
  0
CLASS
  1
LAYOUT
  2
AcDbLayout
  3
ObjectDBX Classes
 90
        0
 91
        3
280
     0
281
     0
  0
CLASS
  1
DICTIONARYVAR
  2
AcDbDictionaryVar
  3
ObjectDBX Classes
 90
        0
 91
       13
280
     0
281
     0
  0
CLASS
  1
LONG_TRANSACTION
  2
AcDbLongTransaction
  3
ObjectDBX Classes
 90
        0
 91
        0
280
     0
281
     0
  0
CLASS
  1
LWPOLYLINE
  2
AcDbPolyline
  3
ObjectDBX Classes
 90
        0
 91
        1
280
     0
281
     1
  0
CLASS
  1
HATCH
  2
AcDbHatch
  3
ObjectDBX Classes
 90
        0
 91
        0
280
     0
281
     1
  0
CLASS
  1
XRECORD
  2
AcDbXrecord
  3
ObjectDBX Classes
 90
        0
 91
       59
280
     0
281
     0
  0
CLASS
  1
LONG_TRANSACTION
  2
AcDbLongTransaction
  3
ObjectDBX Classes
 90
        0
 91
        0
280
     0
281
     0
  0
CLASS
  1
LWPOLYLINE
  2
AcDbPolyline
  3
ObjectDBX Classes
 90
        0
 91
        1
280
     0
281
     1
  0
CLASS
  1
HATCH
  2
AcDbHatch
  3
ObjectDBX Classes
 90
        0
 91
        0
280
     0
281
     1
  0
CLASS
  1
XRECORD
  2
AcDbXrecord
  3
ObjectDBX Classes
 90
        0
 91
       59
280
     0
281
     0
  0
CLASS
  1
LONG_TRANSACTION
  2
AcDbLongTransaction
  3
ObjectDBX Classes
 90
        0
 91
        0
280
     0
281
     0
  0
CLASS
  1
LWPOLYLINE
  2
AcDbPolyline
  3
ObjectDBX Classes
 90
        0
 91
        1
280
     0
281
     1
  0
CLASS
  1
HATCH
  2
AcDbHatch
  3
ObjectDBX Classes
 90
        0
 91
        0
280
     0
281
     1
  0
CLASS
  1
XRECORD
  2
AcDbXrecord
  3
ObjectDBX Classes
 90
        0
 91
       59
280
     0
281
     0
  0
CLASS
  1
LONG_TRANSACTION
  2
AcDbLongTransaction
  3
ObjectDBX Classes
 90
        0
 91
        0
280
     0
281
     0
  0
CLASS
  1
LWPOLYLINE
  2
AcDbPolyline
  3
ObjectDBX Classes
 90
        0
 91
        1
280
     0
281
     1
  0
CLASS
  1
HATCH
  2
AcDbHatch
  3
ObjectDBX Classes
 90
        0
 91
        0
280
     0
281
     1
  0
CLASS
  1
XRECORD
  2
AcDbXrecord
  3
ObjectDBX Classes
 90
        0
 91
       59
280
     0
281
     0
  0
CLASS
  1
LONG_TRANSACTION
  2
AcDbLongTransaction
  3
ObjectDBX Classes
 90
        0
 91
        0
280
     0
281
     0
  0
CLASS
  1
LWPOLYLINE
  2
AcDbPolyline
  3
ObjectDBX Classes
 90
        0
 91
        1
280
     0
281
     1
  0
CLASS
  1
HATCH
  2
AcDbHatch
  3
ObjectDBX Classes
 90
        0
 91
        0
280
     0
281
     1
  0
CLASS
  1
XRECORD
  2
AcDbXrecord
  3
ObjectDBX Classes
 90
        0
 91
       59
280
     0
281
     0
  0
CLASS
  1
LONG_TRANSACTION
  2
AcDbLongTransaction
  3
ObjectDBX Classes
 90
        0
 91
        0
280
     0
281
     0
  0
CLASS
  1
LWPOLYLINE
  2
AcDbPolyline
  3
ObjectDBX Classes
 90
        0
 91
        1
280
     0
281
     1
  0
CLASS
  1
HATCH
  2
AcDbHatch
  3
ObjectDBX Classes
 90
        0
 91
        0
280
     0
281
     1
  0
CLASS
  1
XRECORD
  2
AcDbXrecord
  3
ObjectDBX Classes
 90
        0
 91
       59
280
     0
281
     0
  0
CLASS
  1
LONG_TRANSACTION
  2
AcDbLongTransaction
  3
ObjectDBX Classes
 90
        0
 91
        0
280
     0
281
     0
  0
CLASS
  1
LWPOLYLINE
  2
AcDbPolyline
  3
ObjectDBX Classes
 90
        0
 91
        1
280
     0
281
     1
  0
CLASS
  1
HATCH
  2
AcDbHatch
  3
ObjectDBX Classes
 90
        0
 91
        0
280
     0
281
     1
  0
CLASS
  1
XRECORD
  2
AcDbXrecord
  3
ObjectDBX Classes
 90
        0
 91
       59
280
     0
281
     0
  0
CLASS
  1
LONG_TRANSACTION
  2
AcDbLongTransaction
  3
ObjectDBX Classes
 90
        0
 91
        0
280
     0
281
     0
  0
CLASS
  1
LWPOLYLINE
  2
AcDbPolyline
  3
ObjectDBX Classes
 90
        0
 91
        1
280
     0
281
     1
  0
CLASS
  1
HATCH
  2
AcDbHatch
  3
ObjectDBX Classes
 90
        0
 91
        0
280
     0
281
     1
  0
CLASS
  1
XRECORD
  2
AcDbXrecord
  3
ObjectDBX Classes
 90
        0
 91
       59
280
     0
281
     0
  0
CLASS
  1
LONG_TRANSACTION
  2
AcDbLongTransaction
  3
ObjectDBX Classes
 90
        0
 91
        0
280
     0
281
     0
  0
CLASS
  1
LWPOLYLINE
  2
AcDbPolyline
  3
ObjectDBX Classes
 90
        0
 91
        1
280
     0
281
     1
  0
CLASS
  1
HATCH
  2
AcDbHatch
  3
ObjectDBX Classes
 90
        0
 91
        0
280
     0
281
     1
  0
CLASS
  1
XRECORD
  2
AcDbXrecord
  3
ObjectDBX Classes
 90
        0
 91
       59
280
     0
281
     0
  0
CLASS
  1
LONG_TRANSACTION
  2
AcDbLongTransaction
  3
ObjectDBX Classes
 90
        0
 91
        0
280
     0
281
     0
  0
CLASS
  1
LWPOLYLINE
  2
AcDbPolyline
  3
ObjectDBX Classes
 90
        0
 91
        1
280
     0
281
     1
  0
CLASS
  1
HATCH
  2
AcDbHatch
  3
ObjectDBX Classes
 90
        0
 91
        0
280
     0
281
     1
  0
CLASS
  1
XRECORD
  2
AcDbXrecord
  3
ObjectDBX Classes
 90
        0
 91
       59
280
     0
281
     0
  0
CLASS
  1
LONG_TRANSACTION
  2
AcDbLongTransaction
  3
ObjectDBX Classes
 90
        0
 91
        0
280
     0
281
     0
  0
CLASS
  1
LWPOLYLINE
  2
AcDbPolyline
  3
ObjectDBX Classes
 90
        0
 91
        1
280
     0
281
     1
  0
CLASS
  1
HATCH
  2
AcDbHatch
  3
ObjectDBX Classes
 90
        0
 91
        0
280
     0
281
     1
  0
CLASS
  1
XRECORD
  2
AcDbXrecord
  3
ObjectDBX Classes
 90
        0
 91
       59
280
     0
281
     0
  0
CLASS
  1
LONG_TRANSACTION
  2
AcDbLongTransaction
  3
ObjectDBX Classes
 90
        0
 91
        0
280
     0
281
     0
  0
CLASS
  1
LWPOLYLINE
  2
AcDbPolyline
  3
ObjectDBX Classes
 90
        0
 91
        1
280
     0
281
     1
  0
CLASS
  1
HATCH
  2
AcDbHatch
  3
ObjectDBX Classes
 90
        0
 91
        0
280
     0
281
     1
  0
CLASS
  1
XRECORD
  2
AcDbXrecord
  3
ObjectDBX Classes
 90
        0
 91
       59
280
     0
281
     0
  0
CLASS
  1
LONG_TRANSACTION
  2
AcDbLongTransaction
  3
ObjectDBX Classes
 90
        0
 91
        0
280
     0
281
     0
  0
CLASS
  1
LWPOLYLINE
  2
AcDbPolyline
  3
ObjectDBX Classes
 90
        0
 91
        1
280
     0
281
     1
  0
CLASS
  1
HATCH
  2
AcDbHatch
  3
ObjectDBX Classes
 90
        0
 91
        0
280
     0
281
     1
  0
CLASS
  1
XRECORD
  2
AcDbXrecord
  3
ObjectDBX Classes
 90
        0
 91
       59
280
     0
281
     0
  0
CLASS
  1
LONG_TRANSACTION
  2
AcDbLongTransaction
  3
ObjectDBX Classes
 90
        0
 91
        0
280
     0
281
     0
  0
CLASS
  1
LWPOLYLINE
  2
AcDbPolyline
  3
ObjectDBX Classes
 90
        0
 91
        1
280
     0
281
     1
  0
CLASS
  1
HATCH
  2
AcDbHatch
  3
ObjectDBX Classes
 90
        0
 91
        0
280
     0
281
     1
  0
CLASS
  1
XRECORD
  2
AcDbXrecord
  3
ObjectDBX Classes
 90
        0
 91
       59
280
     0
281
     0
  0
CLASS
  1
LONG_TRANSACTION
  2
AcDbLongTransaction
  3
ObjectDBX Classes
 90
        0
 91
        0
280
     0
281
     0
  0
CLASS
  1
LWPOLYLINE
  2
AcDbPolyline
  3
ObjectDBX Classes
 90
        0
 91
        1
280
     0
281
     1
  0
CLASS
  1
HATCH
  2
AcDbHatch
  3
ObjectDBX Classes
 90
        0
 91
        0
280
     0
281
     1
  0
CLASS
  1
XRECORD
  2
AcDbXrecord
  3
ObjectDBX Classes
 90
        0
 91
       59
280
     0
281
     0
  0
CLASS
  1
MATERIAL
  2
AcDbMaterial
  3
ObjectDBX Classes
 90
     1153
 91
        3
280
     0
281
     0
  0
CLASS
  1
VISUALSTYLE
  2
AcDbVisualStyle
  3
ObjectDBX Classes
 90
     4095
 91
       26
280
     0
281
     0
  0
CLASS
  1
TABLESTYLE
  2
AcDbTableStyle
  3
ObjectDBX Classes
 90
     4095
 91
        1
280
     0
281
     0
  0
CLASS
  1
SCALE
  2
AcDbScale
  3
ObjectDBX Classes
 90
     1153
 91
       33
280
     0
281
     0
  0
CLASS
  1
MLEADERSTYLE
  2
AcDbMLeaderStyle
  3
ACDB_MLEADERSTYLE_CLASS
 90
     4095
 91
        1
280
     0
281
     0
  0
CLASS
  1
ACME_DOCUMENT
  2
AcMeDbDoc
  3
AcMeServices
 90
     1024
 91
        0
280
     0
281
     0
  0
CLASS
  1
AMGSETTINGSOBJ
  2
AmgSettingsObj
  3
"AcadM|Product Description: AutoCAD Mechanical|Company: Autodesk, Inc."
 90
     1024
 91
        0
280
     0
281
     0
  0
CLASS
  1
ACMESCOPE
  2
AcMeScope
  3
AcMeServices
 90
     1024
 91
        0
280
     0
281
     0
  0
CLASS
  1
ACMECOMMANDHISTORY
  2
AcMeCommandHistory
  3
AcMeServices
 90
     1024
 91
        0
280
     0
281
     0
  0
CLASS
  1
ACIMSYSVARMAN
  2
AcImSysVarManager
  3
AcMeServices
 90
     1024
 91
        2
280
     0
281
     0
  0
CLASS
  1
ACIMINTSYSVAR
  2
AcImIntSysVar
  3
AcMeServices
 90
     1024
 91
        0
280
     0
281
     0
  0
CLASS
  1
ACMEDRAWINGMAN
  2
AcMeDrawingMan
  3
AcMeServices
 90
     1024
 91
        0
280
     0
281
     0
  0
CLASS
  1
ACMEVIEW
  2
AcMeView
  3
AcMeServices
 90
     1024
 91
        0
280
     0
281
     0
  0
CLASS
  1
ACDBENTITYCACHE
  2
AcMeEntityCache
  3
AcMeServices
 90
     1024
 91
        0
280
     0
281
     0
  0
CLASS
  1
GSMANAGER
  2
AcMeGSManager
  3
AcMeServices
 90
     1024
 91
        0
280
     0
281
     0
  0
CLASS
  1
AMDTINTERNALREACTOR
  2
AmdtInternalReactor
  3
AcMeServices
 90
     1024
 91
        0
280
     0
281
     0
  0
CLASS
  1
ACMESTATEMGR
  2
AcMeStateMgr
  3
AcMeServices
 90
     1024
 91
        0
280
     0
281
     0
  0
CLASS
  1
ACGREFMASTER
  2
AcGrefMaster
  3
AcAttribServices
 90
     1024
 91
        0
280
     0
281
     0
  0
CLASS
  1
AM_DRAWING_MGR
  2
AcDmDwgMgr
  3
AcMechDwgViewMgmt
 90
     1024
 91
        0
280
     0
281
     0
  0
CLASS
  1
AM_DWG_DOCUMENT
  2
AcDmDwgDocument
  3
AcMechDwgViewMgmt
 90
     1024
 91
        0
280
     0
281
     0
  0
CLASS
  1
AM_DWG_SHEET
  2
AcDmSheet
  3
AcMechDwgViewMgmt
 90
     1024
 91
        0
280
     0
281
     0
  0
CLASS
  1
AM_VIEWDIMPARMAP
  2
AcDmViewDimParMap
  3
AcMechDwgViewMgmt
 90
     1024
 91
        0
280
     0
281
     0
  0
CLASS
  1
ACIMREALSYSVAR
  2
AcImRealSysVar
  3
AcMeServices
 90
     1024
 91
        0
280
     0
281
     0
  0
CLASS
  1
AM_DWGMGR_NAME
  2
AcDmDwgMgrName
  3
AcMechDwgViewMgmt
 90
     1024
 91
        0
280
     0
281
     0
  0
CLASS
  1
ACME_DATABASE
  2
AcMeDbDatabase
  3
AcMeServices
 90
     1024
 91
        0
280
     0
281
     0
  0
CLASS
  1
ACRFINSADJUSTERMGR
  2
AcRfInsAdjusterMgr
  3
AcMeServices
 90
     1024
 91
        0
280
     0
281
     0
  0
CLASS
  1
ACGREFACADMASTER
  2
AcGrefacadMaster
  3
AcGrefServices
 90
     1024
 91
        0
280
     0
281
     0
  0
CLASS
  1
AMDTMENUSTATEMGR
  2
AmdtMenuStateMgr
  3
McadcomServices
 90
     1024
 91
        0
280
     0
281
     0
  0
CLASS
  1
AMDTMCOMMENUSTATE
  2
AmdtMcomMenuState
  3
McadcomServices
 90
     1024
 91
        0
280
     0
281
     0
  0
CLASS
  1
AMIMASTER
  2
AmiMaster
  3
AmiServices
 90
     1024
 91
        0
280
     0
281
     0
  0
CLASS
  1
MAPIAMMOUDLE
  2
MApiAmModule
  3
MApiAmServices
 90
     1024
 91
        0
280
     0
281
     0
  0
CLASS
  1
ACIMSTRSYSVAR
  2
AcImStrSysVar
  3
AcMeServices
 90
     1024
 91
        0
280
     0
281
     0
  0
CLASS
  1
AMDTADMENUSTATE
  2
AmdtAdMenuState
  3
DesignerServices
 90
     1024
 91
        0
280
     0
281
     0
  0
CLASS
  1
ADAPPL
  2
AcAdAppl
  3
DesignerServices
 90
     1024
 91
        0
280
     0
281
     0
  0
CLASS
  1
DEPMGR
  2
AcAdDepMgr
  3
DesignerServices
 90
     1024
 91
        0
280
     0
281
     0
  0
CLASS
  1
PARAMMGR
  2
AcAdParamMgr
  3
DesignerServices
 90
     1024
 91
        0
280
     0
281
     0
  0
CLASS
  1
PARAMSCOPE
  2
AcAdParamScope
  3
DesignerServices
 90
     1024
 91
        0
280
     0
281
     0
  0
CLASS
  1
NAMEDAPPL
  2
AcAdNamedAppl
  3
DesignerServices
 90
     1024
 91
        0
280
     0
281
     0
  0
CLASS
  1
AMDTDMMENUSTATE
  2
AmdtDmMenuState
  3
AcMechDwgViewMgmt
 90
     1024
 91
        0
280
     0
281
     0
  0
CLASS
  1
AMDTAMMENUSTATE
  2
AmdtAmMenuState
  3
DesignerAssemblies
 90
     1024
 91
        0
280
     0
281
     0
  0
CLASS
  1
ACAMPROJECT
  2
AcAmProject
  3
DesignerAssemblies
 90
     1024
 91
        0
280
     0
281
     0
  0
CLASS
  1
ACAMGRCOMPDEF
  2
AcAmGrCompDef
  3
DesignerAssemblies
 90
     1024
 91
        0
280
     0
281
     0
  0
CLASS
  1
ACCMCONTEXT
  2
AcCmContext
  3
DesignerAssemblies
 90
     1024
 91
        0
280
     0
281
     0
  0
CLASS
  1
ACAMCOMPDEF
  2
AcAmCompDef
  3
DesignerAssemblies
 90
     1024
 91
        0
280
     0
281
     0
  0
CLASS
  1
ACAMCOMPDEFMGR
  2
AcAmCompDefMgr
  3
DesignerAssemblies
 90
     1024
 91
        0
280
     0
281
     0
  0
CLASS
  1
AMCONTEXTMGR
  2
AcAmContextMgr
  3
DesignerAssemblies
 90
     1024
 91
        0
280
     0
281
     0
  0
CLASS
  1
ACAMCONTEXTMODELER
  2
AcAmContextModeler
  3
DesignerAssemblies
 90
     1024
 91
        0
280
     0
281
     0
  0
CLASS
  1
ACMDATADICTIONARY
  2
AcmDataDictionary
  3
"AcmSymBB|Product Description: AutoCAD Mechanical|Company: Autodesk, Inc."
 90
     1024
 91
        0
280
     0
281
     0
  0
CLASS
  1
CATALOGSTATE
  2
AcAmCatalogState
  3
DesignerAssemblies
 90
     1024
 91
        0
280
     0
281
     0
  0
CLASS
  1
ACAMGRCOMPDEFSET
  2
AcAmGrCompDefSet
  3
DesignerAssemblies
 90
     1024
 91
        0
280
     0
281
     0
  0
CLASS
  1
AMDTBROWSERDBTAB
  2
AmdtBrowserDbTab
  3
McadcomServices
 90
     1024
 91
        0
280
     0
281
     0
  0
CLASS
  1
CBROWSERAPPOBJECT
  2
CBrowserAppObject
  3
McadcomServices
 90
     1024
 91
        0
280
     0
281
     0
  0
CLASS
  1
DM_PLACEHOLDER
  2
AcDmSelsetPlaceholder
  3
AcMechDwgViewMgmt
 90
     1024
 91
        0
280
     0
281
     0
  0
CLASS
  1
EXACXREFPANELOBJECT
  2
ExAcXREFPanelObject
  3
EXAC_ESW
 90
     1025
 91
        0
280
     0
281
     0
  0
CLASS
  1
NPOCOLLECTION
  2
AcDbImpNonPersistentObjectsCollection
  3
ObjectDBX Classes
 90
     1153
 91
        0
280
     0
281
     0
  0
CLASS
  1
ACMSTANDARDANSI
  2
AcmStandardANSI
  3
"Amdt_StdImp|Product Description: AutoCAD Mechanical|Company: Autodesk, Inc."
 90
     1024
 91
        0
280
     0
281
     0
  0
CLASS
  1
ACMSURFSTANDARDANSI
  2
AcmSurfTextStdANSI
  3
"Amdt_StdImp|Product Description: AutoCAD Mechanical|Company: Autodesk, Inc."
 90
     1024
 91
        0
280
     0
281
     0
  0
CLASS
  1
ACMFCFSTANDARDANSI
  2
AcmFCFStdANSI
  3
"Amdt_StdImp|Product Description: AutoCAD Mechanical|Company: Autodesk, Inc."
 90
     1024
 91
        0
280
     0
281
     0
  0
CLASS
  1
ACMWELDSTANDARDANSI
  2
AcmWeldingStdANSI
  3
"Amdt_StdImp|Product Description: AutoCAD Mechanical|Company: Autodesk, Inc."
 90
     1024
 91
        0
280
     0
281
     0
  0
CLASS
  1
ACMIDSTANDARDANSI
  2
AcmIdStdANSI
  3
"Amdt_StdImp|Product Description: AutoCAD Mechanical|Company: Autodesk, Inc."
 90
     1024
 91
        0
280
     0
281
     0
  0
CLASS
  1
ACMDATUMSTANDARDANSI
  2
AcmDatumStdANSI
  3
"Amdt_StdImp|Product Description: AutoCAD Mechanical|Company: Autodesk, Inc."
 90
     1024
 91
        0
280
     0
281
     0
  0
CLASS
  1
ACMBOMSTANDARDANSI
  2
AcmBOMStdANSI
  3
"Amdt_StdImp|Product Description: AutoCAD Mechanical|Company: Autodesk, Inc."
 90
     1024
 91
        0
280
     0
281
     0
  0
CLASS
  1
ACMDETAILSTANDARDANSI
  2
AmdtDetailSymStdANSI
  3
"Amdt_StdImp|Product Description: AutoCAD Mechanical|Company: Autodesk, Inc."
 90
     1024
 91
        0
280
     0
281
     0
  0
CLASS
  1
ACMSECTIONSTANDARDANSI
  2
AmdtSectionSymStdANSI
  3
"Amdt_StdImp|Product Description: AutoCAD Mechanical|Company: Autodesk, Inc."
 90
     1024
 91
        0
280
     0
281
     0
  0
CLASS
  1
ACMCENTERLINESTANDARDANSI
  2
AmdtCenterLineStdANSI
  3
"Amdt_StdImp|Product Description: AutoCAD Mechanical|Company: Autodesk, Inc."
 90
     1024
 91
        0
280
     0
281
     0
  0
CLASS
  1
ACMTHREADLINESTANDARDANSI
  2
AmdtThreadLineStdANSI
  3
"Amdt_StdImp|Product Description: AutoCAD Mechanical|Company: Autodesk, Inc."
 90
     1024
 91
        0
280
     0
281
     0
  0
CLASS
  1
ACMNOTESTANDARDANSI
  2
AmdtNoteStdANSI
  3
"Amdt_StdImp|Product Description: AutoCAD Mechanical|Company: Autodesk, Inc."
 90
     1024
 91
        0
280
     0
281
     0
  0
CLASS
  1
ACMTAPERSTANDARDANSI
  2
AcmTaperStdANSI
  3
"Amdt_StdImp|Product Description: AutoCAD Mechanical|Company: Autodesk, Inc."
 90
     1024
 91
        0
280
     0
281
     0
  0
CLASS
  1
ACMANOOTATIONVIEWSTANDARDANSI
  2
AmdtAnViewStdANSI
  3
"Amdt_StdImp|Product Description: AutoCAD Mechanical|Company: Autodesk, Inc."
 90
     1024
 91
        0
280
     0
281
     0
  0
CLASS
  1
ACAMGLAYSTD
  2
AcAmgLayStd
  3
"AmgLay|Product Description: AutoCAD Mechanical|Company: Autodesk, Inc."
 90
     1024
 91
        0
280
     0
281
     0
  0
CLASS
  1
ACAMGDIMSTD
  2
AcAmgDimStd
  3
"AmgDim|Product Description: AutoCAD Mechanical|Company: Autodesk, Inc."
 90
     1024
 91
        0
280
     0
281
     0
  0
CLASS
  1
AMGOBJPROPCFG
  2
AmgObjPropCfg
  3
"AmgLay|Product Description: AutoCAD Mechanical|Company: Autodesk, Inc."
 90
     1025
 91
        0
280
     0
281
     0
  0
CLASS
  1
ACAMGHOLECHARTSTDANSI
  2
AcAmgHoleChartStdANSI
  3
AmgDim|Product Description: AutoCAD Mechanical|Company: Autodesk, Inc.
 90
     1024
 91
        0
280
     0
281
     0
  0
CLASS
  1
ACAMGTITLESTD
  2
AcAmgTitleStd
  3
"AmgTitle|Product Description: AutoCAD Mechanical|Company: Autodesk, Inc."
 90
     4095
 91
        0
280
     0
281
     0
  0
CLASS
  1
AMDTNOTETEMPLATEDB
  2
AmdtNoteTemplateDB
  3
AcmSymBB|Product Description: AutoCAD Mechanical|Company: Autodesk, Inc.
 90
     1024
 91
        0
280
     0
281
     0
  0
CLASS
  1
ACAMGFILTERDAT
  2
AcAmgFilterDat
  3
"AcadM|Product Description: AutoCAD Mechanical|Company: Autodesk, Inc."
 90
     1024
 91
        0
280
     0
281
     0
  0
CLASS
  1
CELLSTYLEMAP
  2
AcDbCellStyleMap
  3
ObjectDBX Classes
 90
     1152
 91
        1
280
     0
281
     0
  0
CLASS
  1
ACAD_PROXY_OBJECT_WRAPPER
  2
AcDbProxyObjectWrapper
  3
ObjectDBX Classes
 90
        0
 91
        0
280
     0
281
     0
  0
CLASS
  1
LONG_TRANSACTION
  2
AcDbLongTransaction
  3
ObjectDBX Classes
 90
        0
 91
        0
280
     0
281
     0
  0
CLASS
  1
LWPOLYLINE
  2
AcDbPolyline
  3
ObjectDBX Classes
 90
        0
 91
        1
280
     0
281
     1
  0
CLASS
  1
HATCH
  2
AcDbHatch
  3
ObjectDBX Classes
 90
        0
 91
        0
280
     0
281
     1
  0
CLASS
  1
XRECORD
  2
AcDbXrecord
  3
ObjectDBX Classes
 90
        0
 91
       59
280
     0
281
     0
  0
CLASS
  1
ACDBSECTIONVIEWSTYLE
  2
AcDbSectionViewStyle
  3
ObjectDBX Classes
 90
     1025
 91
        2
280
     0
281
     0
  0
CLASS
  1
ACDBDETAILVIEWSTYLE
  2
AcDbDetailViewStyle
  3
ObjectDBX Classes
 90
     1025
 91
        2
280
     0
281
     0
  0
CLASS
  1
SORTENTSTABLE
  2
AcDbSortentsTable
  3
ObjectDBX Classes
 90
        0
 91
        0
280
     0
281
     0
  0
ENDSEC
  0
SECTION
  2
TABLES
  0
TABLE
  2
VPORT
  5
8
102
{ACAD_XDICTIONARY
360
88A
102
}
330
0
100
AcDbSymbolTable
 70
     1
  0
VPORT
  5
8AD
330
8
100
AcDbSymbolTableRecord
100
AcDbViewportTableRecord
  2
*Active
 70
     0
 10
0.0
 20
0.0
 11
1.0
 21
1.0
 12
-74.88312084457243
 22
617.3893192519658
 13
0.0
 23
0.0
 14
0.5
 24
0.5
 15
0.5
 25
0.5
 16
0.0
 26
0.0
 36
1.0
 17
0.0
 27
0.0
 37
0.0
 40
1405.613637895324
 41
2.310443490701001
 42
50.0
 43
0.0
 44
0.0
 50
0.0
 51
0.0
 71
     0
 72
   100
 73
     1
 74
     3
 75
     0
 76
     0
 77
     0
 78
     0
281
     0
 65
     1
110
0.0
120
0.0
130
0.0
111
1.0
121
0.0
131
0.0
112
0.0
122
1.0
132
0.0
 79
     0
146
0.0
348
7A1
 60
     3
 61
     5
292
     1
282
     1
141
0.0
142
0.0
 63
   250
421
  3355443
1001
ACAD_NAV_VCDISPLAY
1070
     3
  0
ENDTAB
  0
TABLE
  2
LTYPE
  5
5
330
0
100
AcDbSymbolTable
 70
     2
  0
LTYPE
  5
14
330
5
100
AcDbSymbolTableRecord
100
AcDbLinetypeTableRecord
  2
ByBlock
 70
     0
  3

 72
    65
 73
     0
 40
0.0
  0
LTYPE
  5
15
330
5
100
AcDbSymbolTableRecord
100
AcDbLinetypeTableRecord
  2
ByLayer
 70
     0
  3

 72
    65
 73
     0
 40
0.0
  0
LTYPE
  5
16
330
5
100
AcDbSymbolTableRecord
100
AcDbLinetypeTableRecord
  2
Continuous
 70
     0
  3
Solid line
 72
    65
 73
     0
 40
0.0
  0
LTYPE
  5
DD
330
5
100
AcDbSymbolTableRecord
100
AcDbLinetypeTableRecord
  2
CENTER
 70
     0
  3
__ . __
 72
    65
 73
     4
 40
7.0
 49
4.0
 74
     0
 49
-1.0
 74
     0
 49
1.0
 74
     0
 49
-1.0
 74
     0
  0
ENDTAB
  0
TABLE
  2
LAYER
  5
2
102
{ACAD_XDICTIONARY
360
E4
102
}
330
0
100
AcDbSymbolTable
 70
     1
  0
LAYER
  5
10
102
{ACAD_XDICTIONARY
360
884
102
}
330
2
100
AcDbSymbolTableRecord
100
AcDbLayerTableRecord
  2
0
 70
     0
 62
     7
  6
Continuous
370
    -3
390
F
347
793
  0
ENDTAB
  0
TABLE
  2
STYLE
  5
3
330
0
100
AcDbSymbolTable
 70
     1
  0
STYLE
  5
11
330
3
100
AcDbSymbolTableRecord
100
AcDbTextStyleTableRecord
  2
Standard
 70
     0
 40
0.0
 41
1.0
 50
0.0
 71
     0
 42
0.2
  3
txt
  4

  0
ENDTAB
  0
TABLE
  2
VIEW
  5
6
330
0
100
AcDbSymbolTable
 70
     0
  0
ENDTAB
  0
TABLE
  2
UCS
  5
7
330
0
100
AcDbSymbolTable
 70
     0
  0
ENDTAB
  0
TABLE
  2
APPID
  5
9
330
0
100
AcDbSymbolTable
 70
    25
  0
APPID
  5
12
330
9
100
AcDbSymbolTableRecord
100
AcDbRegAppTableRecord
  2
ACAD
 70
     0
  0
APPID
  5
E0
330
9
100
AcDbSymbolTableRecord
100
AcDbRegAppTableRecord
  2
GENIUS_GENODEF_13
 70
     0
  0
APPID
  5
E1
330
9
100
AcDbSymbolTableRecord
100
AcDbRegAppTableRecord
  2
ACAD_DSTYLE_DIMARC_LENGTH_SYMBOL
 70
     0
  0
APPID
  5
E2
330
9
100
AcDbSymbolTableRecord
100
AcDbRegAppTableRecord
  2
ACAD_DSTYLE_DIMJOGGED_JOGANGLE_SYMBOL
 70
     0
  0
APPID
  5
E3
330
9
100
AcDbSymbolTableRecord
100
AcDbRegAppTableRecord
  2
GENIUS_GENOBJ-N-FIL_13
 70
     0
  0
APPID
  5
656
330
9
100
AcDbSymbolTableRecord
100
AcDbRegAppTableRecord
  2
GENIUS_GENOREF_13
 70
     0
  0
APPID
  5
657
330
9
100
AcDbSymbolTableRecord
100
AcDbRegAppTableRecord
  2
GENIUS_GENFIL_13
 70
     0
  0
APPID
  5
658
330
9
100
AcDbSymbolTableRecord
100
AcDbRegAppTableRecord
  2
GENIUS_GENOBJ-N-CHA_13
 70
     0
  0
APPID
  5
7D3
330
9
100
AcDbSymbolTableRecord
100
AcDbRegAppTableRecord
  2
ACAD_MLEADERVER
 70
     0
  0
APPID
  5
7DC
330
9
100
AcDbSymbolTableRecord
100
AcDbRegAppTableRecord
  2
MCAD_NO_VIS
 70
     0
  0
APPID
  5
7DD
330
9
100
AcDbSymbolTableRecord
100
AcDbRegAppTableRecord
  2
ACAD_TEMP_GRAPHIC
 70
     0
  0
APPID
  5
80E
330
9
100
AcDbSymbolTableRecord
100
AcDbRegAppTableRecord
  2
AD_DRAW
 70
     0
  0
APPID
  5
811
330
9
100
AcDbSymbolTableRecord
100
AcDbRegAppTableRecord
  2
ACATTRIBSERVICES
 70
     0
  0
APPID
  5
832
330
9
100
AcDbSymbolTableRecord
100
AcDbRegAppTableRecord
  2
DESIGNERASSEMBLIES
 70
     0
  0
APPID
  5
838
330
9
100
AcDbSymbolTableRecord
100
AcDbRegAppTableRecord
  2
ACADM_DIM_EDIT
 70
     0
  0
APPID
  5
839
330
9
100
AcDbSymbolTableRecord
100
AcDbRegAppTableRecord
  2
AMDT_DM_ADJ
 70
     0
  0
APPID
  5
874
330
9
100
AcDbSymbolTableRecord
100
AcDbRegAppTableRecord
  2
GENIUS_GENSCREG_15
 70
     0
  0
APPID
  5
875
330
9
100
AcDbSymbolTableRecord
100
AcDbRegAppTableRecord
  2
GENIUS_GENOBJ-N-SDF_13
 70
     0
  0
APPID
  5
876
330
9
100
AcDbSymbolTableRecord
100
AcDbRegAppTableRecord
  2
ACAD_EXEMPT_FROM_CAD_STANDARDS
 70
     0
  0
APPID
  5
89E
330
9
100
AcDbSymbolTableRecord
100
AcDbRegAppTableRecord
  2
ACAD_DSTYLE_DIM_LINETYPE
 70
     0
  0
APPID
  5
89F
330
9
100
AcDbSymbolTableRecord
100
AcDbRegAppTableRecord
  2
ACAD_DSTYLE_DIM_EXT1_LINETYPE
 70
     0
  0
APPID
  5
8A0
330
9
100
AcDbSymbolTableRecord
100
AcDbRegAppTableRecord
  2
ACAD_DSTYLE_DIM_EXT2_LINETYPE
 70
     0
  0
APPID
  5
901
330
9
100
AcDbSymbolTableRecord
100
AcDbRegAppTableRecord
  2
AcadCodePageInfo
 70
     0
  0
APPID
  5
909
330
9
100
AcDbSymbolTableRecord
100
AcDbRegAppTableRecord
  2
ACAD_NAV_VCDISPLAY
 70
     0
  0
APPID
  5
95F
330
9
100
AcDbSymbolTableRecord
100
AcDbRegAppTableRecord
  2
ACAD_PSEXT
 70
     0
  0
ENDTAB
  0
TABLE
  2
DIMSTYLE
  5
A
330
0
100
AcDbSymbolTable
 70
     2
100
AcDbDimStyleTable
 71
     0
  0
DIMSTYLE
105
27
330
A
100
AcDbSymbolTableRecord
100
AcDbDimStyleTableRecord
  2
Standard
 70
     0
340
11
  0
DIMSTYLE
105
95E
330
A
100
AcDbSymbolTableRecord
100
AcDbDimStyleTableRecord
  2
ISO-25
 70
     0
 41
2.5
 42
0.625
 43
3.75
 44
1.25
 73
     0
 74
     0
 77
     1
 78
     8
140
2.5
141
2.5
143
0.03937007874016
147
0.625
171
     3
172
     1
271
     2
272
     2
274
     3
278
    44
283
     0
284
     8
340
11
  0
ENDTAB
  0
TABLE
  2
BLOCK_RECORD
  5
1
330
0
100
AcDbSymbolTable
 70
     1
  0
BLOCK_RECORD
  5
1F
102
{ACAD_XDICTIONARY
360
91
102
}
330
1
100
AcDbSymbolTableRecord
100
AcDbBlockTableRecord
  2
*Model_Space
340
22
 70
     0
280
     1
281
     0
  0
BLOCK_RECORD
  5
5D
102
{ACAD_XDICTIONARY
360
93
102
}
330
1
100
AcDbSymbolTableRecord
100
AcDbBlockTableRecord
  2
*Paper_Space
340
5E
 70
     0
280
     1
281
     0
  0
BLOCK_RECORD
  5
58
102
{ACAD_XDICTIONARY
360
95
102
}
330
1
100
AcDbSymbolTableRecord
100
AcDbBlockTableRecord
  2
*Paper_Space0
340
59
 70
     0
280
     1
281
     0
  0
ENDTAB
  0
ENDSEC
  0
SECTION
  2
BLOCKS
  0
BLOCK
  5
20
330
1F
100
AcDbEntity
  8
0
100
AcDbBlockBegin
  2
*Model_Space
 70
     0
 10
0.0
 20
0.0
 30
0.0
  3
*Model_Space
  1

  0
ENDBLK
  5
21
330
1F
100
AcDbEntity
  8
0
100
AcDbBlockEnd
  0
BLOCK
  5
5F
330
5D
100
AcDbEntity
 67
     1
  8
0
100
AcDbBlockBegin
  2
*Paper_Space
 70
     0
 10
0.0
 20
0.0
 30
0.0
  3
*Paper_Space
  1

  0
ENDBLK
  5
60
330
5D
100
AcDbEntity
 67
     1
  8
0
100
AcDbBlockEnd
  0
BLOCK
  5
5A
330
58
100
AcDbEntity
 67
     1
  8
0
100
AcDbBlockBegin
  2
*Paper_Space0
 70
     0
 10
0.0
 20
0.0
 30
0.0
  3
*Paper_Space0
  1

  0
VIEWPORT
  5
73
330
58
100
AcDbEntity
 67
     1
  8
0
100
AcDbViewport
 10
5.249999639556162
 20
3.999999883606676
 30
0.0
 40
15.01558029761351
 41
8.593922408982605
 68
     0
 69
     0
 12
5.249999639556162
 22
3.999999883606676
 13
0.0
 23
0.0
 14
10.0
 24
10.0
 15
10.0
 25
10.0
 16
0.0
 26
0.0
 36
1.0
 17
0.0
 27
0.0
 37
0.0
 42
50.0
 43
0.0
 44
0.0
 45
8.593922408982605
 50
0.0
 51
0.0
 72
   100
 90
    32800
  1

281
     0
 71
     1
 74
     0
110
0.0
120
0.0
130
0.0
111
1.0
121
0.0
131
0.0
112
0.0
122
1.0
132
0.0
 79
     0
146
0.0
170
     0
 61
     5
348
7A1
292
     1
282
     1
141
0.0
142
0.0
 63
   250
421
  3355443
1001
GENIUS_GENSCREG_15
1000
PF
1040
1.0
1000
DF
1040
1.0
1000
MIN
1011
-2.257790509250597
1021
-0.2969613208846251
1031
0.0
1000
MAX
1011
12.75778978836292
1021
8.29696108809798
1031
0.0
1000
FLAGS
1070
     4
1001
GENIUS_GENODEF_13
1002
{
1000
HIER
1070
     0
1002
}
1002
{
1000
MANEDIT
1070
     0
1002
}
1002
{
1000
NOSEL
1070
     0
1002
}
1002
{
1000
BEHIND
1070
     0
1002
}
1002
{
1000
OTHER
1070
     0
1002
}
1002
{
1000
REACTOR
1002
}
1001
GENIUS_GENOBJ-N-SDF_13
1002
{
1000
OWNER
1000
GEN
1002
}
  0
VIEWPORT
  5
75
330
58
100
AcDbEntity
 67
     1
  8
0
100
AcDbViewport
 10
5.24999976158142
 20
3.99999976158142
 30
0.0
 40
8.399999618530271
 41
6.399999618530272
 68
     0
 69
     0
 12
6.0
 22
4.5
 13
0.0
 23
0.0
 14
0.5
 24
0.5
 15
0.5
 25
0.5
 16
0.0
 26
0.0
 36
1.0
 17
0.0
 27
0.0
 37
0.0
 42
50.0
 43
0.0
 44
0.0
 45
9.259079771746701
 50
0.0
 51
0.0
 72
   100
 90
    32864
  1

281
     0
 71
     1
 74
     0
110
0.0
120
0.0
130
0.0
111
1.0
121
0.0
131
0.0
112
0.0
122
1.0
132
0.0
 79
     0
146
0.0
170
     0
 61
     5
348
7A1
292
     1
282
     1
141
0.0
142
0.0
 63
   250
421
  3355443
1001
GENIUS_GENSCREG_15
1000
PF
1040
0.0
1000
DF
1040
0.0
1000
MIN
1011
1.049999952316284
1021
0.7999999523162842
1031
0.0
1000
MAX
1011
9.449999570846555
1021
7.199999570846556
1031
0.0
1000
FLAGS
1070
     4
1001
GENIUS_GENOBJ-N-SDF_13
1002
{
1000
OWNER
1000
GEN
1002
}
1001
GENIUS_GENODEF_13
1002
{
1000
HIER
1070
     0
1002
}
1002
{
1000
MANEDIT
1070
     0
1002
}
1002
{
1000
NOSEL
1070
     0
1002
}
1002
{
1000
BEHIND
1070
     0
1002
}
1002
{
1000
OTHER
1070
     0
1002
}
1002
{
1000
REACTOR
1002
}
  0
ENDBLK
  5
5B
330
58
100
AcDbEntity
 67
     1
  8
0
100
AcDbBlockEnd
  0
ENDSEC
  0
SECTION
  2
ENTITIES
  0
LINE
  5
C88
330
1F
100
AcDbEntity
  8
0
100
AcDbLine
 10
-604.5784992193534
 20
300.3409062813577
 30
0.0
 11
-604.5784992193534
 21
181.3409062813576
 31
0.0
  0
LINE
  5
C89
330
1F
100
AcDbEntity
  8
0
100
AcDbLine
 10
-607.7158803561265
 20
299.551330466326
 30
0.0
 11
-610.1160708946649
 21
292.9568613954403
 31
0.0
  0
LINE
  5
C8A
330
1F
100
AcDbEntity
  8
0
100
AcDbLine
 10
-604.5784992193534
 20
300.3409062813577
 30
0.0
 11
-606.5882492159076
 21
300.3409062813577
 31
0.0
  0
ARC
  5
C8B
330
1F
100
AcDbEntity
  8
0
100
AcDbCircle
 10
-606.5882492159076
 20
299.1409062813569
 30
0.0
 40
1.199999999999999
100
AcDbArc
 50
90.0
 51
159.9999993406004
  0
ARC
  5
C8C
330
1F
100
AcDbEntity
  8
0
100
AcDbCircle
 10
-611.9954561283643
 20
293.640901703721
 30
0.0
 40
2.0
100
AcDbArc
 50
270.0
 51
339.9999993406003
  0
LINE
  5
C8D
330
1F
100
AcDbEntity
  8
0
100
AcDbLine
 10
-604.5784992193534
 20
181.3409062813576
 30
0.0
 11
-606.5882492159076
 21
181.3409062813576
 31
0.0
  0
ARC
  5
C8E
330
1F
100
AcDbEntity
  8
0
100
AcDbCircle
 10
-606.5882492159076
 20
182.5409062813566
 30
0.0
 40
1.199999999999999
100
AcDbArc
 50
200.0000006593996
 51
270.0
  0
ARC
  5
C8F
330
1F
100
AcDbEntity
  8
0
100
AcDbCircle
 10
-611.9954561283643
 20
188.0409108589944
 30
0.0
 40
2.0
100
AcDbArc
 50
20.00000065939959
 51
90.0
  0
LINE
  5
C90
330
1F
100
AcDbEntity
  8
0
100
AcDbLine
 10
-607.7158803561265
 20
182.1304820963893
 30
0.0
 11
-610.1160708946649
 21
188.7249511672741
 31
0.0
  0
LINE
  5
C91
330
1F
100
AcDbEntity
  8
0
100
AcDbLine
 10
-611.995456581952
 20
291.640901703721
 30
0.0
 11
-639.3284915899608
 21
291.6409079026831
 31
0.0
  0
LINE
  5
C92
330
1F
100
AcDbEntity
  8
0
100
AcDbLine
 10
-834.5784992193534
 20
300.3409062813577
 30
0.0
 11
-834.5784992193534
 21
181.3409062813576
 31
0.0
  0
LINE
  5
C93
330
1F
100
AcDbEntity
  8
0
100
AcDbLine
 10
-831.4411180825805
 20
299.551330466326
 30
0.0
 11
-829.0409275440421
 21
292.9568613954403
 31
0.0
  0
LINE
  5
C94
330
1F
100
AcDbEntity
  8
0
100
AcDbLine
 10
-834.5784992193534
 20
300.3409062813577
 30
0.0
 11
-832.5687492227993
 21
300.3409062813577
 31
0.0
  0
ARC
  5
C95
330
1F
100
AcDbEntity
  8
0
100
AcDbCircle
 10
-832.5687492227993
 20
299.1409062813569
 30
0.0
 40
1.199999999999999
100
AcDbArc
 50
20.00000065939959
 51
90.0
  0
ARC
  5
C96
330
1F
100
AcDbEntity
  8
0
100
AcDbCircle
 10
-827.1615423103426
 20
293.640901703721
 30
0.0
 40
2.0
100
AcDbArc
 50
200.0000006593996
 51
270.0
  0
LINE
  5
C97
330
1F
100
AcDbEntity
  8
0
100
AcDbLine
 10
-834.5784992193534
 20
181.3409062813576
 30
0.0
 11
-832.5687492227993
 21
181.3409062813576
 31
0.0
  0
ARC
  5
C98
330
1F
100
AcDbEntity
  8
0
100
AcDbCircle
 10
-832.5687492227993
 20
182.5409062813566
 30
0.0
 40
1.199999999999999
100
AcDbArc
 50
270.0
 51
339.9999993406003
  0
ARC
  5
C99
330
1F
100
AcDbEntity
  8
0
100
AcDbCircle
 10
-827.1615423103426
 20
188.0409108589944
 30
0.0
 40
2.0
100
AcDbArc
 50
90.0
 51
159.9999993406004
  0
LINE
  5
C9A
330
1F
100
AcDbEntity
  8
0
100
AcDbLine
 10
-831.4411180825805
 20
182.1304820963893
 30
0.0
 11
-829.0409275440421
 21
188.7249511672741
 31
0.0
  0
LINE
  5
C9B
330
1F
100
AcDbEntity
  8
0
100
AcDbLine
 10
-827.1615422481559
 20
190.0409108589944
 30
0.0
 11
-797.5785001391909
 21
190.040909939155
 31
0.0
  0
LINE
  5
C9C
330
1F
100
AcDbEntity
  8
0
100
AcDbLine
 10
-827.1615423103426
 20
291.640901703721
 30
0.0
 11
-797.5784992193535
 21
291.640901703721
 31
0.0
  0
LINE
  5
C9D
330
1F
100
AcDbEntity
  8
0
100
AcDbLine
 10
-783.5784992193534
 20
307.8409062813577
 30
0.0
 11
-790.5784992193535
 21
307.8409062813577
 31
0.0
  0
ARC
  5
C9E
330
1F
100
AcDbEntity
  8
0
100
AcDbCircle
 10
-783.5784992193534
 20
310.8409062813576
 30
0.0
 40
3.0
100
AcDbArc
 50
270.0
 51
0.0
1001
GENIUS_GENOBJ-N-FIL_13
1002
{
1000
OWNER
1000
GEN
1002
}
1001
GENIUS_GENODEF_13
1002
{
1000
HIER
1070
     0
1002
}
1002
{
1000
MANEDIT
1070
     0
1002
}
1002
{
1000
NOSEL
1070
     0
1002
}
1002
{
1000
BEHIND
1070
     0
1002
}
1002
{
1000
OTHER
1070
     0
1002
}
1002
{
1000
REACTOR
1002
}
  0
LINE
  5
C9F
330
1F
100
AcDbEntity
  8
0
100
AcDbLine
 10
-795.5784992193534
 20
302.8409062813576
 30
0.0
 11
-795.5784992193534
 21
240.8409062813577
 31
0.0
  0
ARC
  5
CA0
330
1F
100
AcDbEntity
  8
0
100
AcDbCircle
 10
-797.5784992193535
 20
293.640901703721
 30
0.0
 40
2.0
100
AcDbArc
 50
270.0
 51
0.0
1001
GENIUS_GENOBJ-N-FIL_13
1002
{
1000
OWNER
1000
GEN
1002
}
1001
GENIUS_GENODEF_13
1002
{
1000
HIER
1070
     0
1002
}
1002
{
1000
MANEDIT
1070
     0
1002
}
1002
{
1000
NOSEL
1070
     0
1002
}
1002
{
1000
BEHIND
1070
     0
1002
}
1002
{
1000
OTHER
1070
     0
1002
}
1002
{
1000
REACTOR
1002
}
  0
ARC
  5
CA1
330
1F
100
AcDbEntity
  8
0
100
AcDbCircle
 10
-790.5784992193535
 20
302.8409062813576
 30
0.0
 40
5.0
100
AcDbArc
 50
90.0
 51
180.0
1001
GENIUS_GENODEF_13
1002
{
1000
HIER
1070
     0
1002
}
1002
{
1000
MANEDIT
1070
     0
1002
}
1002
{
1000
NOSEL
1070
     0
1002
}
1002
{
1000
BEHIND
1070
     0
1002
}
1002
{
1000
OTHER
1070
     0
1002
}
1002
{
1000
REACTOR
1002
}
1001
GENIUS_GENOBJ-N-FIL_13
1002
{
1000
OWNER
1000
GEN
1002
}
  0
LINE
  5
CA2
330
1F
100
AcDbEntity
  8
0
100
AcDbLine
 10
-780.5784992193535
 20
240.8409062813577
 30
0.0
 11
-780.5784992193535
 21
320.3409062813577
 31
0.0
  0
LINE
  5
CA3
330
1F
100
AcDbEntity
  8
0
100
AcDbLine
 10
-698.5784683971937
 20
325.3409062813577
 30
0.0
 11
-665.3284992193534
 21
325.3409062813568
 31
0.0
  0
ARC
  5
CA4
330
1F
100
AcDbEntity
  8
0
100
AcDbCircle
 10
-698.5784683971937
 20
327.3409062813577
 30
0.0
 40
2.0
100
AcDbArc
 50
179.9999998663373
 51
270.0
1001
GENIUS_GENODEF_13
1002
{
1000
HIER
1070
     0
1002
}
1002
{
1000
MANEDIT
1070
     0
1002
}
1002
{
1000
NOSEL
1070
     0
1002
}
1002
{
1000
BEHIND
1070
     0
1002
}
1002
{
1000
OTHER
1070
     0
1002
}
1002
{
1000
REACTOR
1002
}
1001
GENIUS_GENOBJ-N-FIL_13
1002
{
1000
OWNER
1000
GEN
1002
}
  0
LINE
  5
CA5
330
1F
100
AcDbEntity
  8
0
100
AcDbLine
 10
-662.0527652715995
 20
342.3409024666604
 30
0.0
 11
-642.6042267007346
 21
342.3409024666604
 31
0.0
  0
LINE
  5
CA6
330
1F
100
AcDbEntity
  8
0
100
AcDbLine
 10
-700.5784683914062
 20
329.8409100934338
 30
0.0
 11
-702.0784683914062
 21
329.8409100969317
 31
0.0
  0
LINE
  5
CA7
330
1F
100
AcDbEntity
  8
0
100
AcDbLine
 10
-700.5784683913616
 20
329.8409100935866
 30
0.0
 11
-700.5784683971937
 21
327.3409062860225
 31
0.0
  0
LINE
  5
CA8
330
1F
100
AcDbEntity
  8
0
100
AcDbLine
 10
-738.5785300473007
 20
329.8409100934338
 30
0.0
 11
-737.0785300473007
 21
329.8409100969317
 31
0.0
  0
LINE
  5
CA9
330
1F
100
AcDbEntity
  8
0
100
AcDbLine
 10
-738.5785300473449
 20
329.8409100935866
 30
0.0
 11
-738.5785300473007
 21
327.3407541306975
 31
0.0
  0
LINE
  5
CAA
330
1F
100
AcDbEntity
  8
0
100
AcDbLine
 10
-708.078468702733
 20
154.3409062860206
 30
0.0
 11
-708.0784687140772
 21
149.475654713258
 31
0.0
  0
ARC
  5
CAB
330
1F
100
AcDbEntity
  8
0
100
AcDbCircle
 10
-706.078468702733
 20
154.3409062813576
 30
0.0
 40
2.0
100
AcDbArc
 50
90.0
 51
179.9999998663894
1001
GENIUS_GENODEF_13
1002
{
1000
HIER
1070
     0
1002
}
1002
{
1000
MANEDIT
1070
     0
1002
}
1002
{
1000
NOSEL
1070
     0
1002
}
1002
{
1000
BEHIND
1070
     0
1002
}
1002
{
1000
OTHER
1070
     0
1002
}
1002
{
1000
REACTOR
1002
}
1001
GENIUS_GENOBJ-N-FIL_13
1002
{
1000
OWNER
1000
GEN
1002
}
  0
LINE
  5
CAC
330
1F
100
AcDbEntity
  8
0
100
AcDbLine
 10
-731.0784839615166
 20
154.3409062766937
 30
0.0
 11
-731.0784839728612
 21
149.4756547669582
 31
0.0
  0
ARC
  5
CAD
330
1F
100
AcDbEntity
  8
0
100
AcDbCircle
 10
-733.0784839615167
 20
154.3409062813576
 30
0.0
 40
2.0
100
AcDbArc
 50
359.9999998663894
 51
90.0
1001
GENIUS_GENODEF_13
1002
{
1000
HIER
1070
     0
1002
}
1002
{
1000
MANEDIT
1070
     0
1002
}
1002
{
1000
NOSEL
1070
     0
1002
}
1002
{
1000
BEHIND
1070
     0
1002
}
1002
{
1000
OTHER
1070
     0
1002
}
1002
{
1000
REACTOR
1002
}
1001
GENIUS_GENOBJ-N-FIL_13
1002
{
1000
OWNER
1000
GEN
1002
}
  0
LINE
  5
CAE
330
1F
100
AcDbEntity
  8
0
100
AcDbLine
 10
-719.5785009392761
 20
148.8409097114705
 30
0.0
 11
-734.0783465379645
 21
148.840909779096
 31
0.0
  0
LINE
  5
CAF
330
1F
100
AcDbEntity
  8
0
100
AcDbLine
 10
-737.0783923563067
 20
139.8409069320647
 30
0.0
 11
-737.0783923283234
 21
145.8409040710418
 31
0.0
  0
LINE
  5
CB0
330
1F
100
AcDbEntity
  8
0
100
AcDbLine
 10
-710.0783923936178
 20
131.8409144355342
 30
0.0
 11
-729.0783771348287
 21
131.8409145241481
 31
0.0
  0
LINE
  5
CB1
330
1F
100
AcDbEntity
  8
0
100
AcDbLine
 10
-702.0783770975176
 20
139.8409067688286
 30
0.0
 11
-702.0783770695343
 21
145.8409039078057
 31
0.0
  0
LINE
  5
CB2
330
1F
100
AcDbEntity
  8
0
100
AcDbLine
 10
-705.0783770555426
 20
148.8409096438432
 30
0.0
 11
-719.5785009392761
 21
148.8409097114696
 31
0.0
  0
ARC
  5
CB3
330
1F
100
AcDbEntity
  8
0
100
AcDbCircle
 10
-707.078484081605
 20
149.4756589395098
 30
0.0
 40
1.000000029802322
100
AcDbArc
 50
179.999991348559
 51
224.9999960159256
  0
ARC
  5
CB4
330
1F
100
AcDbEntity
  8
0
100
AcDbCircle
 10
-732.0784688228159
 20
149.4756589395098
 30
0.0
 40
1.000000029802322
100
AcDbArc
 50
315.0000021628506
 51
0.0000085177782529
  0
ARC
  5
CB5
330
1F
100
AcDbEntity
  8
0
100
AcDbCircle
 10
-734.0783467525034
 20
145.8409038049273
 30
0.0
 40
3.0
100
AcDbArc
 50
89.99999567427954
 51
180.0000050089373
  0
ARC
  5
CB6
330
1F
100
AcDbEntity
  8
0
100
AcDbCircle
 10
-729.0783772700815
 20
139.8409066659502
 30
0.0
 40
8.000000238418579
100
AcDbArc
 50
180.0000086513888
 51
270.0000043256683
  0
ARC
  5
CB7
330
1F
100
AcDbEntity
  8
0
100
AcDbCircle
 10
-710.0783925288705
 20
139.8409066659502
 30
0.0
 40
8.000000238418579
100
AcDbArc
 50
269.9999974954792
 51
359.9999912149485
  0
ARC
  5
CB8
330
1F
100
AcDbEntity
  8
0
100
AcDbCircle
 10
-705.0783772700815
 20
145.8409038049273
 30
0.0
 40
3.0
100
AcDbArc
 50
359.9999948573999
 51
89.99998884409036
  0
LINE
  5
CB9
330
1F
100
AcDbEntity
  8
0
100
AcDbLine
 10
-795.5784992193534
 20
178.8409062813576
 30
0.0
 11
-795.578499219353
 21
240.8409062813567
 31
0.0
  0
ARC
  5
CBA
330
1F
100
AcDbEntity
  8
0
100
AcDbCircle
 10
-797.5784992193535
 20
188.040909939156
 30
0.0
 40
2.0
100
AcDbArc
 50
0.0
 51
90.0000263514026
1001
GENIUS_GENOBJ-N-FIL_13
1002
{
1000
OWNER
1000
GEN
1002
}
1001
GENIUS_GENODEF_13
1002
{
1000
HIER
1070
     0
1002
}
1002
{
1000
MANEDIT
1070
     0
1002
}
1002
{
1000
NOSEL
1070
     0
1002
}
1002
{
1000
BEHIND
1070
     0
1002
}
1002
{
1000
OTHER
1070
     0
1002
}
1002
{
1000
REACTOR
1002
}
  0
LINE
  5
CBB
330
1F
100
AcDbEntity
  8
0
100
AcDbLine
 10
-780.5784992193535
 20
240.8409062813577
 30
0.0
 11
-780.5784992193535
 21
161.3409062813576
 31
0.0
  0
LINE
  5
CBC
330
1F
100
AcDbEntity
  8
0
100
AcDbLine
 10
-611.995456581952
 20
190.0409108589944
 30
0.0
 11
-639.328491589958
 21
190.0409046600304
 31
0.0
  0
LINE
  5
CBD
330
1F
100
AcDbEntity
  8
0
100
AcDbLine
 10
-665.3284992193534
 20
148.3409180227432
 30
0.0
 11
-662.0527626516437
 21
139.3409060931532
 31
0.0
  0
LINE
  5
CBE
330
1F
100
AcDbEntity
  8
0
100
AcDbLine
 10
-662.0527652715995
 20
139.3409100960549
 30
0.0
 11
-642.6042267007346
 21
139.3409100960549
 31
0.0
  0
LINE
  5
CBF
330
1F
100
AcDbEntity
  8
0
100
AcDbLine
 10
-665.3284992193534
 20
240.8409062813577
 30
0.0
 11
-665.328499219353
 21
148.3409180227432
 31
0.0
  0
LINE
  5
CC0
330
1F
100
AcDbEntity
  8
0
  6
CENTER
100
AcDbLine
 10
-844.5784992193534
 20
240.8409062813577
 30
0.0
 11
-594.5784992193535
 21
240.8409062813577
 31
0.0
  0
LINE
  5
CC1
330
1F
100
AcDbEntity
  8
0
100
AcDbLine
 10
-783.5784992193534
 20
173.8409062813576
 30
0.0
 11
-790.5784992193535
 21
173.8409062813576
 31
0.0
  0
ARC
  5
CC2
330
1F
100
AcDbEntity
  8
0
100
AcDbCircle
 10
-783.5784992193534
 20
170.8409062813576
 30
0.0
 40
3.0
100
AcDbArc
 50
0.0
 51
90.0
1001
GENIUS_GENOBJ-N-FIL_13
1002
{
1000
OWNER
1000
GEN
1002
}
1001
GENIUS_GENODEF_13
1002
{
1000
HIER
1070
     0
1002
}
1002
{
1000
MANEDIT
1070
     0
1002
}
1002
{
1000
NOSEL
1070
     0
1002
}
1002
{
1000
BEHIND
1070
     0
1002
}
1002
{
1000
OTHER
1070
     0
1002
}
1002
{
1000
REACTOR
1002
}
  0
ARC
  5
CC3
330
1F
100
AcDbEntity
  8
0
100
AcDbCircle
 10
-790.5784992193535
 20
178.8409062813576
 30
0.0
 40
5.0
100
AcDbArc
 50
180.0
 51
270.0
1001
GENIUS_GENODEF_13
1002
{
1000
HIER
1070
     0
1002
}
1002
{
1000
MANEDIT
1070
     0
1002
}
1002
{
1000
NOSEL
1070
     0
1002
}
1002
{
1000
BEHIND
1070
     0
1002
}
1002
{
1000
OTHER
1070
     0
1002
}
1002
{
1000
REACTOR
1002
}
1001
GENIUS_GENOBJ-N-FIL_13
1002
{
1000
OWNER
1000
GEN
1002
}
  0
LINE
  5
CC4
330
1F
100
AcDbEntity
  8
0
100
AcDbLine
 10
-740.5785300415132
 20
325.3409062813577
 30
0.0
 11
-775.5784992193534
 21
325.3409062813577
 31
0.0
  0
ARC
  5
CC5
330
1F
100
AcDbEntity
  8
0
100
AcDbCircle
 10
-775.5784992193534
 20
320.3409062813577
 30
0.0
 40
5.0
100
AcDbArc
 50
90.0
 51
180.0
1001
GENIUS_GENODEF_13
1002
{
1000
HIER
1070
     0
1002
}
1002
{
1000
MANEDIT
1070
     0
1002
}
1002
{
1000
NOSEL
1070
     0
1002
}
1002
{
1000
BEHIND
1070
     0
1002
}
1002
{
1000
OTHER
1070
     0
1002
}
1002
{
1000
REACTOR
1002
}
1001
GENIUS_GENOBJ-N-FIL_13
1002
{
1000
OWNER
1000
GEN
1002
}
  0
ARC
  5
CC6
330
1F
100
AcDbEntity
  8
0
100
AcDbCircle
 10
-740.5785300415132
 20
327.3409062813577
 30
0.0
 40
2.0
100
AcDbArc
 50
270.0
 51
0.0000001336626833
1001
GENIUS_GENODEF_13
1002
{
1000
HIER
1070
     0
1002
}
1002
{
1000
MANEDIT
1070
     0
1002
}
1002
{
1000
NOSEL
1070
     0
1002
}
1002
{
1000
BEHIND
1070
     0
1002
}
1002
{
1000
OTHER
1070
     0
1002
}
1002
{
1000
REACTOR
1002
}
1001
GENIUS_GENOBJ-N-FIL_13
1002
{
1000
OWNER
1000
GEN
1002
}
  0
LINE
  5
CC7
330
1F
100
AcDbEntity
  8
0
100
AcDbLine
 10
-706.078468702733
 20
156.3409062813576
 30
0.0
 11
-665.3284992193534
 21
156.3409062813567
 31
0.0
  0
LINE
  5
CC8
330
1F
100
AcDbEntity
  8
0
100
AcDbLine
 10
-733.0784839615167
 20
156.3409062813576
 30
0.0
 11
-775.5784992193534
 21
156.3409062813576
 31
0.0
  0
ARC
  5
CC9
330
1F
100
AcDbEntity
  8
0
100
AcDbCircle
 10
-775.5784992193534
 20
161.3409062813576
 30
0.0
 40
5.0
100
AcDbArc
 50
180.0
 51
270.0
1001
GENIUS_GENODEF_13
1002
{
1000
HIER
1070
     0
1002
}
1002
{
1000
MANEDIT
1070
     0
1002
}
1002
{
1000
NOSEL
1070
     0
1002
}
1002
{
1000
BEHIND
1070
     0
1002
}
1002
{
1000
OTHER
1070
     0
1002
}
1002
{
1000
REACTOR
1002
}
1001
GENIUS_GENOBJ-N-FIL_13
1002
{
1000
OWNER
1000
GEN
1002
}
  0
LINE
  5
CCA
330
1F
100
AcDbEntity
  8
0
100
AcDbLine
 10
-709.2663689195141
 20
145.8409144798412
 30
0.0
 11
-709.2663689195141
 21
139.8409144798412
 31
0.0
  0
LINE
  5
CCB
330
1F
100
AcDbEntity
  8
0
100
AcDbLine
 10
-729.8904579195145
 20
145.8409144798412
 30
0.0
 11
-729.8904579195145
 21
139.8409144798412
 31
0.0
  0
LINE
  5
CCC
330
1F
100
AcDbEntity
  8
0
100
AcDbLine
 10
-726.6671369195141
 20
145.8409144798412
 30
0.0
 11
-726.6671369195141
 21
139.8409144798412
 31
0.0
  0
LINE
  5
CCD
330
1F
100
AcDbEntity
  8
0
100
AcDbLine
 10
-736.9791819195143
 20
145.8409144798412
 30
0.0
 11
-736.9791819195143
 21
139.8409144798412
 31
0.0
  0
LINE
  5
CCE
330
1F
100
AcDbEntity
  8
0
100
AcDbLine
 10
-712.489690019514
 20
145.8409144798412
 30
0.0
 11
-712.489690019514
 21
139.8409144798412
 31
0.0
  0
LINE
  5
CCF
330
1F
100
AcDbEntity
  8
0
100
AcDbLine
 10
-702.1776449195145
 20
145.8409144798412
 30
0.0
 11
-702.1776449195145
 21
139.8409144798412
 31
0.0
  0
ELLIPSE
  5
CD0
330
1F
100
AcDbEntity
  8
0
100
AcDbEllipse
 10
-705.7220069195141
 20
145.8409144798412
 30
0.0
 11
3.544361799999999
 21
-0.0000000000000004
 31
0.0
210
0.0
220
0.0
230
-1.0
 40
0.7330166500000001
 41
3.1415927
 42
6.283185299999999
  0
ELLIPSE
  5
CD1
330
1F
100
AcDbEntity
  8
0
100
AcDbEllipse
 10
-733.4348199195142
 20
145.8409144798412
 30
0.0
 11
-3.544361799999999
 21
0.0000000000000004
 31
0.0
210
0.0
220
0.0
230
-1.0
 40
0.7330166500000001
 41
0.0
 42
3.1415927
  0
ELLIPSE
  5
CD2
330
1F
100
AcDbEntity
  8
0
100
AcDbEllipse
 10
-705.7220069195141
 20
139.8409144798412
 30
0.0
 11
-0.0000000000002268
 21
4.663689399999999
 31
0.0
210
0.0
220
0.0
230
-1.0
 40
0.7599909700000001
 41
1.5707963
 42
4.712388999999999
  0
ELLIPSE
  5
CD3
330
1F
100
AcDbEntity
  8
0
100
AcDbEllipse
 10
-719.5784135628073
 20
145.8409144798412
 30
0.0
 11
7.088723599999998
 21
-0.0000000000000009
 31
0.0
210
0.0
220
0.0
230
-1.0
 40
0.36650832
 41
3.1415927
 42
6.283185299999999
  0
ELLIPSE
  5
CD4
330
1F
100
AcDbEntity
  8
0
100
AcDbEllipse
 10
-719.5784135628073
 20
139.8409144798412
 30
0.0
 11
-7.088723599999998
 21
0.0000000000000009
 31
0.0
210
0.0
220
0.0
230
-1.0
 40
0.6579025600000001
 41
3.1415927
 42
6.283185299999999
  0
ELLIPSE
  5
CD5
330
1F
100
AcDbEntity
  8
0
100
AcDbEllipse
 10
-733.4348199195142
 20
139.8409144798412
 30
0.0
 11
0.0000000000002262
 21
4.663689399999999
 31
0.0
210
0.0
220
0.0
230
-1.0
 40
0.7599909700000001
 41
1.5707963
 42
4.712388999999999
  0
LINE
  5
CD6
330
1F
100
AcDbEntity
  8
0
100
AcDbLine
 10
-607.4284982514678
 20
299.551330466326
 30
0.0
 11
-607.4284982514673
 21
240.8409062813577
 31
0.0
  0
LINE
  5
CD7
330
1F
100
AcDbEntity
  8
0
100
AcDbLine
 10
-610.5950410690957
 20
291.640901703721
 30
0.0
 11
-610.5950410690957
 21
240.8409062813577
 31
0.0
  0
LINE
  5
CD8
330
1F
100
AcDbEntity
  8
0
100
AcDbLine
 10
-607.4284982514678
 20
182.1304820963893
 30
0.0
 11
-607.4284982514673
 21
240.8409062813577
 31
0.0
  0
LINE
  5
CD9
330
1F
100
AcDbEntity
  8
0
100
AcDbLine
 10
-610.5950410690957
 20
190.0409108589944
 30
0.0
 11
-610.5950410690957
 21
240.8409062813567
 31
0.0
  0
LINE
  5
CDA
330
1F
100
AcDbEntity
  8
0
100
AcDbLine
 10
-699.5785230660962
 20
335.84090628458
 30
0.0
 11
-699.5785230660962
 21
333.84090628458
 31
0.0
  0
LINE
  5
CDB
330
1F
100
AcDbEntity
  8
0
100
AcDbLine
 10
-831.7285002634699
 20
299.5513412941442
 30
0.0
 11
-831.7285059318237
 21
240.8409171091758
 31
0.0
  0
LINE
  5
CDC
330
1F
100
AcDbEntity
  8
0
100
AcDbLine
 10
-828.5619582095751
 20
291.6409122258179
 30
0.0
 11
-828.5619631141953
 21
240.8409168034546
 31
0.0
  0
LINE
  5
CDD
330
1F
100
AcDbEntity
  8
0
100
AcDbLine
 10
-831.7285116001766
 20
182.1304929242084
 30
0.0
 11
-831.7285059318237
 21
240.8409171091758
 31
0.0
  0
LINE
  5
CDE
330
1F
100
AcDbEntity
  8
0
100
AcDbLine
 10
-828.5619680188156
 20
190.0409213810914
 30
0.0
 11
-828.5619631141953
 21
240.8409168034538
 31
0.0
  0
LINE
  5
CDF
330
1F
100
AcDbEntity
  8
0
100
AcDbLine
 10
-662.0527641085809
 20
259.3408986519631
 30
0.0
 11
-662.0527641085809
 21
342.3409024666604
 31
0.0
  0
LINE
  5
CE0
330
1F
100
AcDbEntity
  8
0
100
AcDbLine
 10
-642.6042267007346
 20
259.3408986519631
 30
0.0
 11
-642.6042267007346
 21
342.3409024666604
 31
0.0
  0
LINE
  5
CE1
330
1F
100
AcDbEntity
  8
0
100
AcDbLine
 10
-662.0527641085809
 20
222.3409139107522
 30
0.0
 11
-662.0527641085809
 21
139.3409100960567
 31
0.0
  0
LINE
  5
CE2
330
1F
100
AcDbEntity
  8
0
100
AcDbLine
 10
-642.6042267007346
 20
222.3409139107522
 30
0.0
 11
-642.6042267007346
 21
139.3409100960567
 31
0.0
  0
LINE
  5
CE3
330
1F
100
AcDbEntity
  8
0
  6
Continuous
 62
     0
100
AcDbLine
 10
-334.5076601095366
 20
316.3666060032761
 30
0.0
 11
-325.7716833246959
 21
320.4402588259005
 31
0.0
  0
LINE
  5
CE4
330
1F
100
AcDbEntity
  8
0
  6
Continuous
 62
     0
100
AcDbLine
 10
-344.2947716978383
 20
162.4295133875263
 30
0.0
 11
-345.4669006353001
 21
149.0320182876408
 31
0.0
  0
LINE
  5
CE5
330
1F
100
AcDbEntity
  8
0
  6
Continuous
 62
     0
100
AcDbLine
 10
-343.5606979017925
 20
165.0829835804876
 30
0.0
 11
-344.6227919144658
 21
152.9431934297414
 31
0.0
  0
LINE
  5
CE6
330
1F
100
AcDbEntity
  8
0
  6
Continuous
 62
     0
100
AcDbLine
 10
-494.7494371992815
 20
196.1224996041115
 30
0.0
 11
-494.7494371992815
 21
182.2242680977639
 31
0.0
  0
LINE
  5
CE7
330
1F
100
AcDbEntity
  8
0
  6
Continuous
 62
     0
100
AcDbLine
 10
-509.7494371992816
 20
196.1224996041115
 30
0.0
 11
-509.7494371992816
 21
182.2242680977639
 31
0.0
  0
LINE
  5
CE8
330
1F
100
AcDbEntity
  8
0
  6
Continuous
 62
     0
100
AcDbLine
 10
-492.7754939512952
 20
179.405190516272
 30
0.0
 11
-487.7754763714261
 21
177.585332881226
 31
0.0
  0
LINE
  5
CE9
330
1F
100
AcDbEntity
  8
0
  6
Continuous
 62
     0
100
AcDbLine
 10
-493.4234750964979
 20
214.5692881507326
 30
0.0
 11
-494.0840121097044
 21
201.965491171232
 31
0.0
  0
LINE
  5
CEA
330
1F
100
AcDbEntity
  8
0
  6
Continuous
 62
     0
100
AcDbLine
 10
-511.0753816334659
 20
214.5692922969653
 30
0.0
 11
-510.4148446202589
 21
201.9654953174637
 31
0.0
  0
LINE
  5
CEB
330
1F
100
AcDbEntity
  8
0
  6
Continuous
 62
     0
100
AcDbLine
 10
-506.7494371992816
 20
199.1224996041115
 30
0.0
 11
-497.7494371992816
 21
199.1224996041115
 31
0.0
  0
LINE
  5
CEC
330
1F
100
AcDbEntity
  8
0
  6
Continuous
 62
     0
100
AcDbLine
 10
-497.2494219404925
 20
199.1224996041115
 30
0.0
 11
-497.0798891646136
 21
199.1224996041115
 31
0.0
  0
LINE
  5
CED
330
1F
100
AcDbEntity
  8
0
  6
Continuous
 62
     0
100
AcDbLine
 10
-511.7233581692398
 20
179.405186614265
 30
0.0
 11
-516.7233542412518
 21
177.5853368074391
 31
0.0
  0
LINE
  5
CEE
330
1F
100
AcDbEntity
  8
0
  6
Continuous
 62
     0
100
AcDbLine
 10
-507.2494327689778
 20
197.090880115377
 30
0.0
 11
-506.2494316902739
 21
196.0908790366726
 31
0.0
  0
LINE
  5
CEF
330
1F
100
AcDbEntity
  8
0
  6
Continuous
 62
     0
100
AcDbLine
 10
-493.4994219404925
 20
218.7499638985451
 30
0.0
 11
-493.4994219404925
 21
215.7994710396585
 31
0.0
  0
LINE
  5
CF0
330
1F
100
AcDbEntity
  8
0
  6
Continuous
 62
     0
100
AcDbLine
 10
-483.7494219404925
 20
188.6199819039162
 30
0.0
 11
-483.7494219404925
 21
180.4044286202248
 31
0.0
  0
LINE
  5
CF1
330
1F
100
AcDbEntity
  8
0
  6
Continuous
 62
     0
100
AcDbLine
 10
-492.1596920612127
 20
210.7994766007638
 30
0.0
 11
-489.7373440061446
 21
206.6038467710738
 31
0.0
  0
LINE
  5
CF2
330
1F
100
AcDbEntity
  8
0
  6
Continuous
 62
     0
100
AcDbLine
 10
-497.2494448286761
 20
197.0908769162985
 30
0.0
 11
-497.2494448286761
 21
199.0805407852546
 31
0.0
  0
LINE
  5
CF3
330
1F
100
AcDbEntity
  8
0
  6
Continuous
 62
     0
100
AcDbLine
 10
-507.249429569887
 20
197.0908769162985
 30
0.0
 11
-507.249429569887
 21
199.0805407852546
 31
0.0
  0
LINE
  5
CF4
330
1F
100
AcDbEntity
  8
0
  6
Continuous
 62
     0
100
AcDbLine
 10
-510.9994295698871
 20
218.7499638985451
 30
0.0
 11
-510.9994295698871
 21
215.7994710396585
 31
0.0
  0
LINE
  5
CF5
330
1F
100
AcDbEntity
  8
0
  6
Continuous
 62
     0
100
AcDbLine
 10
-520.7494295698871
 20
188.6199819039162
 30
0.0
 11
-520.7494295698871
 21
180.4044286202248
 31
0.0
  0
LINE
  5
CF6
330
1F
100
AcDbEntity
  8
0
  6
Continuous
 62
     0
100
AcDbLine
 10
-512.3391552465391
 20
210.7994688336354
 30
0.0
 11
-514.761509023654
 21
206.6038290930706
 31
0.0
  0
LINE
  5
CF7
330
1F
100
AcDbEntity
  8
0
  6
Continuous
 62
     0
100
AcDbLine
 10
-475.0856043058938
 20
251.5676750493791
 30
0.0
 11
-488.5492097244736
 21
259.3408914015741
 31
0.0
  0
LINE
  5
CF8
330
1F
100
AcDbEntity
  8
0
  6
Continuous
 62
     0
100
AcDbLine
 10
-507.249429569887
 20
236.8408986519631
 30
0.0
 11
-507.249429569887
 21
244.8409139107522
 31
0.0
  0
LINE
  5
CF9
330
1F
100
AcDbEntity
  8
0
  6
Continuous
 62
     0
100
AcDbLine
 10
-491.0137880903948
 20
259.3408986519631
 30
0.0
 11
-509.7494371992816
 21
259.3408986519631
 31
0.0
  0
LINE
  5
CFA
330
1F
100
AcDbEntity
  8
0
  6
Continuous
 62
     0
100
AcDbLine
 10
-506.2494589349467
 20
196.0909062813576
 30
0.0
 11
-498.249429569887
 21
196.0909062813576
 31
0.0
  0
LINE
  5
CFB
330
1F
100
AcDbEntity
  8
0
  6
Continuous
 62
     0
100
AcDbLine
 10
-497.2494219404925
 20
236.8408986519631
 30
0.0
 11
-497.2494219404925
 21
244.8409139107522
 31
0.0
  0
LINE
  5
CFC
330
1F
100
AcDbEntity
  8
0
  6
Continuous
 62
     0
100
AcDbLine
 10
-475.0856043058925
 20
230.1141375133362
 30
0.0
 11
-488.5492097244723
 21
222.3409211611421
 31
0.0
  0
LINE
  5
CFD
330
1F
100
AcDbEntity
  8
0
  6
Continuous
 62
     0
100
AcDbLine
 10
-344.2947589007236
 20
319.2522801256933
 30
0.0
 11
-345.4668890259645
 21
332.6497888019499
 31
0.0
  0
LINE
  5
CFE
330
1F
100
AcDbEntity
  8
0
  6
Continuous
 62
     0
100
AcDbLine
 10
-334.5076601095343
 20
165.3152065594482
 30
0.0
 11
-325.7716833246937
 21
161.2415537368239
 31
0.0
  0
LINE
  5
CFF
330
1F
100
AcDbEntity
  8
0
  6
Continuous
 62
     0
100
AcDbLine
 10
-478.4768084151019
 20
244.8409139107522
 30
0.0
 11
-509.7549668421216
 21
244.8409139107522
 31
0.0
  0
LINE
  5
D00
330
1F
100
AcDbEntity
  8
0
  6
Continuous
 62
     0
100
AcDbLine
 10
-478.4768084151019
 20
236.8408986519631
 30
0.0
 11
-509.7549668421216
 21
236.8408986519631
 31
0.0
  0
LINE
  5
D01
330
1F
100
AcDbEntity
  8
0
  6
Continuous
 62
     0
100
AcDbLine
 10
-345.7355063680688
 20
163.8273580000065
 30
0.0
 11
-344.868335099949
 21
163.4229894020724
 31
0.0
  0
LINE
  5
D02
330
1F
100
AcDbEntity
  8
0
  6
Continuous
 62
     0
100
AcDbLine
 10
-350.1384899776876
 20
146.3990205866563
 30
0.0
 11
-338.2595339944246
 21
145.3597466066318
 31
0.0
  0
LINE
  5
D03
330
1F
100
AcDbEntity
  8
0
  6
Continuous
 62
     0
100
AcDbLine
 10
-326.2658382242494
 20
160.1818805291046
 30
0.0
 11
-331.3052736539894
 21
149.3747762323388
 31
0.0
  0
LINE
  5
D04
330
1F
100
AcDbEntity
  8
0
  6
Continuous
 62
     0
100
AcDbLine
 10
-357.5950369375269
 20
327.7715498234416
 30
0.0
 11
-346.3006103506377
 21
333.0382273660658
 31
0.0
  0
LINE
  5
D05
330
1F
100
AcDbEntity
  8
0
  6
Continuous
 62
     0
100
AcDbLine
 10
-345.7355107550138
 20
317.8544552205991
 30
0.0
 11
-344.868339486894
 21
318.2588238185341
 31
0.0
  0
LINE
  5
D06
330
1F
100
AcDbEntity
  8
0
  6
Continuous
 62
     0
100
AcDbLine
 10
-350.1384335732373
 20
335.282799717325
 30
0.0
 11
-338.2595231921487
 21
336.3220697076773
 31
0.0
  0
LINE
  5
D07
330
1F
100
AcDbEntity
  8
0
  6
Continuous
 62
     0
100
AcDbLine
 10
-343.5606851046755
 20
316.5988099327338
 30
0.0
 11
-344.6227798748896
 21
328.7386087422116
 31
0.0
  0
LINE
  5
D08
330
1F
100
AcDbEntity
  8
0
  6
Continuous
 62
     0
100
AcDbLine
 10
-326.2657957927158
 20
321.4998864470141
 30
0.0
 11
-331.3052572971878
 21
332.3070466612231
 31
0.0
  0
LINE
  5
D09
330
1F
100
AcDbEntity
  8
0
  6
Continuous
 62
     0
100
AcDbLine
 10
-497.2494179358363
 20
197.0908841614815
 30
0.0
 11
-498.2494169914912
 21
196.0908851058271
 31
0.0
  0
LINE
  5
D0A
330
1F
100
AcDbEntity
  8
0
  6
Continuous
 62
     0
100
AcDbLine
 10
-491.0137880903948
 20
222.3409139107522
 30
0.0
 11
-493.749429569887
 21
222.3409139107522
 31
0.0
  0
LINE
  5
D0B
330
1F
100
AcDbEntity
  8
0
  6
Continuous
 62
     0
100
AcDbLine
 10
-510.7494219404925
 20
245.8408986519631
 30
0.0
 11
-510.7494219404925
 21
258.3409139107522
 31
0.0
  0
LINE
  5
D0C
330
1F
100
AcDbEntity
  8
0
  6
Continuous
 62
     0
100
AcDbLine
 10
-510.7494219404925
 20
222.3409139107522
 30
0.0
 11
-510.7494219404925
 21
235.8409139107522
 31
0.0
  0
LINE
  5
D0D
330
1F
100
AcDbEntity
  8
0
  6
Continuous
 62
     0
100
AcDbLine
 10
-357.5950369375232
 20
153.9102627392791
 30
0.0
 11
-346.3006103506341
 21
148.6435851966558
 31
0.0
  0
ARC
  5
D0E
330
1F
100
AcDbEntity
  8
0
  6
Continuous
 62
     0
100
AcDbCircle
 10
-334.0850313765277
 20
315.460310120469
 30
0.0
 40
1.000000029802322
100
AcDbArc
 50
114.9999993295882
 51
233.7743901091236
  0
ARC
  5
D0F
330
1F
100
AcDbEntity
  8
0
  6
Continuous
 62
     0
100
AcDbCircle
 10
-388.7494295698871
 20
240.8409062813577
 30
0.0
 40
95.19999504089355
100
AcDbArc
 50
297.4775796948318
 51
297.8350150409329
  0
ARC
  5
D10
330
1F
100
AcDbEntity
  8
0
  6
Continuous
 62
     0
100
AcDbCircle
 10
-490.749429569887
 20
188.6199819039162
 30
0.0
 40
30.0
100
AcDbArc
 50
143.1686044667677
 51
179.9999974955313
  0
ARC
  5
D11
330
1F
100
AcDbEntity
  8
0
  6
Continuous
 62
     0
100
AcDbCircle
 10
-513.7494219404925
 20
188.6199819039162
 30
0.0
 40
30.0
100
AcDbArc
 50
0.0000086513888259
 51
36.83139393937497
  0
ARC
  5
D12
330
1F
100
AcDbEntity
  8
0
  6
Continuous
 62
     0
100
AcDbCircle
 10
-502.2494371992816
 20
218.7499638985451
 30
0.0
 40
8.750000238418579
100
AcDbArc
 50
0.0000086513888259
 51
27.31810487635178
  0
ARC
  5
D13
330
1F
100
AcDbEntity
  8
0
  6
Continuous
 62
     0
100
AcDbCircle
 10
-502.2494371992816
 20
218.7499638985451
 30
0.0
 40
8.750000238418579
100
AcDbArc
 50
152.6820237036846
 51
179.9999974955313
  0
ARC
  5
D14
330
1F
100
AcDbEntity
  8
0
  6
Continuous
 62
     0
100
AcDbCircle
 10
-517.749429569887
 20
180.4044286202248
 30
0.0
 40
3.0
100
AcDbArc
 50
179.9999974955313
 51
289.9999985075693
  0
ARC
  5
D15
330
1F
100
AcDbEntity
  8
0
  6
Continuous
 62
     0
100
AcDbCircle
 10
-497.7494371992816
 20
196.1224996041115
 30
0.0
 40
3.0
100
AcDbArc
 50
0.0000086513888259
 51
90.00000432572047
  0
ARC
  5
D16
330
1F
100
AcDbEntity
  8
0
  6
Continuous
 62
     0
100
AcDbCircle
 10
-506.7494371992816
 20
196.1224996041115
 30
0.0
 40
3.0
100
AcDbArc
 50
89.99999749553131
 51
179.9999974955313
  0
ARC
  5
D17
330
1F
100
AcDbEntity
  8
0
  6
Continuous
 62
     0
100
AcDbCircle
 10
-507.418962345766
 20
202.1224996041115
 30
0.0
 40
3.0
100
AcDbArc
 50
183.0000009372408
 51
270.0000025044687
  0
ARC
  5
D18
330
1F
100
AcDbEntity
  8
0
  6
Continuous
 62
     0
100
AcDbCircle
 10
-497.0798891646136
 20
202.1224996041115
 30
0.0
 40
3.0
100
AcDbArc
 50
270.0000025044687
 51
356.9999946801733
  0
ARC
  5
D19
330
1F
100
AcDbEntity
  8
0
  6
Continuous
 62
     0
100
AcDbCircle
 10
-483.4994371992816
 20
215.7994710396585
 30
0.0
 40
9.999999761581419
100
AcDbArc
 50
179.9999974955313
 51
209.9999974197328
  0
ARC
  5
D1A
330
1F
100
AcDbEntity
  8
0
  6
Continuous
 62
     0
100
AcDbCircle
 10
-520.9994371992816
 20
215.7994710396585
 30
0.0
 40
9.999999761581419
100
AcDbArc
 50
329.9999973439112
 51
0.0000050089374039
  0
ARC
  5
D1B
330
1F
100
AcDbEntity
  8
0
  6
Continuous
 62
     0
100
AcDbCircle
 10
-486.7494219404925
 20
180.4044286202248
 30
0.0
 40
3.0
100
AcDbArc
 50
249.9999996711921
 51
0.0000050089374039
  0
ARC
  5
D1C
330
1F
100
AcDbEntity
  8
0
  6
Continuous
 62
     0
100
AcDbCircle
 10
-512.7494371992816
 20
182.2242680977639
 30
0.0
 40
3.0
100
AcDbArc
 50
289.9999985075693
 51
0.0000050089374039
  0
ARC
  5
D1D
330
1F
100
AcDbEntity
  8
0
  6
Continuous
 62
     0
100
AcDbCircle
 10
-491.7494371992815
 20
182.2242680977639
 30
0.0
 40
3.0
100
AcDbArc
 50
179.9999974955313
 51
249.9999996711921
  0
ARC
  5
D1E
330
1F
100
AcDbEntity
  8
0
  6
Continuous
 62
     0
100
AcDbCircle
 10
-334.0850313765277
 20
166.2215024422463
 30
0.0
 40
1.000000029802322
100
AcDbArc
 50
126.2256098908762
 51
245.0000006704117
  0
ARC
  5
D1F
330
1F
100
AcDbEntity
  8
0
  6
Continuous
 62
     0
100
AcDbCircle
 10
-491.0137880903948
 20
219.3409139107522
 30
0.0
 40
3.0
100
AcDbArc
 50
11.87291282526513
 51
89.99999749553131
  0
ARC
  5
D20
330
1F
100
AcDbEntity
  8
0
  6
Continuous
 62
     0
100
AcDbCircle
 10
-481.5357683760394
 20
258.7557851265725
 30
0.0
 40
3.0
100
AcDbArc
 50
240.0000016696458
 51
349.0719892048652
  0
ARC
  5
D21
330
1F
100
AcDbEntity
  8
0
  6
Continuous
 62
     0
100
AcDbCircle
 10
-481.5357683760394
 20
222.9260274361428
 30
0.0
 40
3.0
100
AcDbArc
 50
10.92801079513479
 51
119.9999983303542
  0
CIRCLE
  5
D22
330
1F
100
AcDbEntity
  8
0
  6
Continuous
 62
     0
100
AcDbCircle
 10
-502.2494371992816
 20
252.0909062813577
 30
0.0
 40
4.999992370605468
  0
ARC
  5
D23
330
1F
100
AcDbEntity
  8
0
  6
Continuous
 62
     0
100
AcDbCircle
 10
-478.4768084151019
 20
247.8409139107522
 30
0.0
 40
3.0
100
AcDbArc
 50
270.0000025044687
 51
355.5391538205329
  0
ARC
  5
D24
330
1F
100
AcDbEntity
  8
0
  6
Continuous
 62
     0
100
AcDbCircle
 10
-388.7494295698871
 20
240.8409062813577
 30
0.0
 40
91.5
100
AcDbArc
 50
306.2256171005777
 51
53.77439853316371
  0
ARC
  5
D25
330
1F
100
AcDbEntity
  8
0
  6
Continuous
 62
     0
100
AcDbCircle
 10
-388.7494295698871
 20
240.8409062813577
 30
0.0
 40
101.4999961853027
100
AcDbArc
 50
308.9948160610977
 51
51.0051547566877
  0
ARC
  5
D26
330
1F
100
AcDbEntity
  8
0
  6
Continuous
 62
     0
100
AcDbCircle
 10
-321.7342568468816
 20
323.6129777328757
 30
0.0
 40
5.0
100
AcDbArc
 50
204.9999997111763
 51
231.0051547566879
  0
ARC
  5
D27
330
1F
100
AcDbEntity
  8
0
  6
Continuous
 62
     0
100
AcDbCircle
 10
-388.7494295698871
 20
240.8409062813577
 30
0.0
 40
101.4999961853027
100
AcDbArc
 50
64.75884900264093
 51
168.127083019575
  0
ARC
  5
D28
330
1F
100
AcDbEntity
  8
0
  6
Continuous
 62
     0
100
AcDbCircle
 10
-491.0137880903948
 20
262.3408986519631
 30
0.0
 40
3.0
100
AcDbArc
 50
270.0000025044687
 51
348.1270871747349
  0
ARC
  5
D29
330
1F
100
AcDbEntity
  8
0
  6
Continuous
 62
     0
100
AcDbCircle
 10
-388.7494295698871
 20
240.8409062813577
 30
0.0
 40
87.0
100
AcDbArc
 50
302.3644918865736
 51
57.64085057587844
  0
ARC
  5
D2A
330
1F
100
AcDbEntity
  8
0
  6
Continuous
 62
     0
100
AcDbCircle
 10
-388.7494295698871
 20
240.8409062813577
 30
0.0
 40
91.5
100
AcDbArc
 50
71.56313126512633
 51
169.0719876109879
  0
ARC
  5
D2B
330
1F
100
AcDbEntity
  8
0
  6
Continuous
 62
     0
100
AcDbCircle
 10
-478.4768084151019
 20
233.8408986519631
 30
0.0
 40
3.0
100
AcDbArc
 50
4.460846179467048
 51
89.99999749553131
  0
ARC
  5
D2C
330
1F
100
AcDbEntity
  8
0
  6
Continuous
 62
     0
100
AcDbCircle
 10
-347.0033510786761
 20
161.1084310005959
 30
0.0
 40
3.0
100
AcDbArc
 50
64.99999566148054
 51
117.635502952913
  0
CIRCLE
  5
D2D
330
1F
100
AcDbEntity
  8
0
  6
Continuous
 62
     0
100
AcDbCircle
 10
-337.6494082075824
 20
152.3331014107522
 30
0.0
 40
3.099999904632568
  0
ARC
  5
D2E
330
1F
100
AcDbEntity
  8
0
  6
Continuous
 62
     0
100
AcDbCircle
 10
-340.5721376997699
 20
164.8215352486428
 30
0.0
 40
3.0
100
AcDbArc
 50
122.3644937077982
 51
175.0000001454466
  0
ARC
  5
D2F
330
1F
100
AcDbEntity
  8
0
  6
Continuous
 62
     0
100
AcDbCircle
 10
-345.2909487349261
 20
162.5166722725686
 30
0.0
 40
1.000000029802322
100
AcDbArc
 50
355.0000060081635
 51
65.00000567937078
  0
ARC
  5
D30
330
1F
100
AcDbEntity
  8
0
  6
Continuous
 62
     0
100
AcDbCircle
 10
-350.5742739302387
 20
141.4180470894631
 30
0.0
 40
4.999999880790709
100
AcDbArc
 50
84.99999849474892
 51
111.0051856085776
  0
ARC
  5
D31
330
1F
100
AcDbEntity
  8
0
  6
Continuous
 62
     0
100
AcDbCircle
 10
-321.7342928511371
 20
158.0687886666115
 30
0.0
 40
4.999999880790709
100
AcDbArc
 50
128.9948110521048
 51
154.9999998734768
  0
ARC
  5
D32
330
1F
100
AcDbEntity
  8
0
  6
Continuous
 62
     0
100
AcDbCircle
 10
-388.7494295698871
 20
240.8409062813577
 30
0.0
 40
87.0
100
AcDbArc
 50
184.4608435044683
 51
297.6355011316788
  0
ARC
  5
D33
330
1F
100
AcDbEntity
  8
0
  6
Continuous
 62
     0
100
AcDbCircle
 10
-337.6494082075824
 20
152.3331014107522
 30
0.0
 40
6.99999976158142
100
AcDbArc
 50
175.0000000145164
 51
335.1333867755674
  0
ARC
  5
D34
330
1F
100
AcDbEntity
  8
0
  6
Continuous
 62
     0
100
AcDbCircle
 10
-358.8629091841449
 20
330.4904767464456
 30
0.0
 40
3.0
100
AcDbArc
 50
251.5631362740726
 51
295.0000043385194
  0
ARC
  5
D35
330
1F
100
AcDbEntity
  8
0
  6
Continuous
 62
     0
100
AcDbCircle
 10
-347.0033510786761
 20
320.5733701180276
 30
0.0
 40
3.0
100
AcDbArc
 50
242.364497047087
 51
295.0000043385194
  0
ARC
  5
D36
330
1F
100
AcDbEntity
  8
0
  6
Continuous
 62
     0
100
AcDbCircle
 10
-337.6494082075824
 20
329.3486997078713
 30
0.0
 40
6.99999976158142
100
AcDbArc
 50
95.00000332647644
 51
184.9999999854835
  0
CIRCLE
  5
D37
330
1F
100
AcDbEntity
  8
0
  6
Continuous
 62
     0
100
AcDbCircle
 10
-337.6494082075824
 20
329.3486997078713
 30
0.0
 40
3.099999904632568
  0
ARC
  5
D38
330
1F
100
AcDbEntity
  8
0
  6
Continuous
 62
     0
100
AcDbCircle
 10
-340.5721376997699
 20
316.8602887581643
 30
0.0
 40
3.0
100
AcDbArc
 50
184.9999998545532
 51
237.6355062922018
  0
ARC
  5
D39
330
1F
100
AcDbEntity
  8
0
  6
Continuous
 62
     0
100
AcDbCircle
 10
-345.2909487349261
 20
319.1651288460549
 30
0.0
 40
1.000000029802322
100
AcDbArc
 50
295.0000043385194
 51
5.000004009737965
  0
ARC
  5
D3A
330
1F
100
AcDbEntity
  8
0
  6
Continuous
 62
     0
100
AcDbCircle
 10
-350.5742739302387
 20
340.2637654732522
 30
0.0
 40
4.999999880790709
100
AcDbArc
 50
248.9948143914224
 51
275.0000015052511
  0
ARC
  5
D3B
330
1F
100
AcDbEntity
  8
0
  6
Continuous
 62
     0
100
AcDbCircle
 10
-388.7494295698871
 20
240.8409062813577
 30
0.0
 40
95.19999504089355
100
AcDbArc
 50
62.16497701680765
 51
62.52241239461154
  0
ARC
  5
D3C
330
1F
100
AcDbEntity
  8
0
  6
Continuous
 62
     0
100
AcDbCircle
 10
-358.8629091841449
 20
151.1913358162698
 30
0.0
 40
3.0
100
AcDbArc
 50
64.99999566148054
 51
108.4368637259274
  0
ARC
  5
D3D
330
1F
100
AcDbEntity
  8
0
  6
Continuous
 62
     0
100
AcDbCircle
 10
-337.6494082075824
 20
329.3486997078713
 30
0.0
 40
6.99999976158142
100
AcDbArc
 50
24.99998999488504
 51
59.99999666067896
  0
ARC
  5
D3E
330
1F
100
AcDbEntity
  8
0
  6
Continuous
 62
     0
100
AcDbCircle
 10
-337.6494082075824
 20
329.3486997078713
 30
0.0
 40
6.99999976158142
100
AcDbArc
 50
59.99999666067896
 51
95.00000332647644
  0
ARC
  5
D3F
330
1F
100
AcDbEntity
  8
0
  6
Continuous
 62
     0
100
AcDbCircle
 10
-509.7494371992816
 20
258.3409139107522
 30
0.0
 40
1.000000029802322
100
AcDbArc
 50
89.99999749553131
 51
180.0
  0
ARC
  5
D40
330
1F
100
AcDbEntity
  8
0
  6
Continuous
 62
     0
100
AcDbCircle
 10
-509.7494371992816
 20
245.8408986519631
 30
0.0
 40
1.000000029802322
100
AcDbArc
 50
180.0
 51
270.0000025044687
  0
ARC
  5
D41
330
1F
100
AcDbEntity
  8
0
  6
Continuous
 62
     0
100
AcDbCircle
 10
-509.7494371992816
 20
235.8409139107522
 30
0.0
 40
1.000000029802322
100
AcDbArc
 50
89.99999749553131
 51
180.0
  0
ARC
  5
D42
330
1F
100
AcDbEntity
  8
0
  6
Continuous
 62
     0
100
AcDbCircle
 10
-388.7494295698871
 20
240.8409062813577
 30
0.0
 40
101.4999961853027
100
AcDbArc
 50
191.8729169804249
 51
295.2411399495906
  0
ARC
  5
D43
330
1F
100
AcDbEntity
  8
0
  6
Continuous
 62
     0
100
AcDbCircle
 10
-388.7494295698871
 20
240.8409062813577
 30
0.0
 40
91.5
100
AcDbArc
 50
190.9280123889577
 51
288.4368687348736
  0
ARC
  5
D44
330
1F
100
AcDbEntity
  8
0
  6
Continuous
 62
     0
100
AcDbCircle
 10
-388.7494295698871
 20
240.8409062813577
 30
0.0
 40
87.0
100
AcDbArc
 50
62.43226800526599
 51
175.53915649548
  0
SPLINE
  5
D45
330
1F
100
AcDbEntity
  8
0
  6
Continuous
 62
     0
100
AcDbSpline
210
0.0
220
0.0
230
1.0
 70
  1064
 71
     3
 72
     9
 73
     5
 74
     3
 42
0.000000001
 43
0.0000000001
 44
0.0000000001
 12
-0.8522434547228021
 22
0.5231453850337811
 32
0.0
 13
-0.8522434547228019
 23
-0.5231453850337815
 33
0.0
 40
0.0
 40
0.0
 40
0.0
 40
0.0
 40
8.891354270436988
 40
17.78268666010006
 40
17.78268666010006
 40
17.78268666010006
 40
17.78268666010006
 10
-493.749429569887
 20
222.3409139107522
 30
0.0
 10
-496.2752957300875
 20
223.891404228512
 30
0.0
 10
-502.2494308336262
 20
226.0081073855702
 30
0.0
 10
-508.2235619962075
 20
223.8914004129034
 30
0.0
 10
-510.7494219404925
 20
222.3409139107522
 30
0.0
 11
-493.749429569887
 21
222.3409139107522
 31
0.0
 11
-502.2494371992816
 21
224.949754853135
 31
0.0
 11
-510.7494219404925
 21
222.3409139107522
 31
0.0
  0
LINE
  5
D46
330
1F
100
AcDbEntity
  8
0
100
AcDbLine
 10
-388.7494386824924
 20
300.3409062813577
 30
0.0
 11
-390.7591886790465
 21
300.3409062813577
 31
0.0
  0
LINE
  5
D47
330
1F
100
AcDbEntity
  8
0
  6
CENTER
100
AcDbLine
 10
-517.2494301129376
 20
240.8409062813577
 30
0.0
 11
-277.249433927635
 21
240.8409062813577
 31
0.0
  0
CIRCLE
  5
D48
330
1F
100
AcDbEntity
  8
0
100
AcDbCircle
 10
-388.7494295698871
 20
240.8409062813577
 30
0.0
 40
59.5
  0
CIRCLE
  5
D49
330
1F
100
AcDbEntity
  8
0
100
AcDbCircle
 10
-388.7494295698871
 20
240.8409062813577
 30
0.0
 40
48.79999237060474
  0
CIRCLE
  5
D4A
330
1F
100
AcDbEntity
  8
0
100
AcDbCircle
 10
-388.7494295698871
 20
240.8409062813577
 30
0.0
 40
65.0
  0
LINE
  5
D4B
330
1F
100
AcDbEntity
  8
0
  6
CENTER
100
AcDbLine
 10
-388.7494267472407
 20
523.2409492574348
 30
0.0
 11
-388.7494386824928
 21
129.3409100960549
 31
0.0
  0
LINE
  5
D4C
330
1F
100
AcDbEntity
  8
0
100
AcDbLine
 10
-639.328491589958
 20
148.3409180227432
 30
0.0
 11
-642.6042281576679
 21
139.3409060931532
 31
0.0
  0
LINE
  5
D4D
330
1F
100
AcDbEntity
  8
0
100
AcDbLine
 10
-639.328491589958
 20
240.8409062813577
 30
0.0
 11
-639.328491589958
 21
148.3409180227432
 31
0.0
  0
LINE
  5
D4E
330
1F
100
AcDbEntity
  8
0
100
AcDbLine
 10
-665.328499219358
 20
333.3408945399721
 30
0.0
 11
-662.0527626516491
 21
342.3409064695612
 31
0.0
  0
LINE
  5
D4F
330
1F
100
AcDbEntity
  8
0
100
AcDbLine
 10
-665.3284992193534
 20
240.8409062813577
 30
0.0
 11
-665.328499219358
 21
333.3408945399721
 31
0.0
  0
LINE
  5
D50
330
1F
100
AcDbEntity
  8
0
100
AcDbLine
 10
-639.3284915899625
 20
333.3408945399739
 30
0.0
 11
-642.6042281576733
 21
342.340906469563
 31
0.0
  0
LINE
  5
D51
330
1F
100
AcDbEntity
  8
0
100
AcDbLine
 10
-639.328491589958
 20
240.8409062813595
 30
0.0
 11
-639.328491589963
 21
333.3408945399739
 31
0.0
  0
LINE
  5
D52
330
1F
100
AcDbEntity
  8
0
  6
Continuous
 62
     0
100
AcDbLine
 10
-657.328491589959
 20
225.1199742745217
 30
0.0
 11
-657.328491589959
 21
257.681070465928
 31
0.0
  0
LINE
  5
D53
330
1F
100
AcDbEntity
  8
0
  6
Continuous
 62
     0
100
AcDbLine
 10
-647.328506848748
 20
225.1199742745217
 30
0.0
 11
-647.328506848748
 21
257.681070465928
 31
0.0
  0
LINE
  5
D54
330
1F
100
AcDbEntity
  8
0
  6
Continuous
 62
     0
100
AcDbLine
 10
-655.1784977784113
 20
210.269975357836
 30
0.0
 11
-655.1784977784113
 21
180.5269019616577
 31
0.0
  0
LINE
  5
D55
330
1F
100
AcDbEntity
  8
0
  6
Continuous
 62
     0
100
AcDbLine
 10
-661.0784956969096
 20
213.1199684446043
 30
0.0
 11
-660.4996788455809
 21
202.0754850370164
 31
0.0
  0
LINE
  5
D56
330
1F
100
AcDbEntity
  8
0
  6
Continuous
 62
     0
100
AcDbLine
 10
-643.5784989585831
 20
218.7499713380991
 30
0.0
 11
-643.5784989585831
 21
213.1199586581039
 31
0.0
  0
LINE
  5
D57
330
1F
100
AcDbEntity
  8
0
  6
Continuous
 62
     0
100
AcDbLine
 10
-661.0784994801238
 20
218.7499713380991
 30
0.0
 11
-661.0784994801238
 21
213.1200196932629
 31
0.0
  0
LINE
  5
D58
330
1F
100
AcDbEntity
  8
0
  6
Continuous
 62
     0
100
AcDbLine
 10
-649.4785006602955
 20
210.269975357836
 30
0.0
 11
-649.4785006602955
 21
180.5269019616577
 31
0.0
  0
LINE
  5
D59
330
1F
100
AcDbEntity
  8
0
  6
Continuous
 62
     0
100
AcDbLine
 10
-655.0851478569065
 20
180.105020571416
 30
0.0
 11
-654.0975093452666
 21
177.9825364273271
 31
0.0
  0
LINE
  5
D5A
330
1F
100
AcDbEntity
  8
0
  6
Continuous
 62
     0
100
AcDbLine
 10
-649.5718520712044
 20
180.1050128495386
 30
0.0
 11
-650.5594905828443
 21
177.9825287054487
 31
0.0
  0
LINE
  5
D5B
330
1F
100
AcDbEntity
  8
0
  6
Continuous
 62
     0
100
AcDbLine
 10
-653.190861153013
 20
177.4044195687962
 30
0.0
 11
-651.466137285694
 21
177.4044195687962
 31
0.0
  0
LINE
  5
D5C
330
1F
100
AcDbEntity
  8
0
  6
Continuous
 62
     0
100
AcDbLine
 10
-649.4785006602955
 20
199.2324918135615
 30
0.0
 11
-647.1532022816704
 21
199.2324918135615
 31
0.0
  0
LINE
  5
D5D
330
1F
100
AcDbEntity
  8
0
  6
Continuous
 62
     0
100
AcDbLine
 10
-643.5784994854079
 20
213.1199759138086
 30
0.0
 11
-644.1573167360279
 21
202.0754848872826
 31
0.0
  0
LINE
  5
D5E
330
1F
100
AcDbEntity
  8
0
  6
Continuous
 62
     0
100
AcDbLine
 10
-657.5037923423392
 20
199.2324918135615
 30
0.0
 11
-655.1784977784113
 21
199.2324918135615
 31
0.0
  0
LINE
  5
D5F
330
1F
100
AcDbEntity
  8
0
  6
Continuous
 62
     0
100
AcDbLine
 10
-657.5784992193534
 20
225.1199742745217
 30
0.0
 11
-647.0784992193535
 21
225.1199742745217
 31
0.0
  0
LINE
  5
D60
330
1F
100
AcDbEntity
  8
0
  6
Continuous
 62
     0
100
AcDbLine
 10
-648.3284774836883
 20
196.0909062813576
 30
0.0
 11
-649.4785006602955
 21
196.0909062813576
 31
0.0
  0
LINE
  5
D61
330
1F
100
AcDbEntity
  8
0
  6
Continuous
 62
     0
100
AcDbLine
 10
-647.328506848748
 20
197.0908769162976
 30
0.0
 11
-647.328506848748
 21
199.2324918135615
 31
0.0
  0
LINE
  5
D62
330
1F
100
AcDbEntity
  8
0
  6
Continuous
 62
     0
100
AcDbLine
 10
-657.328491589959
 20
197.0908769162976
 30
0.0
 11
-657.328491589959
 21
199.2324918135615
 31
0.0
  0
LINE
  5
D63
330
1F
100
AcDbEntity
  8
0
  6
Continuous
 62
     0
100
AcDbLine
 10
-657.3285184827954
 20
197.0908841614824
 30
0.0
 11
-656.3285194271407
 21
196.0908851058281
 31
0.0
  0
LINE
  5
D64
330
1F
100
AcDbEntity
  8
0
  6
Continuous
 62
     0
100
AcDbLine
 10
-647.3285036496568
 20
197.090880115376
 30
0.0
 11
-648.3285047283607
 21
196.0908790366726
 31
0.0
  0
LINE
  5
D65
330
1F
100
AcDbEntity
  8
0
  6
Continuous
 62
     0
100
AcDbLine
 10
-649.4785006602955
 20
197.0908769162976
 30
0.0
 11
-647.328506848748
 21
197.0908769162976
 31
0.0
  0
LINE
  5
D66
330
1F
100
AcDbEntity
  8
0
  6
Continuous
 62
     0
100
AcDbLine
 10
-655.1784977784113
 20
196.0909062813576
 30
0.0
 11
-656.328506848748
 21
196.0909062813576
 31
0.0
  0
LINE
  5
D67
330
1F
100
AcDbEntity
  8
0
  6
Continuous
 62
     0
100
AcDbLine
 10
-657.328491589959
 20
197.0908769162976
 30
0.0
 11
-655.1784977784113
 21
197.0908769162976
 31
0.0
  0
LINE
  5
D68
330
1F
100
AcDbEntity
  8
0
  6
Continuous
 62
     0
100
AcDbLine
 10
-647.328506848748
 20
248.5909139107522
 30
0.0
 11
-647.0784992193535
 21
248.5909139107522
 31
0.0
  0
LINE
  5
D69
330
1F
100
AcDbEntity
  8
0
  6
Continuous
 62
     0
100
AcDbLine
 10
-647.328506848748
 20
255.5908986519631
 30
0.0
 11
-647.0784992193535
 21
255.5908986519631
 31
0.0
  0
LINE
  5
D6A
330
1F
100
AcDbEntity
  8
0
  6
Continuous
 62
     0
100
AcDbLine
 10
-657.5784992193534
 20
223.3409139107522
 30
0.0
 11
-657.5784992193534
 21
235.8408986519631
 31
0.0
  0
LINE
  5
D6B
330
1F
100
AcDbEntity
  8
0
  6
Continuous
 62
     0
100
AcDbLine
 10
-657.5784992193534
 20
245.8409139107522
 30
0.0
 11
-657.5784992193534
 21
258.3408986519631
 31
0.0
  0
LINE
  5
D6C
330
1F
100
AcDbEntity
  8
0
  6
Continuous
 62
     0
100
AcDbLine
 10
-664.3284992193534
 20
244.8409139107522
 30
0.0
 11
-657.328491589959
 21
244.8409139107522
 31
0.0
  0
LINE
  5
D6D
330
1F
100
AcDbEntity
  8
0
  6
Continuous
 62
     0
100
AcDbLine
 10
-664.3284992193534
 20
236.8408986519631
 30
0.0
 11
-657.328491589959
 21
236.8408986519631
 31
0.0
  0
LINE
  5
D6E
330
1F
100
AcDbEntity
  8
0
  6
Continuous
 62
     0
100
AcDbLine
 10
-646.0784992193534
 20
222.3409139107522
 30
0.0
 11
-640.3284992193534
 21
222.3409139107522
 31
0.0
  0
LINE
  5
D6F
330
1F
100
AcDbEntity
  8
0
  6
Continuous
 62
     0
100
AcDbLine
 10
-647.328506848748
 20
236.8408986519631
 30
0.0
 11
-640.3284992193534
 21
236.8408986519631
 31
0.0
  0
LINE
  5
D70
330
1F
100
AcDbEntity
  8
0
  6
Continuous
 62
     0
100
AcDbLine
 10
-647.0784992193535
 20
245.8409139107522
 30
0.0
 11
-647.0784992193535
 21
258.3408986519631
 31
0.0
  0
LINE
  5
D71
330
1F
100
AcDbEntity
  8
0
  6
Continuous
 62
     0
100
AcDbLine
 10
-647.0784992193535
 20
223.3409139107522
 30
0.0
 11
-647.0784992193535
 21
235.8408986519631
 31
0.0
  0
LINE
  5
D72
330
1F
100
AcDbEntity
  8
0
  6
Continuous
 62
     0
100
AcDbLine
 10
-637.8284915899589
 20
248.1908971260842
 30
0.0
 11
-637.8284915899589
 21
255.9909154366311
 31
0.0
  0
LINE
  5
D73
330
1F
100
AcDbEntity
  8
0
  6
Continuous
 62
     0
100
AcDbLine
 10
-666.3284915899589
 20
247.0909139107522
 30
0.0
 11
-665.328506848748
 21
247.0909139107522
 31
0.0
  0
LINE
  5
D74
330
1F
100
AcDbEntity
  8
0
  6
Continuous
 62
     0
100
AcDbLine
 10
-657.5784992193534
 20
255.5908986519631
 30
0.0
 11
-657.328491589959
 21
255.5908986519631
 31
0.0
  0
LINE
  5
D75
330
1F
100
AcDbEntity
  8
0
  6
Continuous
 62
     0
100
AcDbLine
 10
-657.5784992193534
 20
248.5909139107522
 30
0.0
 11
-657.328491589959
 21
248.5909139107522
 31
0.0
  0
LINE
  5
D76
330
1F
100
AcDbEntity
  8
0
  6
Continuous
 62
     0
100
AcDbLine
 10
-666.3284915899589
 20
257.0908986519631
 30
0.0
 11
-665.328506848748
 21
257.0908986519631
 31
0.0
  0
LINE
  5
D77
330
1F
100
AcDbEntity
  8
0
  6
Continuous
 62
     0
100
AcDbLine
 10
-650.4081839780028
 20
259.3408986519631
 30
0.0
 11
-640.3284992193534
 21
259.3408986519631
 31
0.0
  0
LINE
  5
D78
330
1F
100
AcDbEntity
  8
0
  6
Continuous
 62
     0
100
AcDbLine
 10
-647.328506848748
 20
244.8409139107522
 30
0.0
 11
-640.3284992193534
 21
244.8409139107522
 31
0.0
  0
LINE
  5
D79
330
1F
100
AcDbEntity
  8
0
  6
Continuous
 62
     0
100
AcDbLine
 10
-664.3284992193534
 20
259.3408986519631
 30
0.0
 11
-654.2488144607037
 21
259.3408986519631
 31
0.0
  0
LINE
  5
D7A
330
1F
100
AcDbEntity
  8
0
  6
Continuous
 62
     0
100
AcDbLine
 10
-664.3284992193534
 20
222.3409139107522
 30
0.0
 11
-658.5784992193534
 21
222.3409139107522
 31
0.0
  0
LINE
  5
D7B
330
1F
100
AcDbEntity
  8
0
  6
Continuous
 62
     0
100
AcDbLine
 10
-639.3284915899589
 20
256.7409154366311
 30
0.0
 11
-638.578491589959
 21
256.7409154366311
 31
0.0
  0
LINE
  5
D7C
330
1F
100
AcDbEntity
  8
0
  6
Continuous
 62
     0
100
AcDbLine
 10
-639.3284915899589
 20
247.4408971260842
 30
0.0
 11
-638.578491589959
 21
247.4408971260842
 31
0.0
  0
ARC
  5
D7D
330
1F
100
AcDbEntity
  8
0
  6
Continuous
 62
     0
100
AcDbCircle
 10
-652.3284992193534
 20
252.0909062813577
 30
0.0
 40
7.500000000000001
100
AcDbArc
 50
48.18968593424259
 51
131.8103156596077
  0
ARC
  5
D7E
330
1F
100
AcDbEntity
  8
0
  6
Continuous
 62
     0
100
AcDbCircle
 10
-652.3284992193534
 20
216.7699717368538
 30
0.0
 40
6.000000178813935
100
AcDbArc
 50
311.8103174808486
 51
340.5287784594182
  0
ARC
  5
D7F
330
1F
100
AcDbEntity
  8
0
  6
Continuous
 62
     0
100
AcDbCircle
 10
-650.4785006900979
 20
180.5269019616577
 30
0.0
 40
1.000000029802322
100
AcDbArc
 50
335.0464041786914
 51
0.0000025044687019
  0
ARC
  5
D80
330
1F
100
AcDbEntity
  8
0
  6
Continuous
 62
     0
100
AcDbCircle
 10
-651.466137285694
 20
178.4044195985985
 30
0.0
 40
1.000000029802322
100
AcDbArc
 50
269.9999974955052
 51
335.0464041786914
  0
ARC
  5
D81
330
1F
100
AcDbEntity
  8
0
  6
Continuous
 62
     0
100
AcDbCircle
 10
-653.190861153013
 20
178.4044195985985
 30
0.0
 40
1.000000029802322
100
AcDbArc
 50
204.9535993500817
 51
269.9999974955052
  0
ARC
  5
D82
330
1F
100
AcDbEntity
  8
0
  6
Continuous
 62
     0
100
AcDbCircle
 10
-654.1784977486091
 20
180.5269019616577
 30
0.0
 40
1.000000029802322
100
AcDbArc
 50
179.9999949910626
 51
204.9535993500817
  0
ARC
  5
D83
330
1F
100
AcDbEntity
  8
0
  6
Continuous
 62
     0
100
AcDbCircle
 10
-647.1532022816704
 20
202.2324919029685
 30
0.0
 40
3.000000089406967
100
AcDbArc
 50
269.9999974955052
 51
356.9999990627591
  0
ARC
  5
D84
330
1F
100
AcDbEntity
  8
0
  6
Continuous
 62
     0
100
AcDbCircle
 10
-657.5037923423392
 20
202.2324919029685
 30
0.0
 40
3.000000089406967
100
AcDbArc
 50
183.0000053198267
 51
269.9999974955052
  0
ARC
  5
D85
330
1F
100
AcDbEntity
  8
0
  6
Continuous
 62
     0
100
AcDbCircle
 10
-652.3284992193534
 20
216.7699717368538
 30
0.0
 40
6.000000178813935
100
AcDbArc
 50
199.4712250693253
 51
228.1896843403923
  0
ARC
  5
D86
330
1F
100
AcDbEntity
  8
0
  6
Continuous
 62
     0
100
AcDbCircle
 10
-652.3284992193534
 20
210.269975357836
 30
0.0
 40
2.849999989569183
100
AcDbArc
 50
0.0574064728786133
 51
180.0000086514409
  0
ARC
  5
D87
330
1F
100
AcDbEntity
  8
0
  6
Continuous
 62
     0
100
AcDbCircle
 10
-652.3284992193534
 20
218.7499713380991
 30
0.0
 40
8.750000260770322
100
AcDbArc
 50
155.7704484832496
 51
179.999991348559
  0
ARC
  5
D88
330
1F
100
AcDbEntity
  8
0
  6
Continuous
 62
     0
100
AcDbCircle
 10
-652.3284992193534
 20
218.7499713380991
 30
0.0
 40
8.750000260770322
100
AcDbArc
 50
0.0000025044687019
 51
24.22955151675037
  0
ARC
  5
D89
330
1F
100
AcDbEntity
  8
0
  6
Continuous
 62
     0
100
AcDbCircle
 10
-640.3284992193534
 20
223.3408986519631
 30
0.0
 40
1.000000029802322
100
AcDbArc
 50
269.9999974955052
 51
0.0
  0
ARC
  5
D8A
330
1F
100
AcDbEntity
  8
0
  6
Continuous
 62
     0
100
AcDbCircle
 10
-640.3284992193534
 20
258.3409139107522
 30
0.0
 40
1.000000029802322
100
AcDbArc
 50
0.0
 51
90.00000250446868
  0
ARC
  5
D8B
330
1F
100
AcDbEntity
  8
0
  6
Continuous
 62
     0
100
AcDbCircle
 10
-664.3284992193534
 20
258.3409139107522
 30
0.0
 40
1.000000029802322
100
AcDbArc
 50
89.999999316757
 51
180.0000086514409
  0
ARC
  5
D8C
330
1F
100
AcDbEntity
  8
0
  6
Continuous
 62
     0
100
AcDbCircle
 10
-658.5784992193534
 20
245.8409139107522
 30
0.0
 40
1.0
100
AcDbArc
 50
270.0
 51
0.0
  0
ARC
  5
D8D
330
1F
100
AcDbEntity
  8
0
  6
Continuous
 62
     0
100
AcDbCircle
 10
-646.0784992193534
 20
235.8408986519631
 30
0.0
 40
1.0
100
AcDbArc
 50
90.0
 51
180.0
  0
ARC
  5
D8E
330
1F
100
AcDbEntity
  8
0
  6
Continuous
 62
     0
100
AcDbCircle
 10
-646.0784992193534
 20
223.3409139107522
 30
0.0
 40
1.0
100
AcDbArc
 50
180.0
 51
270.0
  0
ARC
  5
D8F
330
1F
100
AcDbEntity
  8
0
  6
Continuous
 62
     0
100
AcDbCircle
 10
-658.5784992193534
 20
223.3409139107522
 30
0.0
 40
1.0
100
AcDbArc
 50
270.0
 51
0.0
  0
ARC
  5
D90
330
1F
100
AcDbEntity
  8
0
  6
Continuous
 62
     0
100
AcDbCircle
 10
-660.2213520025566
 20
252.0909062813577
 30
0.0
 40
7.89285707473755
100
AcDbArc
 50
140.6923519402574
 51
219.3076517022049
  0
ARC
  5
D91
330
1F
100
AcDbEntity
  8
0
  6
Continuous
 62
     0
100
AcDbCircle
 10
-664.3284992193534
 20
245.8408986519631
 30
0.0
 40
1.000000029802322
100
AcDbArc
 50
179.9999949910626
 51
269.9999974955052
  0
ARC
  5
D92
330
1F
100
AcDbEntity
  8
0
  6
Continuous
 62
     0
100
AcDbCircle
 10
-640.3284992193534
 20
235.8409139107522
 30
0.0
 40
1.000000029802322
100
AcDbArc
 50
0.0
 51
90.00000250446868
  0
ARC
  5
D93
330
1F
100
AcDbEntity
  8
0
  6
Continuous
 62
     0
100
AcDbCircle
 10
-658.5784992193534
 20
235.8408986519631
 30
0.0
 40
1.0
100
AcDbArc
 50
0.0
 51
90.0
  0
ARC
  5
D94
330
1F
100
AcDbEntity
  8
0
  6
Continuous
 62
     0
100
AcDbCircle
 10
-640.3284992193534
 20
245.8408986519631
 30
0.0
 40
1.000000029802322
100
AcDbArc
 50
269.9999974955052
 51
0.0
  0
ARC
  5
D95
330
1F
100
AcDbEntity
  8
0
  6
Continuous
 62
     0
100
AcDbCircle
 10
-664.3284992193534
 20
235.8409139107522
 30
0.0
 40
1.000000029802322
100
AcDbArc
 50
89.999999316757
 51
180.0000086514409
  0
ARC
  5
D96
330
1F
100
AcDbEntity
  8
0
  6
Continuous
 62
     0
100
AcDbCircle
 10
-664.3284992193534
 20
223.3408986519631
 30
0.0
 40
1.000000029802322
100
AcDbArc
 50
179.9999949910626
 51
269.9999974955052
  0
ARC
  5
D97
330
1F
100
AcDbEntity
  8
0
  6
Continuous
 62
     0
100
AcDbCircle
 10
-646.0784992193534
 20
258.3408986519631
 30
0.0
 40
1.0
100
AcDbArc
 50
90.0
 51
180.0
  0
ARC
  5
D98
330
1F
100
AcDbEntity
  8
0
  6
Continuous
 62
     0
100
AcDbCircle
 10
-658.5784992193534
 20
258.3408986519631
 30
0.0
 40
1.0
100
AcDbArc
 50
0.0
 51
90.0
  0
ARC
  5
D99
330
1F
100
AcDbEntity
  8
0
  6
Continuous
 62
     0
100
AcDbCircle
 10
-646.0784992193534
 20
245.8409139107522
 30
0.0
 40
1.0
100
AcDbArc
 50
180.0
 51
270.0
  0
ARC
  5
D9A
330
1F
100
AcDbEntity
  8
0
  6
Continuous
 62
     0
100
AcDbCircle
 10
-638.578491589959
 20
248.1908971260842
 30
0.0
 40
0.7500000000000002
100
AcDbArc
 50
269.9999974955052
 51
0.0
  0
ARC
  5
D9B
330
1F
100
AcDbEntity
  8
0
  6
Continuous
 62
     0
100
AcDbCircle
 10
-638.578491589959
 20
255.9909154366311
 30
0.0
 40
0.7500000000000002
100
AcDbArc
 50
0.0
 51
90.00000250446868
  0
LINE
  5
D9C
330
1F
100
AcDbEntity
  8
0
100
AcDbLine
 10
-702.0784031239545
 20
343.8413140969311
 30
0.0
 11
-702.0784031239545
 21
341.8413140969311
 31
0.0
  0
LINE
  5
D9D
330
1F
100
AcDbEntity
  8
0
100
AcDbLine
 10
-700.5784011239543
 20
329.8409100969317
 30
0.0
 11
-699.5784031239545
 21
330.8409100969317
 31
0.0
  0
LINE
  5
D9E
330
1F
100
AcDbEntity
  8
0
100
AcDbLine
 10
-739.5784031239545
 20
330.8409100969317
 30
0.0
 11
-738.5784051239543
 21
329.8409100969317
 31
0.0
  0
LINE
  5
D9F
330
1F
100
AcDbEntity
  8
0
100
AcDbLine
 10
-700.5784051239543
 20
341.8409100969317
 30
0.0
 11
-699.5784031239545
 21
340.8409100969317
 31
0.0
  0
LINE
  5
DA0
330
1F
100
AcDbEntity
  8
0
100
AcDbLine
 10
-738.5784011239543
 20
341.8409100969317
 30
0.0
 11
-739.5784031239545
 21
340.8409100969317
 31
0.0
  0
LINE
  5
DA1
330
1F
100
AcDbEntity
  8
0
100
AcDbLine
 10
-752.0784031239545
 20
379.8409100969317
 30
0.0
 11
-687.0784031239545
 21
379.8409100969317
 31
0.0
  0
LINE
  5
DA2
330
1F
100
AcDbEntity
  8
0
100
AcDbLine
 10
-707.0784031239545
 20
341.8409100969317
 30
0.0
 11
-700.5784031239545
 21
341.8409100969317
 31
0.0
  0
LINE
  5
DA3
330
1F
100
AcDbEntity
  8
0
100
AcDbLine
 10
-737.7326371239542
 20
365.8409100969317
 30
0.0
 11
-736.8666131239542
 21
366.3409100969317
 31
0.0
  0
LINE
  5
DA4
330
1F
100
AcDbEntity
  8
0
100
AcDbLine
 10
-749.0005871239546
 20
365.8409200969314
 30
0.0
 11
-749.8666131239542
 21
366.3409200969314
 31
0.0
  0
LINE
  5
DA5
330
1F
100
AcDbEntity
  8
0
100
AcDbLine
 10
-749.8666111239544
 20
366.3409100969317
 30
0.0
 11
-736.8666111239544
 21
366.3409100969317
 31
0.0
  0
LINE
  5
DA6
330
1F
100
AcDbEntity
  8
0
100
AcDbLine
 10
-749.8666111239544
 20
372.5909100969317
 30
0.0
 11
-736.8666111239544
 21
372.5909100969317
 31
0.0
  0
LINE
  5
DA7
330
1F
100
AcDbEntity
  8
0
100
AcDbLine
 10
-736.8666111239544
 20
366.3409100969317
 30
0.0
 11
-736.8666111239544
 21
373.8409100969317
 31
0.0
  0
LINE
  5
DA8
330
1F
100
AcDbEntity
  8
0
100
AcDbLine
 10
-749.8666111239544
 20
366.3409100969317
 30
0.0
 11
-749.8666111239544
 21
373.8409100969317
 31
0.0
  0
LINE
  5
DA9
330
1F
100
AcDbEntity
  8
0
100
AcDbLine
 10
-716.2331036239542
 20
340.5409070969314
 30
0.0
 11
-713.9237028239545
 21
340.5409070969314
 31
0.0
  0
LINE
  5
DAA
330
1F
100
AcDbEntity
  8
0
100
AcDbLine
 10
-749.0005851239543
 20
365.8409100969317
 30
0.0
 11
-737.7326371239542
 21
365.8409100969317
 31
0.0
  0
LINE
  5
DAB
330
1F
100
AcDbEntity
  8
0
100
AcDbLine
 10
-713.9237019239544
 20
340.5409150969314
 30
0.0
 11
-712.7690006239545
 21
338.5409070969314
 31
0.0
  0
LINE
  5
DAC
330
1F
100
AcDbEntity
  8
0
100
AcDbLine
 10
-751.0666121239546
 20
373.8409100969317
 30
0.0
 11
-735.6666121239546
 21
373.8409100969317
 31
0.0
  0
LINE
  5
DAD
330
1F
100
AcDbEntity
  8
0
100
AcDbLine
 10
-735.6666121239546
 20
373.8409100969317
 30
0.0
 11
-735.6666121239546
 21
375.8409100969317
 31
0.0
  0
LINE
  5
DAE
330
1F
100
AcDbEntity
  8
0
100
AcDbLine
 10
-716.2331017239544
 20
340.5409070969314
 30
0.0
 11
-717.3878029239545
 21
338.5409070969314
 31
0.0
  0
LINE
  5
DAF
330
1F
100
AcDbEntity
  8
0
100
AcDbLine
 10
-703.4900741239543
 20
373.8409100969317
 30
0.0
 11
-703.4900741239543
 21
375.8409100969317
 31
0.0
  0
LINE
  5
DB0
330
1F
100
AcDbEntity
  8
0
100
AcDbLine
 10
-710.0784031239546
 20
338.5409070969314
 30
0.0
 11
-710.0784031239546
 21
336.8409100969317
 31
0.0
  0
LINE
  5
DB1
330
1F
100
AcDbEntity
  8
0
100
AcDbLine
 10
-688.0900741239543
 20
373.8409100969317
 30
0.0
 11
-688.0900741239543
 21
375.8409100969317
 31
0.0
  0
LINE
  5
DB2
330
1F
100
AcDbEntity
  8
0
100
AcDbLine
 10
-717.3878037239546
 20
338.5409150969314
 30
0.0
 11
-716.2331024239542
 21
336.5409070969314
 31
0.0
  0
LINE
  5
DB3
330
1F
100
AcDbEntity
  8
0
100
AcDbLine
 10
-712.7690002239542
 20
338.5409070969314
 30
0.0
 11
-713.9237014239543
 21
336.5409070969314
 31
0.0
  0
LINE
  5
DB4
330
1F
100
AcDbEntity
  8
0
100
AcDbLine
 10
-713.9237028239545
 20
336.5409070969314
 30
0.0
 11
-716.2331036239542
 21
336.5409070969314
 31
0.0
  0
LINE
  5
DB5
330
1F
100
AcDbEntity
  8
0
100
AcDbLine
 10
-690.1561031239544
 20
365.8409100969317
 30
0.0
 11
-689.2900771239546
 21
366.3409100969317
 31
0.0
  0
LINE
  5
DB6
330
1F
100
AcDbEntity
  8
0
100
AcDbLine
 10
-701.4240451239543
 20
365.8409100969317
 30
0.0
 11
-702.2900711239544
 21
366.3409100969317
 31
0.0
  0
LINE
  5
DB7
330
1F
100
AcDbEntity
  8
0
100
AcDbLine
 10
-702.2900731239542
 20
366.3409100969317
 30
0.0
 11
-689.2900731239542
 21
366.3409100969317
 31
0.0
  0
LINE
  5
DB8
330
1F
100
AcDbEntity
  8
0
100
AcDbLine
 10
-702.2900731239542
 20
372.5909100969317
 30
0.0
 11
-689.2900731239542
 21
372.5909100969317
 31
0.0
  0
LINE
  5
DB9
330
1F
100
AcDbEntity
  8
0
100
AcDbLine
 10
-689.2900731239542
 20
366.3409100969317
 30
0.0
 11
-689.2900731239542
 21
373.8409100969317
 31
0.0
  0
LINE
  5
DBA
330
1F
100
AcDbEntity
  8
0
100
AcDbLine
 10
-702.2900731239542
 20
366.3409100969317
 30
0.0
 11
-702.2900731239542
 21
373.8409100969317
 31
0.0
  0
LINE
  5
DBB
330
1F
100
AcDbEntity
  8
0
100
AcDbLine
 10
-701.4240471239546
 20
365.8409100969317
 30
0.0
 11
-690.1560991239543
 21
365.8409100969317
 31
0.0
  0
LINE
  5
DBC
330
1F
100
AcDbEntity
  8
0
100
AcDbLine
 10
-703.4900741239543
 20
373.8409100969317
 30
0.0
 11
-688.0900741239543
 21
373.8409100969317
 31
0.0
  0
LINE
  5
DBD
330
1F
100
AcDbEntity
  8
0
100
AcDbLine
 10
-751.0666121239546
 20
373.8409100969317
 30
0.0
 11
-751.0666121239546
 21
375.8409100969317
 31
0.0
  0
LINE
  5
DBE
330
1F
100
AcDbEntity
  8
0
100
AcDbLine
 10
-760.5784031239545
 20
343.8413140969311
 30
0.0
 11
-760.5784031239545
 21
341.8413140969311
 31
0.0
  0
LINE
  5
DBF
330
1F
100
AcDbEntity
  8
0
100
AcDbLine
 10
-734.3284031239545
 20
375.4377837394164
 30
0.0
 11
-734.3284031239545
 21
345.8409250969322
 31
0.0
  0
LINE
  5
DC0
330
1F
100
AcDbEntity
  8
0
100
AcDbLine
 10
-704.8284031239545
 20
375.4377837394164
 30
0.0
 11
-704.8284031239545
 21
345.8409250969322
 31
0.0
  0
LINE
  5
DC1
330
1F
100
AcDbEntity
  8
0
100
AcDbLine
 10
-752.0784031239545
 20
379.8409100969317
 30
0.0
 11
-752.0784031239545
 21
375.8409100969317
 31
0.0
  0
LINE
  5
DC2
330
1F
100
AcDbEntity
  8
0
100
AcDbLine
 10
-707.0784031239545
 20
371.8409100969317
 30
0.0
 11
-707.0784031239545
 21
336.8409100969317
 31
0.0
  0
LINE
  5
DC3
330
1F
100
AcDbEntity
  8
0
100
AcDbLine
 10
-704.5784031239545
 20
345.8409250969322
 30
0.0
 11
-704.5784031239545
 21
343.8409100969317
 31
0.0
  0
LINE
  5
DC4
330
1F
100
AcDbEntity
  8
0
100
AcDbLine
 10
-760.5784031239545
 20
341.8409100969317
 30
0.0
 11
-732.0784031239545
 21
341.8409100969317
 31
0.0
  0
LINE
  5
DC5
330
1F
100
AcDbEntity
  8
0
100
AcDbLine
 10
-734.5783801239544
 20
345.8409250969322
 30
0.0
 11
-734.5783801239544
 21
343.8409100969317
 31
0.0
  0
LINE
  5
DC6
330
1F
100
AcDbEntity
  8
0
100
AcDbLine
 10
-687.0784031239545
 20
379.8409100969317
 30
0.0
 11
-687.0784031239545
 21
375.8409100969317
 31
0.0
  0
LINE
  5
DC7
330
1F
100
AcDbEntity
  8
0
100
AcDbLine
 10
-702.0784031239545
 20
343.8409100969317
 30
0.0
 11
-707.0784031239545
 21
343.8409100969317
 31
0.0
  0
LINE
  5
DC8
330
1F
100
AcDbEntity
  8
0
100
AcDbLine
 10
-700.5783951239545
 20
329.8409100969317
 30
0.0
 11
-738.5783651239544
 21
329.8409100969317
 31
0.0
  0
LINE
  5
DC9
330
1F
100
AcDbEntity
  8
0
100
AcDbLine
 10
-732.0784031239545
 20
345.8409250969322
 30
0.0
 11
-734.5783801239544
 21
345.8409250969322
 31
0.0
  0
LINE
  5
DCA
330
1F
100
AcDbEntity
  8
0
100
AcDbLine
 10
-752.0784031239545
 20
375.8409100969317
 30
0.0
 11
-687.0784031239545
 21
375.8409100969317
 31
0.0
  0
LINE
  5
DCB
330
1F
100
AcDbEntity
  8
0
100
AcDbLine
 10
-699.5784031239545
 20
340.8409100969317
 30
0.0
 11
-699.5784031239545
 21
330.8409100969317
 31
0.0
  0
LINE
  5
DCC
330
1F
100
AcDbEntity
  8
0
100
AcDbLine
 10
-704.5784031239545
 20
345.8409250969322
 30
0.0
 11
-707.0784031239545
 21
345.8409250969322
 31
0.0
  0
LINE
  5
DCD
330
1F
100
AcDbEntity
  8
0
100
AcDbLine
 10
-732.0784031239545
 20
343.8409100969317
 30
0.0
 11
-760.5784031239545
 21
343.8409100969317
 31
0.0
  0
LINE
  5
DCE
330
1F
100
AcDbEntity
  8
0
100
AcDbLine
 10
-739.5784031239545
 20
340.8409100969317
 30
0.0
 11
-739.5784031239545
 21
330.8409100969317
 31
0.0
  0
LINE
  5
DCF
330
1F
100
AcDbEntity
  8
0
100
AcDbLine
 10
-732.0784031239545
 20
371.8409100969317
 30
0.0
 11
-732.0784031239545
 21
336.8409100969317
 31
0.0
  0
CIRCLE
  5
DD0
330
1F
100
AcDbEntity
  8
0
100
AcDbCircle
 10
-715.0784031239545
 20
338.5409070969314
 30
0.0
 40
4.25
  0
CIRCLE
  5
DD1
330
1F
100
AcDbEntity
  8
0
100
AcDbCircle
 10
-715.0784031239545
 20
338.5409070969314
 30
0.0
 40
3.730384799999999
  0
ARC
  5
DD2
330
1F
100
AcDbEntity
  8
0
100
AcDbCircle
 10
-715.0784031239545
 20
338.5409070969314
 30
0.0
 40
5.0
100
AcDbArc
 50
0.0
 51
180.0
  0
ARC
  5
DD3
330
1F
100
AcDbEntity
  8
0
100
AcDbCircle
 10
-703.0784031239545
 20
371.8409100969317
 30
0.0
 40
4.0
100
AcDbArc
 50
90.0
 51
180.0233392300958
  0
ARC
  5
DD4
330
1F
100
AcDbEntity
  8
0
100
AcDbCircle
 10
-736.0784031239545
 20
371.8409100969317
 30
0.0
 40
4.0
100
AcDbArc
 50
0.0
 51
90.01166961506642
  0
LINE
  5
DD5
330
1F
100
AcDbEntity
  8
0
  6
CENTER
100
AcDbLine
 10
-719.5783801239545
 20
523.2409400969133
 30
0.0
 11
-719.5783801239545
 21
121.8409144798421
 31
0.0
  0
ARC
  5
DD6
330
1F
100
AcDbEntity
  8
0
  6
Continuous
100
AcDbCircle
 10
-719.5783571239545
 20
430.3409100969316
 30
0.0
 40
44.0
100
AcDbArc
 50
319.5845609785696
 51
40.41543902143035
  0
ARC
  5
DD7
330
1F
100
AcDbEntity
  8
0
  6
Continuous
100
AcDbCircle
 10
-719.5783571239545
 20
430.3409100969316
 30
0.0
 40
44.0
100
AcDbArc
 50
139.5845609785696
 51
220.4154390214303
  0
LINE
  5
DD8
330
1F
100
AcDbEntity
  8
0
  6
Continuous
100
AcDbLine
 10
-753.0783571239545
 20
401.8146064457401
 30
0.0
 11
-753.0783571239545
 21
382.8409100969317
 31
0.0
  0
LINE
  5
DD9
330
1F
100
AcDbEntity
  8
0
  6
Continuous
100
AcDbLine
 10
-686.0783571239544
 20
401.8146064457392
 30
0.0
 11
-686.0783571239544
 21
382.8409100969317
 31
0.0
  0
LINE
  5
DDA
330
1F
100
AcDbEntity
  8
0
  6
Continuous
100
AcDbLine
 10
-737.7330576623335
 20
480.8409100969316
 30
0.0
 11
-750.0783571239544
 21
480.8409100969316
 31
0.0
  0
ARC
  5
DDB
330
1F
100
AcDbEntity
  8
0
  6
Continuous
100
AcDbCircle
 10
-750.0783571239544
 20
477.8409100969317
 30
0.0
 40
3.0
100
AcDbArc
 50
90.0
 51
180.0
  0
ARC
  5
DDC
330
1F
100
AcDbEntity
  8
0
  6
Continuous
100
AcDbCircle
 10
-689.0783571239544
 20
477.8409100969317
 30
0.0
 40
3.0
100
AcDbArc
 50
0.0
 51
90.0
  0
ARC
  5
DDD
330
1F
100
AcDbEntity
  8
0
  6
Continuous
100
AcDbCircle
 10
-689.0783571239544
 20
382.8409100969317
 30
0.0
 40
3.0
100
AcDbArc
 50
270.0
 51
0.0
  0
ARC
  5
DDE
330
1F
100
AcDbEntity
  8
0
  6
Continuous
100
AcDbCircle
 10
-750.0783571239544
 20
382.8409100969317
 30
0.0
 40
3.0
100
AcDbArc
 50
180.0
 51
270.0
  0
LINE
  5
DDF
330
1F
100
AcDbEntity
  8
0
  6
Continuous
100
AcDbLine
 10
-686.0783571239544
 20
477.8409100969317
 30
0.0
 11
-686.0783571239544
 21
458.8672137481231
 31
0.0
  0
LINE
  5
DE0
330
1F
100
AcDbEntity
  8
0
  6
Continuous
100
AcDbLine
 10
-753.0783571239545
 20
477.8409100969317
 30
0.0
 11
-753.0783571239545
 21
458.8672137481222
 31
0.0
  0
LINE
  5
DE1
330
1F
100
AcDbEntity
  8
0
  6
Continuous
100
AcDbLine
 10
-744.5783571239545
 20
380.8353565974663
 30
0.0
 11
-751.0783571239544
 21
384.5881333471985
 31
0.0
  0
LINE
  5
DE2
330
1F
100
AcDbEntity
  8
0
  6
Continuous
100
AcDbLine
 10
-751.0783571239544
 20
392.0936868466639
 30
0.0
 11
-751.0783571239544
 21
384.5881333471995
 31
0.0
  0
LINE
  5
DE3
330
1F
100
AcDbEntity
  8
0
  6
Continuous
100
AcDbLine
 10
-744.5783571239553
 20
395.846463596397
 30
0.0
 11
-751.0783571239544
 21
392.0936868466648
 31
0.0
  0
LINE
  5
DE4
330
1F
100
AcDbEntity
  8
0
  6
Continuous
100
AcDbLine
 10
-738.0783571239544
 20
392.0936868466639
 30
0.0
 11
-744.5783571239545
 21
395.846463596397
 31
0.0
  0
LINE
  5
DE5
330
1F
100
AcDbEntity
  8
0
  6
Continuous
100
AcDbLine
 10
-738.0783571239544
 20
392.0936868466648
 30
0.0
 11
-738.0783571239544
 21
384.5881333471995
 31
0.0
  0
LINE
  5
DE6
330
1F
100
AcDbEntity
  8
0
  6
Continuous
100
AcDbLine
 10
-738.0783571239553
 20
384.5881333471995
 30
0.0
 11
-744.5783571239553
 21
380.8353565974663
 31
0.0
  0
LINE
  5
DE7
330
1F
100
AcDbEntity
  8
0
  6
Continuous
100
AcDbLine
 10
-694.5783571239553
 20
380.8353565974663
 30
0.0
 11
-701.0783571239544
 21
384.5881333471985
 31
0.0
  0
LINE
  5
DE8
330
1F
100
AcDbEntity
  8
0
  6
Continuous
100
AcDbLine
 10
-701.0783571239544
 20
392.0936868466639
 30
0.0
 11
-701.0783571239544
 21
384.5881333471995
 31
0.0
  0
LINE
  5
DE9
330
1F
100
AcDbEntity
  8
0
  6
Continuous
100
AcDbLine
 10
-694.5783571239553
 20
395.846463596397
 30
0.0
 11
-701.0783571239544
 21
392.0936868466648
 31
0.0
  0
LINE
  5
DEA
330
1F
100
AcDbEntity
  8
0
  6
Continuous
100
AcDbLine
 10
-688.0783571239544
 20
392.0936868466639
 30
0.0
 11
-694.5783571239545
 21
395.846463596397
 31
0.0
  0
LINE
  5
DEB
330
1F
100
AcDbEntity
  8
0
  6
Continuous
100
AcDbLine
 10
-688.0783571239544
 20
392.0936868466648
 30
0.0
 11
-688.0783571239544
 21
384.5881333471995
 31
0.0
  0
LINE
  5
DEC
330
1F
100
AcDbEntity
  8
0
  6
Continuous
100
AcDbLine
 10
-688.0783571239553
 20
384.5881333471995
 30
0.0
 11
-694.5783571239553
 21
380.8353565974663
 31
0.0
  0
LINE
  5
DED
330
1F
100
AcDbEntity
  8
0
  6
Continuous
100
AcDbLine
 10
-744.5783571239545
 20
464.8353565974663
 30
0.0
 11
-751.0783571239544
 21
468.5881333471985
 31
0.0
  0
LINE
  5
DEE
330
1F
100
AcDbEntity
  8
0
  6
Continuous
100
AcDbLine
 10
-751.0783571239544
 20
476.0936868466639
 30
0.0
 11
-751.0783571239544
 21
468.5881333471995
 31
0.0
  0
LINE
  5
DEF
330
1F
100
AcDbEntity
  8
0
  6
Continuous
100
AcDbLine
 10
-744.5783571239553
 20
479.846463596397
 30
0.0
 11
-751.0783571239544
 21
476.0936868466647
 31
0.0
  0
LINE
  5
DF0
330
1F
100
AcDbEntity
  8
0
  6
Continuous
100
AcDbLine
 10
-738.0783571239544
 20
476.0936868466639
 30
0.0
 11
-744.5783571239545
 21
479.846463596397
 31
0.0
  0
LINE
  5
DF1
330
1F
100
AcDbEntity
  8
0
  6
Continuous
100
AcDbLine
 10
-738.0783571239544
 20
476.0936868466647
 30
0.0
 11
-738.0783571239544
 21
468.5881333471995
 31
0.0
  0
LINE
  5
DF2
330
1F
100
AcDbEntity
  8
0
  6
Continuous
100
AcDbLine
 10
-738.0783571239553
 20
468.5881333471995
 30
0.0
 11
-744.5783571239553
 21
464.8353565974663
 31
0.0
  0
LINE
  5
DF3
330
1F
100
AcDbEntity
  8
0
  6
Continuous
100
AcDbLine
 10
-694.5783571239553
 20
464.8353565974663
 30
0.0
 11
-701.0783571239544
 21
468.5881333471985
 31
0.0
  0
LINE
  5
DF4
330
1F
100
AcDbEntity
  8
0
  6
Continuous
100
AcDbLine
 10
-701.0783571239544
 20
476.0936868466639
 30
0.0
 11
-701.0783571239544
 21
468.5881333471995
 31
0.0
  0
LINE
  5
DF5
330
1F
100
AcDbEntity
  8
0
  6
Continuous
100
AcDbLine
 10
-694.5783571239553
 20
479.846463596397
 30
0.0
 11
-701.0783571239553
 21
476.0936868466647
 31
0.0
  0
LINE
  5
DF6
330
1F
100
AcDbEntity
  8
0
  6
Continuous
100
AcDbLine
 10
-688.0783571239544
 20
476.0936868466639
 30
0.0
 11
-694.5783571239545
 21
479.846463596397
 31
0.0
  0
LINE
  5
DF7
330
1F
100
AcDbEntity
  8
0
  6
Continuous
100
AcDbLine
 10
-688.0783571239544
 20
476.0936868466647
 30
0.0
 11
-688.0783571239544
 21
468.5881333471995
 31
0.0
  0
LINE
  5
DF8
330
1F
100
AcDbEntity
  8
0
  6
Continuous
100
AcDbLine
 10
-688.0783571239553
 20
468.5881333471995
 30
0.0
 11
-694.5783571239553
 21
464.8353565974663
 31
0.0
  0
LINE
  5
DF9
330
1F
100
AcDbEntity
  8
0
  6
Continuous
100
AcDbLine
 10
-702.5783571239544
 20
381.8409100969317
 30
0.0
 11
-736.5783571239544
 21
381.8409100969317
 31
0.0
  0
LINE
  5
DFA
330
1F
100
AcDbEntity
  8
0
  6
Continuous
100
AcDbLine
 10
-702.5783571239544
 20
478.8409100969317
 30
0.0
 11
-736.5783571239544
 21
478.8409100969317
 31
0.0
  0
LINE
  5
DFB
330
1F
100
AcDbEntity
  8
0
  6
Continuous
100
AcDbLine
 10
-701.4236565855753
 20
379.8409100969317
 30
0.0
 11
-702.5783571239544
 21
381.8409100969317
 31
0.0
  0
LINE
  5
DFC
330
1F
100
AcDbEntity
  8
0
  6
Continuous
100
AcDbLine
 10
-736.5783571239544
 20
478.8409100969317
 30
0.0
 11
-737.7330576623335
 21
480.8409100969316
 31
0.0
  0
LINE
  5
DFD
330
1F
100
AcDbEntity
  8
0
  6
Continuous
100
AcDbLine
 10
-701.4236565855753
 20
480.8409100969316
 30
0.0
 11
-702.5783571239544
 21
478.8409100969317
 31
0.0
  0
LINE
  5
DFE
330
1F
100
AcDbEntity
  8
0
  6
Continuous
100
AcDbLine
 10
-736.5783571239544
 20
381.8409100969317
 30
0.0
 11
-737.7330576623335
 21
379.8409100969317
 31
0.0
  0
LINE
  5
DFF
330
1F
100
AcDbEntity
  8
0
  6
Continuous
100
AcDbLine
 10
-689.0783571239544
 20
480.8409100969316
 30
0.0
 11
-701.4236565855753
 21
480.8409100969316
 31
0.0
  0
LINE
  5
E00
330
1F
100
AcDbEntity
  8
0
  6
Continuous
100
AcDbLine
 10
-703.0783571239545
 20
480.8409100969316
 30
0.0
 11
-736.0783571239544
 21
480.8409100969316
 31
0.0
  0
LINE
  5
E01
330
1F
100
AcDbEntity
  8
0
  6
Continuous
100
AcDbLine
 10
-736.0783571239544
 20
381.8409100969317
 30
0.0
 11
-736.0783571239544
 21
379.8409100969317
 31
0.0
  0
LINE
  5
E02
330
1F
100
AcDbEntity
  8
0
  6
Continuous
100
AcDbLine
 10
-703.0783571239545
 20
381.8409100969317
 30
0.0
 11
-703.0783571239545
 21
379.8409100969317
 31
0.0
  0
LINE
  5
E03
330
1F
100
AcDbEntity
  8
0
  6
Continuous
100
AcDbLine
 10
-703.0783571239545
 20
480.8409100969316
 30
0.0
 11
-703.0783571239545
 21
478.8409100969317
 31
0.0
  0
LINE
  5
E04
330
1F
100
AcDbEntity
  8
0
  6
Continuous
100
AcDbLine
 10
-736.0783571239544
 20
480.8409100969316
 30
0.0
 11
-736.0783571239544
 21
478.8409100969317
 31
0.0
  0
LINE
  5
E05
330
1F
100
AcDbEntity
  8
0
  6
Continuous
100
AcDbLine
 10
-750.0839106234198
 20
430.3409100969316
 30
0.0
 11
-746.3311338736875
 21
423.8409100969317
 31
0.0
  0
LINE
  5
E06
330
1F
100
AcDbEntity
  8
0
  6
Continuous
100
AcDbLine
 10
-738.8255803742222
 20
423.8409100969317
 30
0.0
 11
-746.3311338736867
 21
423.8409100969317
 31
0.0
  0
LINE
  5
E07
330
1F
100
AcDbEntity
  8
0
  6
Continuous
100
AcDbLine
 10
-735.07280362449
 20
430.3409100969316
 30
0.0
 11
-738.8255803742213
 21
423.8409100969317
 31
0.0
  0
LINE
  5
E08
330
1F
100
AcDbEntity
  8
0
  6
Continuous
100
AcDbLine
 10
-738.8255803742222
 20
436.8409100969317
 30
0.0
 11
-735.072803624489
 21
430.3409100969316
 31
0.0
  0
LINE
  5
E09
330
1F
100
AcDbEntity
  8
0
  6
Continuous
100
AcDbLine
 10
-738.8255803742213
 20
436.8409100969317
 30
0.0
 11
-746.3311338736867
 21
436.8409100969317
 31
0.0
  0
LINE
  5
E0A
330
1F
100
AcDbEntity
  8
0
  6
Continuous
100
AcDbLine
 10
-746.3311338736875
 20
436.8409100969317
 30
0.0
 11
-750.0839106234198
 21
430.3409100969316
 31
0.0
  0
CIRCLE
  5
E0B
330
1F
100
AcDbEntity
  8
0
  6
Continuous
100
AcDbCircle
 10
-744.5783571239545
 20
388.3409100969317
 30
0.0
 40
7.5
  0
CIRCLE
  5
E0C
330
1F
100
AcDbEntity
  8
0
  6
Continuous
100
AcDbCircle
 10
-744.5783571239545
 20
388.3409100969317
 30
0.0
 40
6.5
  0
CIRCLE
  5
E0D
330
1F
100
AcDbEntity
  8
0
  6
Continuous
100
AcDbCircle
 10
-694.5783571239545
 20
388.3409100969317
 30
0.0
 40
7.5
  0
CIRCLE
  5
E0E
330
1F
100
AcDbEntity
  8
0
  6
Continuous
100
AcDbCircle
 10
-694.5783571239545
 20
388.3409100969317
 30
0.0
 40
6.5
  0
CIRCLE
  5
E0F
330
1F
100
AcDbEntity
  8
0
  6
Continuous
100
AcDbCircle
 10
-744.5783571239545
 20
472.3409100969316
 30
0.0
 40
7.5
  0
CIRCLE
  5
E10
330
1F
100
AcDbEntity
  8
0
  6
Continuous
100
AcDbCircle
 10
-744.5783571239545
 20
472.3409100969316
 30
0.0
 40
6.5
  0
CIRCLE
  5
E11
330
1F
100
AcDbEntity
  8
0
  6
Continuous
100
AcDbCircle
 10
-694.5783571239545
 20
472.3409100969316
 30
0.0
 40
7.5
  0
CIRCLE
  5
E12
330
1F
100
AcDbEntity
  8
0
  6
Continuous
100
AcDbCircle
 10
-694.5783571239545
 20
472.3409100969316
 30
0.0
 40
6.5
  0
CIRCLE
  5
E13
330
1F
100
AcDbEntity
  8
0
  6
Continuous
100
AcDbCircle
 10
-742.5783571239544
 20
430.3409100969316
 30
0.0
 40
7.5
  0
CIRCLE
  5
E14
330
1F
100
AcDbEntity
  8
0
  6
Continuous
100
AcDbCircle
 10
-742.5783571239544
 20
430.3409100969316
 30
0.0
 40
6.5
  0
CIRCLE
  5
E15
330
1F
100
AcDbEntity
  8
0
  6
Continuous
100
AcDbCircle
 10
-699.5783571239544
 20
430.3409100969316
 30
0.0
 40
4.25
  0
CIRCLE
  5
E16
330
1F
100
AcDbEntity
  8
0
  6
Continuous
100
AcDbCircle
 10
-699.5783571239544
 20
430.3409100969316
 30
0.0
 40
3.399999999999999
  0
LINE
  5
E17
330
1F
100
AcDbEntity
  8
0
100
AcDbLine
 10
-731.0783571239544
 20
482.8410600969315
 30
0.0
 11
-731.0783571239544
 21
482.3410600969315
 31
0.0
  0
LINE
  5
E18
330
1F
100
AcDbEntity
  8
0
100
AcDbLine
 10
-705.7784301239544
 20
482.3410600969315
 30
0.0
 11
-733.3784061239543
 21
482.3410600969315
 31
0.0
  0
LINE
  5
E19
330
1F
100
AcDbEntity
  8
0
100
AcDbLine
 10
-705.7784301239544
 20
482.3410600969315
 30
0.0
 11
-705.7784301239544
 21
480.8410600969315
 31
0.0
  0
LINE
  5
E1A
330
1F
100
AcDbEntity
  8
0
100
AcDbLine
 10
-733.3784061239543
 20
482.3410600969315
 30
0.0
 11
-733.3784061239543
 21
480.8410600969315
 31
0.0
  0
LINE
  5
E1B
330
1F
100
AcDbEntity
  8
0
100
AcDbLine
 10
-708.0783571239544
 20
482.8410600969315
 30
0.0
 11
-708.0783571239544
 21
482.3410600969315
 31
0.0
  0
LINE
  5
E1C
330
1F
100
AcDbEntity
  8
0
100
AcDbLine
 10
-759.5783571239544
 20
507.8409400969318
 30
0.0
 11
-759.5783571239544
 21
482.8410600969315
 31
0.0
  0
LINE
  5
E1D
330
1F
100
AcDbEntity
  8
0
100
AcDbLine
 10
-679.5783571239544
 20
482.8410600969315
 30
0.0
 11
-759.5783571239544
 21
482.8410600969315
 31
0.0
  0
LINE
  5
E1E
330
1F
100
AcDbEntity
  8
0
100
AcDbLine
 10
-713.4783572239544
 20
509.3409400969318
 30
0.0
 11
-725.6783570239544
 21
509.3409400969318
 31
0.0
  0
LINE
  5
E1F
330
1F
100
AcDbEntity
  8
0
100
AcDbLine
 10
-725.6783570239544
 20
509.3409400969318
 30
0.0
 11
-725.6783570239544
 21
507.8409400969318
 31
0.0
  0
LINE
  5
E20
330
1F
100
AcDbEntity
  8
0
100
AcDbLine
 10
-713.4783572239544
 20
509.3409400969318
 30
0.0
 11
-713.4783572239544
 21
507.8409400969318
 31
0.0
  0
LINE
  5
E21
330
1F
100
AcDbEntity
  8
0
100
AcDbLine
 10
-679.5783571239544
 20
507.8409400969318
 30
0.0
 11
-759.5783571239544
 21
507.8409400969318
 31
0.0
  0
LINE
  5
E22
330
1F
100
AcDbEntity
  8
0
100
AcDbLine
 10
-714.3283571239544
 20
510.8679500969316
 30
0.0
 11
-714.3283571239544
 21
509.3409400969318
 31
0.0
  0
LINE
  5
E23
330
1F
100
AcDbEntity
  8
0
100
AcDbLine
 10
-724.8283571239544
 20
510.8679500969316
 30
0.0
 11
-724.8283571239544
 21
509.3409400969318
 31
0.0
  0
LINE
  5
E24
330
1F
100
AcDbEntity
  8
0
100
AcDbLine
 10
-679.5783571239544
 20
507.8409400969318
 30
0.0
 11
-679.5783571239544
 21
482.8410600969315
 31
0.0
  0
ARC
  5
E25
330
1F
100
AcDbEntity
  8
0
100
AcDbCircle
 10
-722.9283570239545
 20
510.8679500969316
 30
0.0
 40
1.9
100
AcDbArc
 50
106.0728660000081
 51
180.0
  0
ARC
  5
E26
330
1F
100
AcDbEntity
  8
0
100
AcDbCircle
 10
-716.2283572239544
 20
510.8679500969316
 30
0.0
 40
1.9
100
AcDbArc
 50
0.0
 51
73.92714000000363
  0
ARC
  5
E27
330
1F
100
AcDbEntity
  8
0
100
AcDbCircle
 10
-719.5783571239545
 20
499.2409400969323
 30
0.0
 40
14.0
100
AcDbArc
 50
73.92714000000363
 51
106.0728630000021
  0
LINE
  5
E28
330
1F
100
AcDbEntity
  8
0
100
AcDbLine
 10
-415.0493940668207
 20
342.2712920969313
 30
0.0
 11
-415.0493940668207
 21
338.8743779754619
 31
0.0
  0
LINE
  5
E29
330
1F
100
AcDbEntity
  8
0
100
AcDbLine
 10
-415.6472520668208
 20
343.5409070969314
 30
0.0
 11
-413.9137490668209
 21
343.5409070969314
 31
0.0
  0
LINE
  5
E2A
330
1F
100
AcDbEntity
  8
0
100
AcDbLine
 10
-374.4403090668206
 20
341.8409100969317
 30
0.0
 11
-373.6125876599512
 21
341.2058651402036
 31
0.0
  0
LINE
  5
E2B
330
1F
100
AcDbEntity
  8
0
100
AcDbLine
 10
-414.7493930668206
 20
342.7909070969314
 30
0.0
 11
-414.7493930668206
 21
338.9543691579135
 31
0.0
  0
LINE
  5
E2C
330
1F
100
AcDbEntity
  8
0
100
AcDbLine
 10
-415.0493920668204
 20
342.2712920969313
 30
0.0
 11
-414.7493930668206
 21
342.7909070969314
 31
0.0
  0
LINE
  5
E2D
330
1F
100
AcDbEntity
  8
0
100
AcDbLine
 10
-414.7493930668206
 20
342.7909070969314
 30
0.0
 11
-413.5514650668206
 21
342.7909070969314
 31
0.0
  0
LINE
  5
E2E
330
1F
100
AcDbEntity
  8
0
100
AcDbLine
 10
-404.2493930668205
 20
343.8409100969317
 30
0.0
 11
-404.2493930668205
 21
341.8409100969317
 31
0.0
  0
LINE
  5
E2F
330
1F
100
AcDbEntity
  8
0
100
AcDbLine
 10
-373.7493930668206
 20
345.8409100969317
 30
0.0
 11
-373.7493930668206
 21
343.8409100969317
 31
0.0
  0
LINE
  5
E30
330
1F
100
AcDbEntity
  8
0
100
AcDbLine
 10
-421.2493950668203
 20
375.8409100969317
 30
0.0
 11
-356.2493950668204
 21
375.8409100969317
 31
0.0
  0
LINE
  5
E31
330
1F
100
AcDbEntity
  8
0
100
AcDbLine
 10
-407.4576810668204
 20
341.8409100969317
 30
0.0
 11
-398.8116678028482
 21
341.8409100969317
 31
0.0
  0
LINE
  5
E32
330
1F
100
AcDbEntity
  8
0
100
AcDbLine
 10
-378.687209562137
 20
341.8409100969317
 30
0.0
 11
-370.0411060668207
 21
341.8409100969317
 31
0.0
  0
LINE
  5
E33
330
1F
100
AcDbEntity
  8
0
100
AcDbLine
 10
-421.2493950668203
 20
379.8409100969317
 30
0.0
 11
-421.2493950668203
 21
375.8409100969317
 31
0.0
  0
LINE
  5
E34
330
1F
100
AcDbEntity
  8
0
100
AcDbLine
 10
-356.2493950668204
 20
379.8409100969317
 30
0.0
 11
-356.2493950668204
 21
375.8409100969317
 31
0.0
  0
LINE
  5
E35
330
1F
100
AcDbEntity
  8
0
100
AcDbLine
 10
-404.2493930668205
 20
343.8409100969317
 30
0.0
 11
-373.2493930668206
 21
343.8409100969317
 31
0.0
  0
LINE
  5
E36
330
1F
100
AcDbEntity
  8
0
100
AcDbLine
 10
-403.0584760668207
 20
341.8409100969317
 30
0.0
 11
-403.8861772783307
 21
341.2058820961198
 31
0.0
  0
LINE
  5
E37
330
1F
100
AcDbEntity
  8
0
100
AcDbLine
 10
-418.1715750668208
 20
365.8409100969317
 30
0.0
 11
-419.0376010668205
 21
366.3409100969317
 31
0.0
  0
LINE
  5
E38
330
1F
100
AcDbEntity
  8
0
100
AcDbLine
 10
-419.0376010668205
 20
366.3409100969317
 30
0.0
 11
-406.0376010668205
 21
366.3409100969317
 31
0.0
  0
LINE
  5
E39
330
1F
100
AcDbEntity
  8
0
100
AcDbLine
 10
-419.0376010668205
 20
372.5909100969317
 30
0.0
 11
-406.0376010668205
 21
372.5909100969317
 31
0.0
  0
LINE
  5
E3A
330
1F
100
AcDbEntity
  8
0
100
AcDbLine
 10
-406.9036250668204
 20
365.8409100969317
 30
0.0
 11
-406.0375990668208
 21
366.3409100969317
 31
0.0
  0
LINE
  5
E3B
330
1F
100
AcDbEntity
  8
0
100
AcDbLine
 10
-406.0376010668205
 20
366.3409100969317
 30
0.0
 11
-406.0376010668205
 21
373.8409100969317
 31
0.0
  0
LINE
  5
E3C
330
1F
100
AcDbEntity
  8
0
100
AcDbLine
 10
-419.0376010668205
 20
366.3409100969317
 30
0.0
 11
-419.0376010668205
 21
373.8409100969317
 31
0.0
  0
LINE
  5
E3D
330
1F
100
AcDbEntity
  8
0
100
AcDbLine
 10
-418.1715750668208
 20
365.8409100969317
 30
0.0
 11
-406.9036270668207
 21
365.8409100969317
 31
0.0
  0
LINE
  5
E3E
330
1F
100
AcDbEntity
  8
0
100
AcDbLine
 10
-420.2376010668208
 20
373.8409100969317
 30
0.0
 11
-404.8376020668206
 21
373.8409100969317
 31
0.0
  0
LINE
  5
E3F
330
1F
100
AcDbEntity
  8
0
100
AcDbLine
 10
-404.8376020668206
 20
373.8409100969317
 30
0.0
 11
-404.8376020668206
 21
375.8409100969317
 31
0.0
  0
LINE
  5
E40
330
1F
100
AcDbEntity
  8
0
100
AcDbLine
 10
-357.2610640668208
 20
373.8409100969317
 30
0.0
 11
-357.2610640668208
 21
375.8409100969317
 31
0.0
  0
LINE
  5
E41
330
1F
100
AcDbEntity
  8
0
100
AcDbLine
 10
-372.6610630668206
 20
373.8409100969317
 30
0.0
 11
-372.6610630668206
 21
375.8409100969317
 31
0.0
  0
LINE
  5
E42
330
1F
100
AcDbEntity
  8
0
100
AcDbLine
 10
-370.5950410668206
 20
365.8409100969317
 30
0.0
 11
-371.4610650668205
 21
366.3409100969317
 31
0.0
  0
LINE
  5
E43
330
1F
100
AcDbEntity
  8
0
100
AcDbLine
 10
-371.4610630668208
 20
366.3409100969317
 30
0.0
 11
-358.4610630668208
 21
366.3409100969317
 31
0.0
  0
LINE
  5
E44
330
1F
100
AcDbEntity
  8
0
100
AcDbLine
 10
-371.4610630668208
 20
372.5909100969317
 30
0.0
 11
-358.4610630668208
 21
372.5909100969317
 31
0.0
  0
LINE
  5
E45
330
1F
100
AcDbEntity
  8
0
100
AcDbLine
 10
-358.4610630668208
 20
366.3409100969317
 30
0.0
 11
-358.4610630668208
 21
373.8409100969317
 31
0.0
  0
LINE
  5
E46
330
1F
100
AcDbEntity
  8
0
100
AcDbLine
 10
-359.3270870668207
 20
365.8409100969317
 30
0.0
 11
-358.4610610668205
 21
366.3409100969317
 31
0.0
  0
LINE
  5
E47
330
1F
100
AcDbEntity
  8
0
100
AcDbLine
 10
-371.4610630668208
 20
366.3409100969317
 30
0.0
 11
-371.4610630668208
 21
373.8409100969317
 31
0.0
  0
LINE
  5
E48
330
1F
100
AcDbEntity
  8
0
100
AcDbLine
 10
-372.6610630668206
 20
373.8409100969317
 30
0.0
 11
-357.2610640668208
 21
373.8409100969317
 31
0.0
  0
LINE
  5
E49
330
1F
100
AcDbEntity
  8
0
100
AcDbLine
 10
-420.2376010668208
 20
373.8409100969317
 30
0.0
 11
-420.2376010668208
 21
375.8409100969317
 31
0.0
  0
LINE
  5
E4A
330
1F
100
AcDbEntity
  8
0
100
AcDbLine
 10
-370.5950370668206
 20
365.8409100969317
 30
0.0
 11
-359.3270890668204
 21
365.8409100969317
 31
0.0
  0
LINE
  5
E4B
330
1F
100
AcDbEntity
  8
0
100
AcDbLine
 10
-361.2493930668206
 20
365.8409100969317
 30
0.0
 11
-361.2493930668206
 21
346.7775710969314
 31
0.0
  0
LINE
  5
E4C
330
1F
100
AcDbEntity
  8
0
100
AcDbLine
 10
-416.2493930668206
 20
365.8409100969317
 30
0.0
 11
-416.2493930668206
 21
346.7775710969314
 31
0.0
  0
LINE
  5
E4D
330
1F
100
AcDbEntity
  8
0
100
AcDbLine
 10
-370.0411060668207
 20
365.8409100969317
 30
0.0
 11
-370.0411060668207
 21
341.8409100969317
 31
0.0
  0
LINE
  5
E4E
330
1F
100
AcDbEntity
  8
0
100
AcDbLine
 10
-407.4576810668204
 20
365.8409100969317
 30
0.0
 11
-407.4576810668204
 21
341.8409100969317
 31
0.0
  0
LINE
  5
E4F
330
1F
100
AcDbEntity
  8
0
100
AcDbLine
 10
-403.7493930668206
 20
345.8409100969317
 30
0.0
 11
-403.7493930668206
 21
343.8409100969317
 31
0.0
  0
LINE
  5
E50
330
1F
100
AcDbEntity
  8
0
100
AcDbLine
 10
-373.9993930668206
 20
375.8409100969317
 30
0.0
 11
-373.9993930668206
 21
345.8409100969317
 31
0.0
  0
LINE
  5
E51
330
1F
100
AcDbEntity
  8
0
100
AcDbLine
 10
-403.4993930668206
 20
375.8409100969317
 30
0.0
 11
-403.4993930668206
 21
345.8409100969317
 31
0.0
  0
LINE
  5
E52
330
1F
100
AcDbEntity
  8
0
100
AcDbLine
 10
-403.7493930668206
 20
345.8409100969317
 30
0.0
 11
-373.7493930668206
 21
345.8409100969317
 31
0.0
  0
LINE
  5
E53
330
1F
100
AcDbEntity
  8
0
100
AcDbLine
 10
-373.2493930668206
 20
343.8409100969317
 30
0.0
 11
-373.2493930668206
 21
341.8409100969317
 31
0.0
  0
ARC
  5
E54
330
1F
100
AcDbEntity
  8
0
100
AcDbCircle
 10
-407.2493930668206
 20
346.7775710969314
 30
0.0
 40
9.0
100
AcDbArc
 50
180.0
 51
201.0774300000375
  0
ARC
  5
E55
330
1F
100
AcDbEntity
  8
0
100
AcDbCircle
 10
-370.2493930668206
 20
346.7775710969314
 30
0.0
 40
9.0
100
AcDbArc
 50
305.0000000000137
 51
0.0
  0
SPLINE
  5
E56
330
1F
100
AcDbEntity
  8
0
100
AcDbSpline
210
0.0
220
0.0
230
1.0
 70
     8
 71
     3
 72
    13
 73
     9
 74
     0
 42
0.000000001
 43
0.0000000001
 40
0.0
 40
0.0
 40
0.0
 40
0.0
 40
0.9157018415224083
 40
1.831685203806716
 40
2.747945857576099
 40
3.664036041423222
 40
4.580433597745646
 40
4.705759024405759
 40
4.705759024405759
 40
4.705759024405759
 40
4.705759024405759
 10
-413.9137490668209
 20
343.5409070969314
 30
0.0
 10
-413.7928203827518
 20
343.2606500437165
 30
0.0
 10
-413.5245340291949
 20
342.7110129023582
 30
0.0
 10
-413.0462252728903
 20
341.9282784771145
 30
0.0
 10
-412.493878552159
 20
341.1954709641074
 30
0.0
 10
-411.8685186521592
 20
340.5234197728693
 30
0.0
 10
-411.3747596590178
 20
340.094980811307
 30
0.0
 10
-411.0999849859886
 20
339.882355526354
 30
0.0
 10
-411.066758057354
 20
339.8569983146068
 30
0.0
  0
LINE
  5
E57
330
1F
100
AcDbEntity
  8
0
  6
Continuous
100
AcDbLine
 10
-456.2495919494945
 20
480.8409100969307
 30
0.0
 11
-456.2495919494931
 21
379.8409100969308
 31
0.0
  0
LINE
  5
E58
330
1F
100
AcDbEntity
  8
0
  6
Continuous
100
AcDbLine
 10
-462.2495919494944
 20
479.8409100969307
 30
0.0
 11
-462.2495919494931
 21
380.8409100969308
 31
0.0
  0
LINE
  5
E59
330
1F
100
AcDbEntity
  8
0
  6
Continuous
100
AcDbLine
 10
-301.2494386824942
 20
480.8409100969316
 30
0.0
 11
-301.2494386824928
 21
379.8409100969326
 31
0.0
  0
LINE
  5
E5A
330
1F
100
AcDbEntity
  8
0
  6
Continuous
100
AcDbLine
 10
-295.2494386824942
 20
479.8409100969316
 30
0.0
 11
-295.2494386824928
 21
380.8409100969326
 31
0.0
  0
LINE
  5
E5B
330
1F
100
AcDbEntity
  8
0
  6
Continuous
100
AcDbLine
 10
-461.2495919494945
 20
480.8409100969307
 30
0.0
 11
-296.2494386824942
 21
480.8409100969316
 31
0.0
  0
LINE
  5
E5C
330
1F
100
AcDbEntity
  8
0
  6
Continuous
100
AcDbLine
 10
-461.2495919494931
 20
379.8409100969308
 30
0.0
 11
-296.2494386824928
 21
379.8409100969326
 31
0.0
  0
LINE
  5
E5D
330
1F
100
AcDbEntity
  8
0
  6
Continuous
100
AcDbLine
 10
-288.6493410262433
 20
436.8409329551147
 30
0.0
 11
-288.6493410262433
 21
423.8409329551147
 31
0.0
  0
LINE
  5
E5E
330
1F
100
AcDbEntity
  8
0
  6
Continuous
100
AcDbLine
 10
-289.2294191512433
 20
437.8466092246459
 30
0.0
 11
-293.0687746199933
 21
437.8466092246459
 31
0.0
  0
LINE
  5
E5F
330
1F
100
AcDbEntity
  8
0
  6
Continuous
100
AcDbLine
 10
-289.2299074324933
 20
434.0938626426146
 30
0.0
 11
-293.068351939683
 21
434.0938626426146
 31
0.0
  0
LINE
  5
E60
330
1F
100
AcDbEntity
  8
0
  6
Continuous
100
AcDbLine
 10
-288.649623629592
 20
436.8414028090689
 30
0.0
 11
-289.2301900358429
 21
437.8469733038143
 31
0.0
  0
LINE
  5
E61
330
1F
100
AcDbEntity
  8
0
  6
Continuous
100
AcDbLine
 10
-293.0687746199933
 20
422.8355618613647
 30
0.0
 11
-289.2294191512433
 21
422.8355618613647
 31
0.0
  0
LINE
  5
E62
330
1F
100
AcDbEntity
  8
0
  6
Continuous
100
AcDbLine
 10
-293.0679310458095
 20
426.5884915488646
 30
0.0
 11
-289.2299074324933
 21
426.5884915488646
 31
0.0
  0
ARC
  5
E63
330
1F
100
AcDbEntity
  8
0
  6
Continuous
100
AcDbCircle
 10
-291.9720949324933
 20
424.7120267051147
 30
0.0
 40
3.322566986083984
100
AcDbArc
 50
0.0
 51
34.3843026781595
  0
ARC
  5
E64
330
1F
100
AcDbEntity
  8
0
  6
Continuous
100
AcDbCircle
 10
-301.0687746199933
 20
430.3409329551146
 30
0.0
 40
12.41944122314453
100
AcDbArc
 50
342.4120272457064
 51
17.58793860338756
  0
LINE
  5
E65
330
1F
100
AcDbEntity
  8
0
  6
Continuous
100
AcDbLine
 10
-295.2494386824933
 20
438.3407498496459
 30
0.0
 11
-293.6493410262433
 21
438.3407498496459
 31
0.0
  0
LINE
  5
E66
330
1F
100
AcDbEntity
  8
0
  6
Continuous
100
AcDbLine
 10
-295.2494386824933
 20
422.3409329551146
 30
0.0
 11
-293.6493410262433
 21
422.3409329551146
 31
0.0
  0
LINE
  5
E67
330
1F
100
AcDbEntity
  8
0
  6
Continuous
100
AcDbLine
 10
-288.6501365713288
 20
423.8413785154121
 30
0.0
 11
-289.2307029775789
 21
422.8358080206677
 31
0.0
  0
ARC
  5
E68
330
1F
100
AcDbEntity
  8
0
  6
Continuous
100
AcDbCircle
 10
-291.9720949324933
 20
435.9703274863647
 30
0.0
 40
3.322566986083984
100
AcDbArc
 50
325.6156973218405
 51
0.0
  0
LINE
  5
E69
330
1F
100
AcDbEntity
  8
0
  6
Continuous
100
AcDbLine
 10
-293.6493410262433
 20
438.3407498496459
 30
0.0
 11
-293.6493410262433
 21
422.3409329551146
 31
0.0
  0
LINE
  5
E6A
330
1F
100
AcDbEntity
  8
0
  6
Continuous
100
AcDbLine
 10
-293.6505011399645
 20
436.841625410943
 30
0.0
 11
-293.0699499925036
 21
437.84716947669
 31
0.0
  0
LINE
  5
E6B
330
1F
100
AcDbEntity
  8
0
  6
Continuous
100
AcDbLine
 10
-293.6500187158113
 20
423.8412087715338
 30
0.0
 11
-293.0694523095612
 21
422.8356382767884
 31
0.0
  0
LINE
  5
E6C
330
1F
100
AcDbEntity
  8
0
  6
Continuous
100
AcDbLine
 10
-288.6493410262433
 20
426.3409329551146
 30
0.0
 11
-280.7499269637424
 21
426.3409329551146
 31
0.0
  0
LINE
  5
E6D
330
1F
100
AcDbEntity
  8
0
  6
Continuous
100
AcDbLine
 10
-288.6493410262433
 20
427.1412259238647
 30
0.0
 11
-280.7499269637424
 21
427.1412259238647
 31
0.0
  0
LINE
  5
E6E
330
1F
100
AcDbEntity
  8
0
  6
Continuous
100
AcDbLine
 10
-288.6493410262433
 20
433.5411282676147
 30
0.0
 11
-280.7499269637424
 21
433.5411282676147
 31
0.0
  0
LINE
  5
E6F
330
1F
100
AcDbEntity
  8
0
  6
Continuous
100
AcDbLine
 10
-288.6493410262433
 20
434.3409329551146
 30
0.0
 11
-280.7499269637424
 21
434.3409329551146
 31
0.0
  0
LINE
  5
E70
330
1F
100
AcDbEntity
  8
0
  6
Continuous
100
AcDbLine
 10
-275.7499816764426
 20
423.8407506241643
 30
0.0
 11
-276.3305480826916
 21
422.8351801294207
 31
0.0
  0
LINE
  5
E71
330
1F
100
AcDbEntity
  8
0
  6
Continuous
100
AcDbLine
 10
-280.7499269637424
 20
422.8354104785244
 30
0.0
 11
-276.3304933699924
 21
422.8354104785244
 31
0.0
  0
ARC
  5
E72
330
1F
100
AcDbEntity
  8
0
  6
Continuous
100
AcDbCircle
 10
-279.0731691512424
 20
424.7116616992276
 30
0.0
 40
3.322566986083984
100
AcDbArc
 50
0.0
 51
34.3843026781595
  0
LINE
  5
E73
330
1F
100
AcDbEntity
  8
0
  6
Continuous
100
AcDbLine
 10
-280.7499269637424
 20
426.5880960253995
 30
0.0
 11
-276.3309816512424
 21
426.5880960253995
 31
0.0
  0
ARC
  5
E74
330
1F
100
AcDbEntity
  8
0
  6
Continuous
100
AcDbCircle
 10
-288.1698488387424
 20
430.3409341601651
 30
0.0
 40
12.41944122314453
100
AcDbArc
 50
342.4120272457064
 51
17.58793860338756
  0
LINE
  5
E75
330
1F
100
AcDbEntity
  8
0
  6
Continuous
100
AcDbLine
 10
-275.7504152449924
 20
436.8409341601651
 30
0.0
 11
-275.7504152449924
 21
423.8407815722744
 31
0.0
  0
LINE
  5
E76
330
1F
100
AcDbEntity
  8
0
  6
Continuous
100
AcDbLine
 10
-280.7499269637424
 20
422.8354104785244
 30
0.0
 11
-280.7499269637424
 21
437.8463052539151
 31
0.0
  0
LINE
  5
E77
330
1F
100
AcDbEntity
  8
0
  6
Continuous
100
AcDbLine
 10
-276.3309816512424
 20
434.0938638476651
 30
0.0
 11
-280.7499269637424
 21
434.0938638476651
 31
0.0
  0
ARC
  5
E78
330
1F
100
AcDbEntity
  8
0
  6
Continuous
100
AcDbCircle
 10
-279.0731691512424
 20
435.9703286914151
 30
0.0
 40
3.322566986083984
100
AcDbArc
 50
325.6156973218405
 51
0.0
  0
LINE
  5
E79
330
1F
100
AcDbEntity
  8
0
  6
Continuous
100
AcDbLine
 10
-275.750078324782
 20
436.8408912895817
 30
0.0
 11
-276.3306447310319
 21
437.8464617843262
 31
0.0
  0
LINE
  5
E7A
330
1F
100
AcDbEntity
  8
0
  6
Continuous
100
AcDbLine
 10
-276.3304933699924
 20
437.8463052539151
 30
0.0
 11
-280.7499269637424
 21
437.8463052539151
 31
0.0
  0
LINE
  5
E7B
330
1F
100
AcDbEntity
  8
0
  6
Continuous
100
AcDbLine
 10
-462.249591949494
 20
461.7631951825184
 30
0.0
 11
-295.2494386824938
 21
461.7631951825202
 31
0.0
  0
LINE
  5
E7C
330
1F
100
AcDbEntity
  8
0
  6
Continuous
100
AcDbLine
 10
-462.2495919494935
 20
398.9186250113422
 30
0.0
 11
-295.2494386824933
 21
398.9186250113431
 31
0.0
  0
ARC
  5
E7D
330
1F
100
AcDbEntity
  8
0
  6
Continuous
100
AcDbCircle
 10
-290.3260988387433
 20
435.970144380895
 30
0.0
 40
3.322566986083984
100
AcDbArc
 50
180.0
 51
214.3843026781595
  0
ARC
  5
E7E
330
1F
100
AcDbEntity
  8
0
  6
Continuous
100
AcDbCircle
 10
-281.2294191512433
 20
430.341238130895
 30
0.0
 40
12.41944122314453
100
AcDbArc
 50
162.4120272457065
 51
197.5879386033875
  0
ARC
  5
E7F
330
1F
100
AcDbEntity
  8
0
  6
Continuous
100
AcDbCircle
 10
-290.3260988387433
 20
424.711843599645
 30
0.0
 40
3.322566986083984
100
AcDbArc
 50
145.6156973218405
 51
180.0
  0
ARC
  5
E80
330
1F
100
AcDbEntity
  8
0
  6
Continuous
100
AcDbCircle
 10
-296.2494386824942
 20
479.8409100969316
 30
0.0
 40
1.0
100
AcDbArc
 50
0.0
 51
90.0
  0
ARC
  5
E81
330
1F
100
AcDbEntity
  8
0
  6
Continuous
100
AcDbCircle
 10
-461.2495919494945
 20
479.8409100969307
 30
0.0
 40
1.0
100
AcDbArc
 50
90.0
 51
180.0
  0
ARC
  5
E82
330
1F
100
AcDbEntity
  8
0
  6
Continuous
100
AcDbCircle
 10
-461.2495919494931
 20
380.8409100969308
 30
0.0
 40
1.0
100
AcDbArc
 50
180.0
 51
270.0
  0
ARC
  5
E83
330
1F
100
AcDbEntity
  8
0
  6
Continuous
100
AcDbCircle
 10
-296.2494386824928
 20
380.8409100969326
 30
0.0
 40
1.0
100
AcDbArc
 50
270.0
 51
0.0
  0
LINE
  5
E84
330
1F
100
AcDbEntity
  8
0
  6
Continuous
100
AcDbLine
 10
-293.6494248671729
 20
480.3409100969325
 30
0.0
 11
-293.6494524978111
 21
464.3409100969326
 31
0.0
  0
LINE
  5
E85
330
1F
100
AcDbEntity
  8
0
  6
Continuous
100
AcDbLine
 10
-288.6495046204586
 20
465.8407195398009
 30
0.0
 11
-289.2300727632423
 21
464.835150047647
 31
0.0
  0
LINE
  5
E86
330
1F
100
AcDbEntity
  8
0
  6
Continuous
100
AcDbLine
 10
-293.6494516438902
 20
464.8353880286427
 30
0.0
 11
-289.2300180501465
 21
464.835380396657
 31
0.0
  0
ARC
  5
E87
330
1F
100
AcDbEntity
  8
0
  6
Continuous
100
AcDbCircle
 10
-291.9726905912662
 20
466.7116363537249
 30
0.0
 40
3.322566986083984
100
AcDbArc
 50
0.0
 51
34.3843026781595
  0
LINE
  5
E88
330
1F
100
AcDbEntity
  8
0
  6
Continuous
100
AcDbLine
 10
-293.6494451633212
 20
468.5880735755123
 30
0.0
 11
-289.2304998508275
 21
468.5880659443697
 31
0.0
  0
ARC
  5
E89
330
1F
100
AcDbEntity
  8
0
  6
Continuous
100
AcDbCircle
 10
-301.0693605574775
 20
472.3409245238459
 30
0.0
 40
12.41944122314453
100
AcDbArc
 50
342.4120272457064
 51
17.58793860338756
  0
LINE
  5
E8A
330
1F
100
AcDbEntity
  8
0
  6
Continuous
100
AcDbLine
 10
-288.6499157387993
 20
478.8409030765311
 30
0.0
 11
-288.6499381889566
 21
465.8407504886596
 31
0.0
  0
LINE
  5
E8B
330
1F
100
AcDbEntity
  8
0
  6
Continuous
100
AcDbLine
 10
-289.2304868890055
 20
476.0938337666235
 30
0.0
 11
-293.6494322014992
 21
476.0938413977661
 31
0.0
  0
ARC
  5
E8C
330
1F
100
AcDbEntity
  8
0
  6
Continuous
100
AcDbCircle
 10
-291.9726711485068
 20
477.970303345896
 30
0.0
 40
3.322566986083984
100
AcDbArc
 50
325.6156973218405
 51
0.0
  0
LINE
  5
E8D
330
1F
100
AcDbEntity
  8
0
  6
Continuous
100
AcDbLine
 10
-288.6495788186617
 20
478.8408602053656
 30
0.0
 11
-289.2301434883762
 21
479.8464317026979
 31
0.0
  0
LINE
  5
E8E
330
1F
100
AcDbEntity
  8
0
  6
Continuous
100
AcDbLine
 10
-289.2299921276085
 20
479.846275172025
 30
0.0
 11
-293.6494257213521
 21
479.8462828040107
 31
0.0
  0
LINE
  5
E8F
330
1F
100
AcDbEntity
  8
0
  6
Continuous
100
AcDbLine
 10
-295.2494248671751
 20
480.3409100969325
 30
0.0
 11
-293.6494248671729
 21
480.3409100969325
 31
0.0
  0
LINE
  5
E90
330
1F
100
AcDbEntity
  8
0
  6
Continuous
100
AcDbLine
 10
-295.2494524978133
 20
464.3409100969326
 30
0.0
 11
-293.6494524978111
 21
464.3409100969326
 31
0.0
  0
LINE
  5
E91
330
1F
100
AcDbEntity
  8
0
  6
Continuous
100
AcDbLine
 10
-293.649424867172
 20
396.3409100969326
 30
0.0
 11
-293.6494524978098
 21
380.3409100969326
 31
0.0
  0
LINE
  5
E92
330
1F
100
AcDbEntity
  8
0
  6
Continuous
100
AcDbLine
 10
-288.6495046204582
 20
381.8407195398009
 30
0.0
 11
-289.2300727632419
 21
380.835150047647
 31
0.0
  0
LINE
  5
E93
330
1F
100
AcDbEntity
  8
0
  6
Continuous
100
AcDbLine
 10
-293.6494516438888
 20
380.8353880286428
 30
0.0
 11
-289.2300180501452
 21
380.8353803966571
 31
0.0
  0
ARC
  5
E94
330
1F
100
AcDbEntity
  8
0
  6
Continuous
100
AcDbCircle
 10
-291.9726905912648
 20
382.7116363537249
 30
0.0
 40
3.322566986083984
100
AcDbArc
 50
0.0
 51
34.3843026781595
  0
LINE
  5
E95
330
1F
100
AcDbEntity
  8
0
  6
Continuous
100
AcDbLine
 10
-293.6494451633198
 20
384.5880735755124
 30
0.0
 11
-289.2304998508262
 21
384.5880659443698
 31
0.0
  0
ARC
  5
E96
330
1F
100
AcDbEntity
  8
0
  6
Continuous
100
AcDbCircle
 10
-301.0693605574766
 20
388.3409245238451
 30
0.0
 40
12.41944122314453
100
AcDbArc
 50
342.4120272457064
 51
17.58793860338756
  0
LINE
  5
E97
330
1F
100
AcDbEntity
  8
0
  6
Continuous
100
AcDbLine
 10
-288.6499157387993
 20
394.8409030765312
 30
0.0
 11
-288.6499381889562
 21
381.8407504886597
 31
0.0
  0
LINE
  5
E98
330
1F
100
AcDbEntity
  8
0
  6
Continuous
100
AcDbLine
 10
-289.2304868890046
 20
392.0938337666236
 30
0.0
 11
-293.6494322014983
 21
392.0938413977662
 31
0.0
  0
ARC
  5
E99
330
1F
100
AcDbEntity
  8
0
  6
Continuous
100
AcDbCircle
 10
-291.9726711485059
 20
393.970303345896
 30
0.0
 40
3.322566986083984
100
AcDbArc
 50
325.6156973218405
 51
0.0
  0
LINE
  5
E9A
330
1F
100
AcDbEntity
  8
0
  6
Continuous
100
AcDbLine
 10
-288.6495788186607
 20
394.8408602053656
 30
0.0
 11
-289.2301434883752
 21
395.846431702697
 31
0.0
  0
LINE
  5
E9B
330
1F
100
AcDbEntity
  8
0
  6
Continuous
100
AcDbLine
 10
-289.2299921276085
 20
395.846275172025
 30
0.0
 11
-293.6494257213512
 21
395.8462828040107
 31
0.0
  0
LINE
  5
E9C
330
1F
100
AcDbEntity
  8
0
  6
Continuous
100
AcDbLine
 10
-295.2494248671742
 20
396.3409100969326
 30
0.0
 11
-293.649424867172
 21
396.3409100969326
 31
0.0
  0
LINE
  5
E9D
330
1F
100
AcDbEntity
  8
0
  6
Continuous
100
AcDbLine
 10
-295.2494524978119
 20
380.3409100969326
 30
0.0
 11
-293.6494524978098
 21
380.3409100969326
 31
0.0
  0
LINE
  5
E9E
330
1F
100
AcDbEntity
  8
0
  6
Continuous
100
AcDbLine
 10
-463.8496057648158
 20
464.3409100969307
 30
0.0
 11
-463.8495781341784
 21
480.3409100969307
 31
0.0
  0
LINE
  5
E9F
330
1F
100
AcDbEntity
  8
0
  6
Continuous
100
AcDbLine
 10
-468.8495260115291
 20
478.8411006540624
 30
0.0
 11
-468.2689578687455
 21
479.8466701462163
 31
0.0
  0
LINE
  5
EA0
330
1F
100
AcDbEntity
  8
0
  6
Continuous
100
AcDbLine
 10
-463.8495789880994
 20
479.8464321652215
 30
0.0
 11
-468.2690125818431
 21
479.8464397972071
 31
0.0
  0
ARC
  5
EA1
330
1F
100
AcDbEntity
  8
0
  6
Continuous
100
AcDbCircle
 10
-465.5263400407225
 20
477.9701838401384
 30
0.0
 40
3.322566986083984
100
AcDbArc
 50
179.9999010550653
 51
214.3842037332085
  0
LINE
  5
EA2
330
1F
100
AcDbEntity
  8
0
  6
Continuous
100
AcDbLine
 10
-463.8495854686675
 20
476.0937466183519
 30
0.0
 11
-468.2685307811603
 21
476.0937542494945
 31
0.0
  0
ARC
  5
EA3
330
1F
100
AcDbEntity
  8
0
  6
Continuous
100
AcDbCircle
 10
-456.4296700745103
 20
472.3408956700183
 30
0.0
 40
12.41944122314453
100
AcDbArc
 50
162.4119283007303
 51
197.5878396584202
  0
LINE
  5
EA4
330
1F
100
AcDbEntity
  8
0
  6
Continuous
100
AcDbLine
 10
-468.8491148931884
 20
465.8409171173322
 30
0.0
 11
-468.8490924430311
 21
478.8410697052037
 31
0.0
  0
LINE
  5
EA5
330
1F
100
AcDbEntity
  8
0
  6
Continuous
100
AcDbLine
 10
-468.2685437429823
 20
468.5879864272398
 30
0.0
 11
-463.8495984304895
 21
468.5879787960971
 31
0.0
  0
ARC
  5
EA6
330
1F
100
AcDbEntity
  8
0
  6
Continuous
100
AcDbCircle
 10
-465.5263594834819
 20
466.7115168479682
 30
0.0
 40
3.322566986083984
100
AcDbArc
 50
145.6155983769042
 51
179.9999010550653
  0
LINE
  5
EA7
330
1F
100
AcDbEntity
  8
0
  6
Continuous
100
AcDbLine
 10
-468.849451813327
 20
465.8409599884977
 30
0.0
 11
-468.2688871436125
 21
464.8353884911663
 31
0.0
  0
LINE
  5
EA8
330
1F
100
AcDbEntity
  8
0
  6
Continuous
100
AcDbLine
 10
-468.2690385043802
 20
464.8355450218383
 30
0.0
 11
-463.8496049106374
 21
464.8355373898526
 31
0.0
  0
LINE
  5
EA9
330
1F
100
AcDbEntity
  8
0
  6
Continuous
100
AcDbLine
 10
-462.2496057648135
 20
464.3409100969307
 30
0.0
 11
-463.8496057648158
 21
464.3409100969307
 31
0.0
  0
LINE
  5
EAA
330
1F
100
AcDbEntity
  8
0
  6
Continuous
100
AcDbLine
 10
-462.2495781341753
 20
480.3409100969307
 30
0.0
 11
-463.8495781341775
 21
480.3409100969307
 31
0.0
  0
LINE
  5
EAB
330
1F
100
AcDbEntity
  8
0
  6
Continuous
100
AcDbLine
 10
-463.8496057648153
 20
380.3409100969308
 30
0.0
 11
-463.8495781341775
 21
396.3409100969308
 31
0.0
  0
LINE
  5
EAC
330
1F
100
AcDbEntity
  8
0
  6
Continuous
100
AcDbLine
 10
-468.8495260115291
 20
394.8411006540624
 30
0.0
 11
-468.2689578687455
 21
395.8466701462163
 31
0.0
  0
LINE
  5
EAD
330
1F
100
AcDbEntity
  8
0
  6
Continuous
100
AcDbLine
 10
-463.8495789880985
 20
395.8464321652215
 30
0.0
 11
-468.2690125818412
 21
395.8464397972072
 31
0.0
  0
ARC
  5
EAE
330
1F
100
AcDbEntity
  8
0
  6
Continuous
100
AcDbCircle
 10
-465.5263400407216
 20
393.9701838401385
 30
0.0
 40
3.322566986083984
100
AcDbArc
 50
179.9999010550653
 51
214.3842037332085
  0
LINE
  5
EAF
330
1F
100
AcDbEntity
  8
0
  6
Continuous
100
AcDbLine
 10
-463.8495854686666
 20
392.0937466183519
 30
0.0
 11
-468.2685307811594
 21
392.0937542494945
 31
0.0
  0
ARC
  5
EB0
330
1F
100
AcDbEntity
  8
0
  6
Continuous
100
AcDbCircle
 10
-456.4296700745094
 20
388.3408956700183
 30
0.0
 40
12.41944122314453
100
AcDbArc
 50
162.4119283007303
 51
197.5878396584202
  0
LINE
  5
EB1
330
1F
100
AcDbEntity
  8
0
  6
Continuous
100
AcDbLine
 10
-468.849114893188
 20
381.8409171173322
 30
0.0
 11
-468.8490924430311
 21
394.8410697052037
 31
0.0
  0
LINE
  5
EB2
330
1F
100
AcDbEntity
  8
0
  6
Continuous
100
AcDbLine
 10
-468.2685437429809
 20
384.5879864272398
 30
0.0
 11
-463.8495984304881
 21
384.5879787960972
 31
0.0
  0
ARC
  5
EB3
330
1F
100
AcDbEntity
  8
0
  6
Continuous
100
AcDbCircle
 10
-465.5263594834805
 20
382.7115168479683
 30
0.0
 40
3.322566986083984
100
AcDbArc
 50
145.6155983769042
 51
179.9999010550653
  0
LINE
  5
EB4
330
1F
100
AcDbEntity
  8
0
  6
Continuous
100
AcDbLine
 10
-468.8494518133256
 20
381.8409599884977
 30
0.0
 11
-468.2688871436112
 21
380.8353884911663
 31
0.0
  0
LINE
  5
EB5
330
1F
100
AcDbEntity
  8
0
  6
Continuous
100
AcDbLine
 10
-468.2690385043788
 20
380.8355450218384
 30
0.0
 11
-463.8496049106351
 21
380.8355373898527
 31
0.0
  0
LINE
  5
EB6
330
1F
100
AcDbEntity
  8
0
  6
Continuous
100
AcDbLine
 10
-462.2496057648122
 20
380.3409100969308
 30
0.0
 11
-463.8496057648144
 21
380.3409100969308
 31
0.0
  0
LINE
  5
EB7
330
1F
100
AcDbEntity
  8
0
  6
Continuous
100
AcDbLine
 10
-462.2495781341744
 20
396.3409100969308
 30
0.0
 11
-463.8495781341767
 21
396.3409100969308
 31
0.0
  0
LINE
  5
EB8
330
1F
100
AcDbEntity
  8
0
  6
Continuous
100
AcDbLine
 10
-468.8496896057436
 20
436.8409329551128
 30
0.0
 11
-468.8496896057436
 21
423.8409329551128
 31
0.0
  0
LINE
  5
EB9
330
1F
100
AcDbEntity
  8
0
  6
Continuous
100
AcDbLine
 10
-468.2696114807436
 20
437.8466092246441
 30
0.0
 11
-464.4302560119935
 21
437.8466092246441
 31
0.0
  0
LINE
  5
EBA
330
1F
100
AcDbEntity
  8
0
  6
Continuous
100
AcDbLine
 10
-468.2691231994936
 20
434.0938626426129
 30
0.0
 11
-464.4306786923038
 21
434.0938626426129
 31
0.0
  0
LINE
  5
EBB
330
1F
100
AcDbEntity
  8
0
  6
Continuous
100
AcDbLine
 10
-468.8494070023939
 20
436.8414028090679
 30
0.0
 11
-468.2688405961439
 21
437.8469733038124
 31
0.0
  0
LINE
  5
EBC
330
1F
100
AcDbEntity
  8
0
  6
Continuous
100
AcDbLine
 10
-464.4302560119935
 20
422.8355618613628
 30
0.0
 11
-468.2696114807436
 21
422.8355618613628
 31
0.0
  0
LINE
  5
EBD
330
1F
100
AcDbEntity
  8
0
  6
Continuous
100
AcDbLine
 10
-464.4310995861765
 20
426.5884915488628
 30
0.0
 11
-468.2691231994936
 21
426.5884915488628
 31
0.0
  0
ARC
  5
EBE
330
1F
100
AcDbEntity
  8
0
  6
Continuous
100
AcDbCircle
 10
-465.5269356994936
 20
424.7120267051128
 30
0.0
 40
3.322566986083984
100
AcDbArc
 50
145.6156973218405
 51
180.0
  0
ARC
  5
EBF
330
1F
100
AcDbEntity
  8
0
  6
Continuous
100
AcDbCircle
 10
-456.4302560119935
 20
430.3409329551128
 30
0.0
 40
12.41944122314453
100
AcDbArc
 50
162.4120613966124
 51
197.5879727542934
  0
LINE
  5
EC0
330
1F
100
AcDbEntity
  8
0
  6
Continuous
100
AcDbLine
 10
-462.2495919494935
 20
438.3407498496441
 30
0.0
 11
-463.8496896057436
 21
438.3407498496441
 31
0.0
  0
LINE
  5
EC1
330
1F
100
AcDbEntity
  8
0
  6
Continuous
100
AcDbLine
 10
-462.2495919494935
 20
422.3409329551128
 30
0.0
 11
-463.8496896057436
 21
422.3409329551128
 31
0.0
  0
LINE
  5
EC2
330
1F
100
AcDbEntity
  8
0
  6
Continuous
100
AcDbLine
 10
-468.848894060658
 20
423.8413785154103
 30
0.0
 11
-468.268327654408
 21
422.8358080206659
 31
0.0
  0
ARC
  5
EC3
330
1F
100
AcDbEntity
  8
0
  6
Continuous
100
AcDbCircle
 10
-465.5269356994936
 20
435.9703274863628
 30
0.0
 40
3.322566986083984
100
AcDbArc
 50
180.0
 51
214.3843026781595
  0
LINE
  5
EC4
330
1F
100
AcDbEntity
  8
0
  6
Continuous
100
AcDbLine
 10
-463.8496896057436
 20
438.3407498496441
 30
0.0
 11
-463.8496896057436
 21
422.3409329551128
 31
0.0
  0
LINE
  5
EC5
330
1F
100
AcDbEntity
  8
0
  6
Continuous
100
AcDbLine
 10
-463.8485294920224
 20
436.8416254109412
 30
0.0
 11
-464.4290806394833
 21
437.8471694766882
 31
0.0
  0
LINE
  5
EC6
330
1F
100
AcDbEntity
  8
0
  6
Continuous
100
AcDbLine
 10
-463.8490119161747
 20
423.841208771532
 30
0.0
 11
-464.4295783224256
 21
422.8356382767866
 31
0.0
  0
LINE
  5
EC7
330
1F
100
AcDbEntity
  8
0
  6
Continuous
100
AcDbLine
 10
-468.8496896057436
 20
426.3409329551128
 30
0.0
 11
-476.7491036682709
 21
426.3409329551128
 31
0.0
  0
LINE
  5
EC8
330
1F
100
AcDbEntity
  8
0
  6
Continuous
100
AcDbLine
 10
-468.8496896057436
 20
427.1412259238628
 30
0.0
 11
-476.7491036682709
 21
427.1412259238628
 31
0.0
  0
LINE
  5
EC9
330
1F
100
AcDbEntity
  8
0
  6
Continuous
100
AcDbLine
 10
-468.8496896057436
 20
433.5411282676128
 30
0.0
 11
-476.7491036682709
 21
433.5411282676128
 31
0.0
  0
LINE
  5
ECA
330
1F
100
AcDbEntity
  8
0
  6
Continuous
100
AcDbLine
 10
-468.8496896057436
 20
434.3409329551128
 30
0.0
 11
-476.7491036682709
 21
434.3409329551128
 31
0.0
  0
LINE
  5
ECB
330
1F
100
AcDbEntity
  8
0
  6
Continuous
100
AcDbLine
 10
-481.7490489555716
 20
423.8407506241625
 30
0.0
 11
-481.1684825493216
 21
422.835180129419
 31
0.0
  0
LINE
  5
ECC
330
1F
100
AcDbEntity
  8
0
  6
Continuous
100
AcDbLine
 10
-476.7491036682709
 20
422.8354104785227
 30
0.0
 11
-481.1685372620209
 21
422.8354104785227
 31
0.0
  0
ARC
  5
ECD
330
1F
100
AcDbEntity
  8
0
  6
Continuous
100
AcDbCircle
 10
-478.4258614807709
 20
424.7116616992258
 30
0.0
 40
3.322566986083984
100
AcDbArc
 50
145.6156973218405
 51
180.0
  0
LINE
  5
ECE
330
1F
100
AcDbEntity
  8
0
  6
Continuous
100
AcDbLine
 10
-476.7491036682709
 20
426.5880960253976
 30
0.0
 11
-481.1680489807709
 21
426.5880960253976
 31
0.0
  0
ARC
  5
ECF
330
1F
100
AcDbEntity
  8
0
  6
Continuous
100
AcDbCircle
 10
-469.3291817932709
 20
430.3409341601633
 30
0.0
 40
12.41944122314453
100
AcDbArc
 50
162.4120613966124
 51
197.5879727542934
  0
LINE
  5
ED0
330
1F
100
AcDbEntity
  8
0
  6
Continuous
100
AcDbLine
 10
-481.7486153870208
 20
436.8409341601632
 30
0.0
 11
-481.7486153870208
 21
423.8407815722727
 31
0.0
  0
LINE
  5
ED1
330
1F
100
AcDbEntity
  8
0
  6
Continuous
100
AcDbLine
 10
-476.7491036682709
 20
422.8354104785227
 30
0.0
 11
-476.7491036682709
 21
437.8463052539133
 31
0.0
  0
LINE
  5
ED2
330
1F
100
AcDbEntity
  8
0
  6
Continuous
100
AcDbLine
 10
-481.1680489807709
 20
434.0938638476633
 30
0.0
 11
-476.7491036682709
 21
434.0938638476633
 31
0.0
  0
ARC
  5
ED3
330
1F
100
AcDbEntity
  8
0
  6
Continuous
100
AcDbCircle
 10
-478.4258614807709
 20
435.9703286914133
 30
0.0
 40
3.322566986083984
100
AcDbArc
 50
180.0
 51
214.3843026781595
  0
LINE
  5
ED4
330
1F
100
AcDbEntity
  8
0
  6
Continuous
100
AcDbLine
 10
-481.7489523072322
 20
436.8408912895808
 30
0.0
 11
-481.1683859009822
 21
437.8464617843243
 31
0.0
  0
LINE
  5
ED5
330
1F
100
AcDbEntity
  8
0
  6
Continuous
100
AcDbLine
 10
-481.1685372620209
 20
437.8463052539133
 30
0.0
 11
-476.7491036682709
 21
437.8463052539133
 31
0.0
  0
ARC
  5
ED6
330
1F
100
AcDbEntity
  8
0
  6
Continuous
100
AcDbCircle
 10
-467.1729317932435
 20
435.970144380894
 30
0.0
 40
3.322566986083984
100
AcDbArc
 50
325.6156973218405
 51
0.0
  0
ARC
  5
ED7
330
1F
100
AcDbEntity
  8
0
  6
Continuous
100
AcDbCircle
 10
-476.2696114807436
 20
430.3412381308941
 30
0.0
 40
12.41944122314453
100
AcDbArc
 50
342.4120613966124
 51
17.58797275429345
  0
ARC
  5
ED8
330
1F
100
AcDbEntity
  8
0
  6
Continuous
100
AcDbCircle
 10
-467.1729317932435
 20
424.7118435996441
 30
0.0
 40
3.322566986083984
100
AcDbArc
 50
0.0
 51
34.3843026781595
  0
LINE
  5
ED9
330
1F
100
AcDbEntity
  8
0
  6
Continuous
100
AcDbLine
 10
-433.7494386824933
 20
480.8409100969307
 30
0.0
 11
-343.7494386824933
 21
480.8409100969307
 31
0.0
  0
LINE
  5
EDA
330
1F
100
AcDbEntity
  8
0
  6
Continuous
100
AcDbLine
 10
-357.2494346824933
 20
480.8409100969307
 30
0.0
 11
-420.2494196824932
 21
480.8409100969307
 31
0.0
  0
LINE
  5
EDB
330
1F
100
AcDbEntity
  8
0
100
AcDbLine
 10
-374.9494485668206
 20
482.3407600969309
 30
0.0
 11
-374.9494485668206
 21
480.8407600969309
 31
0.0
  0
LINE
  5
EDC
330
1F
100
AcDbEntity
  8
0
100
AcDbLine
 10
-374.9494485668206
 20
482.3407600969309
 30
0.0
 11
-402.549424566821
 21
482.3407600969309
 31
0.0
  0
LINE
  5
EDD
330
1F
100
AcDbEntity
  8
0
100
AcDbLine
 10
-402.549424566821
 20
482.3407600969309
 30
0.0
 11
-402.549424566821
 21
480.8407600969309
 31
0.0
  0
LINE
  5
EDE
330
1F
100
AcDbEntity
  8
0
100
AcDbLine
 10
-377.2493755668206
 20
482.3407600969309
 30
0.0
 11
-377.2493755668206
 21
482.8407600969309
 31
0.0
  0
LINE
  5
EDF
330
1F
100
AcDbEntity
  8
0
100
AcDbLine
 10
-400.2493755668206
 20
482.3407600969309
 30
0.0
 11
-400.2493755668206
 21
482.8407600969309
 31
0.0
  0
LINE
  5
EE0
330
1F
100
AcDbEntity
  8
0
100
AcDbLine
 10
-370.7494271824931
 20
507.8409392574346
 30
0.0
 11
-370.7493755668206
 21
482.8407600969309
 31
0.0
  0
LINE
  5
EE1
330
1F
100
AcDbEntity
  8
0
100
AcDbLine
 10
-406.749427182493
 20
507.8409392574346
 30
0.0
 11
-370.7494271824931
 21
507.8409392574346
 31
0.0
  0
LINE
  5
EE2
330
1F
100
AcDbEntity
  8
0
100
AcDbLine
 10
-406.7493755668206
 20
482.8407600969309
 30
0.0
 11
-370.7493755668206
 21
482.8407600969309
 31
0.0
  0
LINE
  5
EE3
330
1F
100
AcDbEntity
  8
0
100
AcDbLine
 10
-393.9994271824931
 20
510.867959257435
 30
0.0
 11
-393.9994271824931
 21
509.3409392574345
 31
0.0
  0
LINE
  5
EE4
330
1F
100
AcDbEntity
  8
0
100
AcDbLine
 10
-382.6494272824934
 20
509.3409392574345
 30
0.0
 11
-382.6494272824934
 21
507.8409392574346
 31
0.0
  0
LINE
  5
EE5
330
1F
100
AcDbEntity
  8
0
100
AcDbLine
 10
-383.499427182493
 20
510.867959257435
 30
0.0
 11
-383.499427182493
 21
509.3409392574345
 31
0.0
  0
LINE
  5
EE6
330
1F
100
AcDbEntity
  8
0
100
AcDbLine
 10
-394.8494270824927
 20
509.3409392574345
 30
0.0
 11
-394.8494270824927
 21
507.8409392574346
 31
0.0
  0
LINE
  5
EE7
330
1F
100
AcDbEntity
  8
0
100
AcDbLine
 10
-386.2183640824928
 20
507.8409392574346
 30
0.0
 11
-386.2183124668213
 21
482.8407600969309
 31
0.0
  0
LINE
  5
EE8
330
1F
100
AcDbEntity
  8
0
100
AcDbLine
 10
-394.8494270824927
 20
509.3409392574345
 30
0.0
 11
-382.6494272824934
 21
509.3409392574345
 31
0.0
  0
LINE
  5
EE9
330
1F
100
AcDbEntity
  8
0
100
AcDbLine
 10
-391.2804902824932
 20
507.8409392574346
 30
0.0
 11
-391.2804386668208
 21
482.8407600969309
 31
0.0
  0
LINE
  5
EEA
330
1F
100
AcDbEntity
  8
0
100
AcDbLine
 10
-406.749427182493
 20
507.8409392574346
 30
0.0
 11
-406.7493755668206
 21
482.8407600969309
 31
0.0
  0
ARC
  5
EEB
330
1F
100
AcDbEntity
  8
0
100
AcDbCircle
 10
-388.749427182493
 20
499.2409492574348
 30
0.0
 40
14.0
100
AcDbArc
 50
73.92713699999788
 51
106.0728599999963
  0
ARC
  5
EEC
330
1F
100
AcDbEntity
  8
0
100
AcDbCircle
 10
-385.3994272824934
 20
510.867959257435
 30
0.0
 40
1.9
100
AcDbArc
 50
0.0
 51
73.92713399999192
  0
ARC
  5
EED
330
1F
100
AcDbEntity
  8
0
100
AcDbCircle
 10
-392.0994270824926
 20
510.867959257435
 30
0.0
 40
1.9
100
AcDbArc
 50
106.0728599999963
 51
180.0
  0
LINE
  5
EEE
330
1F
100
AcDbEntity
  8
0
  6
CENTER
100
AcDbLine
 10
-844.5783801239544
 20
753.752397287462
 30
0.0
 11
-594.5783801239545
 21
753.752397287462
 31
0.0
  0
LINE
  5
EEF
330
1F
100
AcDbEntity
  8
0
100
AcDbLine
 10
-604.5783801239545
 20
694.252397287462
 30
0.0
 11
-604.5783801239545
 21
753.752397287462
 31
0.0
  0
LINE
  5
EF0
330
1F
100
AcDbEntity
  8
0
100
AcDbLine
 10
-604.5783801239545
 20
753.752397287462
 30
0.0
 11
-604.5783801239545
 21
813.252397287462
 31
0.0
  0
LINE
  5
EF1
330
1F
100
AcDbEntity
  8
0
100
AcDbLine
 10
-607.7157612607274
 20
695.0419731024936
 30
0.0
 11
-610.115951799266
 21
701.6364421733793
 31
0.0
  0
LINE
  5
EF2
330
1F
100
AcDbEntity
  8
0
100
AcDbLine
 10
-604.5783801239545
 20
694.252397287462
 30
0.0
 11
-606.5881301205085
 21
694.252397287462
 31
0.0
  0
ARC
  5
EF3
330
1F
100
AcDbEntity
  8
0
100
AcDbCircle
 10
-606.5881301205085
 20
695.4523972874627
 30
0.0
 40
1.199999999999999
100
AcDbArc
 50
200.0000006593996
 51
270.0
  0
ARC
  5
EF4
330
1F
100
AcDbEntity
  8
0
100
AcDbCircle
 10
-611.9953370329653
 20
700.9524018650987
 30
0.0
 40
2.0
100
AcDbArc
 50
20.00000065939959
 51
90.0
  0
LINE
  5
EF5
330
1F
100
AcDbEntity
  8
0
100
AcDbLine
 10
-604.5783801239545
 20
813.252397287462
 30
0.0
 11
-606.5881301205085
 21
813.252397287462
 31
0.0
  0
ARC
  5
EF6
330
1F
100
AcDbEntity
  8
0
100
AcDbCircle
 10
-606.5881301205085
 20
812.0523972874631
 30
0.0
 40
1.199999999999999
100
AcDbArc
 50
90.0
 51
159.9999993406004
  0
ARC
  5
EF7
330
1F
100
AcDbEntity
  8
0
100
AcDbCircle
 10
-611.9953370329653
 20
806.5523927098253
 30
0.0
 40
2.0
100
AcDbArc
 50
270.0
 51
339.9999993406003
  0
LINE
  5
EF8
330
1F
100
AcDbEntity
  8
0
100
AcDbLine
 10
-607.7157612607274
 20
812.4628214724303
 30
0.0
 11
-610.115951799266
 21
805.8683524015457
 31
0.0
  0
LINE
  5
EF9
330
1F
100
AcDbEntity
  8
0
100
AcDbLine
 10
-611.9953374865531
 20
702.9524018650987
 30
0.0
 11
-639.3283698746113
 21
702.9523956661375
 31
0.0
  0
LINE
  5
EFA
330
1F
100
AcDbEntity
  8
0
100
AcDbLine
 10
-834.5783801239544
 20
694.252397287462
 30
0.0
 11
-834.5783801239544
 21
813.252397287462
 31
0.0
  0
LINE
  5
EFB
330
1F
100
AcDbEntity
  8
0
100
AcDbLine
 10
-831.4409989871816
 20
695.0419731024936
 30
0.0
 11
-829.0408084486429
 21
701.6364421733793
 31
0.0
  0
LINE
  5
EFC
330
1F
100
AcDbEntity
  8
0
100
AcDbLine
 10
-834.5783801239544
 20
694.252397287462
 30
0.0
 11
-832.5686301274004
 21
694.252397287462
 31
0.0
  0
ARC
  5
EFD
330
1F
100
AcDbEntity
  8
0
100
AcDbCircle
 10
-832.5686301274004
 20
695.4523972874627
 30
0.0
 40
1.199999999999999
100
AcDbArc
 50
270.0
 51
339.9999993406003
  0
ARC
  5
EFE
330
1F
100
AcDbEntity
  8
0
100
AcDbCircle
 10
-827.1614232149437
 20
700.9524018650987
 30
0.0
 40
2.0
100
AcDbArc
 50
90.0
 51
159.9999993406004
  0
LINE
  5
EFF
330
1F
100
AcDbEntity
  8
0
100
AcDbLine
 10
-834.5783801239544
 20
813.252397287462
 30
0.0
 11
-832.5686301274004
 21
813.252397287462
 31
0.0
  0
ARC
  5
F00
330
1F
100
AcDbEntity
  8
0
100
AcDbCircle
 10
-832.5686301274004
 20
812.0523972874631
 30
0.0
 40
1.199999999999999
100
AcDbArc
 50
20.00000065939959
 51
90.0
  0
ARC
  5
F01
330
1F
100
AcDbEntity
  8
0
100
AcDbCircle
 10
-827.1614232149437
 20
806.5523927098253
 30
0.0
 40
2.0
100
AcDbArc
 50
200.0000006593996
 51
270.0
  0
LINE
  5
F02
330
1F
100
AcDbEntity
  8
0
100
AcDbLine
 10
-831.4409989871816
 20
812.4628214724303
 30
0.0
 11
-829.0408084486429
 21
805.8683524015457
 31
0.0
  0
LINE
  5
F03
330
1F
100
AcDbEntity
  8
0
100
AcDbLine
 10
-827.161423152757
 20
804.5523927098253
 30
0.0
 11
-797.578381043792
 21
804.5523936296646
 31
0.0
  0
LINE
  5
F04
330
1F
100
AcDbEntity
  8
0
100
AcDbLine
 10
-827.1614232149437
 20
702.9524018650987
 30
0.0
 11
-797.5783801239544
 21
702.9524018650987
 31
0.0
  0
LINE
  5
F05
330
1F
100
AcDbEntity
  8
0
100
AcDbLine
 10
-783.5783801239545
 20
686.752397287462
 30
0.0
 11
-790.5783801239545
 21
686.752397287462
 31
0.0
  0
ARC
  5
F06
330
1F
100
AcDbEntity
  8
0
100
AcDbCircle
 10
-783.5783801239545
 20
683.752397287462
 30
0.0
 40
3.0
100
AcDbArc
 50
0.0
 51
90.0
1001
GENIUS_GENOBJ-N-FIL_13
1002
{
1000
OWNER
1000
GEN
1002
}
1001
GENIUS_GENODEF_13
1002
{
1000
HIER
1070
     0
1002
}
1002
{
1000
MANEDIT
1070
     0
1002
}
1002
{
1000
NOSEL
1070
     0
1002
}
1002
{
1000
BEHIND
1070
     0
1002
}
1002
{
1000
OTHER
1070
     0
1002
}
1002
{
1000
REACTOR
1002
}
  0
LINE
  5
F07
330
1F
100
AcDbEntity
  8
0
100
AcDbLine
 10
-795.5783801239545
 20
691.752397287462
 30
0.0
 11
-795.5783801239545
 21
753.752397287462
 31
0.0
  0
ARC
  5
F08
330
1F
100
AcDbEntity
  8
0
100
AcDbCircle
 10
-797.5783801239544
 20
700.9524018650987
 30
0.0
 40
2.0
100
AcDbArc
 50
0.0
 51
90.0
1001
GENIUS_GENOBJ-N-FIL_13
1002
{
1000
OWNER
1000
GEN
1002
}
1001
GENIUS_GENODEF_13
1002
{
1000
HIER
1070
     0
1002
}
1002
{
1000
MANEDIT
1070
     0
1002
}
1002
{
1000
NOSEL
1070
     0
1002
}
1002
{
1000
BEHIND
1070
     0
1002
}
1002
{
1000
OTHER
1070
     0
1002
}
1002
{
1000
REACTOR
1002
}
  0
ARC
  5
F09
330
1F
100
AcDbEntity
  8
0
100
AcDbCircle
 10
-790.5783801239545
 20
691.752397287462
 30
0.0
 40
5.0
100
AcDbArc
 50
180.0
 51
270.0
1001
GENIUS_GENODEF_13
1002
{
1000
HIER
1070
     0
1002
}
1002
{
1000
MANEDIT
1070
     0
1002
}
1002
{
1000
NOSEL
1070
     0
1002
}
1002
{
1000
BEHIND
1070
     0
1002
}
1002
{
1000
OTHER
1070
     0
1002
}
1002
{
1000
REACTOR
1002
}
1001
GENIUS_GENOBJ-N-FIL_13
1002
{
1000
OWNER
1000
GEN
1002
}
  0
LINE
  5
F0A
330
1F
100
AcDbEntity
  8
0
100
AcDbLine
 10
-780.5783801239544
 20
753.752397287462
 30
0.0
 11
-780.5783801239544
 21
674.252397287462
 31
0.0
  0
LINE
  5
F0B
330
1F
100
AcDbEntity
  8
0
100
AcDbLine
 10
-795.5783801239545
 20
815.7523972874621
 30
0.0
 11
-795.5783801239545
 21
753.7523972874629
 31
0.0
  0
ARC
  5
F0C
330
1F
100
AcDbEntity
  8
0
100
AcDbCircle
 10
-797.5783801239544
 20
806.5523936296637
 30
0.0
 40
2.0
100
AcDbArc
 50
269.9999736485974
 51
0.0
1001
GENIUS_GENOBJ-N-FIL_13
1002
{
1000
OWNER
1000
GEN
1002
}
1001
GENIUS_GENODEF_13
1002
{
1000
HIER
1070
     0
1002
}
1002
{
1000
MANEDIT
1070
     0
1002
}
1002
{
1000
NOSEL
1070
     0
1002
}
1002
{
1000
BEHIND
1070
     0
1002
}
1002
{
1000
OTHER
1070
     0
1002
}
1002
{
1000
REACTOR
1002
}
  0
LINE
  5
F0D
330
1F
100
AcDbEntity
  8
0
100
AcDbLine
 10
-780.5783801239544
 20
753.752397287462
 30
0.0
 11
-780.5783801239544
 21
833.252397287462
 31
0.0
  0
LINE
  5
F0E
330
1F
100
AcDbEntity
  8
0
100
AcDbLine
 10
-611.9953374865531
 20
804.5523927098253
 30
0.0
 11
-639.3283698746086
 21
804.5523989087893
 31
0.0
  0
LINE
  5
F0F
330
1F
100
AcDbEntity
  8
0
100
AcDbLine
 10
-665.3283801239544
 20
846.2523855460764
 30
0.0
 11
-662.0526435562446
 21
855.2523974756665
 31
0.0
  0
LINE
  5
F10
330
1F
100
AcDbEntity
  8
0
100
AcDbLine
 10
-665.3283801239544
 20
753.752397287462
 30
0.0
 11
-665.3283801239544
 21
846.2523855460764
 31
0.0
  0
LINE
  5
F11
330
1F
100
AcDbEntity
  8
0
100
AcDbLine
 10
-783.5783801239545
 20
820.752397287462
 30
0.0
 11
-790.5783801239545
 21
820.752397287462
 31
0.0
  0
ARC
  5
F12
330
1F
100
AcDbEntity
  8
0
100
AcDbCircle
 10
-783.5783801239545
 20
823.7523972874621
 30
0.0
 40
3.0
100
AcDbArc
 50
270.0
 51
0.0
1001
GENIUS_GENOBJ-N-FIL_13
1002
{
1000
OWNER
1000
GEN
1002
}
1001
GENIUS_GENODEF_13
1002
{
1000
HIER
1070
     0
1002
}
1002
{
1000
MANEDIT
1070
     0
1002
}
1002
{
1000
NOSEL
1070
     0
1002
}
1002
{
1000
BEHIND
1070
     0
1002
}
1002
{
1000
OTHER
1070
     0
1002
}
1002
{
1000
REACTOR
1002
}
  0
ARC
  5
F13
330
1F
100
AcDbEntity
  8
0
100
AcDbCircle
 10
-790.5783801239545
 20
815.7523972874621
 30
0.0
 40
5.0
100
AcDbArc
 50
90.0
 51
180.0
1001
GENIUS_GENODEF_13
1002
{
1000
HIER
1070
     0
1002
}
1002
{
1000
MANEDIT
1070
     0
1002
}
1002
{
1000
NOSEL
1070
     0
1002
}
1002
{
1000
BEHIND
1070
     0
1002
}
1002
{
1000
OTHER
1070
     0
1002
}
1002
{
1000
REACTOR
1002
}
1001
GENIUS_GENOBJ-N-FIL_13
1002
{
1000
OWNER
1000
GEN
1002
}
  0
LINE
  5
F14
330
1F
100
AcDbEntity
  8
0
100
AcDbLine
 10
-665.328380123959
 20
669.252397287462
 30
0.0
 11
-692.5785530919752
 21
669.252397287462
 31
0.0
  0
LINE
  5
F15
330
1F
100
AcDbEntity
  8
0
100
AcDbLine
 10
-700.5785559123919
 20
669.252397287462
 30
0.0
 11
-775.5783801239545
 21
669.252397287462
 31
0.0
  0
ARC
  5
F16
330
1F
100
AcDbEntity
  8
0
100
AcDbCircle
 10
-775.5783801239545
 20
674.252397287462
 30
0.0
 40
5.0
100
AcDbArc
 50
180.0
 51
270.0
1001
GENIUS_GENODEF_13
1002
{
1000
HIER
1070
     0
1002
}
1002
{
1000
MANEDIT
1070
     0
1002
}
1002
{
1000
NOSEL
1070
     0
1002
}
1002
{
1000
BEHIND
1070
     0
1002
}
1002
{
1000
OTHER
1070
     0
1002
}
1002
{
1000
REACTOR
1002
}
1001
GENIUS_GENOBJ-N-FIL_13
1002
{
1000
OWNER
1000
GEN
1002
}
  0
LINE
  5
F17
330
1F
100
AcDbEntity
  8
0
100
AcDbLine
 10
-665.3283801239544
 20
838.252397287462
 30
0.0
 11
-675.5787616442826
 21
838.252397287462
 31
0.0
  0
LINE
  5
F18
330
1F
100
AcDbEntity
  8
0
100
AcDbLine
 10
-763.5787616442826
 20
838.252397287462
 30
0.0
 11
-775.5783801239545
 21
838.252397287462
 31
0.0
  0
ARC
  5
F19
330
1F
100
AcDbEntity
  8
0
100
AcDbCircle
 10
-775.5783801239545
 20
833.252397287462
 30
0.0
 40
5.0
100
AcDbArc
 50
90.0
 51
180.0
1001
GENIUS_GENODEF_13
1002
{
1000
HIER
1070
     0
1002
}
1002
{
1000
MANEDIT
1070
     0
1002
}
1002
{
1000
NOSEL
1070
     0
1002
}
1002
{
1000
BEHIND
1070
     0
1002
}
1002
{
1000
OTHER
1070
     0
1002
}
1002
{
1000
REACTOR
1002
}
1001
GENIUS_GENOBJ-N-FIL_13
1002
{
1000
OWNER
1000
GEN
1002
}
  0
LINE
  5
F1A
330
1F
100
AcDbEntity
  8
0
100
AcDbLine
 10
-607.4283791560688
 20
695.0419731024936
 30
0.0
 11
-607.4283791560678
 21
753.7523972874629
 31
0.0
  0
LINE
  5
F1B
330
1F
100
AcDbEntity
  8
0
100
AcDbLine
 10
-610.5949219736971
 20
702.9524018650987
 30
0.0
 11
-610.5949219736962
 21
753.752397287462
 31
0.0
  0
LINE
  5
F1C
330
1F
100
AcDbEntity
  8
0
100
AcDbLine
 10
-607.4283791560688
 20
812.4628214724303
 30
0.0
 11
-607.4283791560674
 21
753.7523972874629
 31
0.0
  0
LINE
  5
F1D
330
1F
100
AcDbEntity
  8
0
100
AcDbLine
 10
-610.5949219736971
 20
804.5523927098253
 30
0.0
 11
-610.5949219736958
 21
753.7523972874629
 31
0.0
  0
LINE
  5
F1E
330
1F
100
AcDbEntity
  8
0
100
AcDbLine
 10
-831.7283811680713
 20
695.0419622746754
 30
0.0
 11
-831.7283868364253
 21
753.7523864596438
 31
0.0
  0
LINE
  5
F1F
330
1F
100
AcDbEntity
  8
0
100
AcDbLine
 10
-828.5618391141765
 20
702.9523913430018
 30
0.0
 11
-828.5618440187969
 21
753.752386765365
 31
0.0
  0
LINE
  5
F20
330
1F
100
AcDbEntity
  8
0
100
AcDbLine
 10
-831.7283925047782
 20
812.4628106446113
 30
0.0
 11
-831.7283868364253
 21
753.7523864596438
 31
0.0
  0
LINE
  5
F21
330
1F
100
AcDbEntity
  8
0
100
AcDbLine
 10
-828.561848923417
 20
804.5523821877283
 30
0.0
 11
-828.5618440187969
 21
753.7523867653659
 31
0.0
  0
LINE
  5
F22
330
1F
100
AcDbEntity
  8
0
100
AcDbLine
 10
-662.0526450131824
 20
753.752397287462
 30
0.0
 11
-662.0526450131824
 21
652.2524011021593
 31
0.0
  0
LINE
  5
F23
330
1F
100
AcDbEntity
  8
0
100
AcDbLine
 10
-662.0526450131824
 20
753.7523972874629
 30
0.0
 11
-662.0526450131824
 21
855.2523934727629
 31
0.0
  0
LINE
  5
F24
330
1F
100
AcDbEntity
  8
0
100
AcDbLine
 10
-665.328380123954
 20
753.752397287462
 30
0.0
 11
-665.328380123959
 21
661.2524090288476
 31
0.0
  0
LINE
  5
F25
330
1F
100
AcDbEntity
  8
0
100
AcDbLine
 10
-665.328380123959
 20
652.2523970992584
 30
0.0
 11
-639.3283698746135
 21
652.2523970992575
 31
0.0
  0
LINE
  5
F26
330
1F
100
AcDbEntity
  8
0
100
AcDbLine
 10
-662.0526435562501
 20
855.2523894698639
 30
0.0
 11
-642.6041049853852
 21
855.2523894698639
 31
0.0
  0
LINE
  5
F27
330
1F
100
AcDbEntity
  8
0
100
AcDbLine
 10
-642.6041049853861
 20
753.752397287462
 30
0.0
 11
-642.6041049853852
 21
652.2523970992584
 31
0.0
  0
LINE
  5
F28
330
1F
100
AcDbEntity
  8
0
100
AcDbLine
 10
-642.6041049853861
 20
753.752397287462
 30
0.0
 11
-642.6041049853852
 21
855.2523894698621
 31
0.0
  0
LINE
  5
F29
330
1F
100
AcDbEntity
  8
0
100
AcDbLine
 10
-639.3283698746086
 20
846.2523815431756
 30
0.0
 11
-642.6041064423184
 21
855.2523934727657
 31
0.0
  0
LINE
  5
F2A
330
1F
100
AcDbEntity
  8
0
100
AcDbLine
 10
-639.3283698746086
 20
753.752397287462
 30
0.0
 11
-639.3283698746086
 21
846.2523815431756
 31
0.0
  0
LINE
  5
F2B
330
1F
100
AcDbEntity
  8
0
100
AcDbLine
 10
-639.3283698746081
 20
753.752397287462
 30
0.0
 11
-639.328369874614
 21
661.252405025945
 31
0.0
  0
LINE
  5
F2C
330
1F
100
AcDbEntity
  8
0
100
AcDbLine
 10
-660.328380123959
 20
631.7523868056192
 30
0.0
 11
-644.3283698746131
 21
631.7523868056192
 31
0.0
  0
LINE
  5
F2D
330
1F
100
AcDbEntity
  8
0
100
AcDbLine
 10
-639.328369874614
 20
661.252405025945
 30
0.0
 11
-639.3283698746131
 21
636.7523868056192
 31
0.0
  0
ARC
  5
F2E
330
1F
100
AcDbEntity
  8
0
100
AcDbCircle
 10
-644.3283698746131
 20
636.7523868056192
 30
0.0
 40
5.0
100
AcDbArc
 50
270.0
 51
0.0
  0
LINE
  5
F2F
330
1F
100
AcDbEntity
  8
0
100
AcDbLine
 10
-647.0783698746136
 20
641.7523868056193
 30
0.0
 11
-647.0783698746132
 21
631.7523868056183
 31
0.0
  0
LINE
  5
F30
330
1F
100
AcDbEntity
  8
0
100
AcDbLine
 10
-665.328380123959
 20
661.2524090288476
 30
0.0
 11
-665.328380123959
 21
636.7523868056192
 31
0.0
  0
ARC
  5
F31
330
1F
100
AcDbEntity
  8
0
100
AcDbCircle
 10
-660.328380123959
 20
636.7523868056192
 30
0.0
 40
5.0
100
AcDbArc
 50
180.0
 51
270.0
  0
LINE
  5
F32
330
1F
100
AcDbEntity
  8
0
100
AcDbLine
 10
-657.578380123959
 20
641.7523868056193
 30
0.0
 11
-657.578380123959
 21
631.7523868056192
 31
0.0
  0
LINE
  5
F33
330
1F
100
AcDbEntity
  8
0
100
AcDbLine
 10
-655.178374270818
 20
631.7523868056192
 30
0.0
 11
-655.178374270818
 21
624.6023944648156
 31
0.0
  0
LINE
  5
F34
330
1F
100
AcDbEntity
  8
0
100
AcDbLine
 10
-649.4783742708155
 20
631.7523868056192
 30
0.0
 11
-649.4783742708164
 21
624.6023944648156
 31
0.0
  0
ARC
  5
F35
330
1F
100
AcDbEntity
  8
0
100
AcDbCircle
 10
-652.3283742708176
 20
624.6023944648156
 30
0.0
 40
2.850000000000363
100
AcDbArc
 50
180.0
 51
0.0
  0
LINE
  5
F36
330
1F
100
AcDbEntity
  8
0
  6
Continuous
100
AcDbLine
 10
-763.5787623843976
 20
841.252397287462
 30
0.0
 11
-675.5787623843976
 21
841.252397287462
 31
0.0
  0
LINE
  5
F37
330
1F
100
AcDbEntity
  8
0
  6
Continuous
100
AcDbLine
 10
-763.5787425246112
 20
686.2522440204616
 30
0.0
 11
-675.5787425246121
 21
686.2522440204616
 31
0.0
  0
LINE
  5
F38
330
1F
100
AcDbEntity
  8
0
  6
Continuous
100
AcDbLine
 10
-675.5787422779071
 20
681.2522441437637
 30
0.0
 11
-675.578762633579
 21
846.2724812969824
 31
0.0
  0
LINE
  5
F39
330
1F
100
AcDbEntity
  8
0
  6
Continuous
100
AcDbLine
 10
-763.5787422779071
 20
681.2522438970587
 30
0.0
 11
-763.5787626311034
 21
846.2523971641127
 31
0.0
  0
LINE
  5
F3A
330
1F
100
AcDbEntity
  8
0
  6
Continuous
100
AcDbLine
 10
-752.8782532060908
 20
680.2522440204334
 30
0.0
 11
-752.8783709714457
 21
748.6561421835792
 31
0.0
  0
LINE
  5
F3B
330
1F
100
AcDbEntity
  8
0
  6
Continuous
100
AcDbLine
 10
-752.8783885190391
 20
758.8486455916523
 30
0.0
 11
-752.8785407164928
 21
847.2523972874903
 31
0.0
  0
LINE
  5
F3C
330
1F
100
AcDbEntity
  8
0
  6
Continuous
100
AcDbLine
 10
-686.2782532059914
 20
680.2522440204334
 30
0.0
 11
-686.278370971358
 21
748.6561492768056
 31
0.0
  0
LINE
  5
F3D
330
1F
100
AcDbEntity
  8
0
  6
Continuous
100
AcDbLine
 10
-686.2783885189501
 20
758.84865209781
 30
0.0
 11
-686.2785407163933
 21
847.2523972874903
 31
0.0
  0
LINE
  5
F3E
330
1F
100
AcDbEntity
  8
0
  6
Continuous
100
AcDbLine
 10
-737.7330451335424
 20
680.2522440204334
 30
0.0
 11
-737.7331527951168
 21
742.7873708671346
 31
0.0
  0
LINE
  5
F3F
330
1F
100
AcDbEntity
  8
0
  6
Continuous
100
AcDbLine
 10
-737.7331905502569
 20
764.7174090776749
 30
0.0
 11
-737.7333326439443
 21
847.2523972874903
 31
0.0
  0
LINE
  5
F40
330
1F
100
AcDbEntity
  8
0
  6
Continuous
100
AcDbLine
 10
-736.5783411413335
 20
680.2522440204334
 30
0.0
 11
-736.5784480325733
 21
742.3399228270678
 31
0.0
  0
LINE
  5
F41
330
1F
100
AcDbEntity
  8
0
  6
Continuous
100
AcDbLine
 10
-736.5784873283814
 20
765.164856520732
 30
0.0
 11
-736.5786286517354
 21
847.2523972874903
 31
0.0
  0
LINE
  5
F42
330
1F
100
AcDbEntity
  8
0
  6
Continuous
100
AcDbLine
 10
-701.4236440567843
 20
680.2522440204334
 30
0.0
 11
-701.4237517182623
 21
742.7873149642707
 31
0.0
  0
LINE
  5
F43
330
1F
100
AcDbEntity
  8
0
  6
Continuous
100
AcDbLine
 10
-701.4237894736452
 20
764.7174942408625
 30
0.0
 11
-701.4239315671861
 21
847.2523972874903
 31
0.0
  0
LINE
  5
F44
330
1F
100
AcDbEntity
  8
0
  6
Continuous
100
AcDbLine
 10
-702.5783411413335
 20
680.2522440204334
 30
0.0
 11
-702.5784480324828
 21
742.3398701979282
 31
0.0
  0
LINE
  5
F45
330
1F
100
AcDbEntity
  8
0
  6
Continuous
100
AcDbLine
 10
-702.5784873285243
 20
765.164939604209
 30
0.0
 11
-702.5786286517354
 21
847.2523972874903
 31
0.0
  0
LINE
  5
F46
330
1F
100
AcDbEntity
  8
0
  6
Continuous
100
AcDbLine
 10
-704.5783734403362
 20
847.2523972874903
 30
0.0
 11
-704.5783734403362
 21
848.8524949437401
 31
0.0
  0
LINE
  5
F47
330
1F
100
AcDbEntity
  8
0
  6
Continuous
100
AcDbLine
 10
-704.5783734403362
 20
848.8524949437401
 30
0.0
 11
-686.7463155873215
 21
848.8524241853516
 31
0.0
  0
LINE
  5
F48
330
1F
100
AcDbEntity
  8
0
  6
Continuous
100
AcDbLine
 10
-692.5785530919752
 20
856.2519157605899
 30
0.0
 11
-692.5785530919752
 21
861.7519090062401
 31
0.0
  0
LINE
  5
F49
330
1F
100
AcDbEntity
  8
0
  6
Continuous
100
AcDbLine
 10
-693.3788460607252
 20
856.2519129965146
 30
0.0
 11
-693.3788460607252
 21
861.7519090062401
 31
0.0
  0
LINE
  5
F4A
330
1F
100
AcDbEntity
  8
0
  6
Continuous
100
AcDbLine
 10
-699.7787484044752
 20
856.2518908923417
 30
0.0
 11
-699.7787484044752
 21
861.7519090062401
 31
0.0
  0
LINE
  5
F4B
330
1F
100
AcDbEntity
  8
0
  6
Continuous
100
AcDbLine
 10
-750.9107845164858
 20
856.2518225071732
 30
0.0
 11
-737.9107845164667
 21
856.2518225071732
 31
0.0
  0
LINE
  5
F4C
330
1F
100
AcDbEntity
  8
0
  6
Continuous
100
AcDbLine
 10
-736.4107731196695
 20
851.2523107884231
 30
0.0
 11
-752.4107731196932
 21
851.2523107884231
 31
0.0
  0
LINE
  5
F4D
330
1F
100
AcDbEntity
  8
0
  6
Continuous
100
AcDbLine
 10
-752.4107662121828
 20
847.2523972874903
 30
0.0
 11
-752.4107731196923
 21
851.2523107884231
 31
0.0
  0
LINE
  5
F4E
330
1F
100
AcDbEntity
  8
0
  6
Continuous
100
AcDbLine
 10
-736.4107662121591
 20
847.2523972874903
 30
0.0
 11
-736.4107731196695
 21
851.2523107884231
 31
0.0
  0
LINE
  5
F4F
330
1F
100
AcDbEntity
  8
0
  6
Continuous
100
AcDbLine
 10
-696.5785681778939
 20
866.1714079179953
 30
0.0
 11
-696.5785605457954
 21
861.7519090062401
 31
0.0
  0
LINE
  5
F50
330
1F
100
AcDbEntity
  8
0
  6
Continuous
100
AcDbLine
 10
-736.4107731196695
 20
848.8523107884235
 30
0.0
 11
-752.4107731196932
 21
848.8523107884235
 31
0.0
  0
LINE
  5
F51
330
1F
100
AcDbEntity
  8
0
  6
Continuous
100
AcDbLine
 10
-762.5785609295185
 20
847.2523972874903
 30
0.0
 11
-676.5785609295185
 21
847.2523972874903
 31
0.0
  0
ARC
  5
F52
330
1F
100
AcDbEntity
  8
0
  6
Continuous
100
AcDbCircle
 10
-762.5785609295185
 20
846.2523972874901
 30
0.0
 40
1.0
100
AcDbArc
 50
90.0
 51
180.0
  0
LINE
  5
F53
330
1F
100
AcDbEntity
  8
0
  6
Continuous
100
AcDbLine
 10
-750.9107758827553
 20
851.2523107884231
 30
0.0
 11
-750.9107845164858
 21
856.2518225071732
 31
0.0
  0
LINE
  5
F54
330
1F
100
AcDbEntity
  8
0
  6
Continuous
100
AcDbLine
 10
-737.9107758827354
 20
851.2523107884231
 30
0.0
 11
-737.9107845164667
 21
856.2518225071732
 31
0.0
  0
LINE
  5
F55
330
1F
100
AcDbEntity
  8
0
  6
Continuous
100
AcDbLine
 10
-744.4107758827454
 20
851.2523107884186
 30
0.0
 11
-744.4107835148438
 21
855.6718097001791
 31
0.0
  0
ARC
  5
F56
330
1F
100
AcDbEntity
  8
0
  6
Continuous
100
AcDbCircle
 10
-747.6607682915577
 20
846.8564990130285
 30
0.0
 40
9.395323494156341
100
AcDbArc
 50
69.7623298033649
 51
110.2378680864778
  0
ARC
  5
F57
330
1F
100
AcDbEntity
  8
0
  6
Continuous
100
AcDbCircle
 10
-741.1607987381298
 20
846.8564990130285
 30
0.0
 40
9.395323494156341
100
AcDbArc
 50
69.76213191352217
 51
110.2376701966351
  0
ARC
  5
F58
330
1F
100
AcDbEntity
  8
0
  6
Continuous
100
AcDbCircle
 10
-676.5785609295185
 20
846.2523972874901
 30
0.0
 40
1.0
100
AcDbArc
 50
0.0
 51
90.0
  0
ARC
  5
F59
330
1F
100
AcDbEntity
  8
0
  6
Continuous
100
AcDbCircle
 10
-699.8285230463193
 20
844.4566831683465
 30
0.0
 40
9.395323494156341
100
AcDbArc
 50
98.67938291815299
 51
110.2378680864778
  0
LINE
  5
F5A
330
1F
100
AcDbEntity
  8
0
  6
Continuous
100
AcDbLine
 10
-703.0785306375169
 20
848.8524949437401
 30
0.0
 11
-703.0785392712482
 21
853.8520066624903
 31
0.0
  0
ARC
  5
F5B
330
1F
100
AcDbEntity
  8
0
  6
Continuous
100
AcDbCircle
 10
-699.8285240479522
 20
858.2478184378848
 30
0.0
 40
9.395323494156341
100
AcDbArc
 50
249.7621319135221
 51
251.9071154525106
  0
LINE
  5
F5C
330
1F
100
AcDbEntity
  8
0
  6
Continuous
100
AcDbLine
 10
-690.0785605457863
 20
861.7519090062401
 30
0.0
 11
-690.0785691795167
 21
866.7514207249912
 31
0.0
  0
LINE
  5
F5D
330
1F
100
AcDbEntity
  8
0
  6
Continuous
100
AcDbLine
 10
-703.0785605458054
 20
861.7519090062401
 30
0.0
 11
-690.0785605457863
 21
861.7519090062401
 31
0.0
  0
LINE
  5
F5E
330
1F
100
AcDbEntity
  8
0
  6
Continuous
100
AcDbLine
 10
-703.0785605458054
 20
861.7519090062401
 30
0.0
 11
-703.0785691795367
 21
866.7514207249903
 31
0.0
  0
LINE
  5
F5F
330
1F
100
AcDbEntity
  8
0
  6
Continuous
100
AcDbLine
 10
-703.0785691795367
 20
866.7514207249912
 30
0.0
 11
-690.0785691795176
 21
866.7514207249912
 31
0.0
  0
ARC
  5
F60
330
1F
100
AcDbEntity
  8
0
  6
Continuous
100
AcDbCircle
 10
-699.8285529546079
 20
857.3560972308465
 30
0.0
 40
9.395323494156341
100
AcDbArc
 50
69.7623298033649
 51
110.2378680864778
  0
ARC
  5
F61
330
1F
100
AcDbEntity
  8
0
  6
Continuous
100
AcDbCircle
 10
-693.3285834011798
 20
857.3560972308465
 30
0.0
 40
9.395323494156341
100
AcDbArc
 50
69.76213191352217
 51
110.2376701966351
  0
LINE
  5
F62
330
1F
100
AcDbEntity
  8
0
  6
Continuous
100
AcDbLine
 10
-700.5785490035036
 20
856.2518881299663
 30
0.0
 11
-700.5785679996392
 21
861.7519090062401
 31
0.0
  0
LINE
  5
F63
330
1F
100
AcDbEntity
  8
0
  6
Continuous
100
AcDbLine
 10
-688.2463297471736
 20
856.251930723352
 30
0.0
 11
-701.2463297471153
 21
856.251885823565
 31
0.0
  0
LINE
  5
F64
330
1F
100
AcDbEntity
  8
0
  6
Continuous
100
AcDbLine
 10
-702.7463238764417
 20
851.2523689240612
 30
0.0
 11
-686.7463238765135
 21
851.2524241853366
 31
0.0
  0
LINE
  5
F65
330
1F
100
AcDbEntity
  8
0
  6
Continuous
100
AcDbLine
 10
-686.746316969004
 20
847.2525106844047
 30
0.0
 11
-686.7463238765135
 21
851.2524241853366
 31
0.0
  0
LINE
  5
F66
330
1F
100
AcDbEntity
  8
0
  6
Continuous
100
AcDbLine
 10
-702.7463169689313
 20
847.2524554231283
 30
0.0
 11
-702.7463238764417
 21
851.2523689240603
 31
0.0
  0
LINE
  5
F67
330
1F
100
AcDbEntity
  8
0
  6
Continuous
100
AcDbLine
 10
-688.2463211134422
 20
851.252419004602
 30
0.0
 11
-688.2463297471736
 21
856.2519307233511
 31
0.0
  0
LINE
  5
F68
330
1F
100
AcDbEntity
  8
0
  6
Continuous
100
AcDbLine
 10
-701.246321113384
 20
851.252374104815
 30
0.0
 11
-701.2463297471153
 21
856.251885823565
 31
0.0
  0
LINE
  5
F69
330
1F
100
AcDbEntity
  8
0
  6
Continuous
100
AcDbLine
 10
-694.7463211134131
 20
851.2523965546849
 30
0.0
 11
-694.7463287455116
 21
855.6718954664644
 31
0.0
  0
ARC
  5
F6A
330
1F
100
AcDbEntity
  8
0
  6
Continuous
100
AcDbCircle
 10
-691.4963135222356
 20
846.8565960042612
 30
0.0
 40
9.395323494156341
100
AcDbArc
 50
69.7623298033649
 51
110.2378680865347
  0
ARC
  5
F6B
330
1F
100
AcDbEntity
  8
0
  6
Continuous
100
AcDbCircle
 10
-697.9962830756244
 20
846.856573554473
 30
0.0
 40
9.395323494156341
100
AcDbArc
 50
69.76252769323142
 51
110.2380659764059
  0
LINE
  5
F6C
330
1F
100
AcDbEntity
  8
0
  6
Continuous
100
AcDbLine
 10
-701.2463256027199
 20
853.8520017657099
 30
0.0
 11
-703.0785392712282
 21
853.8519954375566
 31
0.0
  0
LINE
  5
F6D
330
1F
100
AcDbEntity
  8
0
  6
Continuous
100
AcDbLine
 10
-704.5783734403362
 20
680.2522440204334
 30
0.0
 11
-704.5783734403362
 21
678.6521463641835
 31
0.0
  0
LINE
  5
F6E
330
1F
100
AcDbEntity
  8
0
  6
Continuous
100
AcDbLine
 10
-704.5783734403362
 20
678.6521463641835
 30
0.0
 11
-686.7463155873215
 21
678.652217122573
 31
0.0
  0
LINE
  5
F6F
330
1F
100
AcDbEntity
  8
0
  6
Continuous
100
AcDbLine
 10
-692.5785530919752
 20
671.2527255473339
 30
0.0
 11
-692.5785530919752
 21
665.7527323016835
 31
0.0
  0
LINE
  5
F70
330
1F
100
AcDbEntity
  8
0
  6
Continuous
100
AcDbLine
 10
-693.3788460607252
 20
671.2527283114101
 30
0.0
 11
-693.3788460607252
 21
665.7527323016835
 31
0.0
  0
LINE
  5
F71
330
1F
100
AcDbEntity
  8
0
  6
Continuous
100
AcDbLine
 10
-699.7787484044752
 20
671.2527504155829
 30
0.0
 11
-699.7787484044752
 21
665.7527323016835
 31
0.0
  0
LINE
  5
F72
330
1F
100
AcDbEntity
  8
0
  6
Continuous
100
AcDbLine
 10
-750.9107845164858
 20
671.2528188007505
 30
0.0
 11
-737.9107845164667
 21
671.2528188007505
 31
0.0
  0
LINE
  5
F73
330
1F
100
AcDbEntity
  8
0
  6
Continuous
100
AcDbLine
 10
-736.4107731196695
 20
676.2523305195005
 30
0.0
 11
-752.4107731196932
 21
676.2523305195005
 31
0.0
  0
LINE
  5
F74
330
1F
100
AcDbEntity
  8
0
  6
Continuous
100
AcDbLine
 10
-752.4107662121828
 20
680.2522440204334
 30
0.0
 11
-752.4107731196923
 21
676.2523305195005
 31
0.0
  0
LINE
  5
F75
330
1F
100
AcDbEntity
  8
0
  6
Continuous
100
AcDbLine
 10
-736.4107662121591
 20
680.2522440204334
 30
0.0
 11
-736.4107731196695
 21
676.2523305195014
 31
0.0
  0
LINE
  5
F76
330
1F
100
AcDbEntity
  8
0
  6
Continuous
100
AcDbLine
 10
-696.5785681778939
 20
661.3332333899285
 30
0.0
 11
-696.5785605457954
 21
665.7527323016835
 31
0.0
  0
LINE
  5
F77
330
1F
100
AcDbEntity
  8
0
  6
Continuous
100
AcDbLine
 10
-736.4107731196695
 20
678.6523305195011
 30
0.0
 11
-752.4107731196932
 21
678.6523305195011
 31
0.0
  0
LINE
  5
F78
330
1F
100
AcDbEntity
  8
0
  6
Continuous
100
AcDbLine
 10
-762.5785609295185
 20
680.2522440204334
 30
0.0
 11
-676.5785609295185
 21
680.2522440204334
 31
0.0
  0
ARC
  5
F79
330
1F
100
AcDbEntity
  8
0
  6
Continuous
100
AcDbCircle
 10
-762.5785609295185
 20
681.2522440204335
 30
0.0
 40
1.0
100
AcDbArc
 50
180.0
 51
270.0
  0
LINE
  5
F7A
330
1F
100
AcDbEntity
  8
0
  6
Continuous
100
AcDbLine
 10
-750.9107758827553
 20
676.2523305195005
 30
0.0
 11
-750.9107845164858
 21
671.2528188007515
 31
0.0
  0
LINE
  5
F7B
330
1F
100
AcDbEntity
  8
0
  6
Continuous
100
AcDbLine
 10
-737.9107758827354
 20
676.2523305195005
 30
0.0
 11
-737.9107845164667
 21
671.2528188007515
 31
0.0
  0
LINE
  5
F7C
330
1F
100
AcDbEntity
  8
0
  6
Continuous
100
AcDbLine
 10
-744.4107758827454
 20
676.2523305195141
 30
0.0
 11
-744.4107835148438
 21
671.8328316077455
 31
0.0
  0
ARC
  5
F7D
330
1F
100
AcDbEntity
  8
0
  6
Continuous
100
AcDbCircle
 10
-747.6607682915577
 20
680.6481422948951
 30
0.0
 40
9.395323494156341
100
AcDbArc
 50
249.7621319135221
 51
290.2376701966351
  0
ARC
  5
F7E
330
1F
100
AcDbEntity
  8
0
  6
Continuous
100
AcDbCircle
 10
-741.1607987381298
 20
680.6481422948951
 30
0.0
 40
9.395323494156341
100
AcDbArc
 50
249.7623298033649
 51
290.2378680864778
  0
ARC
  5
F7F
330
1F
100
AcDbEntity
  8
0
  6
Continuous
100
AcDbCircle
 10
-676.5785609295185
 20
681.2522440204335
 30
0.0
 40
1.0
100
AcDbArc
 50
270.0
 51
0.0
  0
ARC
  5
F80
330
1F
100
AcDbEntity
  8
0
  6
Continuous
100
AcDbCircle
 10
-699.8285230463193
 20
683.0479581395771
 30
0.0
 40
9.395323494156341
100
AcDbArc
 50
249.7621319135221
 51
261.320617081847
  0
LINE
  5
F81
330
1F
100
AcDbEntity
  8
0
  6
Continuous
100
AcDbLine
 10
-703.0785306375169
 20
678.6521463641835
 30
0.0
 11
-703.0785392712482
 21
673.6526346454335
 31
0.0
  0
ARC
  5
F82
330
1F
100
AcDbEntity
  8
0
  6
Continuous
100
AcDbCircle
 10
-699.8285240479522
 20
669.2568228700398
 30
0.0
 40
9.395323494156341
100
AcDbArc
 50
108.0928845474894
 51
110.2378680864778
  0
LINE
  5
F83
330
1F
100
AcDbEntity
  8
0
  6
Continuous
100
AcDbLine
 10
-690.0785605457863
 20
665.7527323016835
 30
0.0
 11
-690.0785691795167
 21
660.7532205829335
 31
0.0
  0
LINE
  5
F84
330
1F
100
AcDbEntity
  8
0
  6
Continuous
100
AcDbLine
 10
-703.0785605458054
 20
665.7527323016835
 30
0.0
 11
-690.0785605457863
 21
665.7527323016835
 31
0.0
  0
LINE
  5
F85
330
1F
100
AcDbEntity
  8
0
  6
Continuous
100
AcDbLine
 10
-703.0785605458054
 20
665.7527323016835
 30
0.0
 11
-703.0785691795367
 21
660.7532205829335
 31
0.0
  0
ARC
  5
F86
330
1F
100
AcDbEntity
  8
0
  6
Continuous
100
AcDbCircle
 10
-699.8285529546079
 20
670.1485440770771
 30
0.0
 40
9.395323494156341
100
AcDbArc
 50
249.7621319135221
 51
290.2376701966351
  0
LINE
  5
F87
330
1F
100
AcDbEntity
  8
0
  6
Continuous
100
AcDbLine
 10
-703.0785691795367
 20
660.7532205829335
 30
0.0
 11
-690.0785691795176
 21
660.7532205829335
 31
0.0
  0
ARC
  5
F88
330
1F
100
AcDbEntity
  8
0
  6
Continuous
100
AcDbCircle
 10
-693.3285834011798
 20
670.1485440770771
 30
0.0
 40
9.395323494156341
100
AcDbArc
 50
249.7623298033649
 51
290.2378680864778
  0
LINE
  5
F89
330
1F
100
AcDbEntity
  8
0
  6
Continuous
100
AcDbLine
 10
-700.5785490035036
 20
671.2527531779575
 30
0.0
 11
-700.5785679996392
 21
665.7527323016835
 31
0.0
  0
LINE
  5
F8A
330
1F
100
AcDbEntity
  8
0
  6
Continuous
100
AcDbLine
 10
-688.2463297471736
 20
671.2527105845716
 30
0.0
 11
-701.2463297471153
 21
671.2527554843587
 31
0.0
  0
LINE
  5
F8B
330
1F
100
AcDbEntity
  8
0
  6
Continuous
100
AcDbLine
 10
-702.7463238764417
 20
676.2522723838625
 30
0.0
 11
-686.7463238765135
 21
676.252217122587
 31
0.0
  0
LINE
  5
F8C
330
1F
100
AcDbEntity
  8
0
  6
Continuous
100
AcDbLine
 10
-686.746316969004
 20
680.252130623519
 30
0.0
 11
-686.7463238765135
 21
676.252217122587
 31
0.0
  0
LINE
  5
F8D
330
1F
100
AcDbEntity
  8
0
  6
Continuous
100
AcDbLine
 10
-702.7463169689313
 20
680.2521858847955
 30
0.0
 11
-702.7463238764417
 21
676.2522723838634
 31
0.0
  0
LINE
  5
F8E
330
1F
100
AcDbEntity
  8
0
  6
Continuous
100
AcDbLine
 10
-688.2463211134422
 20
676.2522223033226
 30
0.0
 11
-688.2463297471736
 21
671.2527105845725
 31
0.0
  0
LINE
  5
F8F
330
1F
100
AcDbEntity
  8
0
  6
Continuous
100
AcDbLine
 10
-701.246321113384
 20
676.2522672031088
 30
0.0
 11
-701.2463297471153
 21
671.2527554843596
 31
0.0
  0
LINE
  5
F90
330
1F
100
AcDbEntity
  8
0
  6
Continuous
100
AcDbLine
 10
-694.7463211134131
 20
676.2522447532197
 30
0.0
 11
-694.7463287455116
 21
671.8327458414592
 31
0.0
  0
ARC
  5
F91
330
1F
100
AcDbEntity
  8
0
  6
Continuous
100
AcDbCircle
 10
-691.4963135222356
 20
680.6480453036625
 30
0.0
 40
9.395323494156341
100
AcDbArc
 50
249.7621319134653
 51
290.2376701966351
  0
ARC
  5
F92
330
1F
100
AcDbEntity
  8
0
  6
Continuous
100
AcDbCircle
 10
-697.9962830756244
 20
680.6480677534506
 30
0.0
 40
9.395323494156341
100
AcDbArc
 50
249.761934023594
 51
290.2374723067686
  0
LINE
  5
F93
330
1F
100
AcDbEntity
  8
0
  6
Continuous
100
AcDbLine
 10
-701.2463256027199
 20
673.6526395422139
 30
0.0
 11
-703.0785392712282
 21
673.6526458703679
 31
0.0
  0
LINE
  5
F94
330
1F
100
AcDbEntity
  8
0
  6
CENTER
100
AcDbLine
 10
-719.5785609295185
 20
857.2523972874902
 30
0.0
 11
-719.5785609295185
 21
659.252397287462
 31
0.0
  0
LINE
  5
F95
330
1F
100
AcDbEntity
  8
0
100
AcDbLine
 10
-679.6585381239542
 20
751.2213341874618
 30
0.0
 11
-719.5783802295522
 21
735.752397287462
 31
0.0
  0
LINE
  5
F96
330
1F
100
AcDbEntity
  8
0
100
AcDbLine
 10
-759.4982221239543
 20
751.2213341874618
 30
0.0
 11
-719.5783800183562
 21
735.752397287462
 31
0.0
  0
LINE
  5
F97
330
1F
100
AcDbEntity
  8
0
100
AcDbLine
 10
-759.4982221239543
 20
756.2834603874622
 30
0.0
 11
-719.5783800183562
 21
771.752397287462
 31
0.0
  0
LINE
  5
F98
330
1F
100
AcDbEntity
  8
0
100
AcDbLine
 10
-719.5783802295522
 20
771.752397287462
 30
0.0
 11
-679.6585381239542
 21
756.2834603874622
 31
0.0
  0
ARC
  5
F99
330
1F
100
AcDbEntity
  8
0
100
AcDbCircle
 10
-719.5783801239545
 20
753.752397287462
 30
0.0
 40
40.0
100
AcDbArc
 50
356.372100000024
 51
3.627902400032317
  0
ARC
  5
F9A
330
1F
100
AcDbEntity
  8
0
100
AcDbCircle
 10
-719.5783801239545
 20
753.752397287462
 30
0.0
 40
40.0
100
AcDbArc
 50
176.372100000024
 51
183.6278999999759
  0
CIRCLE
  5
F9B
330
1F
100
AcDbEntity
  8
0
100
AcDbCircle
 10
-719.5783801239545
 20
753.752397287462
 30
0.0
 40
5.25
  0
CIRCLE
  5
F9C
330
1F
100
AcDbEntity
  8
0
100
AcDbCircle
 10
-743.3726001239542
 20
777.5464642874618
 30
0.0
 40
4.0
  0
CIRCLE
  5
F9D
330
1F
100
AcDbEntity
  8
0
100
AcDbCircle
 10
-695.7842821239542
 20
777.5464642874618
 30
0.0
 40
4.0
  0
CIRCLE
  5
F9E
330
1F
100
AcDbEntity
  8
0
100
AcDbCircle
 10
-743.3726001239542
 20
777.5464642874618
 30
0.0
 40
3.5
  0
CIRCLE
  5
F9F
330
1F
100
AcDbEntity
  8
0
100
AcDbCircle
 10
-743.3726001239542
 20
729.9582082874618
 30
0.0
 40
4.0
  0
CIRCLE
  5
FA0
330
1F
100
AcDbEntity
  8
0
100
AcDbCircle
 10
-743.3726001239542
 20
729.9582082874618
 30
0.0
 40
3.5
  0
CIRCLE
  5
FA1
330
1F
100
AcDbEntity
  8
0
100
AcDbCircle
 10
-695.7842821239542
 20
777.5464642874618
 30
0.0
 40
3.5
  0
CIRCLE
  5
FA2
330
1F
100
AcDbEntity
  8
0
100
AcDbCircle
 10
-695.7842821239542
 20
729.9582082874618
 30
0.0
 40
4.0
  0
CIRCLE
  5
FA3
330
1F
100
AcDbEntity
  8
0
100
AcDbCircle
 10
-695.7842821239542
 20
729.9582082874618
 30
0.0
 40
3.5
  0
CIRCLE
  5
FA4
330
1F
100
AcDbEntity
  8
0
100
AcDbCircle
 10
-719.5783801239545
 20
753.752397287462
 30
0.0
 40
6.0999999
  0
ARC
  5
FA5
330
1F
100
AcDbEntity
  8
0
100
AcDbCircle
 10
-652.328374999286
 20
641.7523868056193
 30
0.0
 40
5.250005124673066
100
AcDbArc
 50
0.0
 51
180.0
  0
LWPOLYLINE
  5
FA6
330
1F
100
AcDbEntity
  8
0
 62
     1
100
AcDbPolyline
 90
        4
 70
     1
 43
0.0
 10
-1061.282046197173
 20
1243.33873373776
 10
-19.28240261647579
 20
1243.33873373776
 10
-19.28240261647579
 20
0.5370411512109286
 10
-1061.282046197173
 20
0.5370411512109286
  0
TEXT
  5
FA7
330
1F
100
AcDbEntity
  8
0
100
AcDbText
 10
-889.2700681185392
 20
1043.287281585239
 30
0.0
 40
50.0
  1
2MA__T60000 4S
 72
     4
 11
-564.2700681185393
 21
1064.120614918572
 31
0.0
100
AcDbText
  0
VIEWPORT
  5
79
330
5D
100
AcDbEntity
 67
     1
  8
0
100
AcDbViewport
 10
5.249999639556162
 20
3.999999883606676
 30
0.0
 40
15.01558029761351
 41
8.593922408982605
 68
     1
 69
     1
 12
5.249999639556162
 22
3.999999883606676
 13
0.0
 23
0.0
 14
10.0
 24
10.0
 15
10.0
 25
10.0
 16
0.0
 26
0.0
 36
1.0
 17
0.0
 27
0.0
 37
0.0
 42
50.0
 43
0.0
 44
0.0
 45
8.593922408982605
 50
0.0
 51
0.0
 72
   100
 90
    32800
  1

281
     0
 71
     1
 74
     0
110
0.0
120
0.0
130
0.0
111
1.0
121
0.0
131
0.0
112
0.0
122
1.0
132
0.0
 79
     0
146
0.0
170
     0
 61
     5
348
7A1
292
     1
282
     1
141
0.0
142
0.0
 63
   250
421
  3355443
1001
GENIUS_GENSCREG_15
1000
PF
1040
1.0
1000
DF
1040
1.0
1000
MIN
1011
-2.257790509250597
1021
-0.2969613208846251
1031
0.0
1000
MAX
1011
12.75778978836292
1021
8.29696108809798
1031
0.0
1000
FLAGS
1070
     4
1001
GENIUS_GENODEF_13
1002
{
1000
HIER
1070
     0
1002
}
1002
{
1000
MANEDIT
1070
     0
1002
}
1002
{
1000
NOSEL
1070
     0
1002
}
1002
{
1000
BEHIND
1070
     0
1002
}
1002
{
1000
OTHER
1070
     0
1002
}
1002
{
1000
REACTOR
1002
}
1001
GENIUS_GENOBJ-N-SDF_13
1002
{
1000
OWNER
1000
GEN
1002
}
  0
VIEWPORT
  5
7B
330
5D
100
AcDbEntity
 67
     1
  8
0
100
AcDbViewport
 10
5.24999976158142
 20
3.99999976158142
 30
0.0
 40
8.399999618530271
 41
6.399999618530272
 68
     2
 69
     2
 12
6.0
 22
4.5
 13
0.0
 23
0.0
 14
0.5
 24
0.5
 15
0.5
 25
0.5
 16
0.0
 26
0.0
 36
1.0
 17
0.0
 27
0.0
 37
0.0
 42
50.0
 43
0.0
 44
0.0
 45
9.259079771746701
 50
0.0
 51
0.0
 72
   100
 90
    32864
  1

281
     0
 71
     1
 74
     0
110
0.0
120
0.0
130
0.0
111
1.0
121
0.0
131
0.0
112
0.0
122
1.0
132
0.0
 79
     0
146
0.0
170
     0
 61
     5
348
7A1
292
     1
282
     1
141
0.0
142
0.0
 63
   250
421
  3355443
1001
GENIUS_GENSCREG_15
1000
PF
1040
0.0
1000
DF
1040
0.0
1000
MIN
1011
1.049999952316284
1021
0.7999999523162842
1031
0.0
1000
MAX
1011
9.449999570846555
1021
7.199999570846556
1031
0.0
1000
FLAGS
1070
     4
1001
GENIUS_GENOBJ-N-SDF_13
1002
{
1000
OWNER
1000
GEN
1002
}
1001
GENIUS_GENODEF_13
1002
{
1000
HIER
1070
     0
1002
}
1002
{
1000
MANEDIT
1070
     0
1002
}
1002
{
1000
NOSEL
1070
     0
1002
}
1002
{
1000
BEHIND
1070
     0
1002
}
1002
{
1000
OTHER
1070
     0
1002
}
1002
{
1000
REACTOR
1002
}
  0
ENDSEC
  0
SECTION
  2
OBJECTS
  0
DICTIONARY
  5
C
330
0
100
AcDbDictionary
281
     1
  3
ACAD_CIP_PREVIOUS_PRODUCT_INFO
350
908
  3
ACAD_COLOR
350
7AC
  3
ACAD_DETAILVIEWSTYLE
350
904
  3
ACAD_GROUP
350
D
  3
ACAD_LAYOUT
350
1A
  3
ACAD_MATERIAL
350
782
  3
ACAD_MLEADERSTYLE
350
7D1
  3
ACAD_MLINESTYLE
350
17
  3
ACAD_PLOTSETTINGS
350
19
  3
ACAD_PLOTSTYLENAME
350
E
  3
ACAD_SCALELIST
350
7AF
  3
ACAD_SECTIONVIEWSTYLE
350
902
  3
ACAD_TABLESTYLE
350
7AD
  3
ACAD_VISUALSTYLE
350
79B
  3
ACDB_RECOMPOSE_DATA
350
1014
  3
AcDbVariableDictionary
350
66
  3
AcDsDecomposeData
350
101A
  3
AcmDictionary
350
833
  3
AcmSystemVariableManager
350
8A1
  3
AMG
350
7D7
  3
AMGSNAPSETTINGS
350
878
  0
DICTIONARY
  5
88A
330
8
100
AcDbDictionary
280
     1
281
     1
  0
DICTIONARY
  5
E4
330
2
100
AcDbDictionary
280
     1
281
     1
  3
ACAD_LAYERSTATES
360
E5
  0
DICTIONARY
  5
884
330
10
100
AcDbDictionary
280
     1
281
     1
  3
ADSK_XREC_LAYER_RECONCILED
360
885
  0
DICTIONARY
  5
91
330
1F
100
AcDbDictionary
280
     1
281
     1
  3
ACAD_LAYOUTSELFREF
360
8E7
  0
DICTIONARY
  5
93
330
5D
100
AcDbDictionary
280
     1
281
     1
  3
ACAD_LAYOUTSELFREF
360
8E9
  0
DICTIONARY
  5
95
330
58
100
AcDbDictionary
280
     1
281
     1
  3
ACAD_LAYOUTSELFREF
360
8E8
  0
XRECORD
  5
908
102
{ACAD_REACTORS
330
C
102
}
330
C
100
AcDbXrecord
280
     1
300
ACDLT
300
2019
300
ACDLT_F_S
  0
DICTIONARY
  5
7AC
102
{ACAD_REACTORS
330
C
102
}
330
C
100
AcDbDictionary
281
     1
  0
DICTIONARY
  5
904
102
{ACAD_REACTORS
330
C
102
}
330
C
100
AcDbDictionary
281
     1
  3
Imperial24
350
905
  3
Metric50
350
961
  0
DICTIONARY
  5
D
102
{ACAD_REACTORS
330
C
102
}
330
C
100
AcDbDictionary
281
     1
  0
DICTIONARY
  5
1A
102
{ACAD_REACTORS
330
C
102
}
330
C
100
AcDbDictionary
281
     1
  3
Model
350
22
  3
ﾚｲｱｳﾄ1
350
59
  3
ﾚｲｱｳﾄ2
350
5E
  0
DICTIONARY
  5
782
102
{ACAD_REACTORS
330
C
102
}
330
C
100
AcDbDictionary
281
     1
  3
ByBlock
350
78B
  3
ByLayer
350
783
  3
Global
350
793
  0
DICTIONARY
  5
7D1
102
{ACAD_REACTORS
330
C
102
}
330
C
100
AcDbDictionary
281
     1
  3
Standard
350
7D2
  0
DICTIONARY
  5
17
102
{ACAD_REACTORS
330
C
102
}
330
C
100
AcDbDictionary
281
     1
  3
Standard
350
18
  0
DICTIONARY
  5
19
102
{ACAD_REACTORS
330
C
102
}
330
C
100
AcDbDictionary
281
     1
  0
ACDBDICTIONARYWDFLT
  5
E
102
{ACAD_REACTORS
330
C
102
}
330
C
100
AcDbDictionary
281
     1
  3
Normal
350
F
100
AcDbDictionaryWithDefault
340
F
  0
DICTIONARY
  5
7AF
102
{ACAD_REACTORS
330
C
102
}
330
C
100
AcDbDictionary
281
     1
  3
A0
350
7B0
  3
A1
350
7B1
  3
A2
350
7B2
  3
A3
350
7B3
  3
A4
350
7B4
  3
A5
350
7B5
  3
A6
350
7B6
  3
A7
350
7B7
  3
A8
350
7B8
  3
A9
350
7B9
  3
B0
350
7BA
  3
B1
350
7BB
  3
B2
350
7BC
  3
B3
350
7BD
  3
B4
350
7BE
  3
B5
350
7BF
  3
B6
350
7C0
  3
B7
350
7C1
  3
B8
350
7C2
  3
B9
350
7C3
  3
C0
350
7C4
  3
C1
350
7C5
  3
C2
350
7C6
  3
C3
350
7C7
  3
C4
350
7C8
  3
C5
350
7C9
  3
C6
350
7CA
  3
C7
350
7CB
  3
C8
350
7CC
  3
C9
350
7CD
  3
D0
350
7CE
  3
D1
350
7CF
  3
D2
350
7D0
  0
DICTIONARY
  5
902
102
{ACAD_REACTORS
330
C
102
}
330
C
100
AcDbDictionary
281
     1
  3
Imperial24
350
903
  3
Metric50
350
960
  0
DICTIONARY
  5
7AD
102
{ACAD_REACTORS
330
C
102
}
330
C
100
AcDbDictionary
281
     1
  3
Standard
350
7AE
  0
DICTIONARY
  5
79B
102
{ACAD_REACTORS
330
C
102
}
330
C
100
AcDbDictionary
281
     1
  3
2dWireframe
350
7A1
  3
3D Hidden
350
7A3
  3
3dWireframe
350
7A2
  3
Basic
350
7A0
  3
Brighten
350
7A7
  3
ColorChange
350
7AB
  3
Conceptual
350
7A4
  3
Dim
350
7A6
  3
EdgeColorOff
350
900
  3
Facepattern
350
7AA
  3
Flat
350
79C
  3
FlatWithEdges
350
79D
  3
Gouraud
350
79E
  3
GouraudWithEdges
350
79F
  3
Hidden
350
8F8
  3
JitterOff
350
8FE
  3
Linepattern
350
7A9
  3
OverhangOff
350
8FF
  3
Realistic
350
7A5
  3
Shaded
350
8FD
  3
Shaded with edges
350
8FC
  3
Shades of Gray
350
8F9
  3
Sketchy
350
8FA
  3
Thicken
350
7A8
  3
Wireframe
350
8F7
  3
X-Ray
350
8FB
  0
XRECORD
  5
1014
102
{ACAD_REACTORS
330
C
102
}
330
C
100
AcDbXrecord
280
     1
 90
        1
330
7AE
  0
DICTIONARY
  5
66
102
{ACAD_REACTORS
330
C
102
}
330
C
100
AcDbDictionary
281
     1
  3
CANNOSCALE
350
8A5
  3
CMLEADERSTYLE
350
8A4
  3
CTABLESTYLE
350
8A3
  3
CVIEWDETAILSTYLE
350
958
  3
CVIEWSECTIONSTYLE
350
959
  3
DIMASSOC
350
67
  3
HIDETEXT
350
6B
  3
INDEXCTL
350
8A7
  3
LAYEREVAL
350
100A
  3
LAYERNOTIFY
350
100B
  3
LIGHTINGUNITS
350
1009
  3
MSLTSCALE
350
1008
  3
SORTENTS
350
8A6
  0
DICTIONARY
  5
101A
102
{ACAD_REACTORS
330
C
102
}
330
C
100
AcDbDictionary
281
     1
  3
AcDsRecords
350
101C
  3
AcDsSchemas
350
101B
1001
ACAD
1070
     2
  0
DICTIONARY
  5
833
102
{ACAD_REACTORS
330
C
102
}
330
C
100
AcDbDictionary
281
     1
  3
AcmStdDictionary
350
840
  0
ACAD_PROXY_OBJECT
  5
8A1
102
{ACAD_REACTORS
330
C
102
}
330
C
100
AcDbProxyObject
 90
      499
 91
      573
 95
   983063
 70
     0
161
                32
310
9014220000
330
0
 94
        0
1001
AcadCodePageInfo
1000
CodePage
1070
    38
1001
ACAD
1000
AcRTDxfName
1000
ACIMSYSVARMAN
1000
AcRTDxfName
1000
ACIMSYSVARMAN
  0
DICTIONARY
  5
7D7
102
{ACAD_REACTORS
330
C
102
}
330
C
100
AcDbDictionary
281
     1
  0
DICTIONARY
  5
878
102
{ACAD_REACTORS
330
C
102
}
330
C
100
AcDbDictionary
281
     1
  0
DICTIONARY
  5
E5
102
{ACAD_REACTORS
330
E4
102
}
330
E4
100
AcDbDictionary
281
     1
  0
XRECORD
  5
885
102
{ACAD_REACTORS
330
884
102
}
330
884
100
AcDbXrecord
280
     1
290
     1
  0
XRECORD
  5
8E7
102
{ACAD_REACTORS
330
91
102
}
330
91
100
AcDbXrecord
280
     1
340
1F
  0
XRECORD
  5
8E9
102
{ACAD_REACTORS
330
93
102
}
330
93
100
AcDbXrecord
280
     1
340
5D
  0
XRECORD
  5
8E8
102
{ACAD_REACTORS
330
95
102
}
330
95
100
AcDbXrecord
280
     1
340
58
  0
ACDBDETAILVIEWSTYLE
  5
905
102
{ACAD_XDICTIONARY
360
1053
102
}
102
{ACAD_REACTORS
330
904
102
}
330
904
100
AcDbModelDocViewStyle
 70
     0
  3
Imperial24
290
     0
100
AcDbDetailViewStyle
 70
     0
 71
     0
 90
        3
 71
     1
340
11
 62
   256
 40
0.24
340
0
 62
   256
 40
0.24
300

 40
0.36
280
     3
 71
     2
340
16
 90
       25
 62
   256
 71
     3
340
11
 62
   256
 40
0.24
 90
        1
 40
0.75
 90
        1
300
%<\AcVar ViewType \f "%tc1">% %<\AcVar ViewDetailId>%\PSCALE %<\AcVar ViewScale \f "%sn">%
 71
     4
340
16
 90
       25
 62
   256
340
16
 90
       25
 62
   256
280
     0
  0
ACDBDETAILVIEWSTYLE
  5
961
102
{ACAD_XDICTIONARY
360
1057
102
}
102
{ACAD_REACTORS
330
904
102
}
330
904
100
AcDbModelDocViewStyle
 70
     0
  3
Metric50
290
     0
100
AcDbDetailViewStyle
 70
     0
 71
     0
 90
        3
 71
     1
340
11
 62
   256
 40
5.0
340
0
 62
   256
 40
5.0
300

 40
0.0
280
     1
 71
     2
340
16
 90
       25
 62
   256
 71
     3
340
11
 62
   256
 40
5.0
 90
        0
 40
15.0
 90
        1
300
%<\AcVar ViewDetailId>% (%<\AcVar ViewScale \f "%sn">%)
 71
     4
340
16
 90
       25
 62
   256
340
16
 90
       25
 62
   256
280
     0
  0
LAYOUT
  5
22
102
{ACAD_REACTORS
330
1A
102
}
330
1A
100
AcDbPlotSettings
  1

  2
none_device
  4
ANSI_A_(8.50_x_11.00_Inches)
  6

 40
6.349999904632568
 41
19.04999923706055
 42
6.350006103515625
 43
19.04998779296875
 44
215.8999938964844
 45
279.3999938964844
 46
0.0
 47
0.0
 48
0.0
 49
0.0
140
0.0
141
0.0
142
1.0
143
2.584895464708373
 70
 11952
 72
     0
 73
     1
 74
     0
  7

 75
     0
147
0.3868628397755418
 76
     0
 77
     2
 78
   300
148
0.0
149
0.0
100
AcDbLayout
  1
Model
 70
     1
 71
     0
 10
0.0
 20
0.0
 11
12.0
 21
9.0
 12
0.0
 22
0.0
 32
0.0
 14
0.0
 24
0.0
 34
0.0
 15
0.0
 25
0.0
 35
0.0
146
0.0
 13
0.0
 23
0.0
 33
0.0
 16
1.0
 26
0.0
 36
0.0
 17
0.0
 27
1.0
 37
0.0
 76
     0
330
1F
331
8AD
  0
LAYOUT
  5
59
102
{ACAD_REACTORS
330
1A
102
}
330
1A
100
AcDbPlotSettings
  1

  2
none_device
  4
Letter_(8.50_x_11.00_Inches)
  6

 40
6.349999904632568
 41
6.349999904632568
 42
6.350006103515625
 43
6.350006103515625
 44
215.8999938964844
 45
279.3999938964844
 46
0.0
 47
0.0
 48
0.0
 49
0.0
140
0.0
141
0.0
142
1.0
143
1.0
 70
   688
 72
     0
 73
     1
 74
     5
  7

 75
    16
147
1.0
 76
     0
 77
     2
 78
   300
148
0.0
149
0.0
100
AcDbLayout
  1
ﾚｲｱｳﾄ1
 70
     1
 71
     1
 10
-0.2500002402958907
 20
-0.2499999962453767
 11
10.74999951940821
 21
8.249999763458731
 12
0.0
 22
0.0
 32
0.0
 14
1.049636599258096
 24
0.7996597240971113
 34
-0.0015258207003583
 15
9.450362731076971
 25
7.200340082697458
 35
0.0000000349246037
146
0.0
 13
0.0
 23
0.0
 33
0.0
 16
1.0
 26
0.0
 36
0.0
 17
0.0
 27
1.0
 37
0.0
 76
     0
330
58
331
73
  0
LAYOUT
  5
5E
102
{ACAD_REACTORS
330
1A
102
}
330
1A
100
AcDbPlotSettings
  1

  2
none_device
  4
Letter_(8.50_x_11.00_Inches)
  6

 40
6.349999904632568
 41
6.349999904632568
 42
6.350006103515625
 43
6.350006103515625
 44
215.8999938964844
 45
279.3999938964844
 46
0.0
 47
0.0
 48
0.0
 49
0.0
140
0.0
141
0.0
142
1.0
143
1.0
 70
   688
 72
     0
 73
     1
 74
     5
  7

 75
    16
147
1.0
 76
     0
 77
     2
 78
   300
148
0.0
149
0.0
100
AcDbLayout
  1
ﾚｲｱｳﾄ2
 70
     1
 71
     2
 10
-0.2500002402958907
 20
-0.2499999962453767
 11
10.74999951940821
 21
8.249999763458731
 12
0.0
 22
0.0
 32
0.0
 14
1.049636599258096
 24
0.7996597240971113
 34
-0.0015258207003583
 15
9.450362731076971
 25
7.200340082697458
 35
0.0000000349246037
146
0.0
 13
0.0
 23
0.0
 33
0.0
 16
1.0
 26
0.0
 36
0.0
 17
0.0
 27
1.0
 37
0.0
 76
     0
330
5D
331
79
  0
MATERIAL
  5
78B
102
{ACAD_XDICTIONARY
360
78C
102
}
102
{ACAD_REACTORS
330
782
102
}
330
782
100
AcDbMaterial
  1
ByBlock
 72
     0
 43
0.0208333333333333
 43
0.0
 43
0.0
 43
0.0
 43
0.0
 43
0.0208333333333333
 43
0.0
 43
0.0
 43
0.0
 43
0.0
 43
1.0
 43
0.0
 43
0.0
 43
0.0
 43
0.0
 43
1.0
 77
     0
 47
0.0208333333333333
 47
0.0
 47
0.0
 47
0.0
 47
0.0
 47
0.0208333333333333
 47
0.0
 47
0.0
 47
0.0
 47
0.0
 47
1.0
 47
0.0
 47
0.0
 47
0.0
 47
0.0
 47
1.0
171
     0
 49
0.0208333333333333
 49
0.0
 49
0.0
 49
0.0
 49
0.0
 49
0.0208333333333333
 49
0.0
 49
0.0
 49
0.0
 49
0.0
 49
1.0
 49
0.0
 49
0.0
 49
0.0
 49
0.0
 49
1.0
175
     0
142
0.0208333333333333
142
0.0
142
0.0
142
0.0
142
0.0
142
0.0208333333333333
142
0.0
142
0.0
142
0.0
142
0.0
142
1.0
142
0.0
142
0.0
142
0.0
142
0.0
142
1.0
179
     0
144
0.0208333333333333
144
0.0
144
0.0
144
0.0
144
0.0
144
0.0208333333333333
144
0.0
144
0.0
144
0.0
144
0.0
144
1.0
144
0.0
144
0.0
144
0.0
144
0.0
144
1.0
147
0.0208333333333333
147
0.0
147
0.0
147
0.0
147
0.0
147
0.0208333333333333
147
0.0
147
0.0
147
0.0
147
0.0
147
1.0
147
0.0
147
0.0
147
0.0
147
0.0
147
1.0
  0
MATERIAL
  5
783
102
{ACAD_XDICTIONARY
360
784
102
}
102
{ACAD_REACTORS
330
782
102
}
330
782
100
AcDbMaterial
  1
ByLayer
 72
     0
 43
0.0208333333333333
 43
0.0
 43
0.0
 43
0.0
 43
0.0
 43
0.0208333333333333
 43
0.0
 43
0.0
 43
0.0
 43
0.0
 43
1.0
 43
0.0
 43
0.0
 43
0.0
 43
0.0
 43
1.0
 77
     0
 47
0.0208333333333333
 47
0.0
 47
0.0
 47
0.0
 47
0.0
 47
0.0208333333333333
 47
0.0
 47
0.0
 47
0.0
 47
0.0
 47
1.0
 47
0.0
 47
0.0
 47
0.0
 47
0.0
 47
1.0
171
     0
 49
0.0208333333333333
 49
0.0
 49
0.0
 49
0.0
 49
0.0
 49
0.0208333333333333
 49
0.0
 49
0.0
 49
0.0
 49
0.0
 49
1.0
 49
0.0
 49
0.0
 49
0.0
 49
0.0
 49
1.0
175
     0
142
0.0208333333333333
142
0.0
142
0.0
142
0.0
142
0.0
142
0.0208333333333333
142
0.0
142
0.0
142
0.0
142
0.0
142
1.0
142
0.0
142
0.0
142
0.0
142
0.0
142
1.0
179
     0
144
0.0208333333333333
144
0.0
144
0.0
144
0.0
144
0.0
144
0.0208333333333333
144
0.0
144
0.0
144
0.0
144
0.0
144
1.0
144
0.0
144
0.0
144
0.0
144
0.0
144
1.0
147
0.0208333333333333
147
0.0
147
0.0
147
0.0
147
0.0
147
0.0208333333333333
147
0.0
147
0.0
147
0.0
147
0.0
147
1.0
147
0.0
147
0.0
147
0.0
147
0.0
147
1.0
  0
MATERIAL
  5
793
102
{ACAD_XDICTIONARY
360
794
102
}
102
{ACAD_REACTORS
330
782
102
}
330
782
100
AcDbMaterial
  1
Global
 72
     0
 43
0.0208333333333333
 43
0.0
 43
0.0
 43
0.0
 43
0.0
 43
0.0208333333333333
 43
0.0
 43
0.0
 43
0.0
 43
0.0
 43
1.0
 43
0.0
 43
0.0
 43
0.0
 43
0.0
 43
1.0
 77
     0
 47
0.0208333333333333
 47
0.0
 47
0.0
 47
0.0
 47
0.0
 47
0.0208333333333333
 47
0.0
 47
0.0
 47
0.0
 47
0.0
 47
1.0
 47
0.0
 47
0.0
 47
0.0
 47
0.0
 47
1.0
171
     0
 49
0.0208333333333333
 49
0.0
 49
0.0
 49
0.0
 49
0.0
 49
0.0208333333333333
 49
0.0
 49
0.0
 49
0.0
 49
0.0
 49
1.0
 49
0.0
 49
0.0
 49
0.0
 49
0.0
 49
1.0
175
     0
142
0.0208333333333333
142
0.0
142
0.0
142
0.0
142
0.0
142
0.0208333333333333
142
0.0
142
0.0
142
0.0
142
0.0
142
1.0
142
0.0
142
0.0
142
0.0
142
0.0
142
1.0
179
     0
144
0.0208333333333333
144
0.0
144
0.0
144
0.0
144
0.0
144
0.0208333333333333
144
0.0
144
0.0
144
0.0
144
0.0
144
1.0
144
0.0
144
0.0
144
0.0
144
0.0
144
1.0
147
0.0208333333333333
147
0.0
147
0.0
147
0.0
147
0.0
147
0.0208333333333333
147
0.0
147
0.0
147
0.0
147
0.0
147
1.0
147
0.0
147
0.0
147
0.0
147
0.0
147
1.0
  0
MLEADERSTYLE
  5
7D2
102
{ACAD_REACTORS
330
7D1
102
}
330
7D1
100
AcDbMLeaderStyle
179
     2
170
     2
171
     1
172
     0
 90
        2
 40
0.0
 41
0.0
173
     1
 91
-1056964608
340
14
 92
       -2
290
     1
 42
0.09
291
     1
 43
0.36
  3
Standard
 44
0.18
300

342
11
174
     1
178
     6
175
     1
176
     0
 93
-1056964608
 45
0.18
292
     0
297
     0
 46
0.18
 94
-1056964608
 47
1.0
 49
1.0
140
1.0
293
     1
141
0.0
294
     1
177
     0
142
1.0
295
     0
296
     0
143
0.125
271
     0
272
     9
273
     9
  0
MLINESTYLE
  5
18
102
{ACAD_REACTORS
330
17
102
}
330
17
100
AcDbMlineStyle
  2
STANDARD
 70
     0
  3

 62
   256
 51
90.0
 52
90.0
 71
     2
 49
0.5
 62
   256
  6
BYLAYER
 49
-0.5
 62
   256
  6
BYLAYER
  0
ACDBPLACEHOLDER
  5
F
102
{ACAD_REACTORS
330
E
102
}
330
E
  0
SCALE
  5
7B0
102
{ACAD_REACTORS
330
7AF
102
}
330
7AF
100
AcDbScale
 70
     0
300
1:1
140
1.0
141
1.0
290
     1
  0
SCALE
  5
7B1
102
{ACAD_REACTORS
330
7AF
102
}
330
7AF
100
AcDbScale
 70
     0
300
1:2
140
1.0
141
2.0
290
     0
  0
SCALE
  5
7B2
102
{ACAD_REACTORS
330
7AF
102
}
330
7AF
100
AcDbScale
 70
     0
300
1:4
140
1.0
141
4.0
290
     0
  0
SCALE
  5
7B3
102
{ACAD_REACTORS
330
7AF
102
}
330
7AF
100
AcDbScale
 70
     0
300
1:5
140
1.0
141
5.0
290
     0
  0
SCALE
  5
7B4
102
{ACAD_REACTORS
330
7AF
102
}
330
7AF
100
AcDbScale
 70
     0
300
1:8
140
1.0
141
8.0
290
     0
  0
SCALE
  5
7B5
102
{ACAD_REACTORS
330
7AF
102
}
330
7AF
100
AcDbScale
 70
     0
300
1:10
140
1.0
141
10.0
290
     0
  0
SCALE
  5
7B6
102
{ACAD_REACTORS
330
7AF
102
}
330
7AF
100
AcDbScale
 70
     0
300
1:16
140
1.0
141
16.0
290
     0
  0
SCALE
  5
7B7
102
{ACAD_REACTORS
330
7AF
102
}
330
7AF
100
AcDbScale
 70
     0
300
1:20
140
1.0
141
20.0
290
     0
  0
SCALE
  5
7B8
102
{ACAD_REACTORS
330
7AF
102
}
330
7AF
100
AcDbScale
 70
     0
300
1:30
140
1.0
141
30.0
290
     0
  0
SCALE
  5
7B9
102
{ACAD_REACTORS
330
7AF
102
}
330
7AF
100
AcDbScale
 70
     0
300
1:40
140
1.0
141
40.0
290
     0
  0
SCALE
  5
7BA
102
{ACAD_REACTORS
330
7AF
102
}
330
7AF
100
AcDbScale
 70
     0
300
1:50
140
1.0
141
50.0
290
     0
  0
SCALE
  5
7BB
102
{ACAD_REACTORS
330
7AF
102
}
330
7AF
100
AcDbScale
 70
     0
300
1:100
140
1.0
141
100.0
290
     0
  0
SCALE
  5
7BC
102
{ACAD_REACTORS
330
7AF
102
}
330
7AF
100
AcDbScale
 70
     0
300
2:1
140
2.0
141
1.0
290
     0
  0
SCALE
  5
7BD
102
{ACAD_REACTORS
330
7AF
102
}
330
7AF
100
AcDbScale
 70
     0
300
4:1
140
4.0
141
1.0
290
     0
  0
SCALE
  5
7BE
102
{ACAD_REACTORS
330
7AF
102
}
330
7AF
100
AcDbScale
 70
     0
300
8:1
140
8.0
141
1.0
290
     0
  0
SCALE
  5
7BF
102
{ACAD_REACTORS
330
7AF
102
}
330
7AF
100
AcDbScale
 70
     0
300
10:1
140
10.0
141
1.0
290
     0
  0
SCALE
  5
7C0
102
{ACAD_REACTORS
330
7AF
102
}
330
7AF
100
AcDbScale
 70
     0
300
100:1
140
100.0
141
1.0
290
     0
  0
SCALE
  5
7C1
102
{ACAD_REACTORS
330
7AF
102
}
330
7AF
100
AcDbScale
 70
     0
300
1/128" = 1'-0"
140
0.0078125
141
12.0
290
     0
  0
SCALE
  5
7C2
102
{ACAD_REACTORS
330
7AF
102
}
330
7AF
100
AcDbScale
 70
     0
300
1/64" = 1'-0"
140
0.015625
141
12.0
290
     0
  0
SCALE
  5
7C3
102
{ACAD_REACTORS
330
7AF
102
}
330
7AF
100
AcDbScale
 70
     0
300
1/32" = 1'-0"
140
0.03125
141
12.0
290
     0
  0
SCALE
  5
7C4
102
{ACAD_REACTORS
330
7AF
102
}
330
7AF
100
AcDbScale
 70
     0
300
1/16" = 1'-0"
140
0.0625
141
12.0
290
     0
  0
SCALE
  5
7C5
102
{ACAD_REACTORS
330
7AF
102
}
330
7AF
100
AcDbScale
 70
     0
300
3/32" = 1'-0"
140
0.09375
141
12.0
290
     0
  0
SCALE
  5
7C6
102
{ACAD_REACTORS
330
7AF
102
}
330
7AF
100
AcDbScale
 70
     0
300
1/8" = 1'-0"
140
0.125
141
12.0
290
     0
  0
SCALE
  5
7C7
102
{ACAD_REACTORS
330
7AF
102
}
330
7AF
100
AcDbScale
 70
     0
300
3/16" = 1'-0"
140
0.1875
141
12.0
290
     0
  0
SCALE
  5
7C8
102
{ACAD_REACTORS
330
7AF
102
}
330
7AF
100
AcDbScale
 70
     0
300
1/4" = 1'-0"
140
0.25
141
12.0
290
     0
  0
SCALE
  5
7C9
102
{ACAD_REACTORS
330
7AF
102
}
330
7AF
100
AcDbScale
 70
     0
300
3/8" = 1'-0"
140
0.375
141
12.0
290
     0
  0
SCALE
  5
7CA
102
{ACAD_REACTORS
330
7AF
102
}
330
7AF
100
AcDbScale
 70
     0
300
1/2" = 1'-0"
140
0.5
141
12.0
290
     0
  0
SCALE
  5
7CB
102
{ACAD_REACTORS
330
7AF
102
}
330
7AF
100
AcDbScale
 70
     0
300
3/4" = 1'-0"
140
0.75
141
12.0
290
     0
  0
SCALE
  5
7CC
102
{ACAD_REACTORS
330
7AF
102
}
330
7AF
100
AcDbScale
 70
     0
300
1" = 1'-0"
140
1.0
141
12.0
290
     0
  0
SCALE
  5
7CD
102
{ACAD_REACTORS
330
7AF
102
}
330
7AF
100
AcDbScale
 70
     0
300
1-1/2" = 1'-0"
140
1.5
141
12.0
290
     0
  0
SCALE
  5
7CE
102
{ACAD_REACTORS
330
7AF
102
}
330
7AF
100
AcDbScale
 70
     0
300
3" = 1'-0"
140
3.0
141
12.0
290
     0
  0
SCALE
  5
7CF
102
{ACAD_REACTORS
330
7AF
102
}
330
7AF
100
AcDbScale
 70
     0
300
6" = 1'-0"
140
6.0
141
12.0
290
     0
  0
SCALE
  5
7D0
102
{ACAD_REACTORS
330
7AF
102
}
330
7AF
100
AcDbScale
 70
     0
300
1'-0" = 1'-0"
140
12.0
141
12.0
290
     0
  0
ACDBSECTIONVIEWSTYLE
  5
903
102
{ACAD_XDICTIONARY
360
1051
102
}
102
{ACAD_REACTORS
330
902
102
}
330
902
100
AcDbModelDocViewStyle
 70
     0
  3
Imperial24
290
     0
100
AcDbSectionViewStyle
 70
     0
 71
     0
 90
       78
 71
     1
340
11
 62
   256
 40
0.24
340
0
340
0
 62
   256
 40
0.24
300
I, O, Q, S, X, Z
 40
0.48
 90
        3
 40
0.18
 90
        1
 71
     2
340
16
 90
       25
 62
   256
340
16
 90
       50
 62
   256
 40
0.24
 40
0.0
 40
0.24
 71
     3
340
11
 62
   256
 40
0.24
 90
        1
 40
0.75
 90
        1
300
%<\AcVar ViewType \f "%tc1">% %<\AcVar ViewSectionStartId>%-%<\AcVar ViewSectionEndId>%\PSCALE %<\AcVar ViewScale \f "%sn">%
 71
     4
 62
   256
 62
   257
300
ANSI31
 40
1.0
 90
        0
290
     0
290
     0
 90
        6
 40
0.0
 40
1.570796326794896
 40
0.2617993877991494
 40
1.308996938995747
 40
-0.2617993877991494
 40
1.832595714594046
  0
ACDBSECTIONVIEWSTYLE
  5
960
102
{ACAD_XDICTIONARY
360
1055
102
}
102
{ACAD_REACTORS
330
902
102
}
330
902
100
AcDbModelDocViewStyle
 70
     0
  3
Metric50
290
     0
100
AcDbSectionViewStyle
 70
     0
 71
     0
 90
      102
 71
     1
340
11
 62
   256
 40
5.0
340
0
340
0
 62
   256
 40
5.0
300
I, O, Q, S, X, Z
 40
10.0
 90
        0
 40
2.5
 90
        0
 71
     2
340
16
 90
       25
 62
   256
340
16
 90
       50
 62
   256
 40
5.0
 40
2.5
 40
5.0
 71
     3
340
11
 62
   256
 40
5.0
 90
        0
 40
15.0
 90
        1
300
%<\AcVar ViewSectionStartId>%-%<\AcVar ViewSectionEndId>% (%<\AcVar ViewScale \f "%sn">%)
 71
     4
 62
   256
 62
   257
300
ANSI31
 40
1.0
 90
        0
290
     0
290
     0
 90
        6
 40
0.0
 40
1.570796326794896
 40
0.2617993877991494
 40
1.308996938995747
 40
-0.2617993877991494
 40
1.832595714594046
  0
TABLESTYLE
  5
7AE
102
{ACAD_XDICTIONARY
360
886
102
}
102
{ACAD_REACTORS
330
7AD
102
}
330
7AD
100
AcDbTableStyle
280
     0
  3
Standard
 70
     0
 71
     0
 40
0.06
 41
0.06
280
     0
281
     0
  7
Standard
140
0.18
170
     2
 62
     0
 63
     7
283
     0
 90
      512
 91
        0
  1

274
    -2
284
     1
 64
     0
275
    -2
285
     1
 65
     0
276
    -2
286
     1
 66
     0
277
    -2
287
     1
 67
     0
278
    -2
288
     1
 68
     0
279
    -2
289
     1
 69
     0
  7
Standard
140
0.25
170
     5
 62
     0
 63
     7
283
     0
 90
      512
 91
        0
  1

274
    -2
284
     1
 64
     0
275
    -2
285
     1
 65
     0
276
    -2
286
     1
 66
     0
277
    -2
287
     1
 67
     0
278
    -2
288
     1
 68
     0
279
    -2
289
     1
 69
     0
  7
Standard
140
0.18
170
     5
 62
     0
 63
     7
283
     0
 90
      512
 91
        0
  1

274
    -2
284
     1
 64
     0
275
    -2
285
     1
 65
     0
276
    -2
286
     1
 66
     0
277
    -2
287
     1
 67
     0
278
    -2
288
     1
 68
     0
279
    -2
289
     1
 69
     0
  0
VISUALSTYLE
  5
7A1
102
{ACAD_XDICTIONARY
360
1027
102
}
102
{ACAD_REACTORS
330
79B
102
}
330
79B
100
AcDbVisualStyle
  2
2dWireframe
 70
     4
177
     2
291
     0
 71
     0
176
     1
 72
     2
176
     1
 73
     0
176
     1
 90
        0
176
     1
 40
0.6
176
     1
 41
30.0
176
     1
 63
     7
176
     1
 74
     1
176
     1
 91
        4
176
     1
 64
     7
176
     1
 65
   257
176
     1
 75
     1
176
     1
175
     1
176
     1
 42
1.0
176
     1
 92
        0
176
     1
 66
   257
176
     1
 43
1.0
176
     1
 76
     1
176
     1
 77
     6
176
     1
 78
     2
176
     1
 67
     7
176
     1
 79
     5
176
     1
170
     0
176
     1
171
     0
176
     1
290
     0
176
     1
 93
        1
176
     1
 44
0.0
176
     1
173
     0
176
     1
1001
ACAD
1000
AcDbSavedByObjectVersion
1070
     0
  0
VISUALSTYLE
  5
7A3
102
{ACAD_XDICTIONARY
360
102B
102
}
102
{ACAD_REACTORS
330
79B
102
}
330
79B
100
AcDbVisualStyle
  2
3D Hidden
 70
     6
177
     2
291
     0
 71
     1
176
     1
 72
     2
176
     1
 73
     2
176
     1
 90
        0
176
     1
 40
0.6
176
     1
 41
30.0
176
     1
 63
     7
176
     1
 74
     2
176
     1
 91
        2
176
     1
 64
     7
176
     1
 65
   257
176
     1
 75
     2
176
     1
175
     1
176
     1
 42
40.0
176
     1
 92
        0
176
     1
 66
   257
176
     1
 43
1.0
176
     1
 76
     1
176
     1
 77
     6
176
     1
 78
     2
176
     1
 67
     7
176
     1
 79
     3
176
     1
170
     0
176
     1
171
     0
176
     1
290
     0
176
     1
 93
        1
176
     1
 44
0.0
176
     1
173
     0
176
     1
1001
ACAD
1000
AcDbSavedByObjectVersion
1070
     0
  0
VISUALSTYLE
  5
7A2
102
{ACAD_XDICTIONARY
360
1029
102
}
102
{ACAD_REACTORS
330
79B
102
}
330
79B
100
AcDbVisualStyle
  2
3dWireframe
 70
     5
177
     2
291
     0
 71
     0
176
     1
 72
     2
176
     1
 73
     0
176
     1
 90
        0
176
     1
 40
0.6
176
     1
 41
30.0
176
     1
 63
     7
176
     1
 74
     1
176
     1
 91
        4
176
     1
 64
     7
176
     1
 65
   257
176
     1
 75
     1
176
     1
175
     1
176
     1
 42
1.0
176
     1
 92
        0
176
     1
 66
   257
176
     1
 43
1.0
176
     1
 76
     1
176
     1
 77
     6
176
     1
 78
     2
176
     1
 67
     7
176
     1
 79
     5
176
     1
170
     0
176
     1
171
     0
176
     1
290
     0
176
     1
 93
        1
176
     1
 44
0.0
176
     1
173
     0
176
     1
1001
ACAD
1000
AcDbSavedByObjectVersion
1070
     0
  0
VISUALSTYLE
  5
7A0
102
{ACAD_XDICTIONARY
360
1025
102
}
102
{ACAD_REACTORS
330
79B
102
}
330
79B
100
AcDbVisualStyle
  2
Basic
 70
     7
177
     2
291
     1
 71
     1
176
     1
 72
     0
176
     1
 73
     1
176
     1
 90
        0
176
     1
 40
0.6
176
     1
 41
30.0
176
     1
 63
     7
176
     1
 74
     0
176
     1
 91
        4
176
     1
 64
     7
176
     1
 65
   257
176
     1
 75
     1
176
     1
175
     1
176
     1
 42
1.0
176
     1
 92
        8
176
     1
 66
     7
176
     1
 43
1.0
176
     1
 76
     1
176
     1
 77
     6
176
     1
 78
     2
176
     1
 67
     7
176
     1
 79
     5
176
     1
170
     0
176
     1
171
     0
176
     1
290
     0
176
     1
 93
        1
176
     1
 44
0.0
176
     1
173
     0
176
     1
1001
ACAD
1000
AcDbSavedByObjectVersion
1070
     0
  0
VISUALSTYLE
  5
7A7
102
{ACAD_XDICTIONARY
360
1033
102
}
102
{ACAD_REACTORS
330
79B
102
}
330
79B
100
AcDbVisualStyle
  2
Brighten
 70
    12
177
     2
291
     1
 71
     2
176
     1
 72
     2
176
     1
 73
     0
176
     1
 90
        0
176
     1
 40
0.6
176
     1
 41
30.0
176
     1
 63
     7
176
     1
 74
     1
176
     1
 91
        4
176
     1
 64
     7
176
     1
 65
   257
176
     1
 75
     1
176
     1
175
     1
176
     1
 42
1.0
176
     1
 92
        8
176
     1
 66
     7
176
     1
 43
1.0
176
     1
 76
     1
176
     1
 77
     6
176
     1
 78
     2
176
     1
 67
     7
176
     1
 79
     5
176
     1
170
     0
176
     1
171
     0
176
     1
290
     0
176
     1
 93
        1
176
     1
 44
50.0
176
     1
173
     0
176
     1
1001
ACAD
1000
AcDbSavedByObjectVersion
1070
     0
  0
VISUALSTYLE
  5
7AB
102
{ACAD_XDICTIONARY
360
103B
102
}
102
{ACAD_REACTORS
330
79B
102
}
330
79B
100
AcDbVisualStyle
  2
ColorChange
 70
    16
177
     2
291
     1
 71
     2
176
     1
 72
     2
176
     1
 73
     3
176
     1
 90
        0
176
     1
 40
0.6
176
     1
 41
30.0
176
     1
 63
     8
176
     1
 74
     1
176
     1
 91
        4
176
     1
 64
     7
176
     1
 65
   257
176
     1
 75
     1
176
     1
175
     1
176
     1
 42
1.0
176
     1
 92
        8
176
     1
 66
     8
176
     1
 43
1.0
176
     1
 76
     1
176
     1
 77
     6
176
     1
 78
     2
176
     1
 67
     7
176
     1
 79
     5
176
     1
170
     0
176
     1
171
     0
176
     1
290
     0
176
     1
 93
        1
176
     1
 44
0.0
176
     1
173
     0
176
     1
1001
ACAD
1000
AcDbSavedByObjectVersion
1070
     0
  0
VISUALSTYLE
  5
7A4
102
{ACAD_XDICTIONARY
360
102D
102
}
102
{ACAD_REACTORS
330
79B
102
}
330
79B
100
AcDbVisualStyle
  2
Conceptual
 70
     9
177
     2
291
     0
 71
     3
176
     1
 72
     2
176
     1
 73
     0
176
     1
 90
        0
176
     1
 40
0.6
176
     1
 41
30.0
176
     1
 63
     7
176
     1
 74
     2
176
     1
 91
        2
176
     1
 64
     7
176
     1
 65
   257
176
     1
 75
     1
176
     1
175
     1
176
     1
 42
40.0
176
     1
 92
        8
176
     1
 66
     7
176
     1
 43
1.0
176
     1
 76
     1
176
     1
 77
     6
176
     1
 78
     2
176
     1
 67
     7
176
     1
 79
     3
176
     1
170
     0
176
     1
171
     0
176
     1
290
     0
176
     1
 93
        1
176
     1
 44
0.0
176
     1
173
     0
176
     1
1001
ACAD
1000
AcDbSavedByObjectVersion
1070
     0
  0
VISUALSTYLE
  5
7A6
102
{ACAD_XDICTIONARY
360
1031
102
}
102
{ACAD_REACTORS
330
79B
102
}
330
79B
100
AcDbVisualStyle
  2
Dim
 70
    11
177
     2
291
     1
 71
     2
176
     1
 72
     2
176
     1
 73
     0
176
     1
 90
        0
176
     1
 40
0.6
176
     1
 41
30.0
176
     1
 63
     7
176
     1
 74
     1
176
     1
 91
        4
176
     1
 64
     7
176
     1
 65
   257
176
     1
 75
     1
176
     1
175
     1
176
     1
 42
1.0
176
     1
 92
        8
176
     1
 66
     7
176
     1
 43
1.0
176
     1
 76
     1
176
     1
 77
     6
176
     1
 78
     2
176
     1
 67
     7
176
     1
 79
     5
176
     1
170
     0
176
     1
171
     0
176
     1
290
     0
176
     1
 93
        1
176
     1
 44
-50.0
176
     1
173
     0
176
     1
1001
ACAD
1000
AcDbSavedByObjectVersion
1070
     0
  0
VISUALSTYLE
  5
900
102
{ACAD_XDICTIONARY
360
104F
102
}
102
{ACAD_REACTORS
330
79B
102
}
330
79B
100
AcDbVisualStyle
  2
EdgeColorOff
 70
    22
177
     2
291
     1
 71
     2
176
     0
 72
     2
176
     0
 73
     0
176
     0
 90
        0
176
     0
 40
0.6
176
     0
 41
30.0
176
     0
 63
     7
176
     0
 74
     1
176
     0
 91
        4
176
     0
 64
     7
176
     0
 65
   257
176
     0
 75
     1
176
     0
175
     1
176
     0
 42
1.0
176
     0
 92
        8
176
     2
 66
     7
176
     0
 43
1.0
176
     0
 76
     1
176
     0
 77
     6
176
     0
 78
     2
176
     0
 67
     7
176
     0
 79
     5
176
     0
170
     0
176
     0
171
     0
176
     0
290
     0
176
     0
 93
        1
176
     0
 44
0.0
176
     0
173
     0
176
     0
1001
ACAD
1000
AcDbSavedByObjectVersion
1070
     0
  0
VISUALSTYLE
  5
7AA
102
{ACAD_XDICTIONARY
360
1039
102
}
102
{ACAD_REACTORS
330
79B
102
}
330
79B
100
AcDbVisualStyle
  2
Facepattern
 70
    15
177
     2
291
     1
 71
     2
176
     1
 72
     2
176
     1
 73
     0
176
     1
 90
        0
176
     1
 40
0.6
176
     1
 41
30.0
176
     1
 63
     7
176
     1
 74
     1
176
     1
 91
        4
176
     1
 64
     7
176
     1
 65
   257
176
     1
 75
     1
176
     1
175
     1
176
     1
 42
1.0
176
     1
 92
        8
176
     1
 66
     7
176
     1
 43
1.0
176
     1
 76
     1
176
     1
 77
     6
176
     1
 78
     2
176
     1
 67
     7
176
     1
 79
     5
176
     1
170
     0
176
     1
171
     0
176
     1
290
     0
176
     1
 93
        1
176
     1
 44
0.0
176
     1
173
     0
176
     1
1001
ACAD
1000
AcDbSavedByObjectVersion
1070
     0
  0
VISUALSTYLE
  5
79C
102
{ACAD_XDICTIONARY
360
101D
102
}
102
{ACAD_REACTORS
330
79B
102
}
330
79B
100
AcDbVisualStyle
  2
Flat
 70
     0
177
     2
291
     1
 71
     2
176
     1
 72
     1
176
     1
 73
     1
176
     1
 90
        2
176
     1
 40
0.6
176
     1
 41
30.0
176
     1
 63
     7
176
     1
 74
     0
176
     1
 91
        4
176
     1
 64
     7
176
     1
 65
   257
176
     1
 75
     1
176
     1
175
     1
176
     1
 42
1.0
176
     1
 92
        8
176
     1
 66
     7
176
     1
 43
1.0
176
     1
 76
     1
176
     1
 77
     6
176
     1
 78
     2
176
     1
 67
     7
176
     1
 79
     5
176
     1
170
     0
176
     1
171
     0
176
     1
290
     0
176
     1
 93
       13
176
     1
 44
0.0
176
     1
173
     0
176
     1
1001
ACAD
1000
AcDbSavedByObjectVersion
1070
     0
  0
VISUALSTYLE
  5
79D
102
{ACAD_XDICTIONARY
360
101F
102
}
102
{ACAD_REACTORS
330
79B
102
}
330
79B
100
AcDbVisualStyle
  2
FlatWithEdges
 70
     1
177
     2
291
     1
 71
     2
176
     1
 72
     1
176
     1
 73
     1
176
     1
 90
        2
176
     1
 40
0.6
176
     1
 41
30.0
176
     1
 63
     7
176
     1
 74
     1
176
     1
 91
        4
176
     1
 64
     7
176
     1
 65
   257
176
     1
 75
     1
176
     1
175
     1
176
     1
 42
1.0
176
     1
 92
        0
176
     1
 66
   257
176
     1
 43
1.0
176
     1
 76
     1
176
     1
 77
     6
176
     1
 78
     2
176
     1
 67
     7
176
     1
 79
     5
176
     1
170
     0
176
     1
171
     0
176
     1
290
     0
176
     1
 93
       13
176
     1
 44
0.0
176
     1
173
     0
176
     1
1001
ACAD
1000
AcDbSavedByObjectVersion
1070
     0
  0
VISUALSTYLE
  5
79E
102
{ACAD_XDICTIONARY
360
1021
102
}
102
{ACAD_REACTORS
330
79B
102
}
330
79B
100
AcDbVisualStyle
  2
Gouraud
 70
     2
177
     2
291
     1
 71
     2
176
     1
 72
     2
176
     1
 73
     1
176
     1
 90
        2
176
     1
 40
0.6
176
     1
 41
30.0
176
     1
 63
     7
176
     1
 74
     0
176
     1
 91
        4
176
     1
 64
     7
176
     1
 65
   257
176
     1
 75
     1
176
     1
175
     1
176
     1
 42
1.0
176
     1
 92
        0
176
     1
 66
     7
176
     1
 43
1.0
176
     1
 76
     1
176
     1
 77
     6
176
     1
 78
     2
176
     1
 67
     7
176
     1
 79
     5
176
     1
170
     0
176
     1
171
     0
176
     1
290
     0
176
     1
 93
       13
176
     1
 44
0.0
176
     1
173
     0
176
     1
1001
ACAD
1000
AcDbSavedByObjectVersion
1070
     0
  0
VISUALSTYLE
  5
79F
102
{ACAD_XDICTIONARY
360
1023
102
}
102
{ACAD_REACTORS
330
79B
102
}
330
79B
100
AcDbVisualStyle
  2
GouraudWithEdges
 70
     3
177
     2
291
     1
 71
     2
176
     1
 72
     2
176
     1
 73
     1
176
     1
 90
        2
176
     1
 40
0.6
176
     1
 41
30.0
176
     1
 63
     7
176
     1
 74
     1
176
     1
 91
        4
176
     1
 64
     7
176
     1
 65
   257
176
     1
 75
     1
176
     1
175
     1
176
     1
 42
1.0
176
     1
 92
        0
176
     1
 66
   257
176
     1
 43
1.0
176
     1
 76
     1
176
     1
 77
     6
176
     1
 78
     2
176
     1
 67
     7
176
     1
 79
     5
176
     1
170
     0
176
     1
171
     0
176
     1
290
     0
176
     1
 93
       13
176
     1
 44
0.0
176
     1
173
     0
176
     1
1001
ACAD
1000
AcDbSavedByObjectVersion
1070
     0
  0
VISUALSTYLE
  5
8F8
102
{ACAD_XDICTIONARY
360
103F
102
}
102
{ACAD_REACTORS
330
79B
102
}
330
79B
100
AcDbVisualStyle
  2
Hidden
 70
     6
177
     2
291
     0
 71
     1
176
     1
 72
     2
176
     1
 73
     2
176
     1
 90
        0
176
     1
 40
0.6
176
     1
 41
30.0
176
     1
 63
     7
176
     1
 74
     2
176
     1
 91
        2
176
     1
 64
     7
176
     1
 65
   257
176
     1
 75
     2
176
     1
175
     1
176
     1
 42
40.0
176
     1
 92
        0
176
     1
 66
   257
176
     1
 43
1.0
176
     1
 76
     1
176
     1
 77
     6
176
     1
 78
     2
176
     1
 67
     7
176
     1
 79
     3
176
     1
170
     0
176
     1
171
     0
176
     1
290
     0
176
     1
 93
        1
176
     1
 44
0.0
176
     1
173
     0
176
     1
1001
ACAD
1000
AcDbSavedByObjectVersion
1070
     0
  0
VISUALSTYLE
  5
8FE
102
{ACAD_XDICTIONARY
360
104B
102
}
102
{ACAD_REACTORS
330
79B
102
}
330
79B
100
AcDbVisualStyle
  2
JitterOff
 70
    20
177
     2
291
     1
 71
     2
176
     0
 72
     2
176
     0
 73
     0
176
     0
 90
        0
176
     0
 40
0.6
176
     0
 41
30.0
176
     0
 63
     7
176
     0
 74
     1
176
     0
 91
        4
176
     0
 64
     7
176
     0
 65
   257
176
     0
 75
     1
176
     0
175
     1
176
     0
 42
1.0
176
     0
 92
       10
176
     2
 66
     7
176
     0
 43
1.0
176
     0
 76
     1
176
     0
 77
     6
176
     0
 78
     2
176
     0
 67
     7
176
     0
 79
     5
176
     0
170
     0
176
     0
171
     0
176
     0
290
     0
176
     0
 93
        1
176
     0
 44
0.0
176
     0
173
     0
176
     0
1001
ACAD
1000
AcDbSavedByObjectVersion
1070
     0
  0
VISUALSTYLE
  5
7A9
102
{ACAD_XDICTIONARY
360
1037
102
}
102
{ACAD_REACTORS
330
79B
102
}
330
79B
100
AcDbVisualStyle
  2
Linepattern
 70
    14
177
     2
291
     1
 71
     2
176
     1
 72
     2
176
     1
 73
     0
176
     1
 90
        0
176
     1
 40
0.6
176
     1
 41
30.0
176
     1
 63
     7
176
     1
 74
     1
176
     1
 91
        4
176
     1
 64
     7
176
     1
 65
   257
176
     1
 75
     7
176
     1
175
     7
176
     1
 42
1.0
176
     1
 92
        8
176
     1
 66
     7
176
     1
 43
1.0
176
     1
 76
     1
176
     1
 77
     6
176
     1
 78
     2
176
     1
 67
     7
176
     1
 79
     5
176
     1
170
     0
176
     1
171
     0
176
     1
290
     0
176
     1
 93
        1
176
     1
 44
0.0
176
     1
173
     0
176
     1
1001
ACAD
1000
AcDbSavedByObjectVersion
1070
     0
  0
VISUALSTYLE
  5
8FF
102
{ACAD_XDICTIONARY
360
104D
102
}
102
{ACAD_REACTORS
330
79B
102
}
330
79B
100
AcDbVisualStyle
  2
OverhangOff
 70
    21
177
     2
291
     1
 71
     2
176
     0
 72
     2
176
     0
 73
     0
176
     0
 90
        0
176
     0
 40
0.6
176
     0
 41
30.0
176
     0
 63
     7
176
     0
 74
     1
176
     0
 91
        4
176
     0
 64
     7
176
     0
 65
   257
176
     0
 75
     1
176
     0
175
     1
176
     0
 42
1.0
176
     0
 92
        9
176
     2
 66
     7
176
     0
 43
1.0
176
     0
 76
     1
176
     0
 77
     6
176
     0
 78
     2
176
     0
 67
     7
176
     0
 79
     5
176
     0
170
     0
176
     0
171
     0
176
     0
290
     0
176
     0
 93
        1
176
     0
 44
0.0
176
     0
173
     0
176
     0
1001
ACAD
1000
AcDbSavedByObjectVersion
1070
     0
  0
VISUALSTYLE
  5
7A5
102
{ACAD_XDICTIONARY
360
102F
102
}
102
{ACAD_REACTORS
330
79B
102
}
330
79B
100
AcDbVisualStyle
  2
Realistic
 70
     8
177
     2
291
     0
 71
     2
176
     1
 72
     2
176
     1
 73
     0
176
     1
 90
        0
176
     1
 40
0.6
176
     1
 41
30.0
176
     1
 63
     7
176
     1
 74
     1
176
     1
 91
        0
176
     1
 64
     7
176
     1
 65
   257
176
     1
 75
     1
176
     1
175
     1
176
     1
 42
1.0
176
     1
 92
        8
176
     1
 66
     8
176
     1
 43
1.0
176
     1
 76
     1
176
     1
 77
     6
176
     1
 78
     2
176
     1
 67
     7
176
     1
 79
     5
176
     1
170
     0
176
     1
171
     0
176
     1
290
     0
176
     1
 93
       13
176
     1
 44
0.0
176
     1
173
     0
176
     1
1001
ACAD
1000
AcDbSavedByObjectVersion
1070
     0
  0
VISUALSTYLE
  5
8FD
102
{ACAD_XDICTIONARY
360
1049
102
}
102
{ACAD_REACTORS
330
79B
102
}
330
79B
100
AcDbVisualStyle
  2
Shaded
 70
    27
177
     2
291
     0
 71
     2
176
     1
 72
     2
176
     1
 73
     1
176
     1
 90
        2
176
     1
 40
0.6
176
     1
 41
30.0
176
     1
 63
     7
176
     1
 74
     0
176
     1
 91
        4
176
     1
 64
     7
176
     1
 65
   257
176
     1
 75
     1
176
     1
175
     1
176
     1
 42
1.0
176
     1
 92
        8
176
     1
 66
   257
176
     1
 43
1.0
176
     1
 76
     1
176
     1
 77
     6
176
     1
 78
     2
176
     1
 67
     8
176
     1
 79
     3
176
     1
170
     0
176
     1
171
     0
176
     1
290
     0
176
     1
 93
        5
176
     1
 44
0.0
176
     1
173
     0
176
     1
1001
ACAD
1000
AcDbSavedByObjectVersion
1070
     0
  0
VISUALSTYLE
  5
8FC
102
{ACAD_XDICTIONARY
360
1047
102
}
102
{ACAD_REACTORS
330
79B
102
}
330
79B
100
AcDbVisualStyle
  2
Shaded with edges
 70
    26
177
     2
291
     0
 71
     2
176
     1
 72
     2
176
     1
 73
     1
176
     1
 90
        2
176
     1
 40
0.6
176
     1
 41
30.0
176
     1
 63
     7
176
     1
 74
     1
176
     1
 91
        2
176
     1
 64
     7
176
     1
 65
   257
176
     1
 75
     2
176
     1
175
     1
176
     1
 42
1.0
176
     1
 92
        8
176
     1
 66
   257
176
     1
 43
1.0
176
     1
 76
     1
176
     1
 77
     6
176
     1
 78
     2
176
     1
 67
     7
176
     1
 79
     3
176
     1
170
     0
176
     1
171
     0
176
     1
290
     0
176
     1
 93
        5
176
     1
 44
0.0
176
     1
173
     0
176
     1
1001
ACAD
1000
AcDbSavedByObjectVersion
1070
     0
  0
VISUALSTYLE
  5
8F9
102
{ACAD_XDICTIONARY
360
1041
102
}
102
{ACAD_REACTORS
330
79B
102
}
330
79B
100
AcDbVisualStyle
  2
Shades of Gray
 70
    23
177
     2
291
     0
 71
     2
176
     1
 72
     2
176
     1
 73
     3
176
     1
 90
        0
176
     1
 40
0.6
176
     1
 41
30.0
176
     1
 63
     7
176
     1
 74
     2
176
     1
 91
        2
176
     1
 64
     7
176
     1
 65
     7
176
     1
 75
     1
176
     1
175
     1
176
     1
 42
40.0
176
     1
 92
        8
176
     1
 66
     7
176
     1
 43
1.0
176
     1
 76
     1
176
     1
 77
     6
176
     1
 78
     2
176
     1
 67
     7
176
     1
 79
     3
176
     1
170
     0
176
     1
171
     0
176
     1
290
     0
176
     1
 93
        1
176
     1
 44
0.0
176
     1
173
     0
176
     1
1001
ACAD
1000
AcDbSavedByObjectVersion
1070
     0
  0
VISUALSTYLE
  5
8FA
102
{ACAD_XDICTIONARY
360
1043
102
}
102
{ACAD_REACTORS
330
79B
102
}
330
79B
100
AcDbVisualStyle
  2
Sketchy
 70
    24
177
     2
291
     0
 71
     1
176
     1
 72
     2
176
     1
 73
     2
176
     1
 90
        0
176
     1
 40
0.6
176
     1
 41
30.0
176
     1
 63
     7
176
     1
 74
     2
176
     1
 91
        2
176
     1
 64
     7
176
     1
 65
     7
176
     1
 75
     1
176
     1
175
     1
176
     1
 42
40.0
176
     1
 92
       11
176
     1
 66
     7
176
     1
 43
1.0
176
     1
 76
     1
176
     1
 77
     6
176
     1
 78
     2
176
     1
 67
     7
176
     1
 79
     6
176
     1
170
     0
176
     1
171
     0
176
     1
290
     0
176
     1
 93
        1
176
     1
 44
0.0
176
     1
173
     0
176
     1
1001
ACAD
1000
AcDbSavedByObjectVersion
1070
     0
  0
VISUALSTYLE
  5
7A8
102
{ACAD_XDICTIONARY
360
1035
102
}
102
{ACAD_REACTORS
330
79B
102
}
330
79B
100
AcDbVisualStyle
  2
Thicken
 70
    13
177
     2
291
     1
 71
     2
176
     1
 72
     2
176
     1
 73
     0
176
     1
 90
        0
176
     1
 40
0.6
176
     1
 41
30.0
176
     1
 63
     7
176
     1
 74
     1
176
     1
 91
        4
176
     1
 64
     7
176
     1
 65
   257
176
     1
 75
     1
176
     1
175
     1
176
     1
 42
1.0
176
     1
 92
       12
176
     1
 66
     7
176
     1
 43
1.0
176
     1
 76
     1
176
     1
 77
     6
176
     1
 78
     2
176
     1
 67
     7
176
     1
 79
     5
176
     1
170
     0
176
     1
171
     0
176
     1
290
     0
176
     1
 93
        1
176
     1
 44
0.0
176
     1
173
     0
176
     1
1001
ACAD
1000
AcDbSavedByObjectVersion
1070
     0
  0
VISUALSTYLE
  5
8F7
102
{ACAD_XDICTIONARY
360
103D
102
}
102
{ACAD_REACTORS
330
79B
102
}
330
79B
100
AcDbVisualStyle
  2
Wireframe
 70
     5
177
     2
291
     0
 71
     0
176
     1
 72
     2
176
     1
 73
     0
176
     1
 90
        0
176
     1
 40
0.6
176
     1
 41
30.0
176
     1
 63
     7
176
     1
 74
     1
176
     1
 91
        4
176
     1
 64
     7
176
     1
 65
   257
176
     1
 75
     1
176
     1
175
     1
176
     1
 42
1.0
176
     1
 92
        0
176
     1
 66
   257
176
     1
 43
1.0
176
     1
 76
     1
176
     1
 77
     6
176
     1
 78
     2
176
     1
 67
     7
176
     1
 79
     3
176
     1
170
     0
176
     1
171
     0
176
     1
290
     0
176
     1
 93
        1
176
     1
 44
0.0
176
     1
173
     0
176
     1
1001
ACAD
1000
AcDbSavedByObjectVersion
1070
     0
  0
VISUALSTYLE
  5
8FB
102
{ACAD_XDICTIONARY
360
1045
102
}
102
{ACAD_REACTORS
330
79B
102
}
330
79B
100
AcDbVisualStyle
  2
X-Ray
 70
    25
177
     2
291
     0
 71
     2
176
     1
 72
     2
176
     1
 73
     1
176
     1
 90
        1
176
     1
 40
0.5
176
     1
 41
30.0
176
     1
 63
     7
176
     1
 74
     1
176
     1
 91
        0
176
     1
 64
     7
176
     1
 65
   257
176
     1
 75
     1
176
     1
175
     1
176
     1
 42
1.0
176
     1
 92
        8
176
     1
 66
     7
176
     1
 43
1.0
176
     1
 76
     1
176
     1
 77
     6
176
     1
 78
     2
176
     1
 67
     7
176
     1
 79
     3
176
     1
170
     0
176
     1
171
     0
176
     1
290
     0
176
     1
 93
       13
176
     1
 44
0.0
176
     1
173
     0
176
     1
1001
ACAD
1000
AcDbSavedByObjectVersion
1070
     0
  0
DICTIONARYVAR
  5
8A5
102
{ACAD_REACTORS
330
66
102
}
330
66
100
DictionaryVariables
280
     0
  1
1:1
  0
DICTIONARYVAR
  5
8A4
102
{ACAD_REACTORS
330
66
102
}
330
66
100
DictionaryVariables
280
     0
  1
STANDARD
  0
DICTIONARYVAR
  5
8A3
102
{ACAD_REACTORS
330
66
102
}
330
66
100
DictionaryVariables
280
     0
  1
STANDARD
  0
DICTIONARYVAR
  5
958
102
{ACAD_REACTORS
330
66
102
}
330
66
100
DictionaryVariables
280
     0
  1
Imperial24
  0
DICTIONARYVAR
  5
959
102
{ACAD_REACTORS
330
66
102
}
330
66
100
DictionaryVariables
280
     0
  1
Imperial24
  0
DICTIONARYVAR
  5
67
102
{ACAD_REACTORS
330
66
102
}
330
66
100
DictionaryVariables
280
     0
  1
2
  0
DICTIONARYVAR
  5
6B
102
{ACAD_REACTORS
330
66
102
}
330
66
100
DictionaryVariables
280
     0
  1
1
  0
DICTIONARYVAR
  5
8A7
102
{ACAD_REACTORS
330
66
102
}
330
66
100
DictionaryVariables
280
     0
  1
0
  0
DICTIONARYVAR
  5
100A
102
{ACAD_REACTORS
330
66
102
}
330
66
100
DictionaryVariables
280
     0
  1
1
  0
DICTIONARYVAR
  5
100B
102
{ACAD_REACTORS
330
66
102
}
330
66
100
DictionaryVariables
280
     0
  1
15
  0
DICTIONARYVAR
  5
1009
102
{ACAD_REACTORS
330
66
102
}
330
66
100
DictionaryVariables
280
     0
  1
0
  0
DICTIONARYVAR
  5
1008
102
{ACAD_REACTORS
330
66
102
}
330
66
100
DictionaryVariables
280
     0
  1
0
  0
DICTIONARYVAR
  5
8A6
102
{ACAD_REACTORS
330
66
102
}
330
66
100
DictionaryVariables
280
     0
  1
127
  0
DICTIONARY
  5
101C
102
{ACAD_REACTORS
330
101A
102
}
330
101A
100
AcDbDictionary
281
     1
  0
DICTIONARY
  5
101B
102
{ACAD_REACTORS
330
101A
102
}
330
101A
100
AcDbDictionary
281
     1
  3
2603964520144
350
1015
  3
2603964520160
350
1016
  3
2603964520176
350
1017
  3
2603964520192
350
1018
  3
2603964520208
350
1019
  0
DICTIONARY
  5
840
102
{ACAD_REACTORS
330
833
102
}
330
833
100
AcDbDictionary
281
     1
  0
DICTIONARY
  5
1053
330
905
100
AcDbDictionary
280
     1
281
     1
  3
ACAD_XREC_ROUNDTRIP
360
1054
  0
DICTIONARY
  5
1057
330
961
100
AcDbDictionary
280
     1
281
     1
  3
ACAD_XREC_ROUNDTRIP
360
1058
  0
DICTIONARY
  5
78C
330
78B
100
AcDbDictionary
280
     1
281
     1
  3
BUMPTILE
360
78E
  3
DIFFUSETILE
360
78D
  3
OPACITYTILE
360
791
  3
REFLECTIONTILE
360
790
  3
REFRACTIONTILE
360
792
  3
SPECULARTILE
360
78F
  0
DICTIONARY
  5
784
330
783
100
AcDbDictionary
280
     1
281
     1
  3
BUMPTILE
360
786
  3
DIFFUSETILE
360
785
  3
OPACITYTILE
360
789
  3
REFLECTIONTILE
360
788
  3
REFRACTIONTILE
360
78A
  3
SPECULARTILE
360
787
  0
DICTIONARY
  5
794
330
793
100
AcDbDictionary
280
     1
281
     1
  3
BUMPTILE
360
796
  3
DIFFUSETILE
360
795
  3
OPACITYTILE
360
799
  3
REFLECTIONTILE
360
798
  3
REFRACTIONTILE
360
79A
  3
SPECULARTILE
360
797
  0
DICTIONARY
  5
1051
330
903
100
AcDbDictionary
280
     1
281
     1
  3
ACAD_XREC_ROUNDTRIP
360
1052
  0
DICTIONARY
  5
1055
330
960
100
AcDbDictionary
280
     1
281
     1
  3
ACAD_XREC_ROUNDTRIP
360
1056
  0
DICTIONARY
  5
886
330
7AE
100
AcDbDictionary
280
     1
281
     1
  3
ACAD_ROUNDTRIP_2008_TABLESTYLE_CELLSTYLEMAP
360
1013
  0
DICTIONARY
  5
1027
330
7A1
100
AcDbDictionary
280
     1
281
     1
  3
ACAD_XREC_ROUNDTRIP
360
1028
  0
DICTIONARY
  5
102B
330
7A3
100
AcDbDictionary
280
     1
281
     1
  3
ACAD_XREC_ROUNDTRIP
360
102C
  0
DICTIONARY
  5
1029
330
7A2
100
AcDbDictionary
280
     1
281
     1
  3
ACAD_XREC_ROUNDTRIP
360
102A
  0
DICTIONARY
  5
1025
330
7A0
100
AcDbDictionary
280
     1
281
     1
  3
ACAD_XREC_ROUNDTRIP
360
1026
  0
DICTIONARY
  5
1033
330
7A7
100
AcDbDictionary
280
     1
281
     1
  3
ACAD_XREC_ROUNDTRIP
360
1034
  0
DICTIONARY
  5
103B
330
7AB
100
AcDbDictionary
280
     1
281
     1
  3
ACAD_XREC_ROUNDTRIP
360
103C
  0
DICTIONARY
  5
102D
330
7A4
100
AcDbDictionary
280
     1
281
     1
  3
ACAD_XREC_ROUNDTRIP
360
102E
  0
DICTIONARY
  5
1031
330
7A6
100
AcDbDictionary
280
     1
281
     1
  3
ACAD_XREC_ROUNDTRIP
360
1032
  0
DICTIONARY
  5
104F
330
900
100
AcDbDictionary
280
     1
281
     1
  3
ACAD_XREC_ROUNDTRIP
360
1050
  0
DICTIONARY
  5
1039
330
7AA
100
AcDbDictionary
280
     1
281
     1
  3
ACAD_XREC_ROUNDTRIP
360
103A
  0
DICTIONARY
  5
101D
330
79C
100
AcDbDictionary
280
     1
281
     1
  3
ACAD_XREC_ROUNDTRIP
360
101E
  0
DICTIONARY
  5
101F
330
79D
100
AcDbDictionary
280
     1
281
     1
  3
ACAD_XREC_ROUNDTRIP
360
1020
  0
DICTIONARY
  5
1021
330
79E
100
AcDbDictionary
280
     1
281
     1
  3
ACAD_XREC_ROUNDTRIP
360
1022
  0
DICTIONARY
  5
1023
330
79F
100
AcDbDictionary
280
     1
281
     1
  3
ACAD_XREC_ROUNDTRIP
360
1024
  0
DICTIONARY
  5
103F
330
8F8
100
AcDbDictionary
280
     1
281
     1
  3
ACAD_XREC_ROUNDTRIP
360
1040
  0
DICTIONARY
  5
104B
330
8FE
100
AcDbDictionary
280
     1
281
     1
  3
ACAD_XREC_ROUNDTRIP
360
104C
  0
DICTIONARY
  5
1037
330
7A9
100
AcDbDictionary
280
     1
281
     1
  3
ACAD_XREC_ROUNDTRIP
360
1038
  0
DICTIONARY
  5
104D
330
8FF
100
AcDbDictionary
280
     1
281
     1
  3
ACAD_XREC_ROUNDTRIP
360
104E
  0
DICTIONARY
  5
102F
330
7A5
100
AcDbDictionary
280
     1
281
     1
  3
ACAD_XREC_ROUNDTRIP
360
1030
  0
DICTIONARY
  5
1049
330
8FD
100
AcDbDictionary
280
     1
281
     1
  3
ACAD_XREC_ROUNDTRIP
360
104A
  0
DICTIONARY
  5
1047
330
8FC
100
AcDbDictionary
280
     1
281
     1
  3
ACAD_XREC_ROUNDTRIP
360
1048
  0
DICTIONARY
  5
1041
330
8F9
100
AcDbDictionary
280
     1
281
     1
  3
ACAD_XREC_ROUNDTRIP
360
1042
  0
DICTIONARY
  5
1043
330
8FA
100
AcDbDictionary
280
     1
281
     1
  3
ACAD_XREC_ROUNDTRIP
360
1044
  0
DICTIONARY
  5
1035
330
7A8
100
AcDbDictionary
280
     1
281
     1
  3
ACAD_XREC_ROUNDTRIP
360
1036
  0
DICTIONARY
  5
103D
330
8F7
100
AcDbDictionary
280
     1
281
     1
  3
ACAD_XREC_ROUNDTRIP
360
103E
  0
DICTIONARY
  5
1045
330
8FB
100
AcDbDictionary
280
     1
281
     1
  3
ACAD_XREC_ROUNDTRIP
360
1046
  0
XRECORD
  5
1015
102
{ACAD_REACTORS
330
101B
102
}
330
101B
100
AcDbXrecord
280
     1
  1
AcDb_Thumbnail_Schema
102
{ATTRRECORD
341
1016
  2
AcDbDs::TreatedAsObjectData
280
     1
291
     1
102
ATTRRECORD}
102
{ATTRRECORD
341
1017
  2
AcDbDs::Legacy
280
     1
291
     1
102
ATTRRECORD}
  2
AcDbDs::ID
280
    10
 91
        8
102
{ATTRRECORD
341
1018
  2
AcDs:Indexable
280
     1
291
     1
102
ATTRRECORD}
102
{ATTRRECORD
341
1019
  2
AcDbDs::HandleAttribute
280
     7
282
     1
102
ATTRRECORD}
  2
Thumbnail_Data
280
    15
 91
        0
  0
XRECORD
  5
1016
102
{ACAD_REACTORS
330
101B
102
}
330
101B
100
AcDbXrecord
280
     1
  1
AcDbDs::TreatedAsObjectDataSchema
  2
AcDbDs::TreatedAsObjectData
280
     1
 91
        0
  0
XRECORD
  5
1017
102
{ACAD_REACTORS
330
101B
102
}
330
101B
100
AcDbXrecord
280
     1
  1
AcDbDs::LegacySchema
  2
AcDbDs::Legacy
280
     1
 91
        0
  0
XRECORD
  5
1018
102
{ACAD_REACTORS
330
101B
102
}
330
101B
100
AcDbXrecord
280
     1
  1
AcDbDs::IndexedPropertySchema
  2
AcDs:Indexable
280
     1
 91
        0
  0
XRECORD
  5
1019
102
{ACAD_REACTORS
330
101B
102
}
330
101B
100
AcDbXrecord
280
     1
  1
AcDbDs::HandleAttributeSchema
  2
AcDbDs::HandleAttribute
280
     7
 91
        1
284
     1
  0
XRECORD
  5
1054
102
{ACAD_REACTORS
330
1053
102
}
330
1053
100
AcDbXrecord
280
     1
102
DISPLAYNAME
  1
Imperial24
102
FLAGS
 90
        0
  0
XRECORD
  5
1058
102
{ACAD_REACTORS
330
1057
102
}
330
1057
100
AcDbXrecord
280
     1
102
DISPLAYNAME
  1
Metric50
102
FLAGS
 90
        0
  0
XRECORD
  5
78E
102
{ACAD_REACTORS
330
78C
102
}
330
78C
100
AcDbXrecord
280
     1
270
     1
271
     1
  0
XRECORD
  5
78D
102
{ACAD_REACTORS
330
78C
102
}
330
78C
100
AcDbXrecord
280
     1
270
     1
271
     1
  0
XRECORD
  5
791
102
{ACAD_REACTORS
330
78C
102
}
330
78C
100
AcDbXrecord
280
     1
270
     1
271
     1
  0
XRECORD
  5
790
102
{ACAD_REACTORS
330
78C
102
}
330
78C
100
AcDbXrecord
280
     1
270
     1
271
     1
  0
XRECORD
  5
792
102
{ACAD_REACTORS
330
78C
102
}
330
78C
100
AcDbXrecord
280
     1
270
     1
271
     1
  0
XRECORD
  5
78F
102
{ACAD_REACTORS
330
78C
102
}
330
78C
100
AcDbXrecord
280
     1
270
     1
271
     1
  0
XRECORD
  5
786
102
{ACAD_REACTORS
330
784
102
}
330
784
100
AcDbXrecord
280
     1
270
     1
271
     1
  0
XRECORD
  5
785
102
{ACAD_REACTORS
330
784
102
}
330
784
100
AcDbXrecord
280
     1
270
     1
271
     1
  0
XRECORD
  5
789
102
{ACAD_REACTORS
330
784
102
}
330
784
100
AcDbXrecord
280
     1
270
     1
271
     1
  0
XRECORD
  5
788
102
{ACAD_REACTORS
330
784
102
}
330
784
100
AcDbXrecord
280
     1
270
     1
271
     1
  0
XRECORD
  5
78A
102
{ACAD_REACTORS
330
784
102
}
330
784
100
AcDbXrecord
280
     1
270
     1
271
     1
  0
XRECORD
  5
787
102
{ACAD_REACTORS
330
784
102
}
330
784
100
AcDbXrecord
280
     1
270
     1
271
     1
  0
XRECORD
  5
796
102
{ACAD_REACTORS
330
794
102
}
330
794
100
AcDbXrecord
280
     1
270
     1
271
     1
  0
XRECORD
  5
795
102
{ACAD_REACTORS
330
794
102
}
330
794
100
AcDbXrecord
280
     1
270
     1
271
     1
  0
XRECORD
  5
799
102
{ACAD_REACTORS
330
794
102
}
330
794
100
AcDbXrecord
280
     1
270
     1
271
     1
  0
XRECORD
  5
798
102
{ACAD_REACTORS
330
794
102
}
330
794
100
AcDbXrecord
280
     1
270
     1
271
     1
  0
XRECORD
  5
79A
102
{ACAD_REACTORS
330
794
102
}
330
794
100
AcDbXrecord
280
     1
270
     1
271
     1
  0
XRECORD
  5
797
102
{ACAD_REACTORS
330
794
102
}
330
794
100
AcDbXrecord
280
     1
270
     1
271
     1
  0
XRECORD
  5
1052
102
{ACAD_REACTORS
330
1051
102
}
330
1051
100
AcDbXrecord
280
     1
102
DISPLAYNAME
  1
Imperial24
102
FLAGS
 90
        0
  0
XRECORD
  5
1056
102
{ACAD_REACTORS
330
1055
102
}
330
1055
100
AcDbXrecord
280
     1
102
DISPLAYNAME
  1
Metric50
102
FLAGS
 90
        0
  0
CELLSTYLEMAP
  5
1013
102
{ACAD_REACTORS
330
886
102
}
330
886
100
AcDbCellStyleMap
 90
        3
300
CELLSTYLE
  1
TABLEFORMAT_BEGIN
 90
        5
170
     1
 91
        0
 92
    32768
 62
   257
 93
        1
300
CONTENTFORMAT
  1
CONTENTFORMAT_BEGIN
 90
        0
 91
        0
 92
      512
 93
        0
300

 40
0.0
140
1.0
 94
        5
 62
     0
340
11
144
0.25
309
CONTENTFORMAT_END
171
     1
301
MARGIN
  1
CELLMARGIN_BEGIN
 40
0.06
 40
0.06
 40
0.06
 40
0.06
 40
0.18
 40
0.18
309
CELLMARGIN_END
 94
        6
 95
        1
302
GRIDFORMAT
  1
GRIDFORMAT_BEGIN
 90
        0
 91
        1
 62
     0
 92
       -2
340
0
 93
        0
 40
0.045
309
GRIDFORMAT_END
 95
        2
302
GRIDFORMAT
  1
GRIDFORMAT_BEGIN
 90
        0
 91
        1
 62
     0
 92
       -2
340
0
 93
        0
 40
0.045
309
GRIDFORMAT_END
 95
        4
302
GRIDFORMAT
  1
GRIDFORMAT_BEGIN
 90
        0
 91
        1
 62
     0
 92
       -2
340
0
 93
        0
 40
0.045
309
GRIDFORMAT_END
 95
        8
302
GRIDFORMAT
  1
GRIDFORMAT_BEGIN
 90
        0
 91
        1
 62
     0
 92
       -2
340
0
 93
        0
 40
0.045
309
GRIDFORMAT_END
 95
       16
302
GRIDFORMAT
  1
GRIDFORMAT_BEGIN
 90
        0
 91
        1
 62
     0
 92
       -2
340
0
 93
        0
 40
0.045
309
GRIDFORMAT_END
 95
       32
302
GRIDFORMAT
  1
GRIDFORMAT_BEGIN
 90
        0
 91
        1
 62
     0
 92
       -2
340
0
 93
        0
 40
0.045
309
GRIDFORMAT_END
309
TABLEFORMAT_END
  1
CELLSTYLE_BEGIN
 90
        1
 91
        1
300
_TITLE
309
CELLSTYLE_END
300
CELLSTYLE
  1
TABLEFORMAT_BEGIN
 90
        5
170
     1
 91
        0
 92
        0
 62
   257
 93
        1
300
CONTENTFORMAT
  1
CONTENTFORMAT_BEGIN
 90
        0
 91
        0
 92
      512
 93
        0
300

 40
0.0
140
1.0
 94
        5
 62
     0
340
11
144
0.18
309
CONTENTFORMAT_END
171
     1
301
MARGIN
  1
CELLMARGIN_BEGIN
 40
0.06
 40
0.06
 40
0.06
 40
0.06
 40
0.18
 40
0.18
309
CELLMARGIN_END
 94
        6
 95
        1
302
GRIDFORMAT
  1
GRIDFORMAT_BEGIN
 90
        0
 91
        1
 62
     0
 92
       -2
340
0
 93
        0
 40
0.045
309
GRIDFORMAT_END
 95
        2
302
GRIDFORMAT
  1
GRIDFORMAT_BEGIN
 90
        0
 91
        1
 62
     0
 92
       -2
340
0
 93
        0
 40
0.045
309
GRIDFORMAT_END
 95
        4
302
GRIDFORMAT
  1
GRIDFORMAT_BEGIN
 90
        0
 91
        1
 62
     0
 92
       -2
340
0
 93
        0
 40
0.045
309
GRIDFORMAT_END
 95
        8
302
GRIDFORMAT
  1
GRIDFORMAT_BEGIN
 90
        0
 91
        1
 62
     0
 92
       -2
340
0
 93
        0
 40
0.045
309
GRIDFORMAT_END
 95
       16
302
GRIDFORMAT
  1
GRIDFORMAT_BEGIN
 90
        0
 91
        1
 62
     0
 92
       -2
340
0
 93
        0
 40
0.045
309
GRIDFORMAT_END
 95
       32
302
GRIDFORMAT
  1
GRIDFORMAT_BEGIN
 90
        0
 91
        1
 62
     0
 92
       -2
340
0
 93
        0
 40
0.045
309
GRIDFORMAT_END
309
TABLEFORMAT_END
  1
CELLSTYLE_BEGIN
 90
        2
 91
        1
300
_HEADER
309
CELLSTYLE_END
300
CELLSTYLE
  1
TABLEFORMAT_BEGIN
 90
        5
170
     1
 91
        0
 92
        0
 62
   257
 93
        1
300
CONTENTFORMAT
  1
CONTENTFORMAT_BEGIN
 90
        0
 91
        0
 92
      512
 93
        0
300

 40
0.0
140
1.0
 94
        2
 62
     0
340
11
144
0.18
309
CONTENTFORMAT_END
171
     1
301
MARGIN
  1
CELLMARGIN_BEGIN
 40
0.06
 40
0.06
 40
0.06
 40
0.06
 40
0.18
 40
0.18
309
CELLMARGIN_END
 94
        6
 95
        1
302
GRIDFORMAT
  1
GRIDFORMAT_BEGIN
 90
        0
 91
        1
 62
     0
 92
       -2
340
0
 93
        0
 40
0.045
309
GRIDFORMAT_END
 95
        2
302
GRIDFORMAT
  1
GRIDFORMAT_BEGIN
 90
        0
 91
        1
 62
     0
 92
       -2
340
0
 93
        0
 40
0.045
309
GRIDFORMAT_END
 95
        4
302
GRIDFORMAT
  1
GRIDFORMAT_BEGIN
 90
        0
 91
        1
 62
     0
 92
       -2
340
0
 93
        0
 40
0.045
309
GRIDFORMAT_END
 95
        8
302
GRIDFORMAT
  1
GRIDFORMAT_BEGIN
 90
        0
 91
        1
 62
     0
 92
       -2
340
0
 93
        0
 40
0.045
309
GRIDFORMAT_END
 95
       16
302
GRIDFORMAT
  1
GRIDFORMAT_BEGIN
 90
        0
 91
        1
 62
     0
 92
       -2
340
0
 93
        0
 40
0.045
309
GRIDFORMAT_END
 95
       32
302
GRIDFORMAT
  1
GRIDFORMAT_BEGIN
 90
        0
 91
        1
 62
     0
 92
       -2
340
0
 93
        0
 40
0.045
309
GRIDFORMAT_END
309
TABLEFORMAT_END
  1
CELLSTYLE_BEGIN
 90
        3
 91
        2
300
_DATA
309
CELLSTYLE_END
  0
XRECORD
  5
1028
102
{ACAD_REACTORS
330
1027
102
}
330
1027
100
AcDbXrecord
280
     1
102
RTVSPost2010Prop28
280
     1
102
RTVSPost2010PropOp28
 70
     1
102
RTVSPost2010Prop29
280
     1
102
RTVSPost2010PropOp29
 70
     1
102
RTVSPost2010Prop30
280
     0
102
RTVSPost2010PropOp30
 70
     1
102
RTVSPost2010Prop31
280
     0
102
RTVSPost2010PropOp31
 70
     1
102
RTVSPost2010Prop32
280
     0
102
RTVSPost2010PropOp32
 70
     1
102
RTVSPost2010Prop33
280
     0
102
RTVSPost2010PropOp33
 70
     1
102
RTVSPost2010Prop34
280
     0
102
RTVSPost2010PropOp34
 70
     1
102
RTVSPost2010Prop35
280
     0
102
RTVSPost2010PropOp35
 70
     1
102
RTVSPost2010Prop36
280
     0
102
RTVSPost2010PropOp36
 70
     1
102
RTVSPost2010Prop37
 90
       50
102
RTVSPost2010PropOp37
 70
     1
102
RTVSPost2010Prop38
140
0.0
102
RTVSPost2010PropOp38
 70
     1
102
RTVSPost2010Prop39
140
1.0
102
RTVSPost2010PropOp39
 70
     1
102
RTVSPost2010Prop40
 90
        0
102
RTVSPost2010PropOp40
 70
     1
102
RTVSPost2010Prop41ColorIndex
 90
       18
102
RTVSPost2010Prop41ColorRGB
 90
        0
102
RTVSPost2010PropOp41
 70
     1
102
RTVSPost2010Prop42
 90
       50
102
RTVSPost2010PropOp42
 70
     1
102
RTVSPost2010Prop43
 90
        3
102
RTVSPost2010PropOp43
 70
     1
102
RTVSPost2010Prop44ColorIndex
 90
        5
102
RTVSPost2010Prop44ColorRGB
 90
      255
102
RTVSPost2010PropOp44
 70
     1
102
RTVSPost2010Prop45
280
     0
102
RTVSPost2010PropOp45
 70
     1
102
RTVSPost2010Prop46
 90
       50
102
RTVSPost2010PropOp46
 70
     1
102
RTVSPost2010Prop47
 90
       50
102
RTVSPost2010PropOp47
 70
     1
102
RTVSPost2010Prop48
 90
       50
102
RTVSPost2010PropOp48
 70
     1
102
RTVSPost2010Prop49
280
     0
102
RTVSPost2010PropOp49
 70
     1
102
RTVSPost2010Prop50
 90
       50
102
RTVSPost2010PropOp50
 70
     1
102
RTVSPost2010Prop51ColorIndex
 90
      256
102
RTVSPost2010Prop51ColorRGB
 90
-16777216
102
RTVSPost2010PropOp51
 70
     0
102
RTVSPost2010Prop52
140
1.0
102
RTVSPost2010PropOp52
 70
     0
102
RTVSPost2010Prop53
 90
        2
102
RTVSPost2010PropOp53
 70
     1
102
RTVSPost2010Prop54
  1
strokes_ogs.tif
102
RTVSPost2010PropOp54
 70
     1
102
RTVSPost2010Prop55
280
     0
102
RTVSPost2010PropOp55
 70
     1
102
RTVSPost2010Prop56
140
1.0
102
RTVSPost2010PropOp56
 70
     1
102
RTVSPost2010Prop57
140
1.0
102
RTVSPost2010PropOp57
 70
     1
  0
XRECORD
  5
102C
102
{ACAD_REACTORS
330
102B
102
}
330
102B
100
AcDbXrecord
280
     1
102
RTVSPost2010Prop28
280
     0
102
RTVSPost2010PropOp28
 70
     1
102
RTVSPost2010Prop29
280
     1
102
RTVSPost2010PropOp29
 70
     1
102
RTVSPost2010Prop30
280
     1
102
RTVSPost2010PropOp30
 70
     1
102
RTVSPost2010Prop31
280
     0
102
RTVSPost2010PropOp31
 70
     1
102
RTVSPost2010Prop32
280
     0
102
RTVSPost2010PropOp32
 70
     1
102
RTVSPost2010Prop33
280
     0
102
RTVSPost2010PropOp33
 70
     1
102
RTVSPost2010Prop34
280
     0
102
RTVSPost2010PropOp34
 70
     1
102
RTVSPost2010Prop35
280
     0
102
RTVSPost2010PropOp35
 70
     1
102
RTVSPost2010Prop36
280
     0
102
RTVSPost2010PropOp36
 70
     1
102
RTVSPost2010Prop37
 90
       50
102
RTVSPost2010PropOp37
 70
     1
102
RTVSPost2010Prop38
140
0.0
102
RTVSPost2010PropOp38
 70
     1
102
RTVSPost2010Prop39
140
1.0
102
RTVSPost2010PropOp39
 70
     1
102
RTVSPost2010Prop40
 90
        0
102
RTVSPost2010PropOp40
 70
     1
102
RTVSPost2010Prop41ColorIndex
 90
       18
102
RTVSPost2010Prop41ColorRGB
 90
        0
102
RTVSPost2010PropOp41
 70
     1
102
RTVSPost2010Prop42
 90
       50
102
RTVSPost2010PropOp42
 70
     1
102
RTVSPost2010Prop43
 90
        3
102
RTVSPost2010PropOp43
 70
     1
102
RTVSPost2010Prop44ColorIndex
 90
        5
102
RTVSPost2010Prop44ColorRGB
 90
      255
102
RTVSPost2010PropOp44
 70
     1
102
RTVSPost2010Prop45
280
     0
102
RTVSPost2010PropOp45
 70
     1
102
RTVSPost2010Prop46
 90
       50
102
RTVSPost2010PropOp46
 70
     1
102
RTVSPost2010Prop47
 90
       50
102
RTVSPost2010PropOp47
 70
     1
102
RTVSPost2010Prop48
 90
       50
102
RTVSPost2010PropOp48
 70
     1
102
RTVSPost2010Prop49
280
     0
102
RTVSPost2010PropOp49
 70
     1
102
RTVSPost2010Prop50
 90
       50
102
RTVSPost2010PropOp50
 70
     1
102
RTVSPost2010Prop51ColorIndex
 90
      256
102
RTVSPost2010Prop51ColorRGB
 90
-16777216
102
RTVSPost2010PropOp51
 70
     0
102
RTVSPost2010Prop52
140
1.0
102
RTVSPost2010PropOp52
 70
     0
102
RTVSPost2010Prop53
 90
        2
102
RTVSPost2010PropOp53
 70
     1
102
RTVSPost2010Prop54
  1
strokes_ogs.tif
102
RTVSPost2010PropOp54
 70
     1
102
RTVSPost2010Prop55
280
     0
102
RTVSPost2010PropOp55
 70
     1
102
RTVSPost2010Prop56
140
1.0
102
RTVSPost2010PropOp56
 70
     1
102
RTVSPost2010Prop57
140
1.0
102
RTVSPost2010PropOp57
 70
     1
  0
XRECORD
  5
102A
102
{ACAD_REACTORS
330
1029
102
}
330
1029
100
AcDbXrecord
280
     1
102
RTVSPost2010Prop28
280
     0
102
RTVSPost2010PropOp28
 70
     1
102
RTVSPost2010Prop29
280
     1
102
RTVSPost2010PropOp29
 70
     1
102
RTVSPost2010Prop30
280
     1
102
RTVSPost2010PropOp30
 70
     1
102
RTVSPost2010Prop31
280
     0
102
RTVSPost2010PropOp31
 70
     1
102
RTVSPost2010Prop32
280
     0
102
RTVSPost2010PropOp32
 70
     1
102
RTVSPost2010Prop33
280
     0
102
RTVSPost2010PropOp33
 70
     1
102
RTVSPost2010Prop34
280
     0
102
RTVSPost2010PropOp34
 70
     1
102
RTVSPost2010Prop35
280
     0
102
RTVSPost2010PropOp35
 70
     1
102
RTVSPost2010Prop36
280
     0
102
RTVSPost2010PropOp36
 70
     1
102
RTVSPost2010Prop37
 90
       50
102
RTVSPost2010PropOp37
 70
     1
102
RTVSPost2010Prop38
140
0.0
102
RTVSPost2010PropOp38
 70
     1
102
RTVSPost2010Prop39
140
1.0
102
RTVSPost2010PropOp39
 70
     1
102
RTVSPost2010Prop40
 90
        0
102
RTVSPost2010PropOp40
 70
     1
102
RTVSPost2010Prop41ColorIndex
 90
       18
102
RTVSPost2010Prop41ColorRGB
 90
        0
102
RTVSPost2010PropOp41
 70
     1
102
RTVSPost2010Prop42
 90
       50
102
RTVSPost2010PropOp42
 70
     1
102
RTVSPost2010Prop43
 90
        3
102
RTVSPost2010PropOp43
 70
     1
102
RTVSPost2010Prop44ColorIndex
 90
        5
102
RTVSPost2010Prop44ColorRGB
 90
      255
102
RTVSPost2010PropOp44
 70
     1
102
RTVSPost2010Prop45
280
     0
102
RTVSPost2010PropOp45
 70
     1
102
RTVSPost2010Prop46
 90
       50
102
RTVSPost2010PropOp46
 70
     1
102
RTVSPost2010Prop47
 90
       50
102
RTVSPost2010PropOp47
 70
     1
102
RTVSPost2010Prop48
 90
       50
102
RTVSPost2010PropOp48
 70
     1
102
RTVSPost2010Prop49
280
     0
102
RTVSPost2010PropOp49
 70
     1
102
RTVSPost2010Prop50
 90
       50
102
RTVSPost2010PropOp50
 70
     1
102
RTVSPost2010Prop51ColorIndex
 90
      256
102
RTVSPost2010Prop51ColorRGB
 90
-16777216
102
RTVSPost2010PropOp51
 70
     0
102
RTVSPost2010Prop52
140
1.0
102
RTVSPost2010PropOp52
 70
     0
102
RTVSPost2010Prop53
 90
        2
102
RTVSPost2010PropOp53
 70
     1
102
RTVSPost2010Prop54
  1
strokes_ogs.tif
102
RTVSPost2010PropOp54
 70
     1
102
RTVSPost2010Prop55
280
     0
102
RTVSPost2010PropOp55
 70
     1
102
RTVSPost2010Prop56
140
1.0
102
RTVSPost2010PropOp56
 70
     1
102
RTVSPost2010Prop57
140
1.0
102
RTVSPost2010PropOp57
 70
     1
  0
XRECORD
  5
1026
102
{ACAD_REACTORS
330
1025
102
}
330
1025
100
AcDbXrecord
280
     1
102
RTVSPost2010Prop28
280
     0
102
RTVSPost2010PropOp28
 70
     1
102
RTVSPost2010Prop29
280
     1
102
RTVSPost2010PropOp29
 70
     1
102
RTVSPost2010Prop30
280
     1
102
RTVSPost2010PropOp30
 70
     1
102
RTVSPost2010Prop31
280
     0
102
RTVSPost2010PropOp31
 70
     1
102
RTVSPost2010Prop32
280
     0
102
RTVSPost2010PropOp32
 70
     1
102
RTVSPost2010Prop33
280
     0
102
RTVSPost2010PropOp33
 70
     1
102
RTVSPost2010Prop34
280
     0
102
RTVSPost2010PropOp34
 70
     1
102
RTVSPost2010Prop35
280
     0
102
RTVSPost2010PropOp35
 70
     1
102
RTVSPost2010Prop36
280
     0
102
RTVSPost2010PropOp36
 70
     1
102
RTVSPost2010Prop37
 90
       50
102
RTVSPost2010PropOp37
 70
     1
102
RTVSPost2010Prop38
140
0.0
102
RTVSPost2010PropOp38
 70
     1
102
RTVSPost2010Prop39
140
1.0
102
RTVSPost2010PropOp39
 70
     1
102
RTVSPost2010Prop40
 90
        0
102
RTVSPost2010PropOp40
 70
     1
102
RTVSPost2010Prop41ColorIndex
 90
       18
102
RTVSPost2010Prop41ColorRGB
 90
        0
102
RTVSPost2010PropOp41
 70
     1
102
RTVSPost2010Prop42
 90
       50
102
RTVSPost2010PropOp42
 70
     1
102
RTVSPost2010Prop43
 90
        3
102
RTVSPost2010PropOp43
 70
     1
102
RTVSPost2010Prop44ColorIndex
 90
        5
102
RTVSPost2010Prop44ColorRGB
 90
      255
102
RTVSPost2010PropOp44
 70
     1
102
RTVSPost2010Prop45
280
     0
102
RTVSPost2010PropOp45
 70
     1
102
RTVSPost2010Prop46
 90
       50
102
RTVSPost2010PropOp46
 70
     1
102
RTVSPost2010Prop47
 90
       50
102
RTVSPost2010PropOp47
 70
     1
102
RTVSPost2010Prop48
 90
       50
102
RTVSPost2010PropOp48
 70
     1
102
RTVSPost2010Prop49
280
     0
102
RTVSPost2010PropOp49
 70
     1
102
RTVSPost2010Prop50
 90
       50
102
RTVSPost2010PropOp50
 70
     1
102
RTVSPost2010Prop51ColorIndex
 90
      256
102
RTVSPost2010Prop51ColorRGB
 90
-16777216
102
RTVSPost2010PropOp51
 70
     0
102
RTVSPost2010Prop52
140
1.0
102
RTVSPost2010PropOp52
 70
     0
102
RTVSPost2010Prop53
 90
        2
102
RTVSPost2010PropOp53
 70
     1
102
RTVSPost2010Prop54
  1
strokes_ogs.tif
102
RTVSPost2010PropOp54
 70
     1
102
RTVSPost2010Prop55
280
     0
102
RTVSPost2010PropOp55
 70
     1
102
RTVSPost2010Prop56
140
1.0
102
RTVSPost2010PropOp56
 70
     1
102
RTVSPost2010Prop57
140
1.0
102
RTVSPost2010PropOp57
 70
     1
  0
XRECORD
  5
1034
102
{ACAD_REACTORS
330
1033
102
}
330
1033
100
AcDbXrecord
280
     1
102
RTVSPost2010Prop28
280
     0
102
RTVSPost2010PropOp28
 70
     1
102
RTVSPost2010Prop29
280
     1
102
RTVSPost2010PropOp29
 70
     1
102
RTVSPost2010Prop30
280
     1
102
RTVSPost2010PropOp30
 70
     1
102
RTVSPost2010Prop31
280
     0
102
RTVSPost2010PropOp31
 70
     1
102
RTVSPost2010Prop32
280
     0
102
RTVSPost2010PropOp32
 70
     1
102
RTVSPost2010Prop33
280
     0
102
RTVSPost2010PropOp33
 70
     1
102
RTVSPost2010Prop34
280
     0
102
RTVSPost2010PropOp34
 70
     1
102
RTVSPost2010Prop35
280
     0
102
RTVSPost2010PropOp35
 70
     1
102
RTVSPost2010Prop36
280
     0
102
RTVSPost2010PropOp36
 70
     1
102
RTVSPost2010Prop37
 90
       50
102
RTVSPost2010PropOp37
 70
     1
102
RTVSPost2010Prop38
140
0.0
102
RTVSPost2010PropOp38
 70
     1
102
RTVSPost2010Prop39
140
1.0
102
RTVSPost2010PropOp39
 70
     1
102
RTVSPost2010Prop40
 90
        0
102
RTVSPost2010PropOp40
 70
     1
102
RTVSPost2010Prop41ColorIndex
 90
       18
102
RTVSPost2010Prop41ColorRGB
 90
        0
102
RTVSPost2010PropOp41
 70
     1
102
RTVSPost2010Prop42
 90
       50
102
RTVSPost2010PropOp42
 70
     1
102
RTVSPost2010Prop43
 90
        3
102
RTVSPost2010PropOp43
 70
     1
102
RTVSPost2010Prop44ColorIndex
 90
        5
102
RTVSPost2010Prop44ColorRGB
 90
      255
102
RTVSPost2010PropOp44
 70
     1
102
RTVSPost2010Prop45
280
     0
102
RTVSPost2010PropOp45
 70
     1
102
RTVSPost2010Prop46
 90
       50
102
RTVSPost2010PropOp46
 70
     1
102
RTVSPost2010Prop47
 90
       50
102
RTVSPost2010PropOp47
 70
     1
102
RTVSPost2010Prop48
 90
       50
102
RTVSPost2010PropOp48
 70
     1
102
RTVSPost2010Prop49
280
     0
102
RTVSPost2010PropOp49
 70
     1
102
RTVSPost2010Prop50
 90
       50
102
RTVSPost2010PropOp50
 70
     1
102
RTVSPost2010Prop51ColorIndex
 90
      256
102
RTVSPost2010Prop51ColorRGB
 90
-16777216
102
RTVSPost2010PropOp51
 70
     0
102
RTVSPost2010Prop52
140
1.0
102
RTVSPost2010PropOp52
 70
     0
102
RTVSPost2010Prop53
 90
        2
102
RTVSPost2010PropOp53
 70
     1
102
RTVSPost2010Prop54
  1
strokes_ogs.tif
102
RTVSPost2010PropOp54
 70
     1
102
RTVSPost2010Prop55
280
     0
102
RTVSPost2010PropOp55
 70
     1
102
RTVSPost2010Prop56
140
1.0
102
RTVSPost2010PropOp56
 70
     1
102
RTVSPost2010Prop57
140
1.0
102
RTVSPost2010PropOp57
 70
     1
  0
XRECORD
  5
103C
102
{ACAD_REACTORS
330
103B
102
}
330
103B
100
AcDbXrecord
280
     1
102
RTVSPost2010Prop28
280
     0
102
RTVSPost2010PropOp28
 70
     1
102
RTVSPost2010Prop29
280
     1
102
RTVSPost2010PropOp29
 70
     1
102
RTVSPost2010Prop30
280
     1
102
RTVSPost2010PropOp30
 70
     1
102
RTVSPost2010Prop31
280
     0
102
RTVSPost2010PropOp31
 70
     1
102
RTVSPost2010Prop32
280
     0
102
RTVSPost2010PropOp32
 70
     1
102
RTVSPost2010Prop33
280
     0
102
RTVSPost2010PropOp33
 70
     1
102
RTVSPost2010Prop34
280
     0
102
RTVSPost2010PropOp34
 70
     1
102
RTVSPost2010Prop35
280
     0
102
RTVSPost2010PropOp35
 70
     1
102
RTVSPost2010Prop36
280
     0
102
RTVSPost2010PropOp36
 70
     1
102
RTVSPost2010Prop37
 90
       50
102
RTVSPost2010PropOp37
 70
     1
102
RTVSPost2010Prop38
140
0.0
102
RTVSPost2010PropOp38
 70
     1
102
RTVSPost2010Prop39
140
1.0
102
RTVSPost2010PropOp39
 70
     1
102
RTVSPost2010Prop40
 90
        0
102
RTVSPost2010PropOp40
 70
     1
102
RTVSPost2010Prop41ColorIndex
 90
       18
102
RTVSPost2010Prop41ColorRGB
 90
        0
102
RTVSPost2010PropOp41
 70
     1
102
RTVSPost2010Prop42
 90
       50
102
RTVSPost2010PropOp42
 70
     1
102
RTVSPost2010Prop43
 90
        3
102
RTVSPost2010PropOp43
 70
     1
102
RTVSPost2010Prop44ColorIndex
 90
        5
102
RTVSPost2010Prop44ColorRGB
 90
      255
102
RTVSPost2010PropOp44
 70
     1
102
RTVSPost2010Prop45
280
     0
102
RTVSPost2010PropOp45
 70
     1
102
RTVSPost2010Prop46
 90
       50
102
RTVSPost2010PropOp46
 70
     1
102
RTVSPost2010Prop47
 90
       50
102
RTVSPost2010PropOp47
 70
     1
102
RTVSPost2010Prop48
 90
       50
102
RTVSPost2010PropOp48
 70
     1
102
RTVSPost2010Prop49
280
     0
102
RTVSPost2010PropOp49
 70
     1
102
RTVSPost2010Prop50
 90
       50
102
RTVSPost2010PropOp50
 70
     1
102
RTVSPost2010Prop51ColorIndex
 90
      256
102
RTVSPost2010Prop51ColorRGB
 90
-16777216
102
RTVSPost2010PropOp51
 70
     0
102
RTVSPost2010Prop52
140
1.0
102
RTVSPost2010PropOp52
 70
     0
102
RTVSPost2010Prop53
 90
        2
102
RTVSPost2010PropOp53
 70
     1
102
RTVSPost2010Prop54
  1
strokes_ogs.tif
102
RTVSPost2010PropOp54
 70
     1
102
RTVSPost2010Prop55
280
     0
102
RTVSPost2010PropOp55
 70
     1
102
RTVSPost2010Prop56
140
1.0
102
RTVSPost2010PropOp56
 70
     1
102
RTVSPost2010Prop57
140
1.0
102
RTVSPost2010PropOp57
 70
     1
  0
XRECORD
  5
102E
102
{ACAD_REACTORS
330
102D
102
}
330
102D
100
AcDbXrecord
280
     1
102
RTVSPost2010Prop28
280
     0
102
RTVSPost2010PropOp28
 70
     1
102
RTVSPost2010Prop29
280
     1
102
RTVSPost2010PropOp29
 70
     1
102
RTVSPost2010Prop30
280
     1
102
RTVSPost2010PropOp30
 70
     1
102
RTVSPost2010Prop31
280
     0
102
RTVSPost2010PropOp31
 70
     1
102
RTVSPost2010Prop32
280
     0
102
RTVSPost2010PropOp32
 70
     1
102
RTVSPost2010Prop33
280
     0
102
RTVSPost2010PropOp33
 70
     1
102
RTVSPost2010Prop34
280
     0
102
RTVSPost2010PropOp34
 70
     1
102
RTVSPost2010Prop35
280
     0
102
RTVSPost2010PropOp35
 70
     1
102
RTVSPost2010Prop36
280
     0
102
RTVSPost2010PropOp36
 70
     1
102
RTVSPost2010Prop37
 90
       50
102
RTVSPost2010PropOp37
 70
     1
102
RTVSPost2010Prop38
140
0.0
102
RTVSPost2010PropOp38
 70
     1
102
RTVSPost2010Prop39
140
1.0
102
RTVSPost2010PropOp39
 70
     1
102
RTVSPost2010Prop40
 90
        0
102
RTVSPost2010PropOp40
 70
     1
102
RTVSPost2010Prop41ColorIndex
 90
       18
102
RTVSPost2010Prop41ColorRGB
 90
        0
102
RTVSPost2010PropOp41
 70
     1
102
RTVSPost2010Prop42
 90
       50
102
RTVSPost2010PropOp42
 70
     1
102
RTVSPost2010Prop43
 90
        3
102
RTVSPost2010PropOp43
 70
     1
102
RTVSPost2010Prop44ColorIndex
 90
        5
102
RTVSPost2010Prop44ColorRGB
 90
      255
102
RTVSPost2010PropOp44
 70
     1
102
RTVSPost2010Prop45
280
     0
102
RTVSPost2010PropOp45
 70
     1
102
RTVSPost2010Prop46
 90
       50
102
RTVSPost2010PropOp46
 70
     1
102
RTVSPost2010Prop47
 90
       50
102
RTVSPost2010PropOp47
 70
     1
102
RTVSPost2010Prop48
 90
       50
102
RTVSPost2010PropOp48
 70
     1
102
RTVSPost2010Prop49
280
     0
102
RTVSPost2010PropOp49
 70
     1
102
RTVSPost2010Prop50
 90
       50
102
RTVSPost2010PropOp50
 70
     1
102
RTVSPost2010Prop51ColorIndex
 90
      256
102
RTVSPost2010Prop51ColorRGB
 90
-16777216
102
RTVSPost2010PropOp51
 70
     0
102
RTVSPost2010Prop52
140
1.0
102
RTVSPost2010PropOp52
 70
     0
102
RTVSPost2010Prop53
 90
        2
102
RTVSPost2010PropOp53
 70
     1
102
RTVSPost2010Prop54
  1
strokes_ogs.tif
102
RTVSPost2010PropOp54
 70
     1
102
RTVSPost2010Prop55
280
     0
102
RTVSPost2010PropOp55
 70
     1
102
RTVSPost2010Prop56
140
1.0
102
RTVSPost2010PropOp56
 70
     1
102
RTVSPost2010Prop57
140
1.0
102
RTVSPost2010PropOp57
 70
     1
  0
XRECORD
  5
1032
102
{ACAD_REACTORS
330
1031
102
}
330
1031
100
AcDbXrecord
280
     1
102
RTVSPost2010Prop28
280
     0
102
RTVSPost2010PropOp28
 70
     1
102
RTVSPost2010Prop29
280
     1
102
RTVSPost2010PropOp29
 70
     1
102
RTVSPost2010Prop30
280
     1
102
RTVSPost2010PropOp30
 70
     1
102
RTVSPost2010Prop31
280
     0
102
RTVSPost2010PropOp31
 70
     1
102
RTVSPost2010Prop32
280
     0
102
RTVSPost2010PropOp32
 70
     1
102
RTVSPost2010Prop33
280
     0
102
RTVSPost2010PropOp33
 70
     1
102
RTVSPost2010Prop34
280
     0
102
RTVSPost2010PropOp34
 70
     1
102
RTVSPost2010Prop35
280
     0
102
RTVSPost2010PropOp35
 70
     1
102
RTVSPost2010Prop36
280
     0
102
RTVSPost2010PropOp36
 70
     1
102
RTVSPost2010Prop37
 90
       50
102
RTVSPost2010PropOp37
 70
     1
102
RTVSPost2010Prop38
140
0.0
102
RTVSPost2010PropOp38
 70
     1
102
RTVSPost2010Prop39
140
1.0
102
RTVSPost2010PropOp39
 70
     1
102
RTVSPost2010Prop40
 90
        0
102
RTVSPost2010PropOp40
 70
     1
102
RTVSPost2010Prop41ColorIndex
 90
       18
102
RTVSPost2010Prop41ColorRGB
 90
        0
102
RTVSPost2010PropOp41
 70
     1
102
RTVSPost2010Prop42
 90
       50
102
RTVSPost2010PropOp42
 70
     1
102
RTVSPost2010Prop43
 90
        3
102
RTVSPost2010PropOp43
 70
     1
102
RTVSPost2010Prop44ColorIndex
 90
        5
102
RTVSPost2010Prop44ColorRGB
 90
      255
102
RTVSPost2010PropOp44
 70
     1
102
RTVSPost2010Prop45
280
     0
102
RTVSPost2010PropOp45
 70
     1
102
RTVSPost2010Prop46
 90
       50
102
RTVSPost2010PropOp46
 70
     1
102
RTVSPost2010Prop47
 90
       50
102
RTVSPost2010PropOp47
 70
     1
102
RTVSPost2010Prop48
 90
       50
102
RTVSPost2010PropOp48
 70
     1
102
RTVSPost2010Prop49
280
     0
102
RTVSPost2010PropOp49
 70
     1
102
RTVSPost2010Prop50
 90
       50
102
RTVSPost2010PropOp50
 70
     1
102
RTVSPost2010Prop51ColorIndex
 90
      256
102
RTVSPost2010Prop51ColorRGB
 90
-16777216
102
RTVSPost2010PropOp51
 70
     0
102
RTVSPost2010Prop52
140
1.0
102
RTVSPost2010PropOp52
 70
     0
102
RTVSPost2010Prop53
 90
        2
102
RTVSPost2010PropOp53
 70
     1
102
RTVSPost2010Prop54
  1
strokes_ogs.tif
102
RTVSPost2010PropOp54
 70
     1
102
RTVSPost2010Prop55
280
     0
102
RTVSPost2010PropOp55
 70
     1
102
RTVSPost2010Prop56
140
1.0
102
RTVSPost2010PropOp56
 70
     1
102
RTVSPost2010Prop57
140
1.0
102
RTVSPost2010PropOp57
 70
     1
  0
XRECORD
  5
1050
102
{ACAD_REACTORS
330
104F
102
}
330
104F
100
AcDbXrecord
280
     1
102
RTVSPost2010Prop28
280
     0
102
RTVSPost2010PropOp28
 70
     0
102
RTVSPost2010Prop29
280
     1
102
RTVSPost2010PropOp29
 70
     0
102
RTVSPost2010Prop30
280
     1
102
RTVSPost2010PropOp30
 70
     0
102
RTVSPost2010Prop31
280
     0
102
RTVSPost2010PropOp31
 70
     0
102
RTVSPost2010Prop32
280
     0
102
RTVSPost2010PropOp32
 70
     0
102
RTVSPost2010Prop33
280
     0
102
RTVSPost2010PropOp33
 70
     0
102
RTVSPost2010Prop34
280
     0
102
RTVSPost2010PropOp34
 70
     0
102
RTVSPost2010Prop35
280
     0
102
RTVSPost2010PropOp35
 70
     0
102
RTVSPost2010Prop36
280
     0
102
RTVSPost2010PropOp36
 70
     0
102
RTVSPost2010Prop37
 90
       50
102
RTVSPost2010PropOp37
 70
     0
102
RTVSPost2010Prop38
140
0.0
102
RTVSPost2010PropOp38
 70
     0
102
RTVSPost2010Prop39
140
1.0
102
RTVSPost2010PropOp39
 70
     0
102
RTVSPost2010Prop40
 90
        0
102
RTVSPost2010PropOp40
 70
     0
102
RTVSPost2010Prop41ColorIndex
 90
       18
102
RTVSPost2010Prop41ColorRGB
 90
        0
102
RTVSPost2010PropOp41
 70
     0
102
RTVSPost2010Prop42
 90
       50
102
RTVSPost2010PropOp42
 70
     0
102
RTVSPost2010Prop43
 90
        3
102
RTVSPost2010PropOp43
 70
     0
102
RTVSPost2010Prop44ColorIndex
 90
        5
102
RTVSPost2010Prop44ColorRGB
 90
      255
102
RTVSPost2010PropOp44
 70
     0
102
RTVSPost2010Prop45
280
     0
102
RTVSPost2010PropOp45
 70
     0
102
RTVSPost2010Prop46
 90
       50
102
RTVSPost2010PropOp46
 70
     0
102
RTVSPost2010Prop47
 90
       50
102
RTVSPost2010PropOp47
 70
     0
102
RTVSPost2010Prop48
 90
       50
102
RTVSPost2010PropOp48
 70
     0
102
RTVSPost2010Prop49
280
     0
102
RTVSPost2010PropOp49
 70
     0
102
RTVSPost2010Prop50
 90
       50
102
RTVSPost2010PropOp50
 70
     0
102
RTVSPost2010Prop51ColorIndex
 90
      256
102
RTVSPost2010Prop51ColorRGB
 90
-16777216
102
RTVSPost2010PropOp51
 70
     0
102
RTVSPost2010Prop52
140
1.0
102
RTVSPost2010PropOp52
 70
     0
102
RTVSPost2010Prop53
 90
        2
102
RTVSPost2010PropOp53
 70
     0
102
RTVSPost2010Prop54
  1
strokes_ogs.tif
102
RTVSPost2010PropOp54
 70
     0
102
RTVSPost2010Prop55
280
     0
102
RTVSPost2010PropOp55
 70
     0
102
RTVSPost2010Prop56
140
1.0
102
RTVSPost2010PropOp56
 70
     0
102
RTVSPost2010Prop57
140
1.0
102
RTVSPost2010PropOp57
 70
     0
  0
XRECORD
  5
103A
102
{ACAD_REACTORS
330
1039
102
}
330
1039
100
AcDbXrecord
280
     1
102
RTVSPost2010Prop28
280
     0
102
RTVSPost2010PropOp28
 70
     1
102
RTVSPost2010Prop29
280
     1
102
RTVSPost2010PropOp29
 70
     1
102
RTVSPost2010Prop30
280
     1
102
RTVSPost2010PropOp30
 70
     1
102
RTVSPost2010Prop31
280
     0
102
RTVSPost2010PropOp31
 70
     1
102
RTVSPost2010Prop32
280
     0
102
RTVSPost2010PropOp32
 70
     1
102
RTVSPost2010Prop33
280
     0
102
RTVSPost2010PropOp33
 70
     1
102
RTVSPost2010Prop34
280
     0
102
RTVSPost2010PropOp34
 70
     1
102
RTVSPost2010Prop35
280
     0
102
RTVSPost2010PropOp35
 70
     1
102
RTVSPost2010Prop36
280
     0
102
RTVSPost2010PropOp36
 70
     1
102
RTVSPost2010Prop37
 90
       50
102
RTVSPost2010PropOp37
 70
     1
102
RTVSPost2010Prop38
140
0.0
102
RTVSPost2010PropOp38
 70
     1
102
RTVSPost2010Prop39
140
1.0
102
RTVSPost2010PropOp39
 70
     1
102
RTVSPost2010Prop40
 90
        0
102
RTVSPost2010PropOp40
 70
     1
102
RTVSPost2010Prop41ColorIndex
 90
       18
102
RTVSPost2010Prop41ColorRGB
 90
        0
102
RTVSPost2010PropOp41
 70
     1
102
RTVSPost2010Prop42
 90
       50
102
RTVSPost2010PropOp42
 70
     1
102
RTVSPost2010Prop43
 90
        3
102
RTVSPost2010PropOp43
 70
     1
102
RTVSPost2010Prop44ColorIndex
 90
        5
102
RTVSPost2010Prop44ColorRGB
 90
      255
102
RTVSPost2010PropOp44
 70
     1
102
RTVSPost2010Prop45
280
     0
102
RTVSPost2010PropOp45
 70
     1
102
RTVSPost2010Prop46
 90
       50
102
RTVSPost2010PropOp46
 70
     1
102
RTVSPost2010Prop47
 90
       50
102
RTVSPost2010PropOp47
 70
     1
102
RTVSPost2010Prop48
 90
       50
102
RTVSPost2010PropOp48
 70
     1
102
RTVSPost2010Prop49
280
     0
102
RTVSPost2010PropOp49
 70
     1
102
RTVSPost2010Prop50
 90
       50
102
RTVSPost2010PropOp50
 70
     1
102
RTVSPost2010Prop51ColorIndex
 90
      256
102
RTVSPost2010Prop51ColorRGB
 90
-16777216
102
RTVSPost2010PropOp51
 70
     0
102
RTVSPost2010Prop52
140
1.0
102
RTVSPost2010PropOp52
 70
     0
102
RTVSPost2010Prop53
 90
        2
102
RTVSPost2010PropOp53
 70
     1
102
RTVSPost2010Prop54
  1
strokes_ogs.tif
102
RTVSPost2010PropOp54
 70
     1
102
RTVSPost2010Prop55
280
     0
102
RTVSPost2010PropOp55
 70
     1
102
RTVSPost2010Prop56
140
1.0
102
RTVSPost2010PropOp56
 70
     1
102
RTVSPost2010Prop57
140
1.0
102
RTVSPost2010PropOp57
 70
     1
  0
XRECORD
  5
101E
102
{ACAD_REACTORS
330
101D
102
}
330
101D
100
AcDbXrecord
280
     1
102
RTVSPost2010Prop28
280
     0
102
RTVSPost2010PropOp28
 70
     1
102
RTVSPost2010Prop29
280
     1
102
RTVSPost2010PropOp29
 70
     1
102
RTVSPost2010Prop30
280
     1
102
RTVSPost2010PropOp30
 70
     1
102
RTVSPost2010Prop31
280
     0
102
RTVSPost2010PropOp31
 70
     1
102
RTVSPost2010Prop32
280
     0
102
RTVSPost2010PropOp32
 70
     1
102
RTVSPost2010Prop33
280
     0
102
RTVSPost2010PropOp33
 70
     1
102
RTVSPost2010Prop34
280
     0
102
RTVSPost2010PropOp34
 70
     1
102
RTVSPost2010Prop35
280
     0
102
RTVSPost2010PropOp35
 70
     1
102
RTVSPost2010Prop36
280
     0
102
RTVSPost2010PropOp36
 70
     1
102
RTVSPost2010Prop37
 90
       50
102
RTVSPost2010PropOp37
 70
     1
102
RTVSPost2010Prop38
140
0.0
102
RTVSPost2010PropOp38
 70
     1
102
RTVSPost2010Prop39
140
1.0
102
RTVSPost2010PropOp39
 70
     1
102
RTVSPost2010Prop40
 90
        0
102
RTVSPost2010PropOp40
 70
     1
102
RTVSPost2010Prop41ColorIndex
 90
       18
102
RTVSPost2010Prop41ColorRGB
 90
        0
102
RTVSPost2010PropOp41
 70
     1
102
RTVSPost2010Prop42
 90
       50
102
RTVSPost2010PropOp42
 70
     1
102
RTVSPost2010Prop43
 90
        3
102
RTVSPost2010PropOp43
 70
     1
102
RTVSPost2010Prop44ColorIndex
 90
        5
102
RTVSPost2010Prop44ColorRGB
 90
      255
102
RTVSPost2010PropOp44
 70
     1
102
RTVSPost2010Prop45
280
     0
102
RTVSPost2010PropOp45
 70
     1
102
RTVSPost2010Prop46
 90
       50
102
RTVSPost2010PropOp46
 70
     1
102
RTVSPost2010Prop47
 90
       50
102
RTVSPost2010PropOp47
 70
     1
102
RTVSPost2010Prop48
 90
       50
102
RTVSPost2010PropOp48
 70
     1
102
RTVSPost2010Prop49
280
     0
102
RTVSPost2010PropOp49
 70
     1
102
RTVSPost2010Prop50
 90
       50
102
RTVSPost2010PropOp50
 70
     1
102
RTVSPost2010Prop51ColorIndex
 90
      256
102
RTVSPost2010Prop51ColorRGB
 90
-16777216
102
RTVSPost2010PropOp51
 70
     0
102
RTVSPost2010Prop52
140
1.0
102
RTVSPost2010PropOp52
 70
     0
102
RTVSPost2010Prop53
 90
        2
102
RTVSPost2010PropOp53
 70
     1
102
RTVSPost2010Prop54
  1
strokes_ogs.tif
102
RTVSPost2010PropOp54
 70
     1
102
RTVSPost2010Prop55
280
     0
102
RTVSPost2010PropOp55
 70
     1
102
RTVSPost2010Prop56
140
1.0
102
RTVSPost2010PropOp56
 70
     1
102
RTVSPost2010Prop57
140
1.0
102
RTVSPost2010PropOp57
 70
     1
  0
XRECORD
  5
1020
102
{ACAD_REACTORS
330
101F
102
}
330
101F
100
AcDbXrecord
280
     1
102
RTVSPost2010Prop28
280
     0
102
RTVSPost2010PropOp28
 70
     1
102
RTVSPost2010Prop29
280
     1
102
RTVSPost2010PropOp29
 70
     1
102
RTVSPost2010Prop30
280
     1
102
RTVSPost2010PropOp30
 70
     1
102
RTVSPost2010Prop31
280
     0
102
RTVSPost2010PropOp31
 70
     1
102
RTVSPost2010Prop32
280
     0
102
RTVSPost2010PropOp32
 70
     1
102
RTVSPost2010Prop33
280
     0
102
RTVSPost2010PropOp33
 70
     1
102
RTVSPost2010Prop34
280
     0
102
RTVSPost2010PropOp34
 70
     1
102
RTVSPost2010Prop35
280
     0
102
RTVSPost2010PropOp35
 70
     1
102
RTVSPost2010Prop36
280
     0
102
RTVSPost2010PropOp36
 70
     1
102
RTVSPost2010Prop37
 90
       50
102
RTVSPost2010PropOp37
 70
     1
102
RTVSPost2010Prop38
140
0.0
102
RTVSPost2010PropOp38
 70
     1
102
RTVSPost2010Prop39
140
1.0
102
RTVSPost2010PropOp39
 70
     1
102
RTVSPost2010Prop40
 90
        0
102
RTVSPost2010PropOp40
 70
     1
102
RTVSPost2010Prop41ColorIndex
 90
       18
102
RTVSPost2010Prop41ColorRGB
 90
        0
102
RTVSPost2010PropOp41
 70
     1
102
RTVSPost2010Prop42
 90
       50
102
RTVSPost2010PropOp42
 70
     1
102
RTVSPost2010Prop43
 90
        3
102
RTVSPost2010PropOp43
 70
     1
102
RTVSPost2010Prop44ColorIndex
 90
        5
102
RTVSPost2010Prop44ColorRGB
 90
      255
102
RTVSPost2010PropOp44
 70
     1
102
RTVSPost2010Prop45
280
     0
102
RTVSPost2010PropOp45
 70
     1
102
RTVSPost2010Prop46
 90
       50
102
RTVSPost2010PropOp46
 70
     1
102
RTVSPost2010Prop47
 90
       50
102
RTVSPost2010PropOp47
 70
     1
102
RTVSPost2010Prop48
 90
       50
102
RTVSPost2010PropOp48
 70
     1
102
RTVSPost2010Prop49
280
     0
102
RTVSPost2010PropOp49
 70
     1
102
RTVSPost2010Prop50
 90
       50
102
RTVSPost2010PropOp50
 70
     1
102
RTVSPost2010Prop51ColorIndex
 90
      256
102
RTVSPost2010Prop51ColorRGB
 90
-16777216
102
RTVSPost2010PropOp51
 70
     0
102
RTVSPost2010Prop52
140
1.0
102
RTVSPost2010PropOp52
 70
     0
102
RTVSPost2010Prop53
 90
        2
102
RTVSPost2010PropOp53
 70
     1
102
RTVSPost2010Prop54
  1
strokes_ogs.tif
102
RTVSPost2010PropOp54
 70
     1
102
RTVSPost2010Prop55
280
     0
102
RTVSPost2010PropOp55
 70
     1
102
RTVSPost2010Prop56
140
1.0
102
RTVSPost2010PropOp56
 70
     1
102
RTVSPost2010Prop57
140
1.0
102
RTVSPost2010PropOp57
 70
     1
  0
XRECORD
  5
1022
102
{ACAD_REACTORS
330
1021
102
}
330
1021
100
AcDbXrecord
280
     1
102
RTVSPost2010Prop28
280
     0
102
RTVSPost2010PropOp28
 70
     1
102
RTVSPost2010Prop29
280
     1
102
RTVSPost2010PropOp29
 70
     1
102
RTVSPost2010Prop30
280
     1
102
RTVSPost2010PropOp30
 70
     1
102
RTVSPost2010Prop31
280
     0
102
RTVSPost2010PropOp31
 70
     1
102
RTVSPost2010Prop32
280
     0
102
RTVSPost2010PropOp32
 70
     1
102
RTVSPost2010Prop33
280
     0
102
RTVSPost2010PropOp33
 70
     1
102
RTVSPost2010Prop34
280
     0
102
RTVSPost2010PropOp34
 70
     1
102
RTVSPost2010Prop35
280
     0
102
RTVSPost2010PropOp35
 70
     1
102
RTVSPost2010Prop36
280
     0
102
RTVSPost2010PropOp36
 70
     1
102
RTVSPost2010Prop37
 90
       50
102
RTVSPost2010PropOp37
 70
     1
102
RTVSPost2010Prop38
140
0.0
102
RTVSPost2010PropOp38
 70
     1
102
RTVSPost2010Prop39
140
1.0
102
RTVSPost2010PropOp39
 70
     1
102
RTVSPost2010Prop40
 90
        0
102
RTVSPost2010PropOp40
 70
     1
102
RTVSPost2010Prop41ColorIndex
 90
       18
102
RTVSPost2010Prop41ColorRGB
 90
        0
102
RTVSPost2010PropOp41
 70
     1
102
RTVSPost2010Prop42
 90
       50
102
RTVSPost2010PropOp42
 70
     1
102
RTVSPost2010Prop43
 90
        3
102
RTVSPost2010PropOp43
 70
     1
102
RTVSPost2010Prop44ColorIndex
 90
        5
102
RTVSPost2010Prop44ColorRGB
 90
      255
102
RTVSPost2010PropOp44
 70
     1
102
RTVSPost2010Prop45
280
     0
102
RTVSPost2010PropOp45
 70
     1
102
RTVSPost2010Prop46
 90
       50
102
RTVSPost2010PropOp46
 70
     1
102
RTVSPost2010Prop47
 90
       50
102
RTVSPost2010PropOp47
 70
     1
102
RTVSPost2010Prop48
 90
       50
102
RTVSPost2010PropOp48
 70
     1
102
RTVSPost2010Prop49
280
     0
102
RTVSPost2010PropOp49
 70
     1
102
RTVSPost2010Prop50
 90
       50
102
RTVSPost2010PropOp50
 70
     1
102
RTVSPost2010Prop51ColorIndex
 90
      256
102
RTVSPost2010Prop51ColorRGB
 90
-16777216
102
RTVSPost2010PropOp51
 70
     0
102
RTVSPost2010Prop52
140
1.0
102
RTVSPost2010PropOp52
 70
     0
102
RTVSPost2010Prop53
 90
        2
102
RTVSPost2010PropOp53
 70
     1
102
RTVSPost2010Prop54
  1
strokes_ogs.tif
102
RTVSPost2010PropOp54
 70
     1
102
RTVSPost2010Prop55
280
     0
102
RTVSPost2010PropOp55
 70
     1
102
RTVSPost2010Prop56
140
1.0
102
RTVSPost2010PropOp56
 70
     1
102
RTVSPost2010Prop57
140
1.0
102
RTVSPost2010PropOp57
 70
     1
  0
XRECORD
  5
1024
102
{ACAD_REACTORS
330
1023
102
}
330
1023
100
AcDbXrecord
280
     1
102
RTVSPost2010Prop28
280
     0
102
RTVSPost2010PropOp28
 70
     1
102
RTVSPost2010Prop29
280
     1
102
RTVSPost2010PropOp29
 70
     1
102
RTVSPost2010Prop30
280
     1
102
RTVSPost2010PropOp30
 70
     1
102
RTVSPost2010Prop31
280
     0
102
RTVSPost2010PropOp31
 70
     1
102
RTVSPost2010Prop32
280
     0
102
RTVSPost2010PropOp32
 70
     1
102
RTVSPost2010Prop33
280
     0
102
RTVSPost2010PropOp33
 70
     1
102
RTVSPost2010Prop34
280
     0
102
RTVSPost2010PropOp34
 70
     1
102
RTVSPost2010Prop35
280
     0
102
RTVSPost2010PropOp35
 70
     1
102
RTVSPost2010Prop36
280
     0
102
RTVSPost2010PropOp36
 70
     1
102
RTVSPost2010Prop37
 90
       50
102
RTVSPost2010PropOp37
 70
     1
102
RTVSPost2010Prop38
140
0.0
102
RTVSPost2010PropOp38
 70
     1
102
RTVSPost2010Prop39
140
1.0
102
RTVSPost2010PropOp39
 70
     1
102
RTVSPost2010Prop40
 90
        0
102
RTVSPost2010PropOp40
 70
     1
102
RTVSPost2010Prop41ColorIndex
 90
       18
102
RTVSPost2010Prop41ColorRGB
 90
        0
102
RTVSPost2010PropOp41
 70
     1
102
RTVSPost2010Prop42
 90
       50
102
RTVSPost2010PropOp42
 70
     1
102
RTVSPost2010Prop43
 90
        3
102
RTVSPost2010PropOp43
 70
     1
102
RTVSPost2010Prop44ColorIndex
 90
        5
102
RTVSPost2010Prop44ColorRGB
 90
      255
102
RTVSPost2010PropOp44
 70
     1
102
RTVSPost2010Prop45
280
     0
102
RTVSPost2010PropOp45
 70
     1
102
RTVSPost2010Prop46
 90
       50
102
RTVSPost2010PropOp46
 70
     1
102
RTVSPost2010Prop47
 90
       50
102
RTVSPost2010PropOp47
 70
     1
102
RTVSPost2010Prop48
 90
       50
102
RTVSPost2010PropOp48
 70
     1
102
RTVSPost2010Prop49
280
     0
102
RTVSPost2010PropOp49
 70
     1
102
RTVSPost2010Prop50
 90
       50
102
RTVSPost2010PropOp50
 70
     1
102
RTVSPost2010Prop51ColorIndex
 90
      256
102
RTVSPost2010Prop51ColorRGB
 90
-16777216
102
RTVSPost2010PropOp51
 70
     0
102
RTVSPost2010Prop52
140
1.0
102
RTVSPost2010PropOp52
 70
     0
102
RTVSPost2010Prop53
 90
        2
102
RTVSPost2010PropOp53
 70
     1
102
RTVSPost2010Prop54
  1
strokes_ogs.tif
102
RTVSPost2010PropOp54
 70
     1
102
RTVSPost2010Prop55
280
     0
102
RTVSPost2010PropOp55
 70
     1
102
RTVSPost2010Prop56
140
1.0
102
RTVSPost2010PropOp56
 70
     1
102
RTVSPost2010Prop57
140
1.0
102
RTVSPost2010PropOp57
 70
     1
  0
XRECORD
  5
1040
102
{ACAD_REACTORS
330
103F
102
}
330
103F
100
AcDbXrecord
280
     1
102
RTVSPost2010Prop28
280
     0
102
RTVSPost2010PropOp28
 70
     1
102
RTVSPost2010Prop29
280
     1
102
RTVSPost2010PropOp29
 70
     1
102
RTVSPost2010Prop30
280
     1
102
RTVSPost2010PropOp30
 70
     1
102
RTVSPost2010Prop31
280
     0
102
RTVSPost2010PropOp31
 70
     1
102
RTVSPost2010Prop32
280
     0
102
RTVSPost2010PropOp32
 70
     1
102
RTVSPost2010Prop33
280
     0
102
RTVSPost2010PropOp33
 70
     1
102
RTVSPost2010Prop34
280
     0
102
RTVSPost2010PropOp34
 70
     1
102
RTVSPost2010Prop35
280
     0
102
RTVSPost2010PropOp35
 70
     1
102
RTVSPost2010Prop36
280
     0
102
RTVSPost2010PropOp36
 70
     1
102
RTVSPost2010Prop37
 90
       50
102
RTVSPost2010PropOp37
 70
     1
102
RTVSPost2010Prop38
140
0.0
102
RTVSPost2010PropOp38
 70
     1
102
RTVSPost2010Prop39
140
1.0
102
RTVSPost2010PropOp39
 70
     1
102
RTVSPost2010Prop40
 90
        0
102
RTVSPost2010PropOp40
 70
     1
102
RTVSPost2010Prop41ColorIndex
 90
       18
102
RTVSPost2010Prop41ColorRGB
 90
        0
102
RTVSPost2010PropOp41
 70
     1
102
RTVSPost2010Prop42
 90
       50
102
RTVSPost2010PropOp42
 70
     1
102
RTVSPost2010Prop43
 90
        3
102
RTVSPost2010PropOp43
 70
     1
102
RTVSPost2010Prop44ColorIndex
 90
        5
102
RTVSPost2010Prop44ColorRGB
 90
      255
102
RTVSPost2010PropOp44
 70
     1
102
RTVSPost2010Prop45
280
     0
102
RTVSPost2010PropOp45
 70
     1
102
RTVSPost2010Prop46
 90
       50
102
RTVSPost2010PropOp46
 70
     1
102
RTVSPost2010Prop47
 90
       50
102
RTVSPost2010PropOp47
 70
     1
102
RTVSPost2010Prop48
 90
       50
102
RTVSPost2010PropOp48
 70
     1
102
RTVSPost2010Prop49
280
     0
102
RTVSPost2010PropOp49
 70
     1
102
RTVSPost2010Prop50
 90
       50
102
RTVSPost2010PropOp50
 70
     1
102
RTVSPost2010Prop51ColorIndex
 90
      256
102
RTVSPost2010Prop51ColorRGB
 90
-16777216
102
RTVSPost2010PropOp51
 70
     0
102
RTVSPost2010Prop52
140
1.0
102
RTVSPost2010PropOp52
 70
     0
102
RTVSPost2010Prop53
 90
        2
102
RTVSPost2010PropOp53
 70
     1
102
RTVSPost2010Prop54
  1
strokes_ogs.tif
102
RTVSPost2010PropOp54
 70
     1
102
RTVSPost2010Prop55
280
     0
102
RTVSPost2010PropOp55
 70
     1
102
RTVSPost2010Prop56
140
1.0
102
RTVSPost2010PropOp56
 70
     1
102
RTVSPost2010Prop57
140
1.0
102
RTVSPost2010PropOp57
 70
     1
  0
XRECORD
  5
104C
102
{ACAD_REACTORS
330
104B
102
}
330
104B
100
AcDbXrecord
280
     1
102
RTVSPost2010Prop28
280
     0
102
RTVSPost2010PropOp28
 70
     0
102
RTVSPost2010Prop29
280
     1
102
RTVSPost2010PropOp29
 70
     0
102
RTVSPost2010Prop30
280
     1
102
RTVSPost2010PropOp30
 70
     0
102
RTVSPost2010Prop31
280
     0
102
RTVSPost2010PropOp31
 70
     0
102
RTVSPost2010Prop32
280
     0
102
RTVSPost2010PropOp32
 70
     0
102
RTVSPost2010Prop33
280
     0
102
RTVSPost2010PropOp33
 70
     0
102
RTVSPost2010Prop34
280
     0
102
RTVSPost2010PropOp34
 70
     0
102
RTVSPost2010Prop35
280
     0
102
RTVSPost2010PropOp35
 70
     0
102
RTVSPost2010Prop36
280
     0
102
RTVSPost2010PropOp36
 70
     0
102
RTVSPost2010Prop37
 90
       50
102
RTVSPost2010PropOp37
 70
     0
102
RTVSPost2010Prop38
140
0.0
102
RTVSPost2010PropOp38
 70
     0
102
RTVSPost2010Prop39
140
1.0
102
RTVSPost2010PropOp39
 70
     0
102
RTVSPost2010Prop40
 90
        0
102
RTVSPost2010PropOp40
 70
     0
102
RTVSPost2010Prop41ColorIndex
 90
       18
102
RTVSPost2010Prop41ColorRGB
 90
        0
102
RTVSPost2010PropOp41
 70
     0
102
RTVSPost2010Prop42
 90
       50
102
RTVSPost2010PropOp42
 70
     0
102
RTVSPost2010Prop43
 90
        3
102
RTVSPost2010PropOp43
 70
     0
102
RTVSPost2010Prop44ColorIndex
 90
        5
102
RTVSPost2010Prop44ColorRGB
 90
      255
102
RTVSPost2010PropOp44
 70
     0
102
RTVSPost2010Prop45
280
     0
102
RTVSPost2010PropOp45
 70
     0
102
RTVSPost2010Prop46
 90
       50
102
RTVSPost2010PropOp46
 70
     0
102
RTVSPost2010Prop47
 90
       50
102
RTVSPost2010PropOp47
 70
     0
102
RTVSPost2010Prop48
 90
       50
102
RTVSPost2010PropOp48
 70
     0
102
RTVSPost2010Prop49
280
     0
102
RTVSPost2010PropOp49
 70
     0
102
RTVSPost2010Prop50
 90
       50
102
RTVSPost2010PropOp50
 70
     0
102
RTVSPost2010Prop51ColorIndex
 90
      256
102
RTVSPost2010Prop51ColorRGB
 90
-16777216
102
RTVSPost2010PropOp51
 70
     0
102
RTVSPost2010Prop52
140
1.0
102
RTVSPost2010PropOp52
 70
     0
102
RTVSPost2010Prop53
 90
        2
102
RTVSPost2010PropOp53
 70
     0
102
RTVSPost2010Prop54
  1
strokes_ogs.tif
102
RTVSPost2010PropOp54
 70
     0
102
RTVSPost2010Prop55
280
     0
102
RTVSPost2010PropOp55
 70
     0
102
RTVSPost2010Prop56
140
1.0
102
RTVSPost2010PropOp56
 70
     0
102
RTVSPost2010Prop57
140
1.0
102
RTVSPost2010PropOp57
 70
     0
  0
XRECORD
  5
1038
102
{ACAD_REACTORS
330
1037
102
}
330
1037
100
AcDbXrecord
280
     1
102
RTVSPost2010Prop28
280
     0
102
RTVSPost2010PropOp28
 70
     1
102
RTVSPost2010Prop29
280
     1
102
RTVSPost2010PropOp29
 70
     1
102
RTVSPost2010Prop30
280
     1
102
RTVSPost2010PropOp30
 70
     1
102
RTVSPost2010Prop31
280
     0
102
RTVSPost2010PropOp31
 70
     1
102
RTVSPost2010Prop32
280
     0
102
RTVSPost2010PropOp32
 70
     1
102
RTVSPost2010Prop33
280
     0
102
RTVSPost2010PropOp33
 70
     1
102
RTVSPost2010Prop34
280
     0
102
RTVSPost2010PropOp34
 70
     1
102
RTVSPost2010Prop35
280
     0
102
RTVSPost2010PropOp35
 70
     1
102
RTVSPost2010Prop36
280
     0
102
RTVSPost2010PropOp36
 70
     1
102
RTVSPost2010Prop37
 90
       50
102
RTVSPost2010PropOp37
 70
     1
102
RTVSPost2010Prop38
140
0.0
102
RTVSPost2010PropOp38
 70
     1
102
RTVSPost2010Prop39
140
1.0
102
RTVSPost2010PropOp39
 70
     1
102
RTVSPost2010Prop40
 90
        0
102
RTVSPost2010PropOp40
 70
     1
102
RTVSPost2010Prop41ColorIndex
 90
       18
102
RTVSPost2010Prop41ColorRGB
 90
        0
102
RTVSPost2010PropOp41
 70
     1
102
RTVSPost2010Prop42
 90
       50
102
RTVSPost2010PropOp42
 70
     1
102
RTVSPost2010Prop43
 90
        3
102
RTVSPost2010PropOp43
 70
     1
102
RTVSPost2010Prop44ColorIndex
 90
        5
102
RTVSPost2010Prop44ColorRGB
 90
      255
102
RTVSPost2010PropOp44
 70
     1
102
RTVSPost2010Prop45
280
     0
102
RTVSPost2010PropOp45
 70
     1
102
RTVSPost2010Prop46
 90
       50
102
RTVSPost2010PropOp46
 70
     1
102
RTVSPost2010Prop47
 90
       50
102
RTVSPost2010PropOp47
 70
     1
102
RTVSPost2010Prop48
 90
       50
102
RTVSPost2010PropOp48
 70
     1
102
RTVSPost2010Prop49
280
     0
102
RTVSPost2010PropOp49
 70
     1
102
RTVSPost2010Prop50
 90
       50
102
RTVSPost2010PropOp50
 70
     1
102
RTVSPost2010Prop51ColorIndex
 90
      256
102
RTVSPost2010Prop51ColorRGB
 90
-16777216
102
RTVSPost2010PropOp51
 70
     0
102
RTVSPost2010Prop52
140
1.0
102
RTVSPost2010PropOp52
 70
     0
102
RTVSPost2010Prop53
 90
        2
102
RTVSPost2010PropOp53
 70
     1
102
RTVSPost2010Prop54
  1
strokes_ogs.tif
102
RTVSPost2010PropOp54
 70
     1
102
RTVSPost2010Prop55
280
     0
102
RTVSPost2010PropOp55
 70
     1
102
RTVSPost2010Prop56
140
1.0
102
RTVSPost2010PropOp56
 70
     1
102
RTVSPost2010Prop57
140
1.0
102
RTVSPost2010PropOp57
 70
     1
  0
XRECORD
  5
104E
102
{ACAD_REACTORS
330
104D
102
}
330
104D
100
AcDbXrecord
280
     1
102
RTVSPost2010Prop28
280
     0
102
RTVSPost2010PropOp28
 70
     0
102
RTVSPost2010Prop29
280
     1
102
RTVSPost2010PropOp29
 70
     0
102
RTVSPost2010Prop30
280
     1
102
RTVSPost2010PropOp30
 70
     0
102
RTVSPost2010Prop31
280
     0
102
RTVSPost2010PropOp31
 70
     0
102
RTVSPost2010Prop32
280
     0
102
RTVSPost2010PropOp32
 70
     0
102
RTVSPost2010Prop33
280
     0
102
RTVSPost2010PropOp33
 70
     0
102
RTVSPost2010Prop34
280
     0
102
RTVSPost2010PropOp34
 70
     0
102
RTVSPost2010Prop35
280
     0
102
RTVSPost2010PropOp35
 70
     0
102
RTVSPost2010Prop36
280
     0
102
RTVSPost2010PropOp36
 70
     0
102
RTVSPost2010Prop37
 90
       50
102
RTVSPost2010PropOp37
 70
     0
102
RTVSPost2010Prop38
140
0.0
102
RTVSPost2010PropOp38
 70
     0
102
RTVSPost2010Prop39
140
1.0
102
RTVSPost2010PropOp39
 70
     0
102
RTVSPost2010Prop40
 90
        0
102
RTVSPost2010PropOp40
 70
     0
102
RTVSPost2010Prop41ColorIndex
 90
       18
102
RTVSPost2010Prop41ColorRGB
 90
        0
102
RTVSPost2010PropOp41
 70
     0
102
RTVSPost2010Prop42
 90
       50
102
RTVSPost2010PropOp42
 70
     0
102
RTVSPost2010Prop43
 90
        3
102
RTVSPost2010PropOp43
 70
     0
102
RTVSPost2010Prop44ColorIndex
 90
        5
102
RTVSPost2010Prop44ColorRGB
 90
      255
102
RTVSPost2010PropOp44
 70
     0
102
RTVSPost2010Prop45
280
     0
102
RTVSPost2010PropOp45
 70
     0
102
RTVSPost2010Prop46
 90
       50
102
RTVSPost2010PropOp46
 70
     0
102
RTVSPost2010Prop47
 90
       50
102
RTVSPost2010PropOp47
 70
     0
102
RTVSPost2010Prop48
 90
       50
102
RTVSPost2010PropOp48
 70
     0
102
RTVSPost2010Prop49
280
     0
102
RTVSPost2010PropOp49
 70
     0
102
RTVSPost2010Prop50
 90
       50
102
RTVSPost2010PropOp50
 70
     0
102
RTVSPost2010Prop51ColorIndex
 90
      256
102
RTVSPost2010Prop51ColorRGB
 90
-16777216
102
RTVSPost2010PropOp51
 70
     0
102
RTVSPost2010Prop52
140
1.0
102
RTVSPost2010PropOp52
 70
     0
102
RTVSPost2010Prop53
 90
        2
102
RTVSPost2010PropOp53
 70
     0
102
RTVSPost2010Prop54
  1
strokes_ogs.tif
102
RTVSPost2010PropOp54
 70
     0
102
RTVSPost2010Prop55
280
     0
102
RTVSPost2010PropOp55
 70
     0
102
RTVSPost2010Prop56
140
1.0
102
RTVSPost2010PropOp56
 70
     0
102
RTVSPost2010Prop57
140
1.0
102
RTVSPost2010PropOp57
 70
     0
  0
XRECORD
  5
1030
102
{ACAD_REACTORS
330
102F
102
}
330
102F
100
AcDbXrecord
280
     1
102
RTVSPost2010Prop28
280
     0
102
RTVSPost2010PropOp28
 70
     1
102
RTVSPost2010Prop29
280
     1
102
RTVSPost2010PropOp29
 70
     1
102
RTVSPost2010Prop30
280
     1
102
RTVSPost2010PropOp30
 70
     1
102
RTVSPost2010Prop31
280
     0
102
RTVSPost2010PropOp31
 70
     1
102
RTVSPost2010Prop32
280
     0
102
RTVSPost2010PropOp32
 70
     1
102
RTVSPost2010Prop33
280
     0
102
RTVSPost2010PropOp33
 70
     1
102
RTVSPost2010Prop34
280
     0
102
RTVSPost2010PropOp34
 70
     1
102
RTVSPost2010Prop35
280
     0
102
RTVSPost2010PropOp35
 70
     1
102
RTVSPost2010Prop36
280
     0
102
RTVSPost2010PropOp36
 70
     1
102
RTVSPost2010Prop37
 90
       50
102
RTVSPost2010PropOp37
 70
     1
102
RTVSPost2010Prop38
140
0.0
102
RTVSPost2010PropOp38
 70
     1
102
RTVSPost2010Prop39
140
1.0
102
RTVSPost2010PropOp39
 70
     1
102
RTVSPost2010Prop40
 90
        0
102
RTVSPost2010PropOp40
 70
     1
102
RTVSPost2010Prop41ColorIndex
 90
       18
102
RTVSPost2010Prop41ColorRGB
 90
        0
102
RTVSPost2010PropOp41
 70
     1
102
RTVSPost2010Prop42
 90
       50
102
RTVSPost2010PropOp42
 70
     1
102
RTVSPost2010Prop43
 90
        3
102
RTVSPost2010PropOp43
 70
     1
102
RTVSPost2010Prop44ColorIndex
 90
        5
102
RTVSPost2010Prop44ColorRGB
 90
      255
102
RTVSPost2010PropOp44
 70
     1
102
RTVSPost2010Prop45
280
     0
102
RTVSPost2010PropOp45
 70
     1
102
RTVSPost2010Prop46
 90
       50
102
RTVSPost2010PropOp46
 70
     1
102
RTVSPost2010Prop47
 90
       50
102
RTVSPost2010PropOp47
 70
     1
102
RTVSPost2010Prop48
 90
       50
102
RTVSPost2010PropOp48
 70
     1
102
RTVSPost2010Prop49
280
     0
102
RTVSPost2010PropOp49
 70
     1
102
RTVSPost2010Prop50
 90
       50
102
RTVSPost2010PropOp50
 70
     1
102
RTVSPost2010Prop51ColorIndex
 90
      256
102
RTVSPost2010Prop51ColorRGB
 90
-16777216
102
RTVSPost2010PropOp51
 70
     0
102
RTVSPost2010Prop52
140
1.0
102
RTVSPost2010PropOp52
 70
     0
102
RTVSPost2010Prop53
 90
        2
102
RTVSPost2010PropOp53
 70
     1
102
RTVSPost2010Prop54
  1
strokes_ogs.tif
102
RTVSPost2010PropOp54
 70
     1
102
RTVSPost2010Prop55
280
     0
102
RTVSPost2010PropOp55
 70
     1
102
RTVSPost2010Prop56
140
1.0
102
RTVSPost2010PropOp56
 70
     1
102
RTVSPost2010Prop57
140
1.0
102
RTVSPost2010PropOp57
 70
     1
  0
XRECORD
  5
104A
102
{ACAD_REACTORS
330
1049
102
}
330
1049
100
AcDbXrecord
280
     1
102
RTVSPost2010Prop28
280
     0
102
RTVSPost2010PropOp28
 70
     1
102
RTVSPost2010Prop29
280
     1
102
RTVSPost2010PropOp29
 70
     1
102
RTVSPost2010Prop30
280
     1
102
RTVSPost2010PropOp30
 70
     1
102
RTVSPost2010Prop31
280
     0
102
RTVSPost2010PropOp31
 70
     1
102
RTVSPost2010Prop32
280
     0
102
RTVSPost2010PropOp32
 70
     1
102
RTVSPost2010Prop33
280
     0
102
RTVSPost2010PropOp33
 70
     1
102
RTVSPost2010Prop34
280
     0
102
RTVSPost2010PropOp34
 70
     1
102
RTVSPost2010Prop35
280
     0
102
RTVSPost2010PropOp35
 70
     1
102
RTVSPost2010Prop36
280
     0
102
RTVSPost2010PropOp36
 70
     1
102
RTVSPost2010Prop37
 90
       50
102
RTVSPost2010PropOp37
 70
     1
102
RTVSPost2010Prop38
140
0.0
102
RTVSPost2010PropOp38
 70
     1
102
RTVSPost2010Prop39
140
1.0
102
RTVSPost2010PropOp39
 70
     1
102
RTVSPost2010Prop40
 90
        0
102
RTVSPost2010PropOp40
 70
     1
102
RTVSPost2010Prop41ColorIndex
 90
       18
102
RTVSPost2010Prop41ColorRGB
 90
        0
102
RTVSPost2010PropOp41
 70
     1
102
RTVSPost2010Prop42
 90
       50
102
RTVSPost2010PropOp42
 70
     1
102
RTVSPost2010Prop43
 90
        3
102
RTVSPost2010PropOp43
 70
     1
102
RTVSPost2010Prop44ColorIndex
 90
        5
102
RTVSPost2010Prop44ColorRGB
 90
      255
102
RTVSPost2010PropOp44
 70
     1
102
RTVSPost2010Prop45
280
     0
102
RTVSPost2010PropOp45
 70
     1
102
RTVSPost2010Prop46
 90
       50
102
RTVSPost2010PropOp46
 70
     1
102
RTVSPost2010Prop47
 90
       50
102
RTVSPost2010PropOp47
 70
     1
102
RTVSPost2010Prop48
 90
       50
102
RTVSPost2010PropOp48
 70
     1
102
RTVSPost2010Prop49
280
     0
102
RTVSPost2010PropOp49
 70
     1
102
RTVSPost2010Prop50
 90
       50
102
RTVSPost2010PropOp50
 70
     1
102
RTVSPost2010Prop51ColorIndex
 90
      256
102
RTVSPost2010Prop51ColorRGB
 90
-16777216
102
RTVSPost2010PropOp51
 70
     0
102
RTVSPost2010Prop52
140
1.0
102
RTVSPost2010PropOp52
 70
     0
102
RTVSPost2010Prop53
 90
        2
102
RTVSPost2010PropOp53
 70
     1
102
RTVSPost2010Prop54
  1
strokes_ogs.tif
102
RTVSPost2010PropOp54
 70
     1
102
RTVSPost2010Prop55
280
     0
102
RTVSPost2010PropOp55
 70
     1
102
RTVSPost2010Prop56
140
1.0
102
RTVSPost2010PropOp56
 70
     1
102
RTVSPost2010Prop57
140
1.0
102
RTVSPost2010PropOp57
 70
     1
  0
XRECORD
  5
1048
102
{ACAD_REACTORS
330
1047
102
}
330
1047
100
AcDbXrecord
280
     1
102
RTVSPost2010Prop28
280
     0
102
RTVSPost2010PropOp28
 70
     1
102
RTVSPost2010Prop29
280
     1
102
RTVSPost2010PropOp29
 70
     1
102
RTVSPost2010Prop30
280
     1
102
RTVSPost2010PropOp30
 70
     1
102
RTVSPost2010Prop31
280
     0
102
RTVSPost2010PropOp31
 70
     1
102
RTVSPost2010Prop32
280
     0
102
RTVSPost2010PropOp32
 70
     1
102
RTVSPost2010Prop33
280
     0
102
RTVSPost2010PropOp33
 70
     1
102
RTVSPost2010Prop34
280
     0
102
RTVSPost2010PropOp34
 70
     1
102
RTVSPost2010Prop35
280
     0
102
RTVSPost2010PropOp35
 70
     1
102
RTVSPost2010Prop36
280
     0
102
RTVSPost2010PropOp36
 70
     1
102
RTVSPost2010Prop37
 90
       50
102
RTVSPost2010PropOp37
 70
     1
102
RTVSPost2010Prop38
140
0.0
102
RTVSPost2010PropOp38
 70
     1
102
RTVSPost2010Prop39
140
1.0
102
RTVSPost2010PropOp39
 70
     1
102
RTVSPost2010Prop40
 90
        0
102
RTVSPost2010PropOp40
 70
     1
102
RTVSPost2010Prop41ColorIndex
 90
       18
102
RTVSPost2010Prop41ColorRGB
 90
        0
102
RTVSPost2010PropOp41
 70
     1
102
RTVSPost2010Prop42
 90
       50
102
RTVSPost2010PropOp42
 70
     1
102
RTVSPost2010Prop43
 90
        3
102
RTVSPost2010PropOp43
 70
     1
102
RTVSPost2010Prop44ColorIndex
 90
        5
102
RTVSPost2010Prop44ColorRGB
 90
      255
102
RTVSPost2010PropOp44
 70
     1
102
RTVSPost2010Prop45
280
     0
102
RTVSPost2010PropOp45
 70
     1
102
RTVSPost2010Prop46
 90
       50
102
RTVSPost2010PropOp46
 70
     1
102
RTVSPost2010Prop47
 90
       50
102
RTVSPost2010PropOp47
 70
     1
102
RTVSPost2010Prop48
 90
       50
102
RTVSPost2010PropOp48
 70
     1
102
RTVSPost2010Prop49
280
     0
102
RTVSPost2010PropOp49
 70
     1
102
RTVSPost2010Prop50
 90
       50
102
RTVSPost2010PropOp50
 70
     1
102
RTVSPost2010Prop51ColorIndex
 90
      256
102
RTVSPost2010Prop51ColorRGB
 90
-16777216
102
RTVSPost2010PropOp51
 70
     0
102
RTVSPost2010Prop52
140
1.0
102
RTVSPost2010PropOp52
 70
     0
102
RTVSPost2010Prop53
 90
        2
102
RTVSPost2010PropOp53
 70
     1
102
RTVSPost2010Prop54
  1
strokes_ogs.tif
102
RTVSPost2010PropOp54
 70
     1
102
RTVSPost2010Prop55
280
     0
102
RTVSPost2010PropOp55
 70
     1
102
RTVSPost2010Prop56
140
1.0
102
RTVSPost2010PropOp56
 70
     1
102
RTVSPost2010Prop57
140
1.0
102
RTVSPost2010PropOp57
 70
     1
  0
XRECORD
  5
1042
102
{ACAD_REACTORS
330
1041
102
}
330
1041
100
AcDbXrecord
280
     1
102
RTVSPost2010Prop28
280
     0
102
RTVSPost2010PropOp28
 70
     1
102
RTVSPost2010Prop29
280
     1
102
RTVSPost2010PropOp29
 70
     1
102
RTVSPost2010Prop30
280
     1
102
RTVSPost2010PropOp30
 70
     1
102
RTVSPost2010Prop31
280
     0
102
RTVSPost2010PropOp31
 70
     1
102
RTVSPost2010Prop32
280
     0
102
RTVSPost2010PropOp32
 70
     1
102
RTVSPost2010Prop33
280
     0
102
RTVSPost2010PropOp33
 70
     1
102
RTVSPost2010Prop34
280
     0
102
RTVSPost2010PropOp34
 70
     1
102
RTVSPost2010Prop35
280
     0
102
RTVSPost2010PropOp35
 70
     1
102
RTVSPost2010Prop36
280
     0
102
RTVSPost2010PropOp36
 70
     1
102
RTVSPost2010Prop37
 90
       50
102
RTVSPost2010PropOp37
 70
     1
102
RTVSPost2010Prop38
140
0.0
102
RTVSPost2010PropOp38
 70
     1
102
RTVSPost2010Prop39
140
1.0
102
RTVSPost2010PropOp39
 70
     1
102
RTVSPost2010Prop40
 90
        0
102
RTVSPost2010PropOp40
 70
     1
102
RTVSPost2010Prop41ColorIndex
 90
       18
102
RTVSPost2010Prop41ColorRGB
 90
        0
102
RTVSPost2010PropOp41
 70
     1
102
RTVSPost2010Prop42
 90
       50
102
RTVSPost2010PropOp42
 70
     1
102
RTVSPost2010Prop43
 90
        3
102
RTVSPost2010PropOp43
 70
     1
102
RTVSPost2010Prop44ColorIndex
 90
        5
102
RTVSPost2010Prop44ColorRGB
 90
      255
102
RTVSPost2010PropOp44
 70
     1
102
RTVSPost2010Prop45
280
     0
102
RTVSPost2010PropOp45
 70
     1
102
RTVSPost2010Prop46
 90
       50
102
RTVSPost2010PropOp46
 70
     1
102
RTVSPost2010Prop47
 90
       50
102
RTVSPost2010PropOp47
 70
     1
102
RTVSPost2010Prop48
 90
       50
102
RTVSPost2010PropOp48
 70
     1
102
RTVSPost2010Prop49
280
     0
102
RTVSPost2010PropOp49
 70
     1
102
RTVSPost2010Prop50
 90
       50
102
RTVSPost2010PropOp50
 70
     1
102
RTVSPost2010Prop51ColorIndex
 90
      256
102
RTVSPost2010Prop51ColorRGB
 90
-16777216
102
RTVSPost2010PropOp51
 70
     0
102
RTVSPost2010Prop52
140
1.0
102
RTVSPost2010PropOp52
 70
     0
102
RTVSPost2010Prop53
 90
        2
102
RTVSPost2010PropOp53
 70
     1
102
RTVSPost2010Prop54
  1
strokes_ogs.tif
102
RTVSPost2010PropOp54
 70
     1
102
RTVSPost2010Prop55
280
     0
102
RTVSPost2010PropOp55
 70
     1
102
RTVSPost2010Prop56
140
1.0
102
RTVSPost2010PropOp56
 70
     1
102
RTVSPost2010Prop57
140
1.0
102
RTVSPost2010PropOp57
 70
     1
  0
XRECORD
  5
1044
102
{ACAD_REACTORS
330
1043
102
}
330
1043
100
AcDbXrecord
280
     1
102
RTVSPost2010Prop28
280
     0
102
RTVSPost2010PropOp28
 70
     1
102
RTVSPost2010Prop29
280
     1
102
RTVSPost2010PropOp29
 70
     1
102
RTVSPost2010Prop30
280
     1
102
RTVSPost2010PropOp30
 70
     1
102
RTVSPost2010Prop31
280
     0
102
RTVSPost2010PropOp31
 70
     1
102
RTVSPost2010Prop32
280
     0
102
RTVSPost2010PropOp32
 70
     1
102
RTVSPost2010Prop33
280
     0
102
RTVSPost2010PropOp33
 70
     1
102
RTVSPost2010Prop34
280
     0
102
RTVSPost2010PropOp34
 70
     1
102
RTVSPost2010Prop35
280
     0
102
RTVSPost2010PropOp35
 70
     1
102
RTVSPost2010Prop36
280
     0
102
RTVSPost2010PropOp36
 70
     1
102
RTVSPost2010Prop37
 90
       50
102
RTVSPost2010PropOp37
 70
     1
102
RTVSPost2010Prop38
140
0.0
102
RTVSPost2010PropOp38
 70
     1
102
RTVSPost2010Prop39
140
1.0
102
RTVSPost2010PropOp39
 70
     1
102
RTVSPost2010Prop40
 90
        0
102
RTVSPost2010PropOp40
 70
     1
102
RTVSPost2010Prop41ColorIndex
 90
       18
102
RTVSPost2010Prop41ColorRGB
 90
        0
102
RTVSPost2010PropOp41
 70
     1
102
RTVSPost2010Prop42
 90
       50
102
RTVSPost2010PropOp42
 70
     1
102
RTVSPost2010Prop43
 90
        3
102
RTVSPost2010PropOp43
 70
     1
102
RTVSPost2010Prop44ColorIndex
 90
        5
102
RTVSPost2010Prop44ColorRGB
 90
      255
102
RTVSPost2010PropOp44
 70
     1
102
RTVSPost2010Prop45
280
     0
102
RTVSPost2010PropOp45
 70
     1
102
RTVSPost2010Prop46
 90
       50
102
RTVSPost2010PropOp46
 70
     1
102
RTVSPost2010Prop47
 90
       50
102
RTVSPost2010PropOp47
 70
     1
102
RTVSPost2010Prop48
 90
       50
102
RTVSPost2010PropOp48
 70
     1
102
RTVSPost2010Prop49
280
     0
102
RTVSPost2010PropOp49
 70
     1
102
RTVSPost2010Prop50
 90
       50
102
RTVSPost2010PropOp50
 70
     1
102
RTVSPost2010Prop51ColorIndex
 90
      256
102
RTVSPost2010Prop51ColorRGB
 90
-16777216
102
RTVSPost2010PropOp51
 70
     0
102
RTVSPost2010Prop52
140
1.0
102
RTVSPost2010PropOp52
 70
     0
102
RTVSPost2010Prop53
 90
        2
102
RTVSPost2010PropOp53
 70
     1
102
RTVSPost2010Prop54
  1
strokes_ogs.tif
102
RTVSPost2010PropOp54
 70
     1
102
RTVSPost2010Prop55
280
     0
102
RTVSPost2010PropOp55
 70
     1
102
RTVSPost2010Prop56
140
1.0
102
RTVSPost2010PropOp56
 70
     1
102
RTVSPost2010Prop57
140
1.0
102
RTVSPost2010PropOp57
 70
     1
  0
XRECORD
  5
1036
102
{ACAD_REACTORS
330
1035
102
}
330
1035
100
AcDbXrecord
280
     1
102
RTVSPost2010Prop28
280
     0
102
RTVSPost2010PropOp28
 70
     1
102
RTVSPost2010Prop29
280
     1
102
RTVSPost2010PropOp29
 70
     1
102
RTVSPost2010Prop30
280
     1
102
RTVSPost2010PropOp30
 70
     1
102
RTVSPost2010Prop31
280
     0
102
RTVSPost2010PropOp31
 70
     1
102
RTVSPost2010Prop32
280
     0
102
RTVSPost2010PropOp32
 70
     1
102
RTVSPost2010Prop33
280
     0
102
RTVSPost2010PropOp33
 70
     1
102
RTVSPost2010Prop34
280
     0
102
RTVSPost2010PropOp34
 70
     1
102
RTVSPost2010Prop35
280
     0
102
RTVSPost2010PropOp35
 70
     1
102
RTVSPost2010Prop36
280
     0
102
RTVSPost2010PropOp36
 70
     1
102
RTVSPost2010Prop37
 90
       50
102
RTVSPost2010PropOp37
 70
     1
102
RTVSPost2010Prop38
140
0.0
102
RTVSPost2010PropOp38
 70
     1
102
RTVSPost2010Prop39
140
1.0
102
RTVSPost2010PropOp39
 70
     1
102
RTVSPost2010Prop40
 90
        0
102
RTVSPost2010PropOp40
 70
     1
102
RTVSPost2010Prop41ColorIndex
 90
       18
102
RTVSPost2010Prop41ColorRGB
 90
        0
102
RTVSPost2010PropOp41
 70
     1
102
RTVSPost2010Prop42
 90
       50
102
RTVSPost2010PropOp42
 70
     1
102
RTVSPost2010Prop43
 90
        3
102
RTVSPost2010PropOp43
 70
     1
102
RTVSPost2010Prop44ColorIndex
 90
        5
102
RTVSPost2010Prop44ColorRGB
 90
      255
102
RTVSPost2010PropOp44
 70
     1
102
RTVSPost2010Prop45
280
     0
102
RTVSPost2010PropOp45
 70
     1
102
RTVSPost2010Prop46
 90
       50
102
RTVSPost2010PropOp46
 70
     1
102
RTVSPost2010Prop47
 90
       50
102
RTVSPost2010PropOp47
 70
     1
102
RTVSPost2010Prop48
 90
       50
102
RTVSPost2010PropOp48
 70
     1
102
RTVSPost2010Prop49
280
     0
102
RTVSPost2010PropOp49
 70
     1
102
RTVSPost2010Prop50
 90
       50
102
RTVSPost2010PropOp50
 70
     1
102
RTVSPost2010Prop51ColorIndex
 90
      256
102
RTVSPost2010Prop51ColorRGB
 90
-16777216
102
RTVSPost2010PropOp51
 70
     0
102
RTVSPost2010Prop52
140
1.0
102
RTVSPost2010PropOp52
 70
     0
102
RTVSPost2010Prop53
 90
        2
102
RTVSPost2010PropOp53
 70
     1
102
RTVSPost2010Prop54
  1
strokes_ogs.tif
102
RTVSPost2010PropOp54
 70
     1
102
RTVSPost2010Prop55
280
     0
102
RTVSPost2010PropOp55
 70
     1
102
RTVSPost2010Prop56
140
1.0
102
RTVSPost2010PropOp56
 70
     1
102
RTVSPost2010Prop57
140
1.0
102
RTVSPost2010PropOp57
 70
     1
  0
XRECORD
  5
103E
102
{ACAD_REACTORS
330
103D
102
}
330
103D
100
AcDbXrecord
280
     1
102
RTVSPost2010Prop28
280
     0
102
RTVSPost2010PropOp28
 70
     1
102
RTVSPost2010Prop29
280
     1
102
RTVSPost2010PropOp29
 70
     1
102
RTVSPost2010Prop30
280
     1
102
RTVSPost2010PropOp30
 70
     1
102
RTVSPost2010Prop31
280
     0
102
RTVSPost2010PropOp31
 70
     1
102
RTVSPost2010Prop32
280
     0
102
RTVSPost2010PropOp32
 70
     1
102
RTVSPost2010Prop33
280
     0
102
RTVSPost2010PropOp33
 70
     1
102
RTVSPost2010Prop34
280
     0
102
RTVSPost2010PropOp34
 70
     1
102
RTVSPost2010Prop35
280
     0
102
RTVSPost2010PropOp35
 70
     1
102
RTVSPost2010Prop36
280
     0
102
RTVSPost2010PropOp36
 70
     1
102
RTVSPost2010Prop37
 90
       50
102
RTVSPost2010PropOp37
 70
     1
102
RTVSPost2010Prop38
140
0.0
102
RTVSPost2010PropOp38
 70
     1
102
RTVSPost2010Prop39
140
1.0
102
RTVSPost2010PropOp39
 70
     1
102
RTVSPost2010Prop40
 90
        0
102
RTVSPost2010PropOp40
 70
     1
102
RTVSPost2010Prop41ColorIndex
 90
       18
102
RTVSPost2010Prop41ColorRGB
 90
        0
102
RTVSPost2010PropOp41
 70
     1
102
RTVSPost2010Prop42
 90
       50
102
RTVSPost2010PropOp42
 70
     1
102
RTVSPost2010Prop43
 90
        3
102
RTVSPost2010PropOp43
 70
     1
102
RTVSPost2010Prop44ColorIndex
 90
        5
102
RTVSPost2010Prop44ColorRGB
 90
      255
102
RTVSPost2010PropOp44
 70
     1
102
RTVSPost2010Prop45
280
     0
102
RTVSPost2010PropOp45
 70
     1
102
RTVSPost2010Prop46
 90
       50
102
RTVSPost2010PropOp46
 70
     1
102
RTVSPost2010Prop47
 90
       50
102
RTVSPost2010PropOp47
 70
     1
102
RTVSPost2010Prop48
 90
       50
102
RTVSPost2010PropOp48
 70
     1
102
RTVSPost2010Prop49
280
     0
102
RTVSPost2010PropOp49
 70
     1
102
RTVSPost2010Prop50
 90
       50
102
RTVSPost2010PropOp50
 70
     1
102
RTVSPost2010Prop51ColorIndex
 90
      256
102
RTVSPost2010Prop51ColorRGB
 90
-16777216
102
RTVSPost2010PropOp51
 70
     0
102
RTVSPost2010Prop52
140
1.0
102
RTVSPost2010PropOp52
 70
     0
102
RTVSPost2010Prop53
 90
        2
102
RTVSPost2010PropOp53
 70
     1
102
RTVSPost2010Prop54
  1
strokes_ogs.tif
102
RTVSPost2010PropOp54
 70
     1
102
RTVSPost2010Prop55
280
     0
102
RTVSPost2010PropOp55
 70
     1
102
RTVSPost2010Prop56
140
1.0
102
RTVSPost2010PropOp56
 70
     1
102
RTVSPost2010Prop57
140
1.0
102
RTVSPost2010PropOp57
 70
     1
  0
XRECORD
  5
1046
102
{ACAD_REACTORS
330
1045
102
}
330
1045
100
AcDbXrecord
280
     1
102
RTVSPost2010Prop28
280
     0
102
RTVSPost2010PropOp28
 70
     1
102
RTVSPost2010Prop29
280
     1
102
RTVSPost2010PropOp29
 70
     1
102
RTVSPost2010Prop30
280
     1
102
RTVSPost2010PropOp30
 70
     1
102
RTVSPost2010Prop31
280
     0
102
RTVSPost2010PropOp31
 70
     1
102
RTVSPost2010Prop32
280
     0
102
RTVSPost2010PropOp32
 70
     1
102
RTVSPost2010Prop33
280
     0
102
RTVSPost2010PropOp33
 70
     1
102
RTVSPost2010Prop34
280
     0
102
RTVSPost2010PropOp34
 70
     1
102
RTVSPost2010Prop35
280
     0
102
RTVSPost2010PropOp35
 70
     1
102
RTVSPost2010Prop36
280
     0
102
RTVSPost2010PropOp36
 70
     1
102
RTVSPost2010Prop37
 90
       50
102
RTVSPost2010PropOp37
 70
     1
102
RTVSPost2010Prop38
140
0.0
102
RTVSPost2010PropOp38
 70
     1
102
RTVSPost2010Prop39
140
1.0
102
RTVSPost2010PropOp39
 70
     1
102
RTVSPost2010Prop40
 90
        0
102
RTVSPost2010PropOp40
 70
     1
102
RTVSPost2010Prop41ColorIndex
 90
       18
102
RTVSPost2010Prop41ColorRGB
 90
        0
102
RTVSPost2010PropOp41
 70
     1
102
RTVSPost2010Prop42
 90
       50
102
RTVSPost2010PropOp42
 70
     1
102
RTVSPost2010Prop43
 90
        3
102
RTVSPost2010PropOp43
 70
     1
102
RTVSPost2010Prop44ColorIndex
 90
        5
102
RTVSPost2010Prop44ColorRGB
 90
      255
102
RTVSPost2010PropOp44
 70
     1
102
RTVSPost2010Prop45
280
     0
102
RTVSPost2010PropOp45
 70
     1
102
RTVSPost2010Prop46
 90
       50
102
RTVSPost2010PropOp46
 70
     1
102
RTVSPost2010Prop47
 90
       50
102
RTVSPost2010PropOp47
 70
     1
102
RTVSPost2010Prop48
 90
       50
102
RTVSPost2010PropOp48
 70
     1
102
RTVSPost2010Prop49
280
     0
102
RTVSPost2010PropOp49
 70
     1
102
RTVSPost2010Prop50
 90
       50
102
RTVSPost2010PropOp50
 70
     1
102
RTVSPost2010Prop51ColorIndex
 90
      256
102
RTVSPost2010Prop51ColorRGB
 90
-16777216
102
RTVSPost2010PropOp51
 70
     0
102
RTVSPost2010Prop52
140
1.0
102
RTVSPost2010PropOp52
 70
     0
102
RTVSPost2010Prop53
 90
        2
102
RTVSPost2010PropOp53
 70
     1
102
RTVSPost2010Prop54
  1
strokes_ogs.tif
102
RTVSPost2010PropOp54
 70
     1
102
RTVSPost2010Prop55
280
     0
102
RTVSPost2010PropOp55
 70
     1
102
RTVSPost2010Prop56
140
1.0
102
RTVSPost2010PropOp56
 70
     1
102
RTVSPost2010Prop57
140
1.0
102
RTVSPost2010PropOp57
 70
     1
  0
ENDSEC
  0
EOF
