  0
SECTION
  2
HEADER
  9
$ACADVER
  1
AC1024
  9
$ACADMAINTVER
 70
   226
  9
$DWGCODEPAGE
  3
ANSI_932
  9
$LASTSAVEDBY
  1
t-kanatani
  9
$INSBASE
 10
0.0
 20
0.0
 30
0.0
  9
$EXTMIN
 10
-354.1666666666666
 20
-102.8540287009036
 30
0.0
  9
$EXTMAX
 10
400.0000516156721
 20
709.1666666666667
 30
0.0
  9
$LIMMIN
 10
-584.0
 20
0.0
  9
$LIMMAX
 10
0.0
 20
588.9623999834062
  9
$ORTHOMODE
 70
     1
  9
$REGENMODE
 70
     1
  9
$FILLMODE
 70
     1
  9
$QTEXTMODE
 70
     0
  9
$MIRRTEXT
 70
     1
  9
$LTSCALE
 40
1.0
  9
$ATTMODE
 70
     1
  9
$TEXTSIZE
 40
2.5
  9
$TRACEWID
 40
1.0
  9
$TEXTSTYLE
  7
STANDARD
  9
$CLAYER
  8
0
  9
$CELTYPE
  6
ByLayer
  9
$CECOLOR
 62
   256
  9
$CELTSCALE
 40
1.0
  9
$DISPSILH
 70
     0
  9
$DIMSCALE
 40
1.0
  9
$DIMASZ
 40
3.0
  9
$DIMEXO
 40
0.0625
  9
$DIMDLI
 40
0.38
  9
$DIMRND
 40
0.0
  9
$DIMDLE
 40
0.0
  9
$DIMEXE
 40
0.18
  9
$DIMTP
 40
0.0
  9
$DIMTM
 40
0.0
  9
$DIMTXT
 40
3.0
  9
$DIMCEN
 40
0.0
  9
$DIMTSZ
 40
0.0
  9
$DIMTOL
 70
     0
  9
$DIMLIM
 70
     0
  9
$DIMTIH
 70
     1
  9
$DIMTOH
 70
     1
  9
$DIMSE1
 70
     0
  9
$DIMSE2
 70
     0
  9
$DIMTAD
 70
     0
  9
$DIMZIN
 70
     0
  9
$DIMBLK
  1

  9
$DIMASO
 70
     1
  9
$DIMSHO
 70
     1
  9
$DIMPOST
  1

  9
$DIMAPOST
  1

  9
$DIMALT
 70
     0
  9
$DIMALTD
 70
     2
  9
$DIMALTF
 40
25.4
  9
$DIMLFAC
 40
1.0
  9
$DIMTOFL
 70
     0
  9
$DIMTVP
 40
0.0
  9
$DIMTIX
 70
     0
  9
$DIMSOXD
 70
     0
  9
$DIMSAH
 70
     0
  9
$DIMBLK1
  1

  9
$DIMBLK2
  1

  9
$DIMSTYLE
  2
STANDARD
  9
$DIMCLRD
 70
     0
  9
$DIMCLRE
 70
     0
  9
$DIMCLRT
 70
     0
  9
$DIMTFAC
 40
1.0
  9
$DIMGAP
 40
1.0
  9
$DIMJUST
 70
     0
  9
$DIMSD1
 70
     0
  9
$DIMSD2
 70
     0
  9
$DIMTOLJ
 70
     1
  9
$DIMTZIN
 70
     8
  9
$DIMALTZ
 70
     8
  9
$DIMALTTZ
 70
     8
  9
$DIMUPT
 70
     0
  9
$DIMDEC
 70
     8
  9
$DIMTDEC
 70
     8
  9
$DIMALTU
 70
     2
  9
$DIMALTTD
 70
     2
  9
$DIMTXSTY
  7
STANDARD
  9
$DIMAUNIT
 70
     0
  9
$DIMADEC
 70
     0
  9
$DIMALTRND
 40
0.0
  9
$DIMAZIN
 70
     0
  9
$DIMDSEP
 70
    46
  9
$DIMATFIT
 70
     3
  9
$DIMFRAC
 70
     0
  9
$DIMLDRBLK
  1

  9
$DIMLUNIT
 70
     2
  9
$DIMLWD
 70
    -2
  9
$DIMLWE
 70
    -2
  9
$DIMTMOVE
 70
     2
  9
$DIMFXL
 40
1.0
  9
$DIMFXLON
 70
     0
  9
$DIMJOGANG
 40
0.7853981633974483
  9
$DIMTFILL
 70
     0
  9
$DIMTFILLCLR
 70
     0
  9
$DIMARCSYM
 70
     1
  9
$DIMLTYPE
  6
ByBlock
  9
$DIMLTEX1
  6
ByBlock
  9
$DIMLTEX2
  6
ByBlock
  9
$DIMTXTDIRECTION
 70
     0
  9
$LUNITS
 70
     2
  9
$LUPREC
 70
     8
  9
$SKETCHINC
 40
1.0
  9
$FILLETRAD
 40
0.0
  9
$AUNITS
 70
     0
  9
$AUPREC
 70
     0
  9
$MENU
  1
.
  9
$ELEVATION
 40
0.0
  9
$PELEVATION
 40
0.0
  9
$THICKNESS
 40
0.0
  9
$LIMCHECK
 70
     0
  9
$CHAMFERA
 40
0.0
  9
$CHAMFERB
 40
0.0
  9
$CHAMFERC
 40
0.0
  9
$CHAMFERD
 40
0.0
  9
$SKPOLY
 70
     0
  9
$TDCREATE
 40
2456136.563750000
  9
$TDUCREATE
 40
2456136.188759606
  9
$TDUPDATE
 40
2458905.475995370
  9
$TDUUPDATE
 40
2458905.100995370
  9
$TDINDWG
 40
0.0556393519
  9
$TDUSRTIMER
 40
0.0556392593
  9
$USRTIMER
 70
     1
  9
$ANGBASE
 50
0.0
  9
$ANGDIR
 70
     0
  9
$PDMODE
 70
     0
  9
$PDSIZE
 40
0.0
  9
$PLINEWID
 40
0.0
  9
$SPLFRAME
 70
     0
  9
$SPLINETYPE
 70
     6
  9
$SPLINESEGS
 70
     8
  9
$HANDSEED
  5
23F3
  9
$SURFTAB1
 70
     6
  9
$SURFTAB2
 70
     6
  9
$SURFTYPE
 70
     6
  9
$SURFU
 70
     6
  9
$SURFV
 70
     6
  9
$UCSBASE
  2

  9
$UCSNAME
  2

  9
$UCSORG
 10
0.0
 20
0.0
 30
0.0
  9
$UCSXDIR
 10
1.0
 20
0.0
 30
0.0
  9
$UCSYDIR
 10
0.0
 20
1.0
 30
0.0
  9
$UCSORTHOREF
  2

  9
$UCSORTHOVIEW
 70
     0
  9
$UCSORGTOP
 10
0.0
 20
0.0
 30
0.0
  9
$UCSORGBOTTOM
 10
0.0
 20
0.0
 30
0.0
  9
$UCSORGLEFT
 10
0.0
 20
0.0
 30
0.0
  9
$UCSORGRIGHT
 10
0.0
 20
0.0
 30
0.0
  9
$UCSORGFRONT
 10
0.0
 20
0.0
 30
0.0
  9
$UCSORGBACK
 10
0.0
 20
0.0
 30
0.0
  9
$PUCSBASE
  2

  9
$PUCSNAME
  2

  9
$PUCSORG
 10
0.0
 20
0.0
 30
0.0
  9
$PUCSXDIR
 10
1.0
 20
0.0
 30
0.0
  9
$PUCSYDIR
 10
0.0
 20
1.0
 30
0.0
  9
$PUCSORTHOREF
  2

  9
$PUCSORTHOVIEW
 70
     0
  9
$PUCSORGTOP
 10
0.0
 20
0.0
 30
0.0
  9
$PUCSORGBOTTOM
 10
0.0
 20
0.0
 30
0.0
  9
$PUCSORGLEFT
 10
0.0
 20
0.0
 30
0.0
  9
$PUCSORGRIGHT
 10
0.0
 20
0.0
 30
0.0
  9
$PUCSORGFRONT
 10
0.0
 20
0.0
 30
0.0
  9
$PUCSORGBACK
 10
0.0
 20
0.0
 30
0.0
  9
$USERI1
 70
     0
  9
$USERI2
 70
     0
  9
$USERI3
 70
     0
  9
$USERI4
 70
     0
  9
$USERI5
 70
     0
  9
$USERR1
 40
0.0
  9
$USERR2
 40
0.0
  9
$USERR3
 40
0.0
  9
$USERR4
 40
0.0
  9
$USERR5
 40
0.0
  9
$WORLDVIEW
 70
     1
  9
$SHADEDGE
 70
     3
  9
$SHADEDIF
 70
    70
  9
$TILEMODE
 70
     1
  9
$MAXACTVP
 70
    64
  9
$PINSBASE
 10
0.0
 20
0.0
 30
0.0
  9
$PLIMCHECK
 70
     0
  9
$PEXTMIN
 10
1.000000000000000E+20
 20
1.000000000000000E+20
 30
1.000000000000000E+20
  9
$PEXTMAX
 10
-1.000000000000000E+20
 20
-1.000000000000000E+20
 30
-1.000000000000000E+20
  9
$PLIMMIN
 10
-584.0
 20
0.0
  9
$PLIMMAX
 10
0.0
 20
588.9623999834062
  9
$UNITMODE
 70
     0
  9
$VISRETAIN
 70
     1
  9
$PLINEGEN
 70
     0
  9
$PSLTSCALE
 70
     1
  9
$TREEDEPTH
 70
  3020
  9
$CMLSTYLE
  2
Standard
  9
$CMLJUST
 70
     0
  9
$CMLSCALE
 40
1.0
  9
$PROXYGRAPHICS
 70
     1
  9
$MEASUREMENT
 70
     0
  9
$CELWEIGHT
370
    -1
  9
$ENDCAPS
280
     0
  9
$JOINSTYLE
280
     0
  9
$LWDISPLAY
290
     0
  9
$INSUNITS
 70
     0
  9
$HYPERLINKBASE
  1

  9
$STYLESHEET
  1

  9
$XEDIT
290
     1
  9
$CEPSNTYPE
380
     0
  9
$PSTYLEMODE
290
     1
  9
$FINGERPRINTGUID
  2
{F1AE29D1-B18A-408E-B2F4-8A08E115ADC0}
  9
$VERSIONGUID
  2
{A6433411-3F14-1646-93C0-7A1D93980BFC}
  9
$EXTNAMES
290
     1
  9
$PSVPSCALE
 40
0.0
  9
$OLESTARTUP
290
     0
  9
$SORTENTS
280
   127
  9
$INDEXCTL
280
     0
  9
$HIDETEXT
280
     0
  9
$XCLIPFRAME
280
     2
  9
$HALOGAP
280
     0
  9
$OBSCOLOR
 70
   257
  9
$OBSLTYPE
280
     0
  9
$INTERSECTIONDISPLAY
280
     0
  9
$INTERSECTIONCOLOR
 70
   257
  9
$DIMASSOC
280
     1
  9
$PROJECTNAME
  1

  9
$CAMERADISPLAY
290
     0
  9
$LENSLENGTH
 40
50.0
  9
$CAMERAHEIGHT
 40
0.0
  9
$STEPSPERSEC
 40
2.0
  9
$STEPSIZE
 40
6.0
  9
$3DDWFPREC
 40
2.0
  9
$PSOLWIDTH
 40
0.25
  9
$PSOLHEIGHT
 40
4.0
  9
$LOFTANG1
 40
1.570796326794896
  9
$LOFTANG2
 40
1.570796326794896
  9
$LOFTMAG1
 40
0.0
  9
$LOFTMAG2
 40
0.0
  9
$LOFTPARAM
 70
     7
  9
$LOFTNORMALS
280
     1
  9
$LATITUDE
 40
37.795
  9
$LONGITUDE
 40
-122.394
  9
$NORTHDIRECTION
 40
0.0
  9
$TIMEZONE
 70
 -8000
  9
$LIGHTGLYPHDISPLAY
280
     1
  9
$TILEMODELIGHTSYNCH
280
     1
  9
$CMATERIAL
347
1002
  9
$SOLIDHIST
280
     1
  9
$SHOWHIST
280
     1
  9
$DWFFRAME
280
     2
  9
$DGNFRAME
280
     0
  9
$REALWORLDSCALE
290
     1
  9
$INTERFERECOLOR
 62
     1
  9
$INTERFEREOBJVS
345
1024
  9
$INTERFEREVPVS
346
1021
  9
$CSHADOW
280
     0
  9
$SHADOWPLANELOCATION
 40
0.0
  0
ENDSEC
  0
SECTION
  2
CLASSES
  0
CLASS
  1
ACDBDICTIONARYWDFLT
  2
AcDbDictionaryWithDefault
  3
ObjectDBX Classes
 90
        0
 91
        1
280
     0
281
     0
  0
CLASS
  1
MATERIAL
  2
AcDbMaterial
  3
ObjectDBX Classes
 90
     1153
 91
        3
280
     0
281
     0
  0
CLASS
  1
VISUALSTYLE
  2
AcDbVisualStyle
  3
ObjectDBX Classes
 90
     4095
 91
       26
280
     0
281
     0
  0
CLASS
  1
SCALE
  2
AcDbScale
  3
ObjectDBX Classes
 90
     1153
 91
       17
280
     0
281
     0
  0
CLASS
  1
TABLESTYLE
  2
AcDbTableStyle
  3
ObjectDBX Classes
 90
     4095
 91
        1
280
     0
281
     0
  0
CLASS
  1
MLEADERSTYLE
  2
AcDbMLeaderStyle
  3
ACDB_MLEADERSTYLE_CLASS
 90
     4095
 91
        1
280
     0
281
     0
  0
CLASS
  1
AMGSETTINGSOBJ
  2
AmgSettingsObj
  3
"AcadM|Product Description: AutoCAD Mechanical|Company: Autodesk, Inc."
 90
     1024
 91
        0
280
     0
281
     0
  0
CLASS
  1
ACME_DOCUMENT
  2
AcMeDbDoc
  3
AcMeServices
 90
     1024
 91
        0
280
     0
281
     0
  0
CLASS
  1
ACMESCOPE
  2
AcMeScope
  3
AcMeServices
 90
     1024
 91
        0
280
     0
281
     0
  0
CLASS
  1
ACMECOMMANDHISTORY
  2
AcMeCommandHistory
  3
AcMeServices
 90
     1024
 91
        0
280
     0
281
     0
  0
CLASS
  1
ACIMSYSVARMAN
  2
AcImSysVarManager
  3
AcMeServices
 90
     1024
 91
        0
280
     0
281
     0
  0
CLASS
  1
ACIMINTSYSVAR
  2
AcImIntSysVar
  3
AcMeServices
 90
     1024
 91
        0
280
     0
281
     0
  0
CLASS
  1
ACMESTATEMGR
  2
AcMeStateMgr
  3
AcMeServices
 90
     1024
 91
        0
280
     0
281
     0
  0
CLASS
  1
ACDBENTITYCACHE
  2
AcMeEntityCache
  3
AcMeServices
 90
     1024
 91
        0
280
     0
281
     0
  0
CLASS
  1
ACGREFMASTER
  2
AcGrefMaster
  3
AcAttribServices
 90
     1024
 91
        0
280
     0
281
     0
  0
CLASS
  1
ACME_DATABASE
  2
AcMeDbDatabase
  3
AcMeServices
 90
     1024
 91
        0
280
     0
281
     0
  0
CLASS
  1
ACRFINSADJUSTERMGR
  2
AcRfInsAdjusterMgr
  3
AcMeServices
 90
     1024
 91
        0
280
     0
281
     0
  0
CLASS
  1
ACGREFACADMASTER
  2
AcGrefacadMaster
  3
AcGrefServices
 90
     1024
 91
        0
280
     0
281
     0
  0
CLASS
  1
AMDTMENUSTATEMGR
  2
AmdtMenuStateMgr
  3
McadcomServices
 90
     1024
 91
        0
280
     0
281
     0
  0
CLASS
  1
AMDTMCOMMENUSTATE
  2
AmdtMcomMenuState
  3
McadcomServices
 90
     1024
 91
        0
280
     0
281
     0
  0
CLASS
  1
AMIMASTER
  2
AmiMaster
  3
AmiServices
 90
     1024
 91
        0
280
     0
281
     0
  0
CLASS
  1
MAPIAMMOUDLE
  2
MApiAmModule
  3
MApiAmServices
 90
     1024
 91
        0
280
     0
281
     0
  0
CLASS
  1
ACIMSTRSYSVAR
  2
AcImStrSysVar
  3
AcMeServices
 90
     1024
 91
        0
280
     0
281
     0
  0
CLASS
  1
AMDTAMMENUSTATE
  2
AmdtAmMenuState
  3
DesignerAssemblies
 90
     1024
 91
        0
280
     0
281
     0
  0
CLASS
  1
ACAMPROJECT
  2
AcAmProject
  3
DesignerAssemblies
 90
     1024
 91
        0
280
     0
281
     0
  0
CLASS
  1
ACAMGRCOMPDEF
  2
AcAmGrCompDef
  3
DesignerAssemblies
 90
     1024
 91
        0
280
     0
281
     0
  0
CLASS
  1
ACAMCOMPDEF
  2
AcAmCompDef
  3
DesignerAssemblies
 90
     1024
 91
        0
280
     0
281
     0
  0
CLASS
  1
ACAMCOMPDEFMGR
  2
AcAmCompDefMgr
  3
DesignerAssemblies
 90
     1024
 91
        0
280
     0
281
     0
  0
CLASS
  1
AMCONTEXTMGR
  2
AcAmContextMgr
  3
DesignerAssemblies
 90
     1024
 91
        0
280
     0
281
     0
  0
CLASS
  1
ACAMCONTEXTMODELER
  2
AcAmContextModeler
  3
DesignerAssemblies
 90
     1024
 91
        0
280
     0
281
     0
  0
CLASS
  1
ACMDATADICTIONARY
  2
AcmDataDictionary
  3
"AcmSymBB|Product Description: AutoCAD Mechanical|Company: Autodesk, Inc."
 90
     1024
 91
        0
280
     0
281
     0
  0
CLASS
  1
ACAMGRCOMPDEFSET
  2
AcAmGrCompDefSet
  3
DesignerAssemblies
 90
     1024
 91
        0
280
     0
281
     0
  0
CLASS
  1
AMDTBROWSERDBTAB
  2
AmdtBrowserDbTab
  3
McadcomServices
 90
     1024
 91
        0
280
     0
281
     0
  0
CLASS
  1
CBROWSERAPPOBJECT
  2
CBrowserAppObject
  3
McadcomServices
 90
     1024
 91
        0
280
     0
281
     0
  0
CLASS
  1
DM_PLACEHOLDER
  2
AcDmSelsetPlaceholder
  3
McadcomServices
 90
     1024
 91
        0
280
     0
281
     0
  0
CLASS
  1
EXACXREFPANELOBJECT
  2
ExAcXREFPanelObject
  3
EXAC_ESW
 90
     1025
 91
        0
280
     0
281
     0
  0
CLASS
  1
NPOCOLLECTION
  2
AcDbImpNonPersistentObjectsCollection
  3
ObjectDBX Classes
 90
     1153
 91
        0
280
     0
281
     0
  0
CLASS
  1
ACMSTANDARDANSI
  2
AcmStandardANSI
  3
"Amdt_StdImp|Product Description: AutoCAD Mechanical|Company: Autodesk, Inc."
 90
     1024
 91
        0
280
     0
281
     0
  0
CLASS
  1
ACMSURFSTANDARDANSI
  2
AcmSurfTextStdANSI
  3
"Amdt_StdImp|Product Description: AutoCAD Mechanical|Company: Autodesk, Inc."
 90
     1024
 91
        0
280
     0
281
     0
  0
CLASS
  1
ACMFCFSTANDARDANSI
  2
AcmFCFStdANSI
  3
"Amdt_StdImp|Product Description: AutoCAD Mechanical|Company: Autodesk, Inc."
 90
     1024
 91
        0
280
     0
281
     0
  0
CLASS
  1
ACMWELDSTANDARDANSI
  2
AcmWeldingStdANSI
  3
"Amdt_StdImp|Product Description: AutoCAD Mechanical|Company: Autodesk, Inc."
 90
     1024
 91
        0
280
     0
281
     0
  0
CLASS
  1
ACMIDSTANDARDANSI
  2
AcmIdStdANSI
  3
"Amdt_StdImp|Product Description: AutoCAD Mechanical|Company: Autodesk, Inc."
 90
     1024
 91
        0
280
     0
281
     0
  0
CLASS
  1
ACMDATUMSTANDARDANSI
  2
AcmDatumStdANSI
  3
"Amdt_StdImp|Product Description: AutoCAD Mechanical|Company: Autodesk, Inc."
 90
     1024
 91
        0
280
     0
281
     0
  0
CLASS
  1
ACMBOMSTANDARDANSI
  2
AcmBOMStdANSI
  3
"Amdt_StdImp|Product Description: AutoCAD Mechanical|Company: Autodesk, Inc."
 90
     1024
 91
        0
280
     0
281
     0
  0
CLASS
  1
ACMDETAILSTANDARDANSI
  2
AmdtDetailSymStdANSI
  3
"Amdt_StdImp|Product Description: AutoCAD Mechanical|Company: Autodesk, Inc."
 90
     1024
 91
        0
280
     0
281
     0
  0
CLASS
  1
ACMSECTIONSTANDARDANSI
  2
AmdtSectionSymStdANSI
  3
"Amdt_StdImp|Product Description: AutoCAD Mechanical|Company: Autodesk, Inc."
 90
     1024
 91
        0
280
     0
281
     0
  0
CLASS
  1
ACMCENTERLINESTANDARDANSI
  2
AmdtCenterLineStdANSI
  3
"Amdt_StdImp|Product Description: AutoCAD Mechanical|Company: Autodesk, Inc."
 90
     1024
 91
        0
280
     0
281
     0
  0
CLASS
  1
ACMTHREADLINESTANDARDANSI
  2
AmdtThreadLineStdANSI
  3
"Amdt_StdImp|Product Description: AutoCAD Mechanical|Company: Autodesk, Inc."
 90
     1024
 91
        0
280
     0
281
     0
  0
CLASS
  1
ACMNOTESTANDARDANSI
  2
AmdtNoteStdANSI
  3
"Amdt_StdImp|Product Description: AutoCAD Mechanical|Company: Autodesk, Inc."
 90
     1024
 91
        0
280
     0
281
     0
  0
CLASS
  1
ACMTAPERSTANDARDANSI
  2
AcmTaperStdANSI
  3
"Amdt_StdImp|Product Description: AutoCAD Mechanical|Company: Autodesk, Inc."
 90
     1024
 91
        0
280
     0
281
     0
  0
CLASS
  1
ACMANOOTATIONVIEWSTANDARDANSI
  2
AmdtAnViewStdANSI
  3
"Amdt_StdImp|Product Description: AutoCAD Mechanical|Company: Autodesk, Inc."
 90
     1024
 91
        0
280
     0
281
     0
  0
CLASS
  1
ACAMGLAYSTD
  2
AcAmgLayStd
  3
"AmgLay|Product Description: AutoCAD Mechanical|Company: Autodesk, Inc."
 90
     1024
 91
        0
280
     0
281
     0
  0
CLASS
  1
ACAMGDIMSTD
  2
AcAmgDimStd
  3
"AmgDim|Product Description: AutoCAD Mechanical|Company: Autodesk, Inc."
 90
     1024
 91
        0
280
     0
281
     0
  0
CLASS
  1
AMGOBJPROPCFG
  2
AmgObjPropCfg
  3
"AmgLay|Product Description: AutoCAD Mechanical|Company: Autodesk, Inc."
 90
     1025
 91
        0
280
     0
281
     0
  0
CLASS
  1
ACAMGHOLECHARTSTDANSI
  2
AcAmgHoleChartStdANSI
  3
AmgDim|Product Description: AutoCAD Mechanical|Company: Autodesk, Inc.
 90
     1024
 91
        0
280
     0
281
     0
  0
CLASS
  1
ACAMGTITLESTD
  2
AcAmgTitleStd
  3
"AmgTitle|Product Description: AutoCAD Mechanical|Company: Autodesk, Inc."
 90
     4095
 91
        0
280
     0
281
     0
  0
CLASS
  1
AMDTNOTETEMPLATEDB
  2
AmdtNoteTemplateDB
  3
AcmSymBB|Product Description: AutoCAD Mechanical|Company: Autodesk, Inc.
 90
     1024
 91
        0
280
     0
281
     0
  0
CLASS
  1
ACAMGFILTERDAT
  2
AcAmgFilterDat
  3
"AcadM|Product Description: AutoCAD Mechanical|Company: Autodesk, Inc."
 90
     1024
 91
        0
280
     0
281
     0
  0
CLASS
  1
CELLSTYLEMAP
  2
AcDbCellStyleMap
  3
ObjectDBX Classes
 90
     1152
 91
        2
280
     0
281
     0
  0
CLASS
  1
DICTIONARYVAR
  2
AcDbDictionaryVar
  3
ObjectDBX Classes
 90
        0
 91
       14
280
     0
281
     0
  0
CLASS
  1
ACDBPLACEHOLDER
  2
AcDbPlaceHolder
  3
ObjectDBX Classes
 90
        0
 91
        1
280
     0
281
     0
  0
CLASS
  1
LAYOUT
  2
AcDbLayout
  3
ObjectDBX Classes
 90
        0
 91
        2
280
     0
281
     0
  0
CLASS
  1
SORTENTSTABLE
  2
AcDbSortentsTable
  3
ObjectDBX Classes
 90
        0
 91
        1
280
     0
281
     0
  0
CLASS
  1
ACDBSECTIONVIEWSTYLE
  2
AcDbSectionViewStyle
  3
ObjectDBX Classes
 90
     1025
 91
        2
280
     0
281
     0
  0
CLASS
  1
ACDBDETAILVIEWSTYLE
  2
AcDbDetailViewStyle
  3
ObjectDBX Classes
 90
     1025
 91
        2
280
     0
281
     0
  0
ENDSEC
  0
SECTION
  2
TABLES
  0
TABLE
  2
VPORT
  5
FF9
102
{ACAD_XDICTIONARY
360
122E
102
}
330
0
100
AcDbSymbolTable
 70
     1
  0
VPORT
  5
1060
330
FF9
100
AcDbSymbolTableRecord
100
AcDbViewportTableRecord
  2
*ACTIVE
 70
     0
 10
0.0
 20
0.0
 11
1.0
 21
1.0
 12
612.6323569936143
 22
333.4173768778591
 13
0.0
 23
0.0
 14
10.0
 24
10.0
 15
10.0
 25
10.0
 16
0.0
 26
0.0
 36
1.0
 17
0.0
 27
0.0
 37
0.0
 40
1144.794029312312
 41
2.233748271092669
 42
50.0
 43
0.0
 44
0.0
 50
0.0
 51
0.0
 71
     0
 72
   100
 73
     1
 74
     3
 75
     0
 76
     0
 77
     0
 78
     0
281
     0
 65
     1
110
0.0
120
0.0
130
0.0
111
1.0
121
0.0
131
0.0
112
0.0
122
1.0
132
0.0
 79
     0
146
0.0
348
1020
 60
     3
 61
     5
292
     1
282
     1
141
0.0
142
0.0
 63
   250
421
  3355443
1001
ACAD_NAV_VCDISPLAY
1070
     3
  0
ENDTAB
  0
TABLE
  2
LTYPE
  5
FF6
330
0
100
AcDbSymbolTable
 70
     3
  0
LTYPE
  5
104B
330
FF6
100
AcDbSymbolTableRecord
100
AcDbLinetypeTableRecord
  2
ByBlock
 70
     0
  3

 72
    65
 73
     0
 40
0.0
  0
LTYPE
  5
104C
330
FF6
100
AcDbSymbolTableRecord
100
AcDbLinetypeTableRecord
  2
ByLayer
 70
     0
  3

 72
    65
 73
     0
 40
0.0
  0
LTYPE
  5
104D
330
FF6
100
AcDbSymbolTableRecord
100
AcDbLinetypeTableRecord
  2
CONTINUOUS
 70
     0
  3
Solid line
 72
    65
 73
     0
 40
0.0
  0
LTYPE
  5
1064
330
FF6
100
AcDbSymbolTableRecord
100
AcDbLinetypeTableRecord
  2
CENTER
 70
     0
  3
__ . __
 72
    65
 73
     4
 40
7.0
 49
4.0
 74
     0
 49
-1.0
 74
     0
 49
1.0
 74
     0
 49
-1.0
 74
     0
  0
ENDTAB
  0
TABLE
  2
LAYER
  5
FF3
102
{ACAD_XDICTIONARY
360
155F
102
}
330
0
100
AcDbSymbolTable
 70
     2
  0
LAYER
  5
1045
102
{ACAD_XDICTIONARY
360
1228
102
}
330
FF3
100
AcDbSymbolTableRecord
100
AcDbLayerTableRecord
  2
0
 70
     0
 62
     7
  6
CONTINUOUS
370
    -3
390
1000
347
1012
  0
LAYER
  5
1570
330
FF3
100
AcDbSymbolTableRecord
100
AcDbLayerTableRecord
  2
Defpoints
 70
     0
 62
     7
  6
CONTINUOUS
290
     0
370
    -3
390
1000
347
1012
  0
ENDTAB
  0
TABLE
  2
STYLE
  5
FF4
330
0
100
AcDbSymbolTable
 70
     1
  0
STYLE
  5
1046
330
FF4
100
AcDbSymbolTableRecord
100
AcDbTextStyleTableRecord
  2
STANDARD
 70
     0
 40
0.0
 41
1.0
 50
0.0
 71
     0
 42
2.5
  3
txt.shx
  4

  0
ENDTAB
  0
TABLE
  2
VIEW
  5
FF7
330
0
100
AcDbSymbolTable
 70
     0
  0
ENDTAB
  0
TABLE
  2
UCS
  5
FF8
330
0
100
AcDbSymbolTable
 70
     0
  0
ENDTAB
  0
TABLE
  2
APPID
  5
FFA
330
0
100
AcDbSymbolTable
 70
    87
  0
APPID
  5
1047
330
FFA
100
AcDbSymbolTableRecord
100
AcDbRegAppTableRecord
  2
ACAD
 70
     0
  0
APPID
  5
104E
330
FFA
100
AcDbSymbolTableRecord
100
AcDbRegAppTableRecord
  2
ACADANNOTATIVE
 70
     0
  0
APPID
  5
107C
330
FFA
100
AcDbSymbolTableRecord
100
AcDbRegAppTableRecord
  2
MCAD_NO_VIS
 70
     0
  0
APPID
  5
107D
330
FFA
100
AcDbSymbolTableRecord
100
AcDbRegAppTableRecord
  2
ACAD_TEMP_GRAPHIC
 70
     0
  0
APPID
  5
107E
330
FFA
100
AcDbSymbolTableRecord
100
AcDbRegAppTableRecord
  2
ACATTRIBSERVICES
 70
     0
  0
APPID
  5
107F
330
FFA
100
AcDbSymbolTableRecord
100
AcDbRegAppTableRecord
  2
AD_DRAW
 70
     0
  0
APPID
  5
1080
330
FFA
100
AcDbSymbolTableRecord
100
AcDbRegAppTableRecord
  2
DESIGNERASSEMBLIES
 70
     0
  0
APPID
  5
1081
330
FFA
100
AcDbSymbolTableRecord
100
AcDbRegAppTableRecord
  2
ASURF_PCURVE_APPNAME
 70
     0
  0
APPID
  5
1082
330
FFA
100
AcDbSymbolTableRecord
100
AcDbRegAppTableRecord
  2
ACADM_DIM_EDIT
 70
     0
  0
APPID
  5
1083
330
FFA
100
AcDbSymbolTableRecord
100
AcDbRegAppTableRecord
  2
GENIUS_GENDIM_13
 70
     0
  0
APPID
  5
1084
330
FFA
100
AcDbSymbolTableRecord
100
AcDbRegAppTableRecord
  2
GENIUS_GENDTOL_13
 70
     0
  0
APPID
  5
1085
330
FFA
100
AcDbSymbolTableRecord
100
AcDbRegAppTableRecord
  2
GENIUS_GE3DTOL_13
 70
     0
  0
APPID
  5
1086
330
FFA
100
AcDbSymbolTableRecord
100
AcDbRegAppTableRecord
  2
AMG_3D2D_5_0
 70
     0
  0
APPID
  5
1087
330
FFA
100
AcDbSymbolTableRecord
100
AcDbRegAppTableRecord
  2
AMDT_DM_ADJ
 70
     0
  0
APPID
  5
1088
330
FFA
100
AcDbSymbolTableRecord
100
AcDbRegAppTableRecord
  2
CK_MATE-SERIES
 70
     0
  0
APPID
  5
1089
330
FFA
100
AcDbSymbolTableRecord
100
AcDbRegAppTableRecord
  2
GEVID1042077799
 70
     0
  0
APPID
  5
108A
330
FFA
100
AcDbSymbolTableRecord
100
AcDbRegAppTableRecord
  2
GEVMK
 70
     0
  0
APPID
  5
108B
330
FFA
100
AcDbSymbolTableRecord
100
AcDbRegAppTableRecord
  2
GEVDC
 70
     0
  0
APPID
  5
108C
330
FFA
100
AcDbSymbolTableRecord
100
AcDbRegAppTableRecord
  2
GENIUS_GENBH_13
 70
     0
  0
APPID
  5
108D
330
FFA
100
AcDbSymbolTableRecord
100
AcDbRegAppTableRecord
  2
GENIUS_GENOLIS_13
 70
     0
  0
APPID
  5
108E
330
FFA
100
AcDbSymbolTableRecord
100
AcDbRegAppTableRecord
  2
GENIUS_GENOENT_13
 70
     0
  0
APPID
  5
108F
330
FFA
100
AcDbSymbolTableRecord
100
AcDbRegAppTableRecord
  2
GENIUS_GENODEF_13
 70
     0
  0
APPID
  5
1090
330
FFA
100
AcDbSymbolTableRecord
100
AcDbRegAppTableRecord
  2
GENIUS_GENOBJ-NBEHI-BHF_13
 70
     0
  0
APPID
  5
1091
330
FFA
100
AcDbSymbolTableRecord
100
AcDbRegAppTableRecord
  2
GENIUS_GENOREF_13
 70
     0
  0
APPID
  5
1092
330
FFA
100
AcDbSymbolTableRecord
100
AcDbRegAppTableRecord
  2
GENIUS_GENOBJ-NBEHI-BHB_13
 70
     0
  0
APPID
  5
1093
330
FFA
100
AcDbSymbolTableRecord
100
AcDbRegAppTableRecord
  2
GEVID1042183772
 70
     0
  0
APPID
  5
1094
330
FFA
100
AcDbSymbolTableRecord
100
AcDbRegAppTableRecord
  2
GEVID1042183773
 70
     0
  0
APPID
  5
1095
330
FFA
100
AcDbSymbolTableRecord
100
AcDbRegAppTableRecord
  2
GEVID1042183774
 70
     0
  0
APPID
  5
1096
330
FFA
100
AcDbSymbolTableRecord
100
AcDbRegAppTableRecord
  2
DCO15
 70
     0
  0
APPID
  5
1097
330
FFA
100
AcDbSymbolTableRecord
100
AcDbRegAppTableRecord
  2
ACAD_DSTYLE_DIMARC_LENGTH_
 70
     0
  0
APPID
  5
1098
330
FFA
100
AcDbSymbolTableRecord
100
AcDbRegAppTableRecord
  2
ACAD_DSTYLE_DIMJOGGED_JOGA
 70
     0
  0
APPID
  5
1099
330
FFA
100
AcDbSymbolTableRecord
100
AcDbRegAppTableRecord
  2
ACAD_MLEADERVER
 70
     0
  0
APPID
  5
109A
330
FFA
100
AcDbSymbolTableRecord
100
AcDbRegAppTableRecord
  2
GENIUS_GENOBJ-N-FIL_13
 70
     0
  0
APPID
  5
109B
330
FFA
100
AcDbSymbolTableRecord
100
AcDbRegAppTableRecord
  2
ACADANNOPO
 70
     0
  0
APPID
  5
109C
330
FFA
100
AcDbSymbolTableRecord
100
AcDbRegAppTableRecord
  2
GENIUS_GENOBJ-N-TIT_13
 70
     0
  0
APPID
  5
109D
330
FFA
100
AcDbSymbolTableRecord
100
AcDbRegAppTableRecord
  2
GENIUS_GENTITLE_13
 70
     0
  0
APPID
  5
109E
330
FFA
100
AcDbSymbolTableRecord
100
AcDbRegAppTableRecord
  2
GENIUS_GENSCREG_15
 70
     0
  0
APPID
  5
109F
330
FFA
100
AcDbSymbolTableRecord
100
AcDbRegAppTableRecord
  2
GENIUS_GENOBJ-N-SDF_13
 70
     0
  0
APPID
  5
10A0
330
FFA
100
AcDbSymbolTableRecord
100
AcDbRegAppTableRecord
  2
ACAD_PSEXT
 70
     0
  0
APPID
  5
10A1
330
FFA
100
AcDbSymbolTableRecord
100
AcDbRegAppTableRecord
  2
ACAECLAYERSTANDARD
 70
     0
  0
APPID
  5
10A2
330
FFA
100
AcDbSymbolTableRecord
100
AcDbRegAppTableRecord
  2
ACAD_EXEMPT_FROM_CAD_STANDARDS
 70
     0
  0
APPID
  5
10A3
330
FFA
100
AcDbSymbolTableRecord
100
AcDbRegAppTableRecord
  2
ACAD_DSTYLE_DIMINSPECT
 70
     0
  0
APPID
  5
10A4
330
FFA
100
AcDbSymbolTableRecord
100
AcDbRegAppTableRecord
  2
GENIUS_GENDIMSH_14
 70
     0
  0
APPID
  5
10A5
330
FFA
100
AcDbSymbolTableRecord
100
AcDbRegAppTableRecord
  2
GENIUS_GENOBJ-N-CEN_13
 70
     0
  0
APPID
  5
10A6
330
FFA
100
AcDbSymbolTableRecord
100
AcDbRegAppTableRecord
  2
GENIUS_GENCEN_19
 70
     0
  0
APPID
  5
10A7
330
FFA
100
AcDbSymbolTableRecord
100
AcDbRegAppTableRecord
  2
ACAD_DSTYLE_DIMJAG
 70
     0
  0
APPID
  5
10A8
330
FFA
100
AcDbSymbolTableRecord
100
AcDbRegAppTableRecord
  2
ACAD_DSTYLE_DIMTALN
 70
     0
  0
APPID
  5
10A9
330
FFA
100
AcDbSymbolTableRecord
100
AcDbRegAppTableRecord
  2
GENIUS_GENREC_14
 70
     0
  0
APPID
  5
10AA
330
FFA
100
AcDbSymbolTableRecord
100
AcDbRegAppTableRecord
  2
GENIUS_GENOBJ-N-REC_13
 70
     0
  0
APPID
  5
10AB
330
FFA
100
AcDbSymbolTableRecord
100
AcDbRegAppTableRecord
  2
ACAD_DIMASSOC_CALC_DIMLFAC
 70
     0
  0
APPID
  5
10AC
330
FFA
100
AcDbSymbolTableRecord
100
AcDbRegAppTableRecord
  2
ACAD_DIMASSOC_DIMLFAC
 70
     0
  0
APPID
  5
10AD
330
FFA
100
AcDbSymbolTableRecord
100
AcDbRegAppTableRecord
  2
ACAD_DIMASSOC_OVERRIDDEN_D
 70
     0
  0
APPID
  5
10AE
330
FFA
100
AcDbSymbolTableRecord
100
AcDbRegAppTableRecord
  2
ACAD_DSTYLE_DIMEXT_LENGTH
 70
     0
  0
APPID
  5
10AF
330
FFA
100
AcDbSymbolTableRecord
100
AcDbRegAppTableRecord
  2
ACAD_DSTYLE_DIMEXT_ENABLED
 70
     0
  0
APPID
  5
10B0
330
FFA
100
AcDbSymbolTableRecord
100
AcDbRegAppTableRecord
  2
ACAD_DSTYLE_DIMBREAK
 70
     0
  0
APPID
  5
10B1
330
FFA
100
AcDbSymbolTableRecord
100
AcDbRegAppTableRecord
  2
ACAD_DSTYLE_DIMANGULAR_EXT
 70
     0
  0
APPID
  5
10B2
330
FFA
100
AcDbSymbolTableRecord
100
AcDbRegAppTableRecord
  2
ACCMTRANSPARENCY
 70
     0
  0
APPID
  5
10B3
330
FFA
100
AcDbSymbolTableRecord
100
AcDbRegAppTableRecord
  2
GENIUS_GENBLLY_14
 70
     0
  0
APPID
  5
10B4
330
FFA
100
AcDbSymbolTableRecord
100
AcDbRegAppTableRecord
  2
GENIUS_GENTRA_14
 70
     0
  0
APPID
  5
10B5
330
FFA
100
AcDbSymbolTableRecord
100
AcDbRegAppTableRecord
  2
GENIUS_GENOBJ-N-REV_13
 70
     0
  0
APPID
  5
10B6
330
FFA
100
AcDbSymbolTableRecord
100
AcDbRegAppTableRecord
  2
GENIUS_GENOBJ-N-RSSYM_13
 70
     0
  0
APPID
  5
10B7
330
FFA
100
AcDbSymbolTableRecord
100
AcDbRegAppTableRecord
  2
GENIUS_GENSYMENT_13
 70
     0
  0
APPID
  5
10B8
330
FFA
100
AcDbSymbolTableRecord
100
AcDbRegAppTableRecord
  2
GENIUS_GENSCSYM_13
 70
     0
  0
APPID
  5
10B9
330
FFA
100
AcDbSymbolTableRecord
100
AcDbRegAppTableRecord
  2
ACDBBLOCKREPBTAG
 70
     0
  0
APPID
  5
10BA
330
FFA
100
AcDbSymbolTableRecord
100
AcDbRegAppTableRecord
  2
ACAUTHENVIRON
 70
     0
  0
APPID
  5
10BB
330
FFA
100
AcDbSymbolTableRecord
100
AcDbRegAppTableRecord
  2
ACDBDYNAMICBLOCKTRUENAME
 70
     0
  0
APPID
  5
10BC
330
FFA
100
AcDbSymbolTableRecord
100
AcDbRegAppTableRecord
  2
ACDBDYNAMICBLOCKGUID
 70
     0
  0
APPID
  5
10BD
330
FFA
100
AcDbSymbolTableRecord
100
AcDbRegAppTableRecord
  2
ACDBBLOCKREPETAG
 70
     0
  0
APPID
  5
10BE
330
FFA
100
AcDbSymbolTableRecord
100
AcDbRegAppTableRecord
  2
GENIUS_GENOBJ-N-HTC_13
 70
     0
  0
APPID
  5
10BF
330
FFA
100
AcDbSymbolTableRecord
100
AcDbRegAppTableRecord
  2
GENIUS_GENHATCH_13
 70
     0
  0
APPID
  5
10C0
330
FFA
100
AcDbSymbolTableRecord
100
AcDbRegAppTableRecord
  2
GRADIENTCOLOR1ACI
 70
     0
  0
APPID
  5
10C1
330
FFA
100
AcDbSymbolTableRecord
100
AcDbRegAppTableRecord
  2
GRADIENTCOLOR2ACI
 70
     0
  0
APPID
  5
10C2
330
FFA
100
AcDbSymbolTableRecord
100
AcDbRegAppTableRecord
  2
GENIUS_GENFIL_13
 70
     0
  0
APPID
  5
10C3
330
FFA
100
AcDbSymbolTableRecord
100
AcDbRegAppTableRecord
  2
GENIUS_GENOBJ-N-CHA_13
 70
     0
  0
APPID
  5
10C4
330
FFA
100
AcDbSymbolTableRecord
100
AcDbRegAppTableRecord
  2
ACAD_DSTYLE_DIM_LINETYPE
 70
     0
  0
APPID
  5
10C5
330
FFA
100
AcDbSymbolTableRecord
100
AcDbRegAppTableRecord
  2
ACAD_DSTYLE_DIM_EXT1_LINETYPE
 70
     0
  0
APPID
  5
10C6
330
FFA
100
AcDbSymbolTableRecord
100
AcDbRegAppTableRecord
  2
ACAD_DSTYLE_DIM_EXT2_LINETYPE
 70
     0
  0
APPID
  5
10C7
330
FFA
100
AcDbSymbolTableRecord
100
AcDbRegAppTableRecord
  2
ACDBATTR
 70
     0
  0
APPID
  5
10C8
330
FFA
100
AcDbSymbolTableRecord
100
AcDbRegAppTableRecord
  2
ACAD_DSTYLE_DIMRADIAL_EXTENSION
 70
     0
  0
APPID
  5
10C9
330
FFA
100
AcDbSymbolTableRecord
100
AcDbRegAppTableRecord
  2
ACADANNOAV
 70
     0
  0
APPID
  5
10CA
330
FFA
100
AcDbSymbolTableRecord
100
AcDbRegAppTableRecord
  2
ACAD_DSTYLE_DIMTEXT_FILL
 70
     0
  0
APPID
  5
10CB
330
FFA
100
AcDbSymbolTableRecord
100
AcDbRegAppTableRecord
  2
ACAD_DSTYLE_DIMFLIPARROW_W
 70
     0
  0
APPID
  5
10CC
330
FFA
100
AcDbSymbolTableRecord
100
AcDbRegAppTableRecord
  2
ACADBPTGRAPHNODEID
 70
     0
  0
APPID
  5
10CD
330
FFA
100
AcDbSymbolTableRecord
100
AcDbRegAppTableRecord
  2
PE_URL
 70
     0
  0
APPID
  5
10CE
330
FFA
100
AcDbSymbolTableRecord
100
AcDbRegAppTableRecord
  2
ACAD_NAV_VCDISPLAY
 70
     0
  0
APPID
  5
10CF
330
FFA
100
AcDbSymbolTableRecord
100
AcDbRegAppTableRecord
  2
CONTENTBLOCKICON
 70
     0
  0
APPID
  5
1268
330
FFA
100
AcDbSymbolTableRecord
100
AcDbRegAppTableRecord
  2
ACAD_DSTYLE_DIMARC_LENGTH_SYMBOL
 70
     0
  0
ENDTAB
  0
TABLE
  2
DIMSTYLE
  5
FFB
330
0
100
AcDbSymbolTable
 70
     1
100
AcDbDimStyleTable
 71
     1
340
1048
  0
DIMSTYLE
105
1048
330
FFB
100
AcDbSymbolTableRecord
100
AcDbDimStyleTableRecord
  2
STANDARD
 70
     0
271
     8
272
     8
274
     3
279
     2
284
     8
285
     8
286
     8
340
1046
  0
ENDTAB
  0
TABLE
  2
BLOCK_RECORD
  5
FF2
330
0
100
AcDbSymbolTable
 70
     0
  0
BLOCK_RECORD
  5
105C
102
{ACAD_XDICTIONARY
360
12F8
102
}
330
FF2
100
AcDbSymbolTableRecord
100
AcDbBlockTableRecord
  2
*Model_Space
340
105F
 70
     0
280
     1
281
     0
  0
BLOCK_RECORD
  5
1058
330
FF2
100
AcDbSymbolTableRecord
100
AcDbBlockTableRecord
  2
*Paper_Space
340
105B
 70
     0
280
     1
281
     0
  0
ENDTAB
  0
ENDSEC
  0
SECTION
  2
BLOCKS
  0
BLOCK
  5
105D
330
105C
100
AcDbEntity
  8
0
100
AcDbBlockBegin
  2
*Model_Space
 70
     0
 10
0.0
 20
0.0
 30
0.0
  3
*Model_Space
  1

  0
ENDBLK
  5
105E
330
105C
100
AcDbEntity
  8
0
100
AcDbBlockEnd
  0
BLOCK
  5
1059
330
1058
100
AcDbEntity
 67
     1
  8
0
100
AcDbBlockBegin
  2
*Paper_Space
 70
     0
 10
0.0
 20
0.0
 30
0.0
  3
*Paper_Space
  1

  0
ENDBLK
  5
105A
330
1058
100
AcDbEntity
 67
     1
  8
0
100
AcDbBlockEnd
  0
ENDSEC
  0
SECTION
  2
ENTITIES
  0
LINE
  5
1F81
330
105C
100
AcDbEntity
  8
0
100
AcDbLine
 10
38.99996900000008
 20
412.8875128999999
 30
0.0
 11
38.99996900000008
 21
494.8581849999999
 31
0.0
  0
LINE
  5
1F82
330
105C
100
AcDbEntity
  8
0
100
AcDbLine
 10
39.91984200000003
 20
407.4689369
 30
0.0
 11
-0.0000001055978487
 21
392.0
 31
0.0
  0
LINE
  5
1F83
330
105C
100
AcDbEntity
  8
0
100
AcDbLine
 10
-39.91984200000003
 20
407.4689369
 30
0.0
 11
0.0000001055979624
 21
392.0
 31
0.0
  0
LINE
  5
1F84
330
105C
100
AcDbEntity
  8
0
100
AcDbLine
 10
-39.91984200000003
 20
412.5310630999998
 30
0.0
 11
0.0000001055979624
 21
428.0
 31
0.0
  0
LINE
  5
1F85
330
105C
100
AcDbEntity
  8
0
100
AcDbLine
 10
-0.0000001055978487
 20
428.0
 30
0.0
 11
39.91984200000003
 21
412.5310630999998
 31
0.0
  0
LINE
  5
1F86
330
105C
100
AcDbEntity
  8
0
100
AcDbLine
 10
-39.0
 20
345.5
 30
0.0
 11
38.99996900000008
 21
345.5
 31
0.0
  0
LINE
  5
1F87
330
105C
100
AcDbEntity
  8
0
100
AcDbLine
 10
-39.0
 20
494.5
 30
0.0
 11
38.99996900000008
 21
494.5
 31
0.0
  0
LINE
  5
1F88
330
105C
100
AcDbEntity
  8
0
100
AcDbLine
 10
38.99996900000008
 20
345.5
 30
0.0
 11
38.99996900000008
 21
407.1124870999998
 31
0.0
  0
LINE
  5
1F89
330
105C
100
AcDbEntity
  8
0
100
AcDbLine
 10
-30.80001799999997
 20
416.0649938999998
 30
0.0
 11
-30.80001799999997
 21
494.5
 31
0.0
  0
LINE
  5
1F8A
330
105C
100
AcDbEntity
  8
0
100
AcDbLine
 10
-17.80001799999996
 20
345.5
 30
0.0
 11
-17.80001799999996
 21
398.8975069999998
 31
0.0
  0
LINE
  5
1F8B
330
105C
100
AcDbEntity
  8
0
100
AcDbLine
 10
-39.00003099999992
 20
489.5
 30
0.0
 11
38.99996900000008
 21
489.5
 31
0.0
  0
LINE
  5
1F8C
330
105C
100
AcDbEntity
  8
0
100
AcDbLine
 10
-39.00003099999992
 20
350.4998780000001
 30
0.0
 11
38.99996900000008
 21
350.4998780000001
 31
0.0
  0
LINE
  5
1F8D
330
105C
100
AcDbEntity
  8
0
100
AcDbLine
 10
15.80001800000008
 20
421.8774940000001
 30
0.0
 11
15.80001800000008
 21
494.5
 31
0.0
  0
LINE
  5
1F8E
330
105C
100
AcDbEntity
  8
0
100
AcDbLine
 10
17.80001800000008
 20
345.5
 30
0.0
 11
17.80001800000008
 21
398.8975069999998
 31
0.0
  0
LINE
  5
1F8F
330
105C
100
AcDbEntity
  8
0
100
AcDbLine
 10
15.80001800000008
 20
345.5
 30
0.0
 11
15.80001800000008
 21
398.1225059999999
 31
0.0
  0
LINE
  5
1F90
330
105C
100
AcDbEntity
  8
0
100
AcDbLine
 10
-15.80001799999996
 20
345.5
 30
0.0
 11
-15.80001799999996
 21
398.1225059999999
 31
0.0
  0
LINE
  5
1F91
330
105C
100
AcDbEntity
  8
0
100
AcDbLine
 10
-39.00003099999992
 20
345.5
 30
0.0
 11
-39.00003099999992
 21
407.1125108999998
 31
0.0
  0
LINE
  5
1F92
330
105C
100
AcDbEntity
  8
0
100
AcDbLine
 10
-30.80001799999997
 20
345.5
 30
0.0
 11
-30.80001799999997
 21
403.9350061
 31
0.0
  0
LINE
  5
1F93
330
105C
100
AcDbEntity
  8
0
100
AcDbLine
 10
30.80001800000008
 20
345.5
 30
0.0
 11
30.80001800000008
 21
403.9350061
 31
0.0
  0
LINE
  5
1F94
330
105C
100
AcDbEntity
  8
0
100
AcDbLine
 10
-18.04998799999992
 20
343.9000020000002
 30
0.0
 11
-18.04998799999992
 21
345.5
 31
0.0
  0
LINE
  5
1F95
330
105C
100
AcDbEntity
  8
0
100
AcDbLine
 10
-18.04998799999992
 20
343.9000020000002
 30
0.0
 11
-30.54998799999993
 21
343.9000020000002
 31
0.0
  0
LINE
  5
1F96
330
105C
100
AcDbEntity
  8
0
100
AcDbLine
 10
-30.54998799999993
 20
343.9000020000002
 30
0.0
 11
-30.54998799999993
 21
345.5
 31
0.0
  0
LINE
  5
1F97
330
105C
100
AcDbEntity
  8
0
100
AcDbLine
 10
-18.19998699999996
 20
342.4000020000002
 30
0.0
 11
-30.39998799999995
 21
342.4000020000002
 31
0.0
  0
LINE
  5
1F98
330
105C
100
AcDbEntity
  8
0
100
AcDbLine
 10
-30.39998799999995
 20
342.4000020000002
 30
0.0
 11
-30.39998799999995
 21
343.9000020000002
 31
0.0
  0
LINE
  5
1F99
330
105C
100
AcDbEntity
  8
0
100
AcDbLine
 10
-18.19998699999996
 20
342.4000020000002
 30
0.0
 11
-18.19998699999996
 21
343.9000020000002
 31
0.0
  0
LINE
  5
1F9A
330
105C
100
AcDbEntity
  8
0
100
AcDbLine
 10
30.55004900000006
 20
343.9000020000002
 30
0.0
 11
30.55004900000006
 21
345.5
 31
0.0
  0
LINE
  5
1F9B
330
105C
100
AcDbEntity
  8
0
100
AcDbLine
 10
18.05004900000006
 20
343.9000020000002
 30
0.0
 11
18.05004900000006
 21
345.5
 31
0.0
  0
LINE
  5
1F9C
330
105C
100
AcDbEntity
  8
0
100
AcDbLine
 10
30.40004900000008
 20
342.4000020000002
 30
0.0
 11
18.20004800000004
 21
342.4000020000002
 31
0.0
  0
LINE
  5
1F9D
330
105C
100
AcDbEntity
  8
0
100
AcDbLine
 10
18.20004800000004
 20
342.4000020000002
 30
0.0
 11
18.20004800000004
 21
343.9000020000002
 31
0.0
  0
LINE
  5
1F9E
330
105C
100
AcDbEntity
  8
0
100
AcDbLine
 10
30.40004900000008
 20
342.4000020000002
 30
0.0
 11
30.40004900000008
 21
343.9000020000002
 31
0.0
  0
LINE
  5
1F9F
330
105C
100
AcDbEntity
  8
0
100
AcDbLine
 10
18.05004900000006
 20
496.0999979999998
 30
0.0
 11
18.05004900000006
 21
494.5
 31
0.0
  0
LINE
  5
1FA0
330
105C
100
AcDbEntity
  8
0
100
AcDbLine
 10
30.55004900000006
 20
496.0999979999998
 30
0.0
 11
30.55004900000006
 21
494.5
 31
0.0
  0
LINE
  5
1FA1
330
105C
100
AcDbEntity
  8
0
100
AcDbLine
 10
18.20004800000004
 20
497.5999979999998
 30
0.0
 11
30.40004900000008
 21
497.5999979999998
 31
0.0
  0
LINE
  5
1FA2
330
105C
100
AcDbEntity
  8
0
100
AcDbLine
 10
30.40004900000008
 20
497.5999979999998
 30
0.0
 11
30.40004900000008
 21
496.0999979999998
 31
0.0
  0
LINE
  5
1FA3
330
105C
100
AcDbEntity
  8
0
100
AcDbLine
 10
18.20004800000004
 20
497.5999979999998
 30
0.0
 11
18.20004800000004
 21
496.0999979999998
 31
0.0
  0
LINE
  5
1FA4
330
105C
100
AcDbEntity
  8
0
100
AcDbLine
 10
-30.54998799999993
 20
496.0999979999998
 30
0.0
 11
-30.54998799999993
 21
494.5
 31
0.0
  0
LINE
  5
1FA5
330
105C
100
AcDbEntity
  8
0
100
AcDbLine
 10
-30.54998799999993
 20
496.0999979999998
 30
0.0
 11
-18.04998799999992
 21
496.0999979999998
 31
0.0
  0
LINE
  5
1FA6
330
105C
100
AcDbEntity
  8
0
100
AcDbLine
 10
-18.04998799999992
 20
496.0999979999998
 30
0.0
 11
-18.04998799999992
 21
494.5
 31
0.0
  0
LINE
  5
1FA7
330
105C
100
AcDbEntity
  8
0
100
AcDbLine
 10
-30.39998799999995
 20
497.5999979999998
 30
0.0
 11
-18.19998699999996
 21
497.5999979999998
 31
0.0
  0
LINE
  5
1FA8
330
105C
100
AcDbEntity
  8
0
100
AcDbLine
 10
-18.19998699999996
 20
497.5999979999998
 30
0.0
 11
-18.19998699999996
 21
496.0999979999998
 31
0.0
  0
LINE
  5
1FA9
330
105C
100
AcDbEntity
  8
0
100
AcDbLine
 10
-30.39998799999995
 20
497.5999979999998
 30
0.0
 11
-30.39998799999995
 21
496.0999979999998
 31
0.0
  0
LINE
  5
1FAA
330
105C
100
AcDbEntity
  8
0
100
AcDbLine
 10
-26.79998799999993
 20
501.5999979999998
 30
0.0
 11
-21.79998799999993
 21
501.5999979999998
 31
0.0
  0
LINE
  5
1FAB
330
105C
100
AcDbEntity
  8
0
100
AcDbLine
 10
-29.29998799999993
 20
501.0956799999998
 30
0.0
 11
-29.29998799999993
 21
497.5999979999998
 31
0.0
  0
LINE
  5
1FAC
330
105C
100
AcDbEntity
  8
0
100
AcDbLine
 10
-24.29998799999993
 20
501.0956799999998
 30
0.0
 11
-24.29998799999993
 21
497.5999979999998
 31
0.0
  0
LINE
  5
1FAD
330
105C
100
AcDbEntity
  8
0
100
AcDbLine
 10
-19.29998799999992
 20
501.0956799999998
 30
0.0
 11
-19.29998799999992
 21
497.5999979999998
 31
0.0
  0
LINE
  5
1FAE
330
105C
100
AcDbEntity
  8
0
100
AcDbLine
 10
21.80004900000006
 20
501.5999979999998
 30
0.0
 11
26.80004900000006
 21
501.5999979999998
 31
0.0
  0
LINE
  5
1FAF
330
105C
100
AcDbEntity
  8
0
100
AcDbLine
 10
19.30004900000006
 20
501.0956799999998
 30
0.0
 11
19.30004900000006
 21
497.5999979999998
 31
0.0
  0
LINE
  5
1FB0
330
105C
100
AcDbEntity
  8
0
100
AcDbLine
 10
24.30004900000006
 20
501.0956799999998
 30
0.0
 11
24.30004900000006
 21
497.5999979999998
 31
0.0
  0
LINE
  5
1FB1
330
105C
100
AcDbEntity
  8
0
100
AcDbLine
 10
29.30004900000006
 20
501.0956799999998
 30
0.0
 11
29.30004900000006
 21
497.5999979999998
 31
0.0
  0
LINE
  5
1FB2
330
105C
100
AcDbEntity
  8
0
100
AcDbLine
 10
-21.79998799999993
 20
338.4000020000001
 30
0.0
 11
-26.79998799999993
 21
338.4000020000001
 31
0.0
  0
LINE
  5
1FB3
330
105C
100
AcDbEntity
  8
0
100
AcDbLine
 10
-19.29998799999992
 20
338.9043200000001
 30
0.0
 11
-19.29998799999992
 21
342.4000020000002
 31
0.0
  0
LINE
  5
1FB4
330
105C
100
AcDbEntity
  8
0
100
AcDbLine
 10
-24.29998799999993
 20
338.9043200000001
 30
0.0
 11
-24.29998799999993
 21
342.4000020000002
 31
0.0
  0
LINE
  5
1FB5
330
105C
100
AcDbEntity
  8
0
100
AcDbLine
 10
-29.29998799999993
 20
338.9043200000001
 30
0.0
 11
-29.29998799999993
 21
342.4000020000002
 31
0.0
  0
LINE
  5
1FB6
330
105C
100
AcDbEntity
  8
0
100
AcDbLine
 10
26.80004900000006
 20
338.4000020000001
 30
0.0
 11
21.80004900000006
 21
338.4000020000001
 31
0.0
  0
LINE
  5
1FB7
330
105C
100
AcDbEntity
  8
0
100
AcDbLine
 10
29.30004900000006
 20
338.9043200000001
 30
0.0
 11
29.30004900000006
 21
342.4000020000002
 31
0.0
  0
LINE
  5
1FB8
330
105C
100
AcDbEntity
  8
0
100
AcDbLine
 10
24.30004900000006
 20
338.9043200000001
 30
0.0
 11
24.30004900000006
 21
342.4000020000002
 31
0.0
  0
LINE
  5
1FB9
330
105C
100
AcDbEntity
  8
0
100
AcDbLine
 10
19.30004900000006
 20
338.9043200000001
 30
0.0
 11
19.30004900000006
 21
342.4000020000002
 31
0.0
  0
LINE
  5
1FBA
330
105C
100
AcDbEntity
  8
0
100
AcDbLine
 10
11.50000000000005
 20
343.9000020000002
 30
0.0
 11
11.50000000000005
 21
345.5
 31
0.0
  0
LINE
  5
1FBB
330
105C
100
AcDbEntity
  8
0
100
AcDbLine
 10
11.50000000000005
 20
496.0999979999998
 30
0.0
 11
30.55004900000006
 21
496.0999979999998
 31
0.0
  0
LINE
  5
1FBC
330
105C
100
AcDbEntity
  8
0
100
AcDbLine
 10
11.50000000000005
 20
343.9000020000002
 30
0.0
 11
30.55004900000006
 21
343.9000020000002
 31
0.0
  0
LINE
  5
1FBD
330
105C
100
AcDbEntity
  8
0
100
AcDbLine
 10
23.25000000000006
 20
330.0
 30
0.0
 11
16.75000000000006
 21
330.0
 31
0.0
  0
LINE
  5
1FBE
330
105C
100
AcDbEntity
  8
0
100
AcDbLine
 10
19.30004900000006
 20
338.9000020000001
 30
0.0
 11
16.75000000000006
 21
338.9000020000001
 31
0.0
  0
LINE
  5
1FBF
330
105C
100
AcDbEntity
  8
0
100
AcDbLine
 10
13.50000000000006
 20
339.6248929999999
 30
0.0
 11
13.50000000000006
 21
343.1751099999999
 31
0.0
  0
LINE
  5
1FC0
330
105C
100
AcDbEntity
  8
0
100
AcDbLine
 10
13.50000000000006
 20
330.724892
 30
0.0
 11
13.50000000000006
 21
335.5
 31
0.0
  0
LINE
  5
1FC1
330
105C
100
AcDbEntity
  8
0
100
AcDbLine
 10
24.00000000000006
 20
338.4030990000001
 30
0.0
 11
24.00000000000006
 21
335.5
 31
0.0
  0
LINE
  5
1FC2
330
105C
100
AcDbEntity
  8
0
100
AcDbLine
 10
16.00000000000006
 20
338.9368669999999
 30
0.0
 11
16.00000000000006
 21
335.5
 31
0.0
  0
LINE
  5
1FC3
330
105C
100
AcDbEntity
  8
0
100
AcDbLine
 10
19.30004900000006
 20
501.0999979999998
 30
0.0
 11
16.75000000000006
 21
501.0999979999998
 31
0.0
  0
LINE
  5
1FC4
330
105C
100
AcDbEntity
  8
0
100
AcDbLine
 10
13.50000000000006
 20
500.3751069999999
 30
0.0
 11
13.50000000000006
 21
496.82489
 31
0.0
  0
LINE
  5
1FC5
330
105C
100
AcDbEntity
  8
0
100
AcDbLine
 10
11.50000000000005
 20
496.0999979999998
 30
0.0
 11
11.50000000000005
 21
494.5
 31
0.0
  0
LINE
  5
1FC6
330
105C
100
AcDbEntity
  8
0
100
AcDbLine
 10
24.00000000000006
 20
501.5969009999998
 30
0.0
 11
24.00000000000006
 21
504.4999999999998
 31
0.0
  0
LINE
  5
1FC7
330
105C
100
AcDbEntity
  8
0
100
AcDbLine
 10
16.00000000000006
 20
501.0631330000001
 30
0.0
 11
16.00000000000006
 21
504.4999999999998
 31
0.0
  0
LINE
  5
1FC8
330
105C
100
AcDbEntity
  8
0
100
AcDbLine
 10
26.50000000000006
 20
330.724892
 30
0.0
 11
26.50000000000006
 21
335.5
 31
0.0
  0
LINE
  5
1FC9
330
105C
100
AcDbEntity
  8
0
100
AcDbLine
 10
20.00000000000006
 20
330.724892
 30
0.0
 11
20.00000000000006
 21
335.5
 31
0.0
  0
LINE
  5
1FCA
330
105C
100
AcDbEntity
  8
0
100
AcDbLine
 10
26.50000000000006
 20
509.275108
 30
0.0
 11
26.50000000000006
 21
504.4999999999998
 31
0.0
  0
LINE
  5
1FCB
330
105C
100
AcDbEntity
  8
0
100
AcDbLine
 10
26.50000000000006
 20
504.4999999999998
 30
0.0
 11
13.50000000000006
 21
504.4999999999998
 31
0.0
  0
LINE
  5
1FCC
330
105C
100
AcDbEntity
  8
0
100
AcDbLine
 10
20.00000000000006
 20
509.275108
 30
0.0
 11
20.00000000000006
 21
504.4999999999998
 31
0.0
  0
LINE
  5
1FCD
330
105C
100
AcDbEntity
  8
0
100
AcDbLine
 10
23.25000000000006
 20
510.0
 30
0.0
 11
16.75000000000006
 21
510.0
 31
0.0
  0
LINE
  5
1FCE
330
105C
100
AcDbEntity
  8
0
100
AcDbLine
 10
26.50000000000006
 20
335.5
 30
0.0
 11
13.50000000000006
 21
335.5
 31
0.0
  0
LINE
  5
1FCF
330
105C
100
AcDbEntity
  8
0
100
AcDbLine
 10
13.50000000000006
 20
509.275108
 30
0.0
 11
13.50000000000006
 21
504.4999999999998
 31
0.0
  0
LINE
  5
1FD0
330
105C
100
AcDbEntity
  8
0
100
AcDbLine
 10
30.80001800000008
 20
416.0649938999998
 30
0.0
 11
30.80001800000008
 21
494.5
 31
0.0
  0
LINE
  5
1FD1
330
105C
100
AcDbEntity
  8
0
100
AcDbLine
 10
-17.80001799999996
 20
421.1024929999999
 30
0.0
 11
-17.80001799999996
 21
494.5
 31
0.0
  0
LINE
  5
1FD2
330
105C
100
AcDbEntity
  8
0
100
AcDbLine
 10
17.80001800000008
 20
421.1024929999999
 30
0.0
 11
17.80001800000008
 21
494.5
 31
0.0
  0
LINE
  5
1FD3
330
105C
100
AcDbEntity
  8
0
100
AcDbLine
 10
-15.80001799999996
 20
421.8774940000001
 30
0.0
 11
-15.80001799999996
 21
494.5
 31
0.0
  0
LINE
  5
1FD4
330
105C
100
AcDbEntity
  8
0
100
AcDbLine
 10
-39.00003099999992
 20
412.8874891
 30
0.0
 11
-39.00003099999992
 21
494.5
 31
0.0
  0
LINE
  5
1FD5
330
105C
100
AcDbEntity
  8
0
100
AcDbLine
 10
53.40001700000005
 20
322.4999539999999
 30
0.0
 11
54.66970100000003
 21
322.4999539999999
 31
0.0
  0
LINE
  5
1FD6
330
105C
100
AcDbEntity
  8
0
100
AcDbLine
 10
47.40000200000003
 20
302.0417199999999
 30
0.0
 11
52.40000200000003
 21
302.0417199999999
 31
0.0
  0
LINE
  5
1FD7
330
105C
100
AcDbEntity
  8
0
100
AcDbLine
 10
54.90000200000003
 20
309.9999700000001
 30
0.0
 11
60.90000200000003
 21
309.9999700000001
 31
0.0
  0
LINE
  5
1FD8
330
105C
100
AcDbEntity
  8
0
100
AcDbLine
 10
53.40001700000005
 20
317.4999539999999
 30
0.0
 11
54.90000200000003
 21
317.4999539999999
 31
0.0
  0
LINE
  5
1FD9
330
105C
100
AcDbEntity
  8
0
100
AcDbLine
 10
46.40000200000002
 20
316.429245
 30
0.0
 11
46.40000200000002
 21
323.570671
 31
0.0
  0
LINE
  5
1FDA
330
105C
100
AcDbEntity
  8
0
100
AcDbLine
 10
45.13029900000002
 20
322.4999539999999
 30
0.0
 11
46.40000900000006
 21
322.4999539999999
 31
0.0
  0
LINE
  5
1FDB
330
105C
100
AcDbEntity
  8
0
100
AcDbLine
 10
44.90000200000003
 20
317.4999539999999
 30
0.0
 11
46.40000900000006
 21
317.4999539999999
 31
0.0
  0
LINE
  5
1FDC
330
105C
100
AcDbEntity
  8
0
100
AcDbLine
 10
54.90000200000003
 20
309.9999700000001
 30
0.0
 11
54.90000200000003
 21
320.999977
 31
0.0
  0
LINE
  5
1FDD
330
105C
100
AcDbEntity
  8
0
100
AcDbLine
 10
44.90000200000003
 20
309.9999700000001
 30
0.0
 11
44.90000200000003
 21
320.999977
 31
0.0
  0
LINE
  5
1FDE
330
105C
100
AcDbEntity
  8
0
100
AcDbLine
 10
52.40000200000003
 20
302.0417199999999
 30
0.0
 11
52.40000200000003
 21
302.4968100000001
 31
0.0
  0
LINE
  5
1FDF
330
105C
100
AcDbEntity
  8
0
100
AcDbLine
 10
38.99996900000008
 20
494.8581849999999
 30
0.0
 11
60.90000200000003
 21
494.8581849999999
 31
0.0
  0
LINE
  5
1FE0
330
105C
100
AcDbEntity
  8
0
100
AcDbLine
 10
38.90000199999997
 20
333.403198
 30
0.0
 11
60.90000200000003
 21
333.403198
 31
0.0
  0
LINE
  5
1FE1
330
105C
100
AcDbEntity
  8
0
100
AcDbLine
 10
38.90000199999997
 20
309.9999700000001
 30
0.0
 11
38.90000199999997
 21
345.5
 31
0.0
  0
LINE
  5
1FE2
330
105C
100
AcDbEntity
  8
0
100
AcDbLine
 10
60.90000200000003
 20
309.9999700000001
 30
0.0
 11
60.90000200000003
 21
494.8581849999999
 31
0.0
  0
LINE
  5
1FE3
330
105C
100
AcDbEntity
  8
0
100
AcDbLine
 10
38.90000199999997
 20
309.9999700000001
 30
0.0
 11
44.90000200000003
 21
309.9999700000001
 31
0.0
  0
LINE
  5
1FE4
330
105C
100
AcDbEntity
  8
0
100
AcDbLine
 10
53.40000200000003
 20
316.429245
 30
0.0
 11
53.40000200000003
 21
323.570671
 31
0.0
  0
LINE
  5
1FE5
330
105C
100
AcDbEntity
  8
0
100
AcDbLine
 10
47.40000200000003
 20
302.0417199999999
 30
0.0
 11
47.40000200000003
 21
302.4968100000001
 31
0.0
  0
LINE
  5
1FE6
330
105C
100
AcDbEntity
  8
0
100
AcDbLine
 10
-46.00000799999998
 20
464.000011
 30
0.0
 11
-52.00000799999997
 21
464.000011
 31
0.0
  0
LINE
  5
1FE7
330
105C
100
AcDbEntity
  8
0
100
AcDbLine
 10
-82.14998600000001
 20
454.9736139999999
 30
0.0
 11
-82.14998600000001
 21
366.839066
 31
0.0
  0
LINE
  5
1FE8
330
105C
100
AcDbEntity
  8
0
100
AcDbLine
 10
-84.99999200000003
 20
455.4999999999998
 30
0.0
 11
-84.99999200000003
 21
364.5
 31
0.0
  0
LINE
  5
1FE9
330
105C
100
AcDbEntity
  8
0
100
AcDbLine
 10
-81.95840499999997
 20
365.026386
 30
0.0
 11
-79.95378099999993
 21
370.534046
 31
0.0
  0
LINE
  5
1FEA
330
105C
100
AcDbEntity
  8
0
100
AcDbLine
 10
-81.95840499999997
 20
454.9736139999999
 30
0.0
 11
-79.95378099999993
 21
449.4659539999998
 31
0.0
  0
LINE
  5
1FEB
330
105C
100
AcDbEntity
  8
0
100
AcDbLine
 10
-84.99999200000003
 20
364.5
 30
0.0
 11
-82.71015199999999
 21
364.5
 31
0.0
  0
LINE
  5
1FEC
330
105C
100
AcDbEntity
  8
0
100
AcDbLine
 10
-84.99999200000003
 20
455.4999999999998
 30
0.0
 11
-82.71015199999999
 21
455.4999999999998
 31
0.0
  0
LINE
  5
1FED
330
105C
100
AcDbEntity
  8
0
100
AcDbLine
 10
-58.99999200000002
 20
448.1499899999998
 30
0.0
 11
-78.07439399999998
 21
448.1499899999998
 31
0.0
  0
LINE
  5
1FEE
330
105C
100
AcDbEntity
  8
0
100
AcDbLine
 10
-58.99999200000002
 20
371.8499979999998
 30
0.0
 11
-78.07439399999998
 21
371.8499979999998
 31
0.0
  0
LINE
  5
1FEF
330
105C
100
AcDbEntity
  8
0
100
AcDbLine
 10
-79.47481500000003
 20
448.1499899999998
 30
0.0
 11
-79.47481500000003
 21
372.2746279999999
 31
0.0
  0
LINE
  5
1FF0
330
105C
100
AcDbEntity
  8
0
100
AcDbLine
 10
82.15000200000003
 20
454.9736099999999
 30
0.0
 11
82.15000200000003
 21
365.1922529999998
 31
0.0
  0
LINE
  5
1FF1
330
105C
100
AcDbEntity
  8
0
100
AcDbLine
 10
78.07440900000006
 20
448.149994
 30
0.0
 11
60.90000200000003
 21
448.149994
 31
0.0
  0
LINE
  5
1FF2
330
105C
100
AcDbEntity
  8
0
100
AcDbLine
 10
79.47481500000003
 20
448.149994
 30
0.0
 11
79.47481500000003
 21
371.8499979999998
 31
0.0
  0
LINE
  5
1FF3
330
105C
100
AcDbEntity
  8
0
100
AcDbLine
 10
78.07440900000006
 20
371.8499979999998
 30
0.0
 11
60.90000200000003
 21
371.8499979999998
 31
0.0
  0
LINE
  5
1FF4
330
105C
100
AcDbEntity
  8
0
100
AcDbLine
 10
81.95841200000007
 20
365.026386
 30
0.0
 11
79.95378900000003
 21
370.5340389999999
 31
0.0
  0
LINE
  5
1FF5
330
105C
100
AcDbEntity
  8
0
100
AcDbLine
 10
85.00000799999998
 20
364.5
 30
0.0
 11
82.71015199999999
 21
364.5
 31
0.0
  0
LINE
  5
1FF6
330
105C
100
AcDbEntity
  8
0
100
AcDbLine
 10
81.95842000000004
 20
454.9736099999999
 30
0.0
 11
79.95380399999998
 21
449.465965
 31
0.0
  0
LINE
  5
1FF7
330
105C
100
AcDbEntity
  8
0
100
AcDbLine
 10
85.00000799999998
 20
455.4999999999998
 30
0.0
 11
82.71015199999999
 21
455.4999999999998
 31
0.0
  0
LINE
  5
1FF8
330
105C
100
AcDbEntity
  8
0
100
AcDbLine
 10
-46.00000799999998
 20
356.0
 30
0.0
 11
-52.00000799999997
 21
356.0
 31
0.0
  0
LINE
  5
1FF9
330
105C
100
AcDbEntity
  8
0
100
AcDbLine
 10
-57.0
 20
361.000004
 30
0.0
 11
-57.0
 21
458.9912609999998
 31
0.0
  0
LINE
  5
1FFA
330
105C
100
AcDbEntity
  8
0
100
AcDbLine
 10
-43.00000799999998
 20
350.8584900000002
 30
0.0
 11
-43.00000799999998
 21
469.141521
 31
0.0
  0
LINE
  5
1FFB
330
105C
100
AcDbEntity
  8
0
100
AcDbLine
 10
85.00000799999998
 20
455.4999999999998
 30
0.0
 11
85.00000799999998
 21
364.5
 31
0.0
  0
ARC
  5
1FFC
330
105C
100
AcDbEntity
  8
0
100
AcDbCircle
 10
0.0000000000000568
 20
410.0
 30
0.0
 40
40.0
100
AcDbArc
 50
356.3720999999972
 51
3.627902400006008
  0
ARC
  5
1FFD
330
105C
100
AcDbEntity
  8
0
100
AcDbCircle
 10
0.0000000000000568
 20
410.0
 30
0.0
 40
40.0
100
AcDbArc
 50
176.3720999999972
 51
183.6279000000028
  0
CIRCLE
  5
1FFE
330
105C
100
AcDbEntity
  8
0
100
AcDbCircle
 10
0.0000000000000568
 20
410.0
 30
0.0
 40
5.25
  0
CIRCLE
  5
1FFF
330
105C
100
AcDbEntity
  8
0
100
AcDbCircle
 10
-23.79421999999994
 20
433.794067
 30
0.0
 40
4.0
  0
CIRCLE
  5
2000
330
105C
100
AcDbEntity
  8
0
100
AcDbCircle
 10
23.79409800000008
 20
433.794067
 30
0.0
 40
4.0
  0
CIRCLE
  5
2001
330
105C
100
AcDbEntity
  8
0
100
AcDbCircle
 10
-23.79421999999994
 20
433.794067
 30
0.0
 40
3.5
  0
CIRCLE
  5
2002
330
105C
100
AcDbEntity
  8
0
100
AcDbCircle
 10
-23.79421999999994
 20
386.205811
 30
0.0
 40
4.0
  0
CIRCLE
  5
2003
330
105C
100
AcDbEntity
  8
0
100
AcDbCircle
 10
-23.79421999999994
 20
386.205811
 30
0.0
 40
3.5
  0
CIRCLE
  5
2004
330
105C
100
AcDbEntity
  8
0
100
AcDbCircle
 10
23.79409800000008
 20
433.794067
 30
0.0
 40
3.5
  0
CIRCLE
  5
2005
330
105C
100
AcDbEntity
  8
0
100
AcDbCircle
 10
23.79409800000008
 20
386.205811
 30
0.0
 40
4.0
  0
CIRCLE
  5
2006
330
105C
100
AcDbEntity
  8
0
100
AcDbCircle
 10
23.79409800000008
 20
386.205811
 30
0.0
 40
3.5
  0
ARC
  5
2007
330
105C
100
AcDbEntity
  8
0
100
AcDbCircle
 10
-26.79998799999993
 20
495.1513369999998
 30
0.0
 40
6.4486594
100
AcDbArc
 50
67.18994100000381
 51
112.8100600000017
  0
ARC
  5
2008
330
105C
100
AcDbEntity
  8
0
100
AcDbCircle
 10
-21.79998799999993
 20
495.1513369999998
 30
0.0
 40
6.4486594
100
AcDbArc
 50
67.18994100000381
 51
112.8100600000017
  0
ARC
  5
2009
330
105C
100
AcDbEntity
  8
0
100
AcDbCircle
 10
21.80004900000006
 20
495.1513369999998
 30
0.0
 40
6.4486594
100
AcDbArc
 50
67.18994100000381
 51
112.8100600000017
  0
ARC
  5
200A
330
105C
100
AcDbEntity
  8
0
100
AcDbCircle
 10
26.80004900000006
 20
495.1513369999998
 30
0.0
 40
6.4486594
100
AcDbArc
 50
67.18994100000381
 51
112.8100600000017
  0
ARC
  5
200B
330
105C
100
AcDbEntity
  8
0
100
AcDbCircle
 10
-21.79998799999993
 20
344.848663
 30
0.0
 40
6.4486594
100
AcDbArc
 50
247.1899399999982
 51
292.8100600000018
  0
ARC
  5
200C
330
105C
100
AcDbEntity
  8
0
100
AcDbCircle
 10
-26.79998799999993
 20
344.848663
 30
0.0
 40
6.4486594
100
AcDbArc
 50
247.1899399999982
 51
292.8100600000018
  0
ARC
  5
200D
330
105C
100
AcDbEntity
  8
0
100
AcDbCircle
 10
26.80004900000006
 20
344.848663
 30
0.0
 40
6.4486594
100
AcDbArc
 50
247.1899399999982
 51
292.8100600000018
  0
ARC
  5
200E
330
105C
100
AcDbEntity
  8
0
100
AcDbCircle
 10
21.80004900000006
 20
344.848663
 30
0.0
 40
6.4486594
100
AcDbArc
 50
247.1899399999982
 51
292.8100600000018
  0
ARC
  5
200F
330
105C
100
AcDbEntity
  8
0
100
AcDbCircle
 10
16.75000000000006
 20
336.252007
 30
0.0
 40
7.647994999999998
100
AcDbArc
 50
79.07064000000059
 51
115.1473599999984
  0
ARC
  5
2010
330
105C
100
AcDbEntity
  8
0
100
AcDbCircle
 10
16.75000000000006
 20
346.5479969999998
 30
0.0
 40
7.647994999999998
100
AcDbArc
 50
244.8526400000016
 51
289.4769300000007
  0
ARC
  5
2011
330
105C
100
AcDbEntity
  8
0
100
AcDbCircle
 10
16.75000000000006
 20
503.7479929999998
 30
0.0
 40
7.647994999999998
100
AcDbArc
 50
244.8526400000016
 51
280.9293599999994
  0
ARC
  5
2012
330
105C
100
AcDbEntity
  8
0
100
AcDbCircle
 10
23.25000000000006
 20
337.647995
 30
0.0
 40
7.647994500000001
100
AcDbArc
 50
244.8526400000016
 51
295.1473599999983
  0
ARC
  5
2013
330
105C
100
AcDbEntity
  8
0
100
AcDbCircle
 10
16.75000000000006
 20
493.452003
 30
0.0
 40
7.647994999999998
100
AcDbArc
 50
70.52307400000104
 51
115.1473599999984
  0
ARC
  5
2014
330
105C
100
AcDbEntity
  8
0
100
AcDbCircle
 10
16.75000000000006
 20
337.647995
 30
0.0
 40
7.647994500000001
100
AcDbArc
 50
244.8526400000016
 51
295.1473599999983
  0
ARC
  5
2015
330
105C
100
AcDbEntity
  8
0
100
AcDbCircle
 10
16.75000000000006
 20
502.352005
 30
0.0
 40
7.647994500000001
100
AcDbArc
 50
64.85263699999975
 51
115.1473599999984
  0
ARC
  5
2016
330
105C
100
AcDbEntity
  8
0
100
AcDbCircle
 10
23.25000000000006
 20
502.352005
 30
0.0
 40
7.647994500000001
100
AcDbArc
 50
64.85263699999975
 51
115.1473599999984
  0
CIRCLE
  5
2017
330
105C
100
AcDbEntity
  8
0
100
AcDbCircle
 10
0.0000000000000568
 20
410.0
 30
0.0
 40
6.0999999
  0
ARC
  5
2018
330
105C
100
AcDbEntity
  8
0
100
AcDbCircle
 10
49.90000200000003
 20
319.9999539999999
 30
0.0
 40
5.0
100
AcDbArc
 50
225.5730200000026
 51
314.4269799999973
  0
ARC
  5
2019
330
105C
100
AcDbEntity
  8
0
100
AcDbCircle
 10
49.90000200000003
 20
319.9999539999999
 30
0.0
 40
5.0
100
AcDbArc
 50
45.5730170000012
 51
134.4269799999974
  0
ARC
  5
201A
330
105C
100
AcDbEntity
  8
0
100
AcDbCircle
 10
49.90000200000003
 20
320.999977
 30
0.0
 40
5.0
100
AcDbArc
 50
0.0
 51
180.0
  0
ARC
  5
201B
330
105C
100
AcDbEntity
  8
0
100
AcDbCircle
 10
49.90000200000003
 20
319.9999539999999
 30
0.0
 40
8.0
100
AcDbArc
 50
231.3177999999946
 51
308.6822000000054
  0
ARC
  5
201C
330
105C
100
AcDbEntity
  8
0
100
AcDbCircle
 10
-78.07439399999998
 20
450.1499940000001
 30
0.0
 40
2.0
100
AcDbArc
 50
199.9999799999967
 51
270.0
  0
ARC
  5
201D
330
105C
100
AcDbEntity
  8
0
100
AcDbCircle
 10
-78.07439399999998
 20
369.8499979999998
 30
0.0
 40
2.0
100
AcDbArc
 50
90.0
 51
160.0000200000025
  0
ARC
  5
201E
330
105C
100
AcDbEntity
  8
0
100
AcDbCircle
 10
-82.71015199999999
 20
454.6999969999998
 30
0.0
 40
0.8000000099999999
100
AcDbArc
 50
20.00002900000571
 51
90.0
  0
ARC
  5
201F
330
105C
100
AcDbEntity
  8
0
100
AcDbCircle
 10
-82.71015199999999
 20
365.2999990000001
 30
0.0
 40
0.8000000099999999
100
AcDbArc
 50
270.0
 51
339.9999699999969
  0
ARC
  5
2020
330
105C
100
AcDbEntity
  8
0
100
AcDbCircle
 10
78.07440900000006
 20
369.8499979999998
 30
0.0
 40
2.0
100
AcDbArc
 50
19.99997800000258
 51
90.0
  0
ARC
  5
2021
330
105C
100
AcDbEntity
  8
0
100
AcDbCircle
 10
64.45001999999999
 20
448.099991
 30
0.0
 40
0.050000001
100
AcDbArc
 50
0.0
 51
90.0
  0
ARC
  5
2022
330
105C
100
AcDbEntity
  8
0
100
AcDbCircle
 10
78.07440900000006
 20
450.1499940000001
 30
0.0
 40
2.0
100
AcDbArc
 50
270.0
 51
340.0000200000026
  0
ARC
  5
2023
330
105C
100
AcDbEntity
  8
0
100
AcDbCircle
 10
82.71015199999999
 20
365.3000030000002
 30
0.0
 40
0.8000000099999999
100
AcDbArc
 50
200.0000300000031
 51
270.0
  0
ARC
  5
2024
330
105C
100
AcDbEntity
  8
0
100
AcDbCircle
 10
82.71015199999999
 20
454.6999969999998
 30
0.0
 40
0.8000000099999999
100
AcDbArc
 50
90.0
 51
159.9999699999968
  0
ARC
  5
2025
330
105C
100
AcDbEntity
  8
0
100
AcDbCircle
 10
-52.00000799999997
 20
458.999996
 30
0.0
 40
5.0
100
AcDbArc
 50
90.0
 51
180.0
  0
ARC
  5
2026
330
105C
100
AcDbEntity
  8
0
100
AcDbCircle
 10
-58.99999200000002
 20
450.1500049999998
 30
0.0
 40
2.0
100
AcDbArc
 50
270.0
 51
0.0
  0
ARC
  5
2027
330
105C
100
AcDbEntity
  8
0
100
AcDbCircle
 10
0.0000000000000568
 20
303.4000000000001
 30
0.0
 40
173.5
100
AcDbArc
 50
102.9901800000003
 51
103.56828
  0
ARC
  5
2028
330
105C
100
AcDbEntity
  8
0
100
AcDbCircle
 10
-46.00000799999998
 20
467.0000110000001
 30
0.0
 40
3.0
100
AcDbArc
 50
270.0
 51
0.0
  0
ARC
  5
2029
330
105C
100
AcDbEntity
  8
0
100
AcDbCircle
 10
-40.00000799999996
 20
469.141521
 30
0.0
 40
3.0
100
AcDbArc
 50
103.56828
 51
180.0
  0
ARC
  5
202A
330
105C
100
AcDbEntity
  8
0
100
AcDbCircle
 10
-52.00000799999997
 20
361.000004
 30
0.0
 40
5.0
100
AcDbArc
 50
180.0
 51
270.0
  0
ARC
  5
202B
330
105C
100
AcDbEntity
  8
0
100
AcDbCircle
 10
-58.99999200000002
 20
369.849995
 30
0.0
 40
2.0
100
AcDbArc
 50
0.0
 51
90.0
  0
ARC
  5
202C
330
105C
100
AcDbEntity
  8
0
100
AcDbCircle
 10
0.0000000000000568
 20
516.6000100000001
 30
0.0
 40
173.5
100
AcDbArc
 50
256.4317199999999
 51
257.0098199999996
  0
ARC
  5
202D
330
105C
100
AcDbEntity
  8
0
100
AcDbCircle
 10
-46.00000799999998
 20
353.0
 30
0.0
 40
3.0
100
AcDbArc
 50
0.0
 51
90.0
  0
ARC
  5
202E
330
105C
100
AcDbEntity
  8
0
100
AcDbCircle
 10
-40.00000799999996
 20
350.8584900000002
 30
0.0
 40
3.0
100
AcDbArc
 50
180.0
 51
256.4317199999999
  0
ARC
  5
202F
330
105C
100
AcDbEntity
  8
0
100
AcDbCircle
 10
0.0000000000000568
 20
516.6000100000001
 30
0.0
 40
173.5
100
AcDbArc
 50
264.0284600000009
 51
275.1112
  0
ARC
  5
2030
330
105C
100
AcDbEntity
  8
0
100
AcDbCircle
 10
-27.99999999999994
 20
410.0
 30
0.0
 40
13.0
100
AcDbArc
 50
147.7960199999931
 51
212.2039800000068
  0
ELLIPSE
  5
2031
330
105C
100
AcDbEntity
  8
0
100
AcDbEllipse
 10
57.90000200000003
 20
302.4968100000001
 30
0.0
 11
0.0
 21
17.503144
 31
0.0
210
0.0
220
0.0
230
1.0
 40
0.31422926
 41
0.93880341
 42
1.5707963
  0
ELLIPSE
  5
2032
330
105C
100
AcDbEntity
  8
0
100
AcDbEllipse
 10
41.90000199999996
 20
302.4968100000001
 30
0.0
 11
0.0
 21
17.503144
 31
0.0
210
0.0
220
0.0
230
1.0
 40
0.31422926
 41
4.712388999999999
 42
5.3443819
  0
LINE
  5
2033
330
105C
100
AcDbEntity
  8
0
100
AcDbLine
 10
11.5
 20
207.0001199999999
 30
0.0
 11
11.5
 21
206.5001199999999
 31
0.0
  0
LINE
  5
2034
330
105C
100
AcDbEntity
  8
0
100
AcDbLine
 10
-13.79992700000002
 20
206.5001199999999
 30
0.0
 11
13.800049
 21
206.5001199999999
 31
0.0
  0
LINE
  5
2035
330
105C
100
AcDbEntity
  8
0
100
AcDbLine
 10
-13.79992700000002
 20
206.5001199999999
 30
0.0
 11
-13.79992700000002
 21
205.0001199999999
 31
0.0
  0
LINE
  5
2036
330
105C
100
AcDbEntity
  8
0
100
AcDbLine
 10
13.800049
 20
206.5001199999999
 30
0.0
 11
13.800049
 21
205.0001199999999
 31
0.0
  0
LINE
  5
2037
330
105C
100
AcDbEntity
  8
0
100
AcDbLine
 10
-11.5
 20
207.0001199999999
 30
0.0
 11
-11.5
 21
206.5001199999999
 31
0.0
  0
LINE
  5
2038
330
105C
100
AcDbEntity
  8
0
100
AcDbLine
 10
-24.299915
 20
191.7264299999999
 30
0.0
 11
-19.299892
 21
194.61319
 31
0.0
  0
LINE
  5
2039
330
105C
100
AcDbEntity
  8
0
100
AcDbLine
 10
-19.29992700000002
 20
194.61325
 30
0.0
 11
-19.29992700000002
 21
200.3866900000001
 31
0.0
  0
LINE
  5
203A
330
105C
100
AcDbEntity
  8
0
100
AcDbLine
 10
-19.299915
 20
200.38673
 30
0.0
 11
-24.29991100000001
 21
203.27348
 31
0.0
  0
LINE
  5
203B
330
105C
100
AcDbEntity
  8
0
100
AcDbLine
 10
-24.299892
 20
203.2734399999999
 30
0.0
 11
-29.299915
 21
200.38667
 31
0.0
  0
LINE
  5
203C
330
105C
100
AcDbEntity
  8
0
100
AcDbLine
 10
-29.29992700000003
 20
194.61325
 30
0.0
 11
-29.29992700000003
 21
200.3866900000001
 31
0.0
  0
LINE
  5
203D
330
105C
100
AcDbEntity
  8
0
100
AcDbLine
 10
-24.299915
 20
191.72649
 30
0.0
 11
-29.29991100000001
 21
194.61324
 31
0.0
  0
LINE
  5
203E
330
105C
100
AcDbEntity
  8
0
100
AcDbLine
 10
29.30008299999997
 20
128.3867599999999
 30
0.0
 11
24.30008700000002
 21
131.27351
 31
0.0
  0
LINE
  5
203F
330
105C
100
AcDbEntity
  8
0
100
AcDbLine
 10
24.30008299999997
 20
119.7265
 30
0.0
 11
19.30008700000002
 21
122.61325
 31
0.0
  0
LINE
  5
2040
330
105C
100
AcDbEntity
  8
0
100
AcDbLine
 10
24.30005499999999
 20
191.72647
 30
0.0
 11
19.30005599999998
 21
194.6132199999999
 31
0.0
  0
LINE
  5
2041
330
105C
100
AcDbEntity
  8
0
100
AcDbLine
 10
19.300049
 20
194.61325
 30
0.0
 11
19.300049
 21
200.3866900000001
 31
0.0
  0
LINE
  5
2042
330
105C
100
AcDbEntity
  8
0
100
AcDbLine
 10
29.30005499999999
 20
200.38672
 30
0.0
 11
24.30005599999998
 21
203.27347
 31
0.0
  0
LINE
  5
2043
330
105C
100
AcDbEntity
  8
0
100
AcDbLine
 10
29.300049
 20
194.61325
 30
0.0
 11
29.300049
 21
200.3866900000001
 31
0.0
  0
LINE
  5
2044
330
105C
100
AcDbEntity
  8
0
100
AcDbLine
 10
24.30007000000001
 20
191.72641
 30
0.0
 11
29.300093
 21
194.61317
 31
0.0
  0
LINE
  5
2045
330
105C
100
AcDbEntity
  8
0
100
AcDbLine
 10
-24.29988900000001
 20
119.7265099999999
 30
0.0
 11
-29.29988500000002
 21
122.6132599999999
 31
0.0
  0
LINE
  5
2046
330
105C
100
AcDbEntity
  8
0
100
AcDbLine
 10
-19.29988900000001
 20
128.3867599999999
 30
0.0
 11
-24.29988500000002
 21
131.27351
 31
0.0
  0
LINE
  5
2047
330
105C
100
AcDbEntity
  8
0
100
AcDbLine
 10
29.300049
 20
122.61328
 30
0.0
 11
29.300049
 21
128.3867199999999
 31
0.0
  0
LINE
  5
2048
330
105C
100
AcDbEntity
  8
0
100
AcDbLine
 10
24.300074
 20
131.27351
 30
0.0
 11
19.30005099999999
 21
128.38675
 31
0.0
  0
LINE
  5
2049
330
105C
100
AcDbEntity
  8
0
100
AcDbLine
 10
24.300051
 20
119.72649
 30
0.0
 11
29.300074
 21
122.6132599999999
 31
0.0
  0
LINE
  5
204A
330
105C
100
AcDbEntity
  8
0
100
AcDbLine
 10
20.00006100000002
 20
169.0055099999999
 30
0.0
 11
13.50006000000002
 21
165.25273
 31
0.0
  0
LINE
  5
204B
330
105C
100
AcDbEntity
  8
0
100
AcDbLine
 10
-30.79992700000004
 20
137.25116
 30
0.0
 11
-30.79992700000004
 21
119.0
 31
0.0
  0
LINE
  5
204C
330
105C
100
AcDbEntity
  8
0
100
AcDbLine
 10
-30.79992700000004
 20
203.99997
 30
0.0
 11
-30.79992700000004
 21
185.74878
 31
0.0
  0
LINE
  5
204D
330
105C
100
AcDbEntity
  8
0
100
AcDbLine
 10
30.800049
 20
137.25134
 30
0.0
 11
30.800049
 21
119.0
 31
0.0
  0
LINE
  5
204E
330
105C
100
AcDbEntity
  8
0
100
AcDbLine
 10
29.800049
 20
204.99997
 30
0.0
 11
17.80004899999999
 21
204.99997
 31
0.0
  0
LINE
  5
204F
330
105C
100
AcDbEntity
  8
0
100
AcDbLine
 10
30.800049
 20
203.99997
 30
0.0
 11
30.800049
 21
185.74863
 31
0.0
  0
LINE
  5
2050
330
105C
100
AcDbEntity
  8
0
100
AcDbLine
 10
15.800049
 20
120.0
 30
0.0
 11
-15.79992700000002
 21
120.0
 31
0.0
  0
LINE
  5
2051
330
105C
100
AcDbEntity
  8
0
100
AcDbLine
 10
17.800024
 20
118.0000099999999
 30
0.0
 11
15.80006400000002
 21
119.9999699999999
 31
0.0
  0
LINE
  5
2052
330
105C
100
AcDbEntity
  8
0
100
AcDbLine
 10
15.800049
 20
202.99997
 30
0.0
 11
-15.79992700000002
 21
202.99997
 31
0.0
  0
LINE
  5
2053
330
105C
100
AcDbEntity
  8
0
100
AcDbLine
 10
-17.79998
 20
205.0
 30
0.0
 11
-15.80002100000001
 21
203.00005
 31
0.0
  0
LINE
  5
2054
330
105C
100
AcDbEntity
  8
0
100
AcDbLine
 10
-17.79992700000002
 20
204.99997
 30
0.0
 11
-29.79992700000003
 21
204.99997
 31
0.0
  0
LINE
  5
2055
330
105C
100
AcDbEntity
  8
0
100
AcDbLine
 10
-15.799935
 20
120.00001
 30
0.0
 11
-17.799936
 21
118.0000099999999
 31
0.0
  0
LINE
  5
2056
330
105C
100
AcDbEntity
  8
0
100
AcDbLine
 10
17.80006600000001
 20
205.00009
 30
0.0
 11
15.80006400000002
 21
203.00009
 31
0.0
  0
LINE
  5
2057
330
105C
100
AcDbEntity
  8
0
100
AcDbLine
 10
26.5
 20
165.25278
 30
0.0
 11
26.5
 21
157.7472199999999
 31
0.0
  0
LINE
  5
2058
330
105C
100
AcDbEntity
  8
0
100
AcDbLine
 10
-14.79992700000002
 20
204.99997
 30
0.0
 11
-14.79992700000002
 21
202.99997
 31
0.0
  0
LINE
  5
2059
330
105C
100
AcDbEntity
  8
0
100
AcDbLine
 10
14.800049
 20
118.0
 30
0.0
 11
14.800049
 21
120.0
 31
0.0
  0
LINE
  5
205A
330
105C
100
AcDbEntity
  8
0
100
AcDbLine
 10
-14.79992700000002
 20
118.0
 30
0.0
 11
-14.79992700000002
 21
120.0
 31
0.0
  0
LINE
  5
205B
330
105C
100
AcDbEntity
  8
0
100
AcDbLine
 10
14.800049
 20
204.99997
 30
0.0
 11
14.800049
 21
202.99997
 31
0.0
  0
LINE
  5
205C
330
105C
100
AcDbEntity
  8
0
100
AcDbLine
 10
14.800049
 20
204.99997
 30
0.0
 11
-14.79992700000002
 21
204.99997
 31
0.0
  0
LINE
  5
205D
330
105C
100
AcDbEntity
  8
0
100
AcDbLine
 10
13.50012400000003
 20
157.7472199999999
 30
0.0
 11
20.00007199999999
 21
153.99448
 31
0.0
  0
LINE
  5
205E
330
105C
100
AcDbEntity
  8
0
100
AcDbLine
 10
20.00012400000003
 20
169.0055499999999
 30
0.0
 11
26.50007199999999
 21
165.2528099999999
 31
0.0
  0
LINE
  5
205F
330
105C
100
AcDbEntity
  8
0
100
AcDbLine
 10
20.00006100000002
 20
153.9944
 30
0.0
 11
26.50006100000002
 21
157.74718
 31
0.0
  0
LINE
  5
2060
330
105C
100
AcDbEntity
  8
0
100
AcDbLine
 10
13.5
 20
165.25278
 30
0.0
 11
13.5
 21
157.7472199999999
 31
0.0
  0
LINE
  5
2061
330
105C
100
AcDbEntity
  8
0
100
AcDbLine
 10
24.300093
 20
203.2734399999999
 30
0.0
 11
19.30007
 21
200.38667
 31
0.0
  0
LINE
  5
2062
330
105C
100
AcDbEntity
  8
0
100
AcDbLine
 10
19.300049
 20
122.61328
 30
0.0
 11
19.300049
 21
128.3867199999999
 31
0.0
  0
LINE
  5
2063
330
105C
100
AcDbEntity
  8
0
100
AcDbLine
 10
-24.29993200000001
 20
119.72649
 30
0.0
 11
-19.29991000000001
 21
122.6132599999999
 31
0.0
  0
LINE
  5
2064
330
105C
100
AcDbEntity
  8
0
100
AcDbLine
 10
-29.29992700000003
 20
122.61328
 30
0.0
 11
-29.29992700000003
 21
128.3867199999999
 31
0.0
  0
LINE
  5
2065
330
105C
100
AcDbEntity
  8
0
100
AcDbLine
 10
-24.29991000000001
 20
131.27351
 30
0.0
 11
-29.29993200000001
 21
128.38675
 31
0.0
  0
LINE
  5
2066
330
105C
100
AcDbEntity
  8
0
100
AcDbLine
 10
-19.29992700000002
 20
122.61328
 30
0.0
 11
-19.29992700000002
 21
128.3867199999999
 31
0.0
  0
LINE
  5
2067
330
105C
100
AcDbEntity
  8
0
100
AcDbLine
 10
40.0
 20
232.0
 30
0.0
 11
40.0
 21
207.0001199999999
 31
0.0
  0
LINE
  5
2068
330
105C
100
AcDbEntity
  8
0
100
AcDbLine
 10
-40.0
 20
207.0001199999999
 30
0.0
 11
40.0
 21
207.0001199999999
 31
0.0
  0
LINE
  5
2069
330
105C
100
AcDbEntity
  8
0
100
AcDbLine
 10
-6.0999999
 20
233.5
 30
0.0
 11
6.0999999
 21
233.5
 31
0.0
  0
LINE
  5
206A
330
105C
100
AcDbEntity
  8
0
100
AcDbLine
 10
6.0999999
 20
233.5
 30
0.0
 11
6.0999999
 21
232.0
 31
0.0
  0
LINE
  5
206B
330
105C
100
AcDbEntity
  8
0
100
AcDbLine
 10
0.0
 20
232.0
 30
0.0
 11
0.0
 21
207.0001199999999
 31
0.0
  0
LINE
  5
206C
330
105C
100
AcDbEntity
  8
0
100
AcDbLine
 10
-6.0999999
 20
233.5
 30
0.0
 11
-6.0999999
 21
232.0
 31
0.0
  0
LINE
  5
206D
330
105C
100
AcDbEntity
  8
0
100
AcDbLine
 10
-40.0
 20
232.0
 30
0.0
 11
40.0
 21
232.0
 31
0.0
  0
LINE
  5
206E
330
105C
100
AcDbEntity
  8
0
100
AcDbLine
 10
-5.25
 20
235.0270099999999
 30
0.0
 11
-5.25
 21
233.5
 31
0.0
  0
LINE
  5
206F
330
105C
100
AcDbEntity
  8
0
100
AcDbLine
 10
5.25
 20
235.0270099999999
 30
0.0
 11
5.25
 21
233.5
 31
0.0
  0
LINE
  5
2070
330
105C
100
AcDbEntity
  8
0
100
AcDbLine
 10
-40.0
 20
232.0
 30
0.0
 11
-40.0
 21
207.0001199999999
 31
0.0
  0
LINE
  5
2071
330
105C
100
AcDbEntity
  8
0
100
AcDbLine
 10
44.90000199999997
 20
15.99999600000001
 30
0.0
 11
44.90000199999997
 21
5.000003799999943
 31
0.0
  0
LINE
  5
2072
330
105C
100
AcDbEntity
  8
0
100
AcDbLine
 10
38.90000199999997
 20
-78.25
 30
0.0
 11
60.90000199999997
 21
-78.25
 31
0.0
  0
LINE
  5
2073
330
105C
100
AcDbEntity
  8
0
100
AcDbLine
 10
38.90000199999997
 20
15.99999600000001
 30
0.0
 11
44.90000199999997
 21
15.99999600000001
 31
0.0
  0
LINE
  5
2074
330
105C
100
AcDbEntity
  8
0
100
AcDbLine
 10
54.90000199999997
 20
15.99999600000001
 30
0.0
 11
54.90000199999997
 21
5.000003799999943
 31
0.0
  0
LINE
  5
2075
330
105C
100
AcDbEntity
  8
0
100
AcDbLine
 10
60.90000199999997
 20
78.25
 30
0.0
 11
60.90000199999997
 21
5.000003799999943
 31
0.0
  0
LINE
  5
2076
330
105C
100
AcDbEntity
  8
0
100
AcDbLine
 10
38.90000199999997
 20
5.000003799999943
 30
0.0
 11
44.90000199999997
 21
5.000003799999943
 31
0.0
  0
LINE
  5
2077
330
105C
100
AcDbEntity
  8
0
100
AcDbLine
 10
38.90000199999997
 20
78.25
 30
0.0
 11
38.90000199999997
 21
5.000003799999943
 31
0.0
  0
LINE
  5
2078
330
105C
100
AcDbEntity
  8
0
100
AcDbLine
 10
54.90000199999997
 20
-16.00001499999996
 30
0.0
 11
60.90000199999997
 21
-16.00001499999996
 31
0.0
  0
LINE
  5
2079
330
105C
100
AcDbEntity
  8
0
100
AcDbLine
 10
54.90000199999997
 20
-5.00001529999997
 30
0.0
 11
60.90000199999997
 21
-5.00001529999997
 31
0.0
  0
LINE
  5
207A
330
105C
100
AcDbEntity
  8
0
100
AcDbLine
 10
38.90000199999997
 20
78.25
 30
0.0
 11
60.90000199999997
 21
78.25
 31
0.0
  0
LINE
  5
207B
330
105C
100
AcDbEntity
  8
0
100
AcDbLine
 10
54.90000199999997
 20
5.000003799999943
 30
0.0
 11
60.90000199999997
 21
5.000003799999943
 31
0.0
  0
LINE
  5
207C
330
105C
100
AcDbEntity
  8
0
100
AcDbLine
 10
44.90000199999997
 20
-15.99999600000001
 30
0.0
 11
44.90000199999997
 21
-5.000003799999943
 31
0.0
  0
LINE
  5
207D
330
105C
100
AcDbEntity
  8
0
100
AcDbLine
 10
38.90000199999997
 20
-5.000003799999943
 30
0.0
 11
44.90000199999997
 21
-5.000003799999943
 31
0.0
  0
LINE
  5
207E
330
105C
100
AcDbEntity
  8
0
100
AcDbLine
 10
38.90000199999997
 20
-78.25
 30
0.0
 11
38.90000199999997
 21
-5.000003799999943
 31
0.0
  0
LINE
  5
207F
330
105C
100
AcDbEntity
  8
0
100
AcDbLine
 10
54.90000199999997
 20
-16.00001499999996
 30
0.0
 11
54.90000199999997
 21
-5.000003799999943
 31
0.0
  0
LINE
  5
2080
330
105C
100
AcDbEntity
  8
0
100
AcDbLine
 10
60.90000199999997
 20
-78.25
 30
0.0
 11
60.90000199999997
 21
-5.000003799999943
 31
0.0
  0
LINE
  5
2081
330
105C
100
AcDbEntity
  8
0
100
AcDbLine
 10
57.90000199999997
 20
-19.23341900000002
 30
0.0
 11
57.90000199999997
 21
-26.00001499999996
 31
0.0
  0
LINE
  5
2082
330
105C
100
AcDbEntity
  8
0
100
AcDbLine
 10
54.90000199999997
 20
15.99999600000001
 30
0.0
 11
60.90000199999997
 21
15.99999600000001
 31
0.0
  0
LINE
  5
2083
330
105C
100
AcDbEntity
  8
0
100
AcDbLine
 10
46.40000900000001
 20
-30.25043700000003
 30
0.0
 11
46.40000900000001
 21
-38.00001099999997
 31
0.0
  0
LINE
  5
2084
330
105C
100
AcDbEntity
  8
0
100
AcDbLine
 10
48.40000199999997
 20
-56.00001499999996
 30
0.0
 11
51.40000199999997
 21
-56.00001499999996
 31
0.0
  0
LINE
  5
2085
330
105C
100
AcDbEntity
  8
0
100
AcDbLine
 10
53.40001699999999
 20
-30.25037999999995
 30
0.0
 11
53.40001699999999
 21
-38.00001099999997
 31
0.0
  0
LINE
  5
2086
330
105C
100
AcDbEntity
  8
0
100
AcDbLine
 10
47.40000199999997
 20
-38.00001099999997
 30
0.0
 11
46.40000900000001
 21
-38.00001099999997
 31
0.0
  0
LINE
  5
2087
330
105C
100
AcDbEntity
  8
0
100
AcDbLine
 10
46.40000900000001
 20
6.929277899999986
 30
0.0
 11
53.40001699999999
 21
6.929277899999986
 31
0.0
  0
LINE
  5
2088
330
105C
100
AcDbEntity
  8
0
100
AcDbLine
 10
53.40001699999999
 20
13.0
 30
0.0
 11
54.90000199999997
 21
13.0
 31
0.0
  0
LINE
  5
2089
330
105C
100
AcDbEntity
  8
0
100
AcDbLine
 10
44.90000199999997
 20
13.0
 30
0.0
 11
46.40000900000001
 21
13.0
 31
0.0
  0
LINE
  5
208A
330
105C
100
AcDbEntity
  8
0
100
AcDbLine
 10
44.90000199999997
 20
7.999999499999942
 30
0.0
 11
46.40000900000001
 21
7.999999499999942
 31
0.0
  0
LINE
  5
208B
330
105C
100
AcDbEntity
  8
0
100
AcDbLine
 10
53.40001699999999
 20
7.999999499999942
 30
0.0
 11
54.90000199999997
 21
7.999999499999942
 31
0.0
  0
LINE
  5
208C
330
105C
100
AcDbEntity
  8
0
100
AcDbLine
 10
38.90000199999997
 20
-15.99999600000001
 30
0.0
 11
44.90000199999997
 21
-15.99999600000001
 31
0.0
  0
LINE
  5
208D
330
105C
100
AcDbEntity
  8
0
100
AcDbLine
 10
17.5
 20
82.000404
 30
0.0
 11
17.5
 21
80.00040400000001
 31
0.0
  0
LINE
  5
208E
330
105C
100
AcDbEntity
  8
0
100
AcDbLine
 10
19.00000199999999
 20
68.0
 30
0.0
 11
20.0
 21
69.0
 31
0.0
  0
LINE
  5
208F
330
105C
100
AcDbEntity
  8
0
100
AcDbLine
 10
-20.0
 20
69.0
 30
0.0
 11
-19.00000199999999
 21
68.0
 31
0.0
  0
LINE
  5
2090
330
105C
100
AcDbEntity
  8
0
100
AcDbLine
 10
18.999998
 20
80.0
 30
0.0
 11
20.0
 21
79.0
 31
0.0
  0
LINE
  5
2091
330
105C
100
AcDbEntity
  8
0
100
AcDbLine
 10
14.50012199999997
 20
-71.0
 30
0.0
 11
-14.49987800000002
 21
-71.0
 31
0.0
  0
LINE
  5
2092
330
105C
100
AcDbEntity
  8
0
100
AcDbLine
 10
-17.499908
 20
-80.00001499999994
 30
0.0
 11
-17.499908
 21
-74.00001499999994
 31
0.0
  0
LINE
  5
2093
330
105C
100
AcDbEntity
  8
0
100
AcDbLine
 10
-18.999998
 20
80.0
 30
0.0
 11
-20.0
 21
79.0
 31
0.0
  0
LINE
  5
2094
330
105C
100
AcDbEntity
  8
0
100
AcDbLine
 10
-32.5
 20
118.0
 30
0.0
 11
32.5
 21
118.0
 31
0.0
  0
LINE
  5
2095
330
105C
100
AcDbEntity
  8
0
100
AcDbLine
 10
12.5
 20
80.0
 30
0.0
 11
19.0
 21
80.0
 31
0.0
  0
LINE
  5
2096
330
105C
100
AcDbEntity
  8
0
100
AcDbLine
 10
-18.15423399999997
 20
104.0
 30
0.0
 11
-17.28820999999999
 21
104.5
 31
0.0
  0
LINE
  5
2097
330
105C
100
AcDbEntity
  8
0
100
AcDbLine
 10
-29.42218400000001
 20
104.00001
 30
0.0
 11
-30.28820999999999
 21
104.5000099999999
 31
0.0
  0
LINE
  5
2098
330
105C
100
AcDbEntity
  8
0
100
AcDbLine
 10
-30.288208
 20
104.5
 30
0.0
 11
-17.288208
 21
104.5
 31
0.0
  0
LINE
  5
2099
330
105C
100
AcDbEntity
  8
0
100
AcDbLine
 10
-30.288208
 20
110.75
 30
0.0
 11
-17.288208
 21
110.75
 31
0.0
  0
LINE
  5
209A
330
105C
100
AcDbEntity
  8
0
100
AcDbLine
 10
9.500122099999996
 20
-88.0
 30
0.0
 11
-9.499877899999999
 21
-88.0
 31
0.0
  0
LINE
  5
209B
330
105C
100
AcDbEntity
  8
0
100
AcDbLine
 10
17.50009199999999
 20
-80.00001499999994
 30
0.0
 11
17.50009199999999
 21
-74.00001499999994
 31
0.0
  0
LINE
  5
209C
330
105C
100
AcDbEntity
  8
0
100
AcDbLine
 10
-10.31200999999998
 20
-74.0
 30
0.0
 11
-10.31200999999998
 21
-80.0
 31
0.0
  0
LINE
  5
209D
330
105C
100
AcDbEntity
  8
0
100
AcDbLine
 10
10.31207899999998
 20
-74.0
 30
0.0
 11
10.31207899999998
 21
-80.0
 31
0.0
  0
LINE
  5
209E
330
105C
100
AcDbEntity
  8
0
100
AcDbLine
 10
7.088757999999983
 20
-74.0
 30
0.0
 11
7.088757999999983
 21
-80.0
 31
0.0
  0
LINE
  5
209F
330
105C
100
AcDbEntity
  8
0
100
AcDbLine
 10
17.40080299999999
 20
-74.0
 30
0.0
 11
17.40080299999999
 21
-80.0
 31
0.0
  0
LINE
  5
20A0
330
105C
100
AcDbEntity
  8
0
100
AcDbLine
 10
-7.088688900000022
 20
-74.0
 30
0.0
 11
-7.088688900000022
 21
-80.0
 31
0.0
  0
LINE
  5
20A1
330
105C
100
AcDbEntity
  8
0
100
AcDbLine
 10
-17.400734
 20
-74.0
 30
0.0
 11
-17.400734
 21
-80.0
 31
0.0
  0
LINE
  5
20A2
330
105C
100
AcDbEntity
  8
0
100
AcDbLine
 10
-17.288208
 20
104.5
 30
0.0
 11
-17.288208
 21
112.0
 31
0.0
  0
LINE
  5
20A3
330
105C
100
AcDbEntity
  8
0
100
AcDbLine
 10
-30.288208
 20
104.5
 30
0.0
 11
-30.288208
 21
112.0
 31
0.0
  0
LINE
  5
20A4
330
105C
100
AcDbEntity
  8
0
100
AcDbLine
 10
3.345299500000009
 20
78.69999699999993
 30
0.0
 11
5.6547003
 21
78.69999699999993
 31
0.0
  0
LINE
  5
20A5
330
105C
100
AcDbEntity
  8
0
100
AcDbLine
 10
-29.42218200000002
 20
104.0
 30
0.0
 11
-18.15423399999997
 21
104.0
 31
0.0
  0
LINE
  5
20A6
330
105C
100
AcDbEntity
  8
0
100
AcDbLine
 10
5.654701199999975
 20
78.70000500000003
 30
0.0
 11
6.809402499999976
 21
76.69999699999994
 31
0.0
  0
LINE
  5
20A7
330
105C
100
AcDbEntity
  8
0
100
AcDbLine
 10
-31.48820899999999
 20
112.0
 30
0.0
 11
-16.088209
 21
112.0
 31
0.0
  0
LINE
  5
20A8
330
105C
100
AcDbEntity
  8
0
100
AcDbLine
 10
-16.088209
 20
112.0
 30
0.0
 11
-16.088209
 21
114.0
 31
0.0
  0
LINE
  5
20A9
330
105C
100
AcDbEntity
  8
0
100
AcDbLine
 10
3.345301399999982
 20
78.69999699999993
 30
0.0
 11
2.190600200000004
 21
76.69999699999994
 31
0.0
  0
LINE
  5
20AA
330
105C
100
AcDbEntity
  8
0
100
AcDbLine
 10
16.08832899999999
 20
112.0
 30
0.0
 11
16.08832899999999
 21
114.0
 31
0.0
  0
LINE
  5
20AB
330
105C
100
AcDbEntity
  8
0
100
AcDbLine
 10
9.5
 20
76.69999699999994
 30
0.0
 11
9.5
 21
75.0
 31
0.0
  0
LINE
  5
20AC
330
105C
100
AcDbEntity
  8
0
100
AcDbLine
 10
31.48832900000002
 20
112.0
 30
0.0
 11
31.48832900000002
 21
114.0
 31
0.0
  0
LINE
  5
20AD
330
105C
100
AcDbEntity
  8
0
100
AcDbLine
 10
-0.5
 20
76.69999699999994
 30
0.0
 11
-0.5
 21
75.0
 31
0.0
  0
LINE
  5
20AE
330
105C
100
AcDbEntity
  8
0
100
AcDbLine
 10
2.190599399999995
 20
76.70000500000003
 30
0.0
 11
3.345300699999995
 21
74.69999699999994
 31
0.0
  0
LINE
  5
20AF
330
105C
100
AcDbEntity
  8
0
100
AcDbLine
 10
6.809402900000008
 20
76.69999699999994
 30
0.0
 11
5.654701699999974
 21
74.69999699999994
 31
0.0
  0
LINE
  5
20B0
330
105C
100
AcDbEntity
  8
0
100
AcDbLine
 10
5.6547003
 20
74.69999699999994
 30
0.0
 11
3.345299500000009
 21
74.69999699999994
 31
0.0
  0
LINE
  5
20B1
330
105C
100
AcDbEntity
  8
0
100
AcDbLine
 10
29.42230000000001
 20
104.0
 30
0.0
 11
30.28832599999998
 21
104.5
 31
0.0
  0
LINE
  5
20B2
330
105C
100
AcDbEntity
  8
0
100
AcDbLine
 10
18.154358
 20
104.0
 30
0.0
 11
17.28833200000002
 21
104.5
 31
0.0
  0
LINE
  5
20B3
330
105C
100
AcDbEntity
  8
0
100
AcDbLine
 10
17.28832999999997
 20
104.5
 30
0.0
 11
30.28832999999997
 21
104.5
 31
0.0
  0
LINE
  5
20B4
330
105C
100
AcDbEntity
  8
0
100
AcDbLine
 10
17.28832999999997
 20
110.75
 30
0.0
 11
30.28832999999997
 21
110.75
 31
0.0
  0
LINE
  5
20B5
330
105C
100
AcDbEntity
  8
0
100
AcDbLine
 10
30.28832999999997
 20
104.5
 30
0.0
 11
30.28832999999997
 21
112.0
 31
0.0
  0
LINE
  5
20B6
330
105C
100
AcDbEntity
  8
0
100
AcDbLine
 10
17.28832999999997
 20
104.5
 30
0.0
 11
17.28832999999997
 21
112.0
 31
0.0
  0
LINE
  5
20B7
330
105C
100
AcDbEntity
  8
0
100
AcDbLine
 10
18.154356
 20
104.0
 30
0.0
 11
29.422304
 21
104.0
 31
0.0
  0
LINE
  5
20B8
330
105C
100
AcDbEntity
  8
0
100
AcDbLine
 10
16.08832899999999
 20
112.0
 30
0.0
 11
31.48832900000002
 21
112.0
 31
0.0
  0
LINE
  5
20B9
330
105C
100
AcDbEntity
  8
0
100
AcDbLine
 10
-31.48820899999999
 20
112.0
 30
0.0
 11
-31.48820899999999
 21
114.0
 31
0.0
  0
LINE
  5
20BA
330
105C
100
AcDbEntity
  8
0
100
AcDbLine
 10
-41.0
 20
82.000404
 30
0.0
 11
-41.0
 21
80.00040400000001
 31
0.0
  0
LINE
  5
20BB
330
105C
100
AcDbEntity
  8
0
100
AcDbLine
 10
53.40001699999999
 20
14.07069899999999
 30
0.0
 11
53.40001699999999
 21
-15.55618300000003
 31
0.0
  0
LINE
  5
20BC
330
105C
100
AcDbEntity
  8
0
100
AcDbLine
 10
85.00000799999998
 20
45.49999999999999
 30
0.0
 11
82.71015199999999
 21
45.49999999999999
 31
0.0
  0
LINE
  5
20BD
330
105C
100
AcDbEntity
  8
0
100
AcDbLine
 10
81.95841999999997
 20
44.97361
 30
0.0
 11
79.95380399999998
 21
39.46596499999998
 31
0.0
  0
LINE
  5
20BE
330
105C
100
AcDbEntity
  8
0
100
AcDbLine
 10
46.40000900000001
 20
14.07072200000004
 30
0.0
 11
46.40000900000001
 21
-15.55617700000005
 31
0.0
  0
LINE
  5
20BF
330
105C
100
AcDbEntity
  8
0
100
AcDbLine
 10
85.00000799999998
 20
-45.49999999999999
 30
0.0
 11
82.71015199999999
 21
-45.49999999999999
 31
0.0
  0
LINE
  5
20C0
330
105C
100
AcDbEntity
  8
0
100
AcDbLine
 10
81.95841200000002
 20
-44.97361399999999
 30
0.0
 11
79.95378900000003
 21
-39.46596099999999
 31
0.0
  0
LINE
  5
20C1
330
105C
100
AcDbEntity
  8
0
100
AcDbLine
 10
78.074409
 20
-38.15000199999996
 30
0.0
 11
60.90000199999997
 21
-38.15000199999996
 31
0.0
  0
LINE
  5
20C2
330
105C
100
AcDbEntity
  8
0
100
AcDbLine
 10
41.90000199999996
 20
-19.23341900000002
 30
0.0
 11
41.90000199999996
 21
-26.00001499999996
 31
0.0
  0
LINE
  5
20C3
330
105C
100
AcDbEntity
  8
0
100
AcDbLine
 10
79.47481500000003
 20
38.14999399999999
 30
0.0
 11
79.47481500000003
 21
-38.15000199999996
 31
0.0
  0
LINE
  5
20C4
330
105C
100
AcDbEntity
  8
0
100
AcDbLine
 10
78.074409
 20
38.14999399999999
 30
0.0
 11
60.90000199999997
 21
38.14999399999999
 31
0.0
  0
LINE
  5
20C5
330
105C
100
AcDbEntity
  8
0
100
AcDbLine
 10
-14.75
 20
113.5968736424845
 30
0.0
 11
-14.75
 21
84.00001499999994
 31
0.0
  0
LINE
  5
20C6
330
105C
100
AcDbEntity
  8
0
100
AcDbLine
 10
14.75
 20
113.5968736424845
 30
0.0
 11
14.75
 21
84.00001499999994
 31
0.0
  0
LINE
  5
20C7
330
105C
100
AcDbEntity
  8
0
100
AcDbLine
 10
82.15000199999996
 20
44.97361
 30
0.0
 11
82.15000199999996
 21
-44.80774699999995
 31
0.0
  0
LINE
  5
20C8
330
105C
100
AcDbEntity
  8
0
100
AcDbLine
 10
47.40000199999997
 20
-36.00001499999996
 30
0.0
 11
47.40000199999997
 21
-55.00001499999996
 31
0.0
  0
LINE
  5
20C9
330
105C
100
AcDbEntity
  8
0
100
AcDbLine
 10
52.40000199999997
 20
-36.00001499999996
 30
0.0
 11
52.40000199999997
 21
-55.00001499999996
 31
0.0
  0
LINE
  5
20CA
330
105C
100
AcDbEntity
  8
0
100
AcDbLine
 10
-32.5
 20
118.0
 30
0.0
 11
-32.5
 21
114.0
 31
0.0
  0
LINE
  5
20CB
330
105C
100
AcDbEntity
  8
0
100
AcDbLine
 10
-79.47481500000003
 20
38.14999
 30
0.0
 11
-79.47481500000003
 21
-37.72537199999999
 31
0.0
  0
LINE
  5
20CC
330
105C
100
AcDbEntity
  8
0
100
AcDbLine
 10
-43.00000799999998
 20
-59.14151000000003
 30
0.0
 11
-43.00000799999998
 21
59.14152100000001
 31
0.0
  0
LINE
  5
20CD
330
105C
100
AcDbEntity
  8
0
100
AcDbLine
 10
-57.0
 20
-48.99999600000001
 30
0.0
 11
-57.0
 21
48.99126100000001
 31
0.0
  0
LINE
  5
20CE
330
105C
100
AcDbEntity
  8
0
100
AcDbLine
 10
-46.00000799999998
 20
-54.0
 30
0.0
 11
-52.00000799999997
 21
-54.0
 31
0.0
  0
LINE
  5
20CF
330
105C
100
AcDbEntity
  8
0
100
AcDbLine
 10
-58.99999200000002
 20
-38.15000199999996
 30
0.0
 11
-78.07439399999998
 21
-38.15000199999996
 31
0.0
  0
LINE
  5
20D0
330
105C
100
AcDbEntity
  8
0
100
AcDbLine
 10
53.40001699999999
 20
-38.00001099999997
 30
0.0
 11
52.40000199999997
 21
-38.00001099999997
 31
0.0
  0
LINE
  5
20D1
330
105C
100
AcDbEntity
  8
0
100
AcDbLine
 10
-46.00000799999998
 20
54.00001099999997
 30
0.0
 11
-52.00000799999997
 21
54.00001099999997
 31
0.0
  0
LINE
  5
20D2
330
105C
100
AcDbEntity
  8
0
100
AcDbLine
 10
-58.99999200000002
 20
38.14999
 30
0.0
 11
-78.07439399999998
 21
38.14999
 31
0.0
  0
LINE
  5
20D3
330
105C
100
AcDbEntity
  8
0
100
AcDbLine
 10
53.39998600000001
 20
-37.99999200000003
 30
0.0
 11
52.39999399999999
 21
-39.00001099999997
 31
0.0
  0
LINE
  5
20D4
330
105C
100
AcDbEntity
  8
0
100
AcDbLine
 10
38.90000199999997
 20
62.49999600000001
 30
0.0
 11
38.82577500000002
 21
62.49999600000001
 31
0.0
  0
LINE
  5
20D5
330
105C
100
AcDbEntity
  8
0
100
AcDbLine
 10
12.5
 20
110.0
 30
0.0
 11
12.5
 21
75.0
 31
0.0
  0
LINE
  5
20D6
330
105C
100
AcDbEntity
  8
0
100
AcDbLine
 10
15.0
 20
84.00001499999994
 30
0.0
 11
15.0
 21
82.0
 31
0.0
  0
LINE
  5
20D7
330
105C
100
AcDbEntity
  8
0
100
AcDbLine
 10
-41.0
 20
80.0
 30
0.0
 11
-12.5
 21
80.0
 31
0.0
  0
LINE
  5
20D8
330
105C
100
AcDbEntity
  8
0
100
AcDbLine
 10
-84.99999200000003
 20
45.49999999999999
 30
0.0
 11
-82.71015199999999
 21
45.49999999999999
 31
0.0
  0
LINE
  5
20D9
330
105C
100
AcDbEntity
  8
0
100
AcDbLine
 10
19.00000799999998
 20
68.0
 30
0.0
 11
19.00000799999998
 21
67.63905299999999
 31
0.0
  0
LINE
  5
20DA
330
105C
100
AcDbEntity
  8
0
100
AcDbLine
 10
-11.50000799999998
 20
-69.30338299999994
 30
0.0
 11
-11.50000799999998
 21
-70.36525700000004
 31
0.0
  0
LINE
  5
20DB
330
105C
100
AcDbEntity
  8
0
100
AcDbLine
 10
-84.99999200000003
 20
-45.49999999999999
 30
0.0
 11
-82.71015199999999
 21
-45.49999999999999
 31
0.0
  0
LINE
  5
20DC
330
105C
100
AcDbEntity
  8
0
100
AcDbLine
 10
11.50000799999998
 20
-69.30338299999994
 30
0.0
 11
11.50000799999998
 21
-70.36525700000004
 31
0.0
  0
LINE
  5
20DD
330
105C
100
AcDbEntity
  8
0
100
AcDbLine
 10
-14.999977
 20
84.00001499999994
 30
0.0
 11
-14.999977
 21
82.0
 31
0.0
  0
LINE
  5
20DE
330
105C
100
AcDbEntity
  8
0
100
AcDbLine
 10
-18.99996199999998
 20
68.0
 30
0.0
 11
-18.99996199999998
 21
67.63905299999999
 31
0.0
  0
LINE
  5
20DF
330
105C
100
AcDbEntity
  8
0
100
AcDbLine
 10
32.5
 20
118.0
 30
0.0
 11
32.5
 21
114.0
 31
0.0
  0
LINE
  5
20E0
330
105C
100
AcDbEntity
  8
0
100
AcDbLine
 10
17.5
 20
82.0
 30
0.0
 11
12.5
 21
82.0
 31
0.0
  0
LINE
  5
20E1
330
105C
100
AcDbEntity
  8
0
100
AcDbLine
 10
19.00000799999998
 20
68.0
 30
0.0
 11
-18.99996199999998
 21
68.0
 31
0.0
  0
LINE
  5
20E2
330
105C
100
AcDbEntity
  8
0
100
AcDbLine
 10
-12.5
 20
84.00001499999994
 30
0.0
 11
-14.999977
 21
84.00001499999994
 31
0.0
  0
LINE
  5
20E3
330
105C
100
AcDbEntity
  8
0
100
AcDbLine
 10
-32.5
 20
114.0
 30
0.0
 11
32.5
 21
114.0
 31
0.0
  0
LINE
  5
20E4
330
105C
100
AcDbEntity
  8
0
100
AcDbLine
 10
20.0
 20
79.0
 30
0.0
 11
20.0
 21
69.0
 31
0.0
  0
LINE
  5
20E5
330
105C
100
AcDbEntity
  8
0
100
AcDbLine
 10
15.0
 20
84.00001499999994
 30
0.0
 11
12.5
 21
84.00001499999994
 31
0.0
  0
LINE
  5
20E6
330
105C
100
AcDbEntity
  8
0
100
AcDbLine
 10
-81.95840499999997
 20
44.97361399999999
 30
0.0
 11
-79.95378099999998
 21
39.46595400000001
 31
0.0
  0
LINE
  5
20E7
330
105C
100
AcDbEntity
  8
0
100
AcDbLine
 10
-81.95840499999997
 20
-44.97361399999999
 30
0.0
 11
-79.95378099999998
 21
-39.46595400000001
 31
0.0
  0
LINE
  5
20E8
330
105C
100
AcDbEntity
  8
0
100
AcDbLine
 10
-82.14998600000001
 20
44.97361399999999
 30
0.0
 11
-82.14998600000001
 21
-43.16093399999998
 31
0.0
  0
LINE
  5
20E9
330
105C
100
AcDbEntity
  8
0
100
AcDbLine
 10
-84.99999200000003
 20
45.49999999999999
 30
0.0
 11
-84.99999200000003
 21
-45.49999999999999
 31
0.0
  0
LINE
  5
20EA
330
105C
100
AcDbEntity
  8
0
100
AcDbLine
 10
85.00000799999998
 20
45.49999999999999
 30
0.0
 11
85.00000799999998
 21
-45.49999999999999
 31
0.0
  0
LINE
  5
20EB
330
105C
100
AcDbEntity
  8
0
100
AcDbLine
 10
-12.5
 20
82.0
 30
0.0
 11
-41.0
 21
82.0
 31
0.0
  0
LINE
  5
20EC
330
105C
100
AcDbEntity
  8
0
100
AcDbLine
 10
-20.0
 20
79.0
 30
0.0
 11
-20.0
 21
69.0
 31
0.0
  0
LINE
  5
20ED
330
105C
100
AcDbEntity
  8
0
100
AcDbLine
 10
-12.5
 20
110.0
 30
0.0
 11
-12.5
 21
75.0
 31
0.0
  0
LINE
  5
20EE
330
105C
100
AcDbEntity
  8
0
100
AcDbLine
 10
46.39999799999998
 20
-37.99999200000003
 30
0.0
 11
47.400009
 21
-39.00001099999997
 31
0.0
  0
CIRCLE
  5
20EF
330
105C
100
AcDbEntity
  8
0
100
AcDbCircle
 10
24.300049
 20
125.5
 30
0.0
 40
5.0
  0
CIRCLE
  5
20F0
330
105C
100
AcDbEntity
  8
0
100
AcDbCircle
 10
24.300049
 20
197.4999699999999
 30
0.0
 40
5.0
  0
ARC
  5
20F1
330
105C
100
AcDbEntity
  8
0
100
AcDbCircle
 10
0.0
 20
161.4999699999999
 30
0.0
 40
39.200001
100
AcDbArc
 50
141.7866100000003
 51
218.2133899999997
  0
ARC
  5
20F2
330
105C
100
AcDbEntity
  8
0
100
AcDbCircle
 10
-29.79992700000003
 20
203.99997
 30
0.0
 40
1.0
100
AcDbArc
 50
90.0
 51
180.0
  0
ARC
  5
20F3
330
105C
100
AcDbEntity
  8
0
100
AcDbCircle
 10
29.800049
 20
203.99997
 30
0.0
 40
1.0
100
AcDbArc
 50
0.0
 51
90.0
  0
ARC
  5
20F4
330
105C
100
AcDbEntity
  8
0
100
AcDbCircle
 10
-29.79992700000003
 20
119.0
 30
0.0
 40
1.0
100
AcDbArc
 50
180.0
 51
270.0
  0
ARC
  5
20F5
330
105C
100
AcDbEntity
  8
0
100
AcDbCircle
 10
29.800049
 20
119.0
 30
0.0
 40
1.0
100
AcDbArc
 50
270.0
 51
0.0
  0
CIRCLE
  5
20F6
330
105C
100
AcDbEntity
  8
0
100
AcDbCircle
 10
-24.29992700000003
 20
125.5
 30
0.0
 40
6.0
  0
CIRCLE
  5
20F7
330
105C
100
AcDbEntity
  8
0
100
AcDbCircle
 10
-24.29992700000003
 20
197.4999699999999
 30
0.0
 40
6.0
  0
CIRCLE
  5
20F8
330
105C
100
AcDbEntity
  8
0
100
AcDbCircle
 10
20.0
 20
161.4999699999999
 30
0.0
 40
7.5
  0
CIRCLE
  5
20F9
330
105C
100
AcDbEntity
  8
0
100
AcDbCircle
 10
-20.0
 20
161.4999699999999
 30
0.0
 40
4.8639998
  0
CIRCLE
  5
20FA
330
105C
100
AcDbEntity
  8
0
100
AcDbCircle
 10
-20.0
 20
161.4999699999999
 30
0.0
 40
4.283
  0
CIRCLE
  5
20FB
330
105C
100
AcDbEntity
  8
0
100
AcDbCircle
 10
24.300049
 20
125.5
 30
0.0
 40
6.0
  0
CIRCLE
  5
20FC
330
105C
100
AcDbEntity
  8
0
100
AcDbCircle
 10
24.300049
 20
197.4999699999999
 30
0.0
 40
6.0
  0
CIRCLE
  5
20FD
330
105C
100
AcDbEntity
  8
0
100
AcDbCircle
 10
-24.29992700000003
 20
125.5
 30
0.0
 40
5.0
  0
CIRCLE
  5
20FE
330
105C
100
AcDbEntity
  8
0
100
AcDbCircle
 10
20.0
 20
161.4999699999999
 30
0.0
 40
6.5
  0
ARC
  5
20FF
330
105C
100
AcDbEntity
  8
0
100
AcDbCircle
 10
0.0
 20
161.4999699999999
 30
0.0
 40
39.200001
100
AcDbArc
 50
321.7869099999989
 51
38.21310599999657
  0
CIRCLE
  5
2100
330
105C
100
AcDbEntity
  8
0
100
AcDbCircle
 10
-24.29992700000003
 20
197.4999699999999
 30
0.0
 40
5.0
  0
ARC
  5
2101
330
105C
100
AcDbEntity
  8
0
100
AcDbCircle
 10
3.349999899999999
 20
235.0270099999999
 30
0.0
 40
1.9
100
AcDbArc
 50
0.0
 51
73.92713399999907
  0
ARC
  5
2102
330
105C
100
AcDbEntity
  8
0
100
AcDbCircle
 10
-3.349999899999999
 20
235.0270099999999
 30
0.0
 40
1.9
100
AcDbArc
 50
106.0728599999996
 51
180.0
  0
ARC
  5
2103
330
105C
100
AcDbEntity
  8
0
100
AcDbCircle
 10
0.0
 20
223.4
 30
0.0
 40
14.0
100
AcDbArc
 50
73.92713700000155
 51
106.0728599999996
  0
ARC
  5
2104
330
105C
100
AcDbEntity
  8
0
100
AcDbCircle
 10
48.40000199999997
 20
-55.00001499999996
 30
0.0
 40
1.0
100
AcDbArc
 50
180.0
 51
270.0
  0
ARC
  5
2105
330
105C
100
AcDbEntity
  8
0
100
AcDbCircle
 10
51.40000199999997
 20
-55.00001499999996
 30
0.0
 40
1.0
100
AcDbArc
 50
270.0
 51
0.0
  0
ARC
  5
2106
330
105C
100
AcDbEntity
  8
0
100
AcDbCircle
 10
49.90000199999997
 20
10.5
 30
0.0
 40
5.0
100
AcDbArc
 50
45.57275499999817
 51
134.4268800000007
  0
CIRCLE
  5
2107
330
105C
100
AcDbEntity
  8
0
100
AcDbCircle
 10
4.5
 20
76.69999699999994
 30
0.0
 40
4.25
  0
ARC
  5
2108
330
105C
100
AcDbEntity
  8
0
100
AcDbCircle
 10
-14.49987800000002
 20
-74.00001499999994
 30
0.0
 40
3.0
100
AcDbArc
 50
90.0
 51
180.0
  0
ARC
  5
2109
330
105C
100
AcDbEntity
  8
0
100
AcDbCircle
 10
-9.499877899999999
 20
-80.00001499999994
 30
0.0
 40
8.0
100
AcDbArc
 50
180.0
 51
270.000010000001
  0
ARC
  5
210A
330
105C
100
AcDbEntity
  8
0
100
AcDbCircle
 10
9.500122099999996
 20
-80.00001499999994
 30
0.0
 40
8.0
100
AcDbArc
 50
270.0
 51
0.0
  0
ARC
  5
210B
330
105C
100
AcDbEntity
  8
0
100
AcDbCircle
 10
14.50012199999997
 20
-74.00001499999994
 30
0.0
 40
3.0
100
AcDbArc
 50
0.0
 51
89.9999820000008
  0
CIRCLE
  5
210C
330
105C
100
AcDbEntity
  8
0
100
AcDbCircle
 10
4.5
 20
76.69999699999994
 30
0.0
 40
3.730384799999998
  0
ARC
  5
210D
330
105C
100
AcDbEntity
  8
0
100
AcDbCircle
 10
4.5
 20
76.69999699999994
 30
0.0
 40
5.0
100
AcDbArc
 50
0.0
 51
180.0
  0
ARC
  5
210E
330
105C
100
AcDbEntity
  8
0
100
AcDbCircle
 10
82.71015199999999
 20
44.69999699999993
 30
0.0
 40
0.8000000099999999
100
AcDbArc
 50
90.0
 51
159.9999699999968
  0
ARC
  5
210F
330
105C
100
AcDbEntity
  8
0
100
AcDbCircle
 10
82.71015199999999
 20
-44.69999699999993
 30
0.0
 40
0.8000000099999999
100
AcDbArc
 50
200.0000300000031
 51
270.0
  0
ARC
  5
2110
330
105C
100
AcDbEntity
  8
0
100
AcDbCircle
 10
78.074409
 20
40.14999399999999
 30
0.0
 40
2.0
100
AcDbArc
 50
270.0
 51
340.0000200000026
  0
ARC
  5
2111
330
105C
100
AcDbEntity
  8
0
100
AcDbCircle
 10
64.45001999999999
 20
-38.10000600000001
 30
0.0
 40
0.050000001
100
AcDbArc
 50
270.0
 51
0.0
  0
ARC
  5
2112
330
105C
100
AcDbEntity
  8
0
100
AcDbCircle
 10
64.45001999999999
 20
38.09999100000005
 30
0.0
 40
0.050000001
100
AcDbArc
 50
0.0
 51
90.0
  0
ARC
  5
2113
330
105C
100
AcDbEntity
  8
0
100
AcDbCircle
 10
78.074409
 20
-40.15000199999996
 30
0.0
 40
2.0
100
AcDbArc
 50
19.99997800000258
 51
90.0
  0
ARC
  5
2114
330
105C
100
AcDbEntity
  8
0
100
AcDbCircle
 10
-14.50000799999998
 20
-69.30338299999994
 30
0.0
 40
3.0
100
AcDbArc
 50
0.0
 51
85.28767100000051
  0
ARC
  5
2115
330
105C
100
AcDbEntity
  8
0
100
AcDbCircle
 10
14.50000799999998
 20
-69.30338299999994
 30
0.0
 40
3.0
100
AcDbArc
 50
94.7123289999995
 51
180.0
  0
ARC
  5
2116
330
105C
100
AcDbEntity
  8
0
100
AcDbCircle
 10
-40.00000799999996
 20
-59.14151000000003
 30
0.0
 40
3.0
100
AcDbArc
 50
180.0
 51
256.4317199999999
  0
ARC
  5
2117
330
105C
100
AcDbEntity
  8
0
100
AcDbCircle
 10
-46.00000799999998
 20
-57.0
 30
0.0
 40
3.0
100
AcDbArc
 50
0.0
 51
90.0
  0
ARC
  5
2118
330
105C
100
AcDbEntity
  8
0
100
AcDbCircle
 10
0.0
 20
106.60001
 30
0.0
 40
173.5
100
AcDbArc
 50
256.4317199999999
 51
265.2876699999995
  0
ARC
  5
2119
330
105C
100
AcDbEntity
  8
0
100
AcDbCircle
 10
-58.99999200000002
 20
-40.15000499999996
 30
0.0
 40
2.0
100
AcDbArc
 50
0.0
 51
90.0
  0
ARC
  5
211A
330
105C
100
AcDbEntity
  8
0
100
AcDbCircle
 10
-52.00000799999997
 20
-48.99999600000001
 30
0.0
 40
5.0
100
AcDbArc
 50
180.0
 51
270.0
  0
ARC
  5
211B
330
105C
100
AcDbEntity
  8
0
100
AcDbCircle
 10
0.0
 20
106.60001
 30
0.0
 40
173.5
100
AcDbArc
 50
274.7123300000005
 51
282.9311300000008
  0
ARC
  5
211C
330
105C
100
AcDbEntity
  8
0
100
AcDbCircle
 10
-40.00000799999996
 20
59.14152100000001
 30
0.0
 40
3.0
100
AcDbArc
 50
103.56828
 51
180.0
  0
ARC
  5
211D
330
105C
100
AcDbEntity
  8
0
100
AcDbCircle
 10
-46.00000799999998
 20
57.00001099999997
 30
0.0
 40
3.0
100
AcDbArc
 50
270.0
 51
0.0
  0
ARC
  5
211E
330
105C
100
AcDbEntity
  8
0
100
AcDbCircle
 10
-20.999977
 20
67.63905299999999
 30
0.0
 40
2.0
100
AcDbArc
 50
276.8723800000012
 51
0.0
  0
ARC
  5
211F
330
105C
100
AcDbEntity
  8
0
100
AcDbCircle
 10
21.0
 20
67.63905299999999
 30
0.0
 40
2.0
100
AcDbArc
 50
180.0
 51
263.1276199999988
  0
ARC
  5
2120
330
105C
100
AcDbEntity
  8
0
100
AcDbCircle
 10
0.0
 20
-106.6
 30
0.0
 40
173.5
100
AcDbArc
 50
77.06887099999946
 51
83.12762300000029
  0
ARC
  5
2121
330
105C
100
AcDbEntity
  8
0
100
AcDbCircle
 10
0.0
 20
-106.6
 30
0.0
 40
173.5
100
AcDbArc
 50
96.87020999999916
 51
103.56828
  0
ARC
  5
2122
330
105C
100
AcDbEntity
  8
0
100
AcDbCircle
 10
-58.99999200000002
 20
40.15000499999996
 30
0.0
 40
2.0
100
AcDbArc
 50
270.0
 51
0.0
  0
ARC
  5
2123
330
105C
100
AcDbEntity
  8
0
100
AcDbCircle
 10
-52.00000799999997
 20
48.99999600000001
 30
0.0
 40
5.0
100
AcDbArc
 50
90.0
 51
180.0
  0
ARC
  5
2124
330
105C
100
AcDbEntity
  8
0
100
AcDbCircle
 10
12.49999200000002
 20
-70.36525700000004
 30
0.0
 40
1.0
100
AcDbArc
 50
180.0
 51
219.4009200000042
  0
ARC
  5
2125
330
105C
100
AcDbEntity
  8
0
100
AcDbCircle
 10
-12.49999200000002
 20
-70.36525700000004
 30
0.0
 40
1.0
100
AcDbArc
 50
320.5990799999958
 51
0.0
  0
ARC
  5
2126
330
105C
100
AcDbEntity
  8
0
100
AcDbCircle
 10
16.5
 20
110.0
 30
0.0
 40
4.0
100
AcDbArc
 50
90.0
 51
180.0233392301048
  0
ARC
  5
2127
330
105C
100
AcDbEntity
  8
0
100
AcDbCircle
 10
-82.71015199999999
 20
-44.70000100000003
 30
0.0
 40
0.8000000099999999
100
AcDbArc
 50
270.0
 51
339.9999699999969
  0
ARC
  5
2128
330
105C
100
AcDbEntity
  8
0
100
AcDbCircle
 10
-82.71015199999999
 20
44.69999699999993
 30
0.0
 40
0.8000000099999999
100
AcDbArc
 50
20.00002899999847
 51
90.0
  0
ARC
  5
2129
330
105C
100
AcDbEntity
  8
0
100
AcDbCircle
 10
-78.07439399999998
 20
-40.15000199999996
 30
0.0
 40
2.0
100
AcDbArc
 50
90.0
 51
160.0000200000025
  0
ARC
  5
212A
330
105C
100
AcDbEntity
  8
0
100
AcDbCircle
 10
-78.07439399999998
 20
40.14999399999999
 30
0.0
 40
2.0
100
AcDbArc
 50
199.9999799999974
 51
270.0
  0
ARC
  5
212B
330
105C
100
AcDbEntity
  8
0
100
AcDbCircle
 10
44.90000199999997
 20
-19.23341900000002
 30
0.0
 40
3.0
100
AcDbArc
 50
114.6243100000004
 51
180.0
  0
ARC
  5
212C
330
105C
100
AcDbEntity
  8
0
100
AcDbCircle
 10
49.90000199999997
 20
-30.14213199999995
 30
0.0
 40
15.0
100
AcDbArc
 50
65.37568299999991
 51
114.6243200000001
  0
ARC
  5
212D
330
105C
100
AcDbEntity
  8
0
100
AcDbCircle
 10
54.90000199999997
 20
-19.23341900000002
 30
0.0
 40
3.0
100
AcDbArc
 50
0.0
 51
65.37568599999956
  0
ARC
  5
212E
330
105C
100
AcDbEntity
  8
0
100
AcDbCircle
 10
-16.5
 20
110.0
 30
0.0
 40
4.0
100
AcDbArc
 50
0.0
 51
90.01166961505337
  0
ELLIPSE
  5
212F
330
105C
100
AcDbEntity
  8
0
100
AcDbEllipse
 10
41.90000199999996
 20
-36.00001499999996
 30
0.0
 11
0.0
 21
9.999998599999999
 31
0.0
210
0.0
220
0.0
230
1.0
 40
0.55000006
 41
4.7123888
 42
6.283185307179585
  0
ELLIPSE
  5
2130
330
105C
100
AcDbEntity
  8
0
100
AcDbEllipse
 10
57.90000199999997
 20
-36.00001499999996
 30
0.0
 11
0.0
 21
9.999998599999999
 31
0.0
210
0.0
220
0.0
230
1.0
 40
0.55000006
 41
0.0
 42
1.570796499999999
  0
ELLIPSE
  5
2131
330
105C
100
AcDbEntity
  8
0
100
AcDbEllipse
 10
-13.85637200000002
 20
-74.0
 30
0.0
 11
-3.544361799999999
 21
0.0
 31
0.0
210
0.0
220
0.0
230
1.0
 40
0.7330166500000001
 41
3.1415927
 42
6.283185299999998
  0
ELLIPSE
  5
2132
330
105C
100
AcDbEntity
  8
0
100
AcDbEllipse
 10
13.85644100000002
 20
-74.0
 30
0.0
 11
3.544361799999999
 21
0.0
 31
0.0
210
0.0
220
0.0
230
1.0
 40
0.7330166500000001
 41
0.0
 42
3.1415927
  0
ELLIPSE
  5
2133
330
105C
100
AcDbEntity
  8
0
100
AcDbEllipse
 10
-13.85637200000002
 20
-80.0
 30
0.0
 11
0.0000000000002274
 21
4.663689399999999
 31
0.0
210
0.0
220
0.0
230
1.0
 40
0.7599909700000002
 41
1.5707963
 42
4.712388999999999
  0
ELLIPSE
  5
2134
330
105C
100
AcDbEntity
  8
0
100
AcDbEllipse
 10
0.0000346432930201
 20
-74.0
 30
0.0
 11
-7.088723599999998
 21
0.0
 31
0.0
210
0.0
220
0.0
230
1.0
 40
0.36650832
 41
3.1415927
 42
6.283185299999998
  0
ELLIPSE
  5
2135
330
105C
100
AcDbEntity
  8
0
100
AcDbEllipse
 10
0.0000346432930201
 20
-80.0
 30
0.0
 11
7.088723599999998
 21
0.0
 31
0.0
210
0.0
220
0.0
230
1.0
 40
0.6579025600000001
 41
3.1415927
 42
6.283185299999998
  0
ELLIPSE
  5
2136
330
105C
100
AcDbEntity
  8
0
100
AcDbEllipse
 10
13.85644100000002
 20
-80.0
 30
0.0
 11
-0.0000000000002256
 21
4.663689399999999
 31
0.0
210
0.0
220
0.0
230
1.0
 40
0.7599909700000002
 41
1.5707963
 42
4.712388999999999
  0
LINE
  5
2137
330
105C
100
AcDbEntity
  8
0
100
AcDbLine
 10
384.5000516156721
 20
204.9999708394968
 30
0.0
 11
384.5000516156721
 21
118.0000008394968
 31
0.0
  0
LINE
  5
2138
330
105C
100
AcDbEntity
  8
0
100
AcDbLine
 10
235.5000516156721
 20
137.5760208394968
 30
0.0
 11
384.5000516156721
 21
137.5760208394968
 31
0.0
  0
LINE
  5
2139
330
105C
100
AcDbEntity
  8
0
100
AcDbLine
 10
235.5000516156721
 20
204.9999708394968
 30
0.0
 11
384.5000516156721
 21
204.9999708394968
 31
0.0
  0
LINE
  5
213A
330
105C
100
AcDbEntity
  8
0
100
AcDbLine
 10
235.5000516156721
 20
204.9999708394968
 30
0.0
 11
235.5000516156721
 21
118.0000008394968
 31
0.0
  0
LINE
  5
213B
330
105C
100
AcDbEntity
  8
0
100
AcDbLine
 10
235.5000516156721
 20
118.0000008394968
 30
0.0
 11
384.5000516156721
 21
118.0000008394968
 31
0.0
  0
LINE
  5
213C
330
105C
100
AcDbEntity
  8
0
100
AcDbLine
 10
235.5000516156721
 20
185.4239808394968
 30
0.0
 11
384.5000516156721
 21
185.4239808394968
 31
0.0
  0
LINE
  5
213D
330
105C
100
AcDbEntity
  8
0
100
AcDbLine
 10
240.5000516156721
 20
204.9999708394968
 30
0.0
 11
240.5000516156721
 21
118.0000008394968
 31
0.0
  0
LINE
  5
213E
330
105C
100
AcDbEntity
  8
0
100
AcDbLine
 10
313.7999786156721
 20
206.4998208394968
 30
0.0
 11
313.7999786156721
 21
204.9998208394968
 31
0.0
  0
LINE
  5
213F
330
105C
100
AcDbEntity
  8
0
100
AcDbLine
 10
313.7999786156721
 20
206.4998208394968
 30
0.0
 11
286.200002615672
 21
206.4998208394968
 31
0.0
  0
LINE
  5
2140
330
105C
100
AcDbEntity
  8
0
100
AcDbLine
 10
286.200002615672
 20
206.4998208394968
 30
0.0
 11
286.200002615672
 21
204.9998208394968
 31
0.0
  0
LINE
  5
2141
330
105C
100
AcDbEntity
  8
0
100
AcDbLine
 10
379.5000516156721
 20
204.9999708394968
 30
0.0
 11
379.5000516156721
 21
118.0000008394968
 31
0.0
  0
LINE
  5
2142
330
105C
100
AcDbEntity
  8
0
100
AcDbLine
 10
311.5000516156722
 20
206.4998208394968
 30
0.0
 11
311.5000516156722
 21
206.9998208394968
 31
0.0
  0
LINE
  5
2143
330
105C
100
AcDbEntity
  8
0
100
AcDbLine
 10
288.5000516156722
 20
206.4998208394968
 30
0.0
 11
288.5000516156722
 21
206.9998208394968
 31
0.0
  0
LINE
  5
2144
330
105C
100
AcDbEntity
  8
0
100
AcDbLine
 10
386.1000496156722
 20
203.7499108394968
 30
0.0
 11
384.5000516156721
 21
203.7499108394968
 31
0.0
  0
LINE
  5
2145
330
105C
100
AcDbEntity
  8
0
100
AcDbLine
 10
386.1000496156722
 20
203.7499108394968
 30
0.0
 11
386.1000496156722
 21
191.2499108394968
 31
0.0
  0
LINE
  5
2146
330
105C
100
AcDbEntity
  8
0
100
AcDbLine
 10
386.1000496156722
 20
191.2499108394968
 30
0.0
 11
384.5000516156721
 21
191.2499108394968
 31
0.0
  0
LINE
  5
2147
330
105C
100
AcDbEntity
  8
0
100
AcDbLine
 10
387.6000496156722
 20
203.5999108394968
 30
0.0
 11
387.6000496156722
 21
191.3999208394968
 31
0.0
  0
LINE
  5
2148
330
105C
100
AcDbEntity
  8
0
100
AcDbLine
 10
387.6000496156722
 20
191.3999208394968
 30
0.0
 11
386.1000496156722
 21
191.3999208394968
 31
0.0
  0
LINE
  5
2149
330
105C
100
AcDbEntity
  8
0
100
AcDbLine
 10
387.6000496156722
 20
203.5999108394968
 30
0.0
 11
386.1000496156722
 21
203.5999108394968
 31
0.0
  0
LINE
  5
214A
330
105C
100
AcDbEntity
  8
0
100
AcDbLine
 10
391.0957316156721
 20
203.2734208394968
 30
0.0
 11
387.6000496156722
 21
203.2734208394968
 31
0.0
  0
LINE
  5
214B
330
105C
100
AcDbEntity
  8
0
100
AcDbLine
 10
391.6000496156722
 20
193.1697808394968
 30
0.0
 11
391.6000496156722
 21
201.8300308394968
 31
0.0
  0
LINE
  5
214C
330
105C
100
AcDbEntity
  8
0
100
AcDbLine
 10
391.0957316156721
 20
191.7264108394968
 30
0.0
 11
387.6000496156722
 21
191.7264108394968
 31
0.0
  0
LINE
  5
214D
330
105C
100
AcDbEntity
  8
0
100
AcDbLine
 10
391.0957316156721
 20
194.6131608394968
 30
0.0
 11
387.6000496156722
 21
194.6131608394968
 31
0.0
  0
LINE
  5
214E
330
105C
100
AcDbEntity
  8
0
100
AcDbLine
 10
391.0957316156721
 20
200.3866608394968
 30
0.0
 11
387.6000496156722
 21
200.3866608394968
 31
0.0
  0
LINE
  5
214F
330
105C
100
AcDbEntity
  8
0
100
AcDbLine
 10
386.1000496156722
 20
131.7499408394968
 30
0.0
 11
384.5000516156721
 21
131.7499408394968
 31
0.0
  0
LINE
  5
2150
330
105C
100
AcDbEntity
  8
0
100
AcDbLine
 10
386.1000496156722
 20
131.7499408394968
 30
0.0
 11
386.1000496156722
 21
119.2499408394968
 31
0.0
  0
LINE
  5
2151
330
105C
100
AcDbEntity
  8
0
100
AcDbLine
 10
386.1000496156722
 20
119.2499408394968
 30
0.0
 11
384.5000516156721
 21
119.2499408394968
 31
0.0
  0
LINE
  5
2152
330
105C
100
AcDbEntity
  8
0
100
AcDbLine
 10
387.6000496156722
 20
131.5999508394968
 30
0.0
 11
387.6000496156722
 21
119.3999408394968
 31
0.0
  0
LINE
  5
2153
330
105C
100
AcDbEntity
  8
0
100
AcDbLine
 10
387.6000496156722
 20
119.3999408394968
 30
0.0
 11
386.1000496156722
 21
119.3999408394968
 31
0.0
  0
LINE
  5
2154
330
105C
100
AcDbEntity
  8
0
100
AcDbLine
 10
387.6000496156722
 20
131.5999508394968
 30
0.0
 11
386.1000496156722
 21
131.5999508394968
 31
0.0
  0
LINE
  5
2155
330
105C
100
AcDbEntity
  8
0
100
AcDbLine
 10
391.0957316156721
 20
131.2734408394968
 30
0.0
 11
387.6000496156722
 21
131.2734408394968
 31
0.0
  0
LINE
  5
2156
330
105C
100
AcDbEntity
  8
0
100
AcDbLine
 10
391.6000496156722
 20
121.1698208394968
 30
0.0
 11
391.6000496156722
 21
129.8300608394968
 31
0.0
  0
LINE
  5
2157
330
105C
100
AcDbEntity
  8
0
100
AcDbLine
 10
391.0957316156721
 20
119.7264308394968
 30
0.0
 11
387.6000496156722
 21
119.7264308394968
 31
0.0
  0
LINE
  5
2158
330
105C
100
AcDbEntity
  8
0
100
AcDbLine
 10
391.0957316156721
 20
122.6131908394967
 30
0.0
 11
387.6000496156722
 21
122.6131908394967
 31
0.0
  0
LINE
  5
2159
330
105C
100
AcDbEntity
  8
0
100
AcDbLine
 10
391.0957316156721
 20
128.3866908394968
 30
0.0
 11
387.6000496156722
 21
128.3866908394968
 31
0.0
  0
LINE
  5
215A
330
105C
100
AcDbEntity
  8
0
100
AcDbLine
 10
233.9000536156721
 20
191.2499108394968
 30
0.0
 11
235.5000516156721
 21
191.2499108394968
 31
0.0
  0
LINE
  5
215B
330
105C
100
AcDbEntity
  8
0
100
AcDbLine
 10
233.9000536156721
 20
191.2499108394968
 30
0.0
 11
233.9000536156721
 21
203.7499108394968
 31
0.0
  0
LINE
  5
215C
330
105C
100
AcDbEntity
  8
0
100
AcDbLine
 10
233.9000536156721
 20
203.7499108394968
 30
0.0
 11
235.5000516156721
 21
203.7499108394968
 31
0.0
  0
LINE
  5
215D
330
105C
100
AcDbEntity
  8
0
100
AcDbLine
 10
232.4000536156721
 20
191.3999208394968
 30
0.0
 11
232.4000536156721
 21
203.5999108394968
 31
0.0
  0
LINE
  5
215E
330
105C
100
AcDbEntity
  8
0
100
AcDbLine
 10
232.4000536156721
 20
203.5999108394968
 30
0.0
 11
233.9000536156721
 21
203.5999108394968
 31
0.0
  0
LINE
  5
215F
330
105C
100
AcDbEntity
  8
0
100
AcDbLine
 10
232.4000536156721
 20
191.3999208394968
 30
0.0
 11
233.9000536156721
 21
191.3999208394968
 31
0.0
  0
LINE
  5
2160
330
105C
100
AcDbEntity
  8
0
100
AcDbLine
 10
228.904371615672
 20
191.7264108394968
 30
0.0
 11
232.4000536156721
 21
191.7264108394968
 31
0.0
  0
LINE
  5
2161
330
105C
100
AcDbEntity
  8
0
100
AcDbLine
 10
228.4000536156721
 20
201.8300308394968
 30
0.0
 11
228.4000536156721
 21
193.1697808394968
 31
0.0
  0
LINE
  5
2162
330
105C
100
AcDbEntity
  8
0
100
AcDbLine
 10
228.904371615672
 20
203.2734208394968
 30
0.0
 11
232.4000536156721
 21
203.2734208394968
 31
0.0
  0
LINE
  5
2163
330
105C
100
AcDbEntity
  8
0
100
AcDbLine
 10
228.904371615672
 20
200.3866608394968
 30
0.0
 11
232.4000536156721
 21
200.3866608394968
 31
0.0
  0
LINE
  5
2164
330
105C
100
AcDbEntity
  8
0
100
AcDbLine
 10
228.904371615672
 20
194.6131608394968
 30
0.0
 11
232.4000536156721
 21
194.6131608394968
 31
0.0
  0
LINE
  5
2165
330
105C
100
AcDbEntity
  8
0
100
AcDbLine
 10
233.9000536156721
 20
119.2499408394968
 30
0.0
 11
235.5000516156721
 21
119.2499408394968
 31
0.0
  0
LINE
  5
2166
330
105C
100
AcDbEntity
  8
0
100
AcDbLine
 10
233.9000536156721
 20
119.2499408394968
 30
0.0
 11
233.9000536156721
 21
131.7499408394968
 31
0.0
  0
LINE
  5
2167
330
105C
100
AcDbEntity
  8
0
100
AcDbLine
 10
233.9000536156721
 20
131.7499408394968
 30
0.0
 11
235.5000516156721
 21
131.7499408394968
 31
0.0
  0
LINE
  5
2168
330
105C
100
AcDbEntity
  8
0
100
AcDbLine
 10
232.4000536156721
 20
119.3999408394968
 30
0.0
 11
232.4000536156721
 21
131.5999508394968
 31
0.0
  0
LINE
  5
2169
330
105C
100
AcDbEntity
  8
0
100
AcDbLine
 10
232.4000536156721
 20
131.5999508394968
 30
0.0
 11
233.9000536156721
 21
131.5999508394968
 31
0.0
  0
LINE
  5
216A
330
105C
100
AcDbEntity
  8
0
100
AcDbLine
 10
232.4000536156721
 20
119.3999408394968
 30
0.0
 11
233.9000536156721
 21
119.3999408394968
 31
0.0
  0
LINE
  5
216B
330
105C
100
AcDbEntity
  8
0
100
AcDbLine
 10
228.904371615672
 20
119.7264308394968
 30
0.0
 11
232.4000536156721
 21
119.7264308394968
 31
0.0
  0
LINE
  5
216C
330
105C
100
AcDbEntity
  8
0
100
AcDbLine
 10
228.4000536156721
 20
129.8300608394968
 30
0.0
 11
228.4000536156721
 21
121.1698208394968
 31
0.0
  0
LINE
  5
216D
330
105C
100
AcDbEntity
  8
0
100
AcDbLine
 10
228.904371615672
 20
131.2734408394968
 30
0.0
 11
232.4000536156721
 21
131.2734408394968
 31
0.0
  0
LINE
  5
216E
330
105C
100
AcDbEntity
  8
0
100
AcDbLine
 10
228.904371615672
 20
128.3866908394968
 30
0.0
 11
232.4000536156721
 21
128.3866908394968
 31
0.0
  0
LINE
  5
216F
330
105C
100
AcDbEntity
  8
0
100
AcDbLine
 10
228.904371615672
 20
122.6131908394967
 30
0.0
 11
232.4000536156721
 21
122.6131908394967
 31
0.0
  0
LINE
  5
2170
330
105C
100
AcDbEntity
  8
0
100
AcDbLine
 10
220.0000516156721
 20
167.1290708394967
 30
0.0
 11
220.0000516156721
 21
155.8707408394966
 31
0.0
  0
LINE
  5
2171
330
105C
100
AcDbEntity
  8
0
100
AcDbLine
 10
220.7249436156721
 20
169.0054608394968
 30
0.0
 11
225.5000516156721
 21
169.0054608394968
 31
0.0
  0
LINE
  5
2172
330
105C
100
AcDbEntity
  8
0
100
AcDbLine
 10
220.7249436156721
 20
153.9943508394968
 30
0.0
 11
225.5000516156721
 21
153.9943508394968
 31
0.0
  0
LINE
  5
2173
330
105C
100
AcDbEntity
  8
0
100
AcDbLine
 10
220.7249436156721
 20
165.2526908394968
 30
0.0
 11
225.5000516156721
 21
165.2526908394968
 31
0.0
  0
LINE
  5
2174
330
105C
100
AcDbEntity
  8
0
100
AcDbLine
 10
220.7249436156721
 20
157.7471308394968
 30
0.0
 11
225.5000516156721
 21
157.7471308394968
 31
0.0
  0
LINE
  5
2175
330
105C
100
AcDbEntity
  8
0
100
AcDbLine
 10
225.5000516156721
 20
169.0054608394968
 30
0.0
 11
225.5000516156721
 21
153.9943508394968
 31
0.0
  0
LINE
  5
2176
330
105C
100
AcDbEntity
  8
0
100
AcDbLine
 10
233.9000536156721
 20
152.9999108394968
 30
0.0
 11
233.9000536156721
 21
169.9999108394968
 31
0.0
  0
LINE
  5
2177
330
105C
100
AcDbEntity
  8
0
100
AcDbLine
 10
233.9000536156721
 20
152.9999108394968
 30
0.0
 11
235.5000516156721
 21
152.9999108394968
 31
0.0
  0
LINE
  5
2178
330
105C
100
AcDbEntity
  8
0
100
AcDbLine
 10
233.9000536156721
 20
169.9999108394968
 30
0.0
 11
235.5000516156721
 21
169.9999108394968
 31
0.0
  0
LINE
  5
2179
330
105C
100
AcDbEntity
  8
0
100
AcDbLine
 10
228.900053615672
 20
167.1290708394967
 30
0.0
 11
228.900053615672
 21
155.8707408394966
 31
0.0
  0
LINE
  5
217A
330
105C
100
AcDbEntity
  8
0
100
AcDbLine
 10
229.6249446156721
 20
169.0054608394968
 30
0.0
 11
233.1751536156721
 21
169.0054608394968
 31
0.0
  0
LINE
  5
217B
330
105C
100
AcDbEntity
  8
0
100
AcDbLine
 10
229.6249446156721
 20
153.9943508394968
 30
0.0
 11
233.1751536156721
 21
153.9943508394968
 31
0.0
  0
LINE
  5
217C
330
105C
100
AcDbEntity
  8
0
100
AcDbLine
 10
229.6249446156721
 20
165.2526908394968
 30
0.0
 11
233.1751536156721
 21
165.2526908394968
 31
0.0
  0
LINE
  5
217D
330
105C
100
AcDbEntity
  8
0
100
AcDbLine
 10
229.6249446156721
 20
157.7471308394968
 30
0.0
 11
233.1751536156721
 21
157.7471308394968
 31
0.0
  0
LINE
  5
217E
330
105C
100
AcDbEntity
  8
0
100
AcDbLine
 10
225.5000516156721
 20
157.4999108394968
 30
0.0
 11
228.900053615672
 21
157.4999108394968
 31
0.0
  0
LINE
  5
217F
330
105C
100
AcDbEntity
  8
0
100
AcDbLine
 10
225.5000516156721
 20
165.4999108394968
 30
0.0
 11
228.900053615672
 21
165.4999108394968
 31
0.0
  0
LINE
  5
2180
330
105C
100
AcDbEntity
  8
0
100
AcDbLine
 10
400.000051615672
 20
155.8707408394966
 30
0.0
 11
400.000051615672
 21
167.1290708394967
 31
0.0
  0
LINE
  5
2181
330
105C
100
AcDbEntity
  8
0
100
AcDbLine
 10
399.275159615672
 20
153.9943508394968
 30
0.0
 11
394.5000516156722
 21
153.9943508394968
 31
0.0
  0
LINE
  5
2182
330
105C
100
AcDbEntity
  8
0
100
AcDbLine
 10
399.275159615672
 20
169.0054608394968
 30
0.0
 11
394.5000516156722
 21
169.0054608394968
 31
0.0
  0
LINE
  5
2183
330
105C
100
AcDbEntity
  8
0
100
AcDbLine
 10
399.275159615672
 20
157.7471308394968
 30
0.0
 11
394.5000516156722
 21
157.7471308394968
 31
0.0
  0
LINE
  5
2184
330
105C
100
AcDbEntity
  8
0
100
AcDbLine
 10
399.275159615672
 20
165.2526908394968
 30
0.0
 11
394.5000516156722
 21
165.2526908394968
 31
0.0
  0
LINE
  5
2185
330
105C
100
AcDbEntity
  8
0
100
AcDbLine
 10
394.5000516156722
 20
153.9943508394968
 30
0.0
 11
394.5000516156722
 21
169.0054608394968
 31
0.0
  0
LINE
  5
2186
330
105C
100
AcDbEntity
  8
0
100
AcDbLine
 10
389.5000516156721
 20
155.8707408394966
 30
0.0
 11
389.5000516156721
 21
167.1290708394967
 31
0.0
  0
LINE
  5
2187
330
105C
100
AcDbEntity
  8
0
100
AcDbLine
 10
388.775159615672
 20
153.9943508394968
 30
0.0
 11
385.2249436156721
 21
153.9943508394968
 31
0.0
  0
LINE
  5
2188
330
105C
100
AcDbEntity
  8
0
100
AcDbLine
 10
388.775159615672
 20
169.0054608394968
 30
0.0
 11
385.2249436156721
 21
169.0054608394968
 31
0.0
  0
LINE
  5
2189
330
105C
100
AcDbEntity
  8
0
100
AcDbLine
 10
388.775159615672
 20
157.7471308394968
 30
0.0
 11
385.2249436156721
 21
157.7471308394968
 31
0.0
  0
LINE
  5
218A
330
105C
100
AcDbEntity
  8
0
100
AcDbLine
 10
388.775159615672
 20
165.2526908394968
 30
0.0
 11
385.2249436156721
 21
165.2526908394968
 31
0.0
  0
LINE
  5
218B
330
105C
100
AcDbEntity
  8
0
100
AcDbLine
 10
394.5000516156722
 20
165.4999108394968
 30
0.0
 11
389.5000516156721
 21
165.4999108394968
 31
0.0
  0
LINE
  5
218C
330
105C
100
AcDbEntity
  8
0
100
AcDbLine
 10
394.5000516156722
 20
157.4999108394968
 30
0.0
 11
389.5000516156721
 21
157.4999108394968
 31
0.0
  0
LINE
  5
218D
330
105C
100
AcDbEntity
  8
0
100
AcDbLine
 10
318.0
 20
232.0
 30
0.0
 11
318.0000516156721
 21
206.9998208394968
 31
0.0
  0
LINE
  5
218E
330
105C
100
AcDbEntity
  8
0
100
AcDbLine
 10
282.0
 20
232.0
 30
0.0
 11
318.0
 21
232.0
 31
0.0
  0
LINE
  5
218F
330
105C
100
AcDbEntity
  8
0
100
AcDbLine
 10
282.0000516156721
 20
206.9998208394968
 30
0.0
 11
318.0000516156721
 21
206.9998208394968
 31
0.0
  0
LINE
  5
2190
330
105C
100
AcDbEntity
  8
0
100
AcDbLine
 10
294.75
 20
235.02702
 30
0.0
 11
294.75
 21
233.5
 31
0.0
  0
LINE
  5
2191
330
105C
100
AcDbEntity
  8
0
100
AcDbLine
 10
306.0999998999999
 20
233.5
 30
0.0
 11
306.0999998999999
 21
232.0
 31
0.0
  0
LINE
  5
2192
330
105C
100
AcDbEntity
  8
0
100
AcDbLine
 10
305.25
 20
235.02702
 30
0.0
 11
305.25
 21
233.5
 31
0.0
  0
LINE
  5
2193
330
105C
100
AcDbEntity
  8
0
100
AcDbLine
 10
293.9000001000001
 20
233.5
 30
0.0
 11
293.9000001000001
 21
232.0
 31
0.0
  0
LINE
  5
2194
330
105C
100
AcDbEntity
  8
0
100
AcDbLine
 10
302.5310631
 20
232.0
 30
0.0
 11
302.5311147156721
 21
206.9998208394968
 31
0.0
  0
LINE
  5
2195
330
105C
100
AcDbEntity
  8
0
100
AcDbLine
 10
293.9000001000001
 20
233.5
 30
0.0
 11
306.0999998999999
 21
233.5
 31
0.0
  0
LINE
  5
2196
330
105C
100
AcDbEntity
  8
0
100
AcDbLine
 10
297.4689369
 20
232.0
 30
0.0
 11
297.4689885156721
 21
206.9998208394968
 31
0.0
  0
LINE
  5
2197
330
105C
100
AcDbEntity
  8
0
100
AcDbLine
 10
282.0
 20
232.0
 30
0.0
 11
282.0000516156721
 21
206.9998208394968
 31
0.0
  0
LINE
  5
2198
330
105C
100
AcDbEntity
  8
0
100
AcDbLine
 10
284.0000436156721
 20
-76.5967631605032
 30
0.0
 11
284.0000436156721
 21
-84.66371116050323
 31
0.0
  0
LINE
  5
2199
330
105C
100
AcDbEntity
  8
0
100
AcDbLine
 10
213.500020615672
 20
-30.06350216050317
 30
0.0
 11
213.500020615672
 21
-38.00001416050321
 31
0.0
  0
LINE
  5
219A
330
105C
100
AcDbEntity
  8
0
100
AcDbLine
 10
206.500013615672
 20
-30.06350216050317
 30
0.0
 11
206.500013615672
 21
-38.00001416050321
 31
0.0
  0
LINE
  5
219B
330
105C
100
AcDbEntity
  8
0
100
AcDbLine
 10
213.499990615672
 20
-37.99998816050322
 30
0.0
 11
212.5000056156721
 21
-39.00000716050318
 31
0.0
  0
LINE
  5
219C
330
105C
100
AcDbEntity
  8
0
100
AcDbLine
 10
212.0536706156721
 20
15.99999683949681
 30
0.0
 11
201.000020615672
 21
15.99999683949681
 31
0.0
  0
LINE
  5
219D
330
105C
100
AcDbEntity
  8
0
100
AcDbLine
 10
212.5000136156721
 20
-39.00001016050318
 30
0.0
 11
207.500020615672
 21
-39.00001016050318
 31
0.0
  0
LINE
  5
219E
330
105C
100
AcDbEntity
  8
0
100
AcDbLine
 10
212.0536706156721
 20
-5.000013960503223
 30
0.0
 11
201.000020615672
 21
-5.000013960503223
 31
0.0
  0
LINE
  5
219F
330
105C
100
AcDbEntity
  8
0
100
AcDbLine
 10
212.0536706156721
 20
5.000004639496808
 30
0.0
 11
201.000020615672
 21
5.000004639496808
 31
0.0
  0
LINE
  5
21A0
330
105C
100
AcDbEntity
  8
0
100
AcDbLine
 10
212.0536706156721
 20
-16.0000181605032
 30
0.0
 11
201.000020615672
 21
-16.0000181605032
 31
0.0
  0
LINE
  5
21A1
330
105C
100
AcDbEntity
  8
0
100
AcDbLine
 10
367.7668366156721
 20
39.12448183949681
 30
0.0
 11
382.413473615672
 21
13.74949083949684
 31
0.0
  0
LINE
  5
21A2
330
105C
100
AcDbEntity
  8
0
100
AcDbLine
 10
225.958333615672
 20
-56.00001416050321
 30
0.0
 11
194.0417716156721
 21
-56.00001416050321
 31
0.0
  0
LINE
  5
21A3
330
105C
100
AcDbEntity
  8
0
100
AcDbLine
 10
358.2399576156721
 20
33.6254968394968
 30
0.0
 11
372.886594615672
 21
8.250503439496808
 31
0.0
  0
LINE
  5
21A4
330
105C
100
AcDbEntity
  8
0
100
AcDbLine
 10
358.2399616156721
 20
-33.6255141605032
 30
0.0
 11
372.886594615672
 21
-8.250523660503175
 31
0.0
  0
LINE
  5
21A5
330
105C
100
AcDbEntity
  8
0
100
AcDbLine
 10
367.7668136156722
 20
-39.12451516050317
 30
0.0
 11
382.4134806156721
 21
-13.74951516050316
 31
0.0
  0
LINE
  5
21A6
330
105C
100
AcDbEntity
  8
0
100
AcDbLine
 10
200.000021615672
 20
14.99999683949681
 30
0.0
 11
200.000021615672
 21
6.000004639496808
 31
0.0
  0
LINE
  5
21A7
330
105C
100
AcDbEntity
  8
0
100
AcDbLine
 10
200.000021615672
 20
-6.000013960503224
 30
0.0
 11
200.000021615672
 21
-15.0000171605032
 31
0.0
  0
LINE
  5
21A8
330
105C
100
AcDbEntity
  8
0
100
AcDbLine
 10
206.500013615672
 20
5.000004639496808
 30
0.0
 11
206.500013615672
 21
-5.000013960503223
 31
0.0
  0
LINE
  5
21A9
330
105C
100
AcDbEntity
  8
0
100
AcDbLine
 10
213.500020615672
 20
5.040287839496841
 30
0.0
 11
213.500020615672
 21
-5.040308560503206
 31
0.0
  0
LINE
  5
21AA
330
105C
100
AcDbEntity
  8
0
100
AcDbLine
 10
206.416807615672
 20
-30.2221921605032
 30
0.0
 11
202.833593615672
 21
-37.44448416050318
 31
0.0
  0
LINE
  5
21AB
330
105C
100
AcDbEntity
  8
0
100
AcDbLine
 10
213.5832426156721
 20
-30.22229116050323
 30
0.0
 11
217.1664716156721
 21
-37.44451016050323
 31
0.0
  0
LINE
  5
21AC
330
105C
100
AcDbEntity
  8
0
100
AcDbLine
 10
206.4999986156721
 20
-37.9999951605032
 30
0.0
 11
207.499975615672
 21
-38.9999761605032
 31
0.0
  0
LINE
  5
21AD
330
105C
100
AcDbEntity
  8
0
100
AcDbLine
 10
278.328651615672
 20
77.56429383949683
 30
0.0
 11
280.0000416156721
 21
76.49468283949682
 31
0.0
  0
LINE
  5
21AE
330
105C
100
AcDbEntity
  8
0
100
AcDbLine
 10
273.7000446156721
 20
80.43038283949682
 30
0.0
 11
273.7000446156721
 21
73.69786183949679
 31
0.0
  0
LINE
  5
21AF
330
105C
100
AcDbEntity
  8
0
100
AcDbLine
 10
273.1021866156721
 20
81.69999783949679
 30
0.0
 11
274.8356896156721
 21
81.69999783949679
 31
0.0
  0
LINE
  5
21B0
330
105C
100
AcDbEntity
  8
0
100
AcDbLine
 10
314.3091296156721
 20
80.00000083949679
 30
0.0
 11
315.6125356156721
 21
79.00000083949681
 31
0.0
  0
LINE
  5
21B1
330
105C
100
AcDbEntity
  8
0
100
AcDbLine
 10
274.0000456156721
 20
80.94999783949679
 30
0.0
 11
274.0000456156721
 21
73.80423083949684
 31
0.0
  0
LINE
  5
21B2
330
105C
100
AcDbEntity
  8
0
100
AcDbLine
 10
309.5000373156721
 20
-88.00001416050326
 30
0.0
 11
290.5000068156721
 21
-88.00001416050326
 31
0.0
  0
LINE
  5
21B3
330
105C
100
AcDbEntity
  8
0
100
AcDbLine
 10
285.861030615672
 20
-76.96202016050325
 30
0.0
 11
285.861030615672
 21
-79.99954916050319
 31
0.0
  0
LINE
  5
21B4
330
105C
100
AcDbEntity
  8
0
100
AcDbLine
 10
301.8610302156722
 20
-78.22786616050326
 30
0.0
 11
301.8610302156722
 21
-79.99954916050319
 31
0.0
  0
LINE
  5
21B5
330
105C
100
AcDbEntity
  8
0
100
AcDbLine
 10
314.1390596156721
 20
-76.96199716050319
 30
0.0
 11
314.1390596156721
 21
-79.99954916050319
 31
0.0
  0
LINE
  5
21B6
330
105C
100
AcDbEntity
  8
0
100
AcDbLine
 10
298.1390594156721
 20
-78.22786616050326
 30
0.0
 11
298.1390594156721
 21
-79.99954916050319
 31
0.0
  0
LINE
  5
21B7
330
105C
100
AcDbEntity
  8
0
100
AcDbLine
 10
273.7000466156721
 20
80.43038283949682
 30
0.0
 11
274.0000456156721
 21
80.94999783949679
 31
0.0
  0
LINE
  5
21B8
330
105C
100
AcDbEntity
  8
0
100
AcDbLine
 10
218.0000056156721
 20
-19.23341816050321
 30
0.0
 11
218.0000056156721
 21
-25.0148571605032
 31
0.0
  0
LINE
  5
21B9
330
105C
100
AcDbEntity
  8
0
100
AcDbLine
 10
202.0000056156721
 20
-19.23341816050321
 30
0.0
 11
202.0000056156721
 21
-25.0148571605032
 31
0.0
  0
LINE
  5
21BA
330
105C
100
AcDbEntity
  8
0
100
AcDbLine
 10
278.7000446156721
 20
77.32662283949679
 30
0.0
 11
278.7000446156721
 21
75.29525083949682
 31
0.0
  0
LINE
  5
21BB
330
105C
100
AcDbEntity
  8
0
100
AcDbLine
 10
274.0000456156721
 20
80.94999783949679
 30
0.0
 11
275.1979736156719
 21
80.94999783949679
 31
0.0
  0
LINE
  5
21BC
330
105C
100
AcDbEntity
  8
0
100
AcDbLine
 10
278.0000456156721
 20
77.78418783949678
 30
0.0
 11
278.0000456156721
 21
75.09370483949679
 31
0.0
  0
LINE
  5
21BD
330
105C
100
AcDbEntity
  8
0
100
AcDbLine
 10
284.5000456156721
 20
82.0000008394968
 30
0.0
 11
284.5000456156721
 21
80.00000083949679
 31
0.0
  0
LINE
  5
21BE
330
105C
100
AcDbEntity
  8
0
100
AcDbLine
 10
316.0000446156721
 20
-76.59674016050326
 30
0.0
 11
316.0000446156721
 21
-84.66371116050323
 31
0.0
  0
LINE
  5
21BF
330
105C
100
AcDbEntity
  8
0
100
AcDbLine
 10
315.0000456156721
 20
84.00000083949681
 30
0.0
 11
315.0000456156721
 21
82.0000008394968
 31
0.0
  0
LINE
  5
21C0
330
105C
100
AcDbEntity
  8
0
100
AcDbLine
 10
267.5000436156721
 20
114.0000008394968
 30
0.0
 11
332.5000436156721
 21
114.0000008394968
 31
0.0
  0
LINE
  5
21C1
330
105C
100
AcDbEntity
  8
0
100
AcDbLine
 10
281.2917576156721
 20
80.00000083949679
 30
0.0
 11
318.7083326156721
 21
80.00000083949679
 31
0.0
  0
LINE
  5
21C2
330
105C
100
AcDbEntity
  8
0
100
AcDbLine
 10
280.0000456156721
 20
76.49468283949682
 30
0.0
 11
280.0000456156721
 21
75.65093283949682
 31
0.0
  0
LINE
  5
21C3
330
105C
100
AcDbEntity
  8
0
100
AcDbLine
 10
267.5000436156721
 20
118.0000008394968
 30
0.0
 11
267.5000436156721
 21
114.0000008394968
 31
0.0
  0
LINE
  5
21C4
330
105C
100
AcDbEntity
  8
0
100
AcDbLine
 10
332.5000436156721
 20
118.0000008394968
 30
0.0
 11
332.5000436156721
 21
114.0000008394968
 31
0.0
  0
LINE
  5
21C5
330
105C
100
AcDbEntity
  8
0
100
AcDbLine
 10
315.612540615672
 20
79.00000083949681
 30
0.0
 11
315.612540615672
 21
76.67666683949682
 31
0.0
  0
LINE
  5
21C6
330
105C
100
AcDbEntity
  8
0
100
AcDbLine
 10
284.5000456156721
 20
82.0000008394968
 30
0.0
 11
315.5000456156721
 21
82.0000008394968
 31
0.0
  0
LINE
  5
21C7
330
105C
100
AcDbEntity
  8
0
100
AcDbLine
 10
284.3875506156721
 20
79.00000083949681
 30
0.0
 11
284.3875506156721
 21
76.67668283949685
 31
0.0
  0
LINE
  5
21C8
330
105C
100
AcDbEntity
  8
0
100
AcDbLine
 10
285.6909626156721
 20
80.00000083949679
 30
0.0
 11
284.387553615672
 21
79.00000083949681
 31
0.0
  0
LINE
  5
21C9
330
105C
100
AcDbEntity
  8
0
100
AcDbLine
 10
321.2793156156721
 20
75.89575283949681
 30
0.0
 11
323.6622336156721
 21
77.56429383949683
 31
0.0
  0
LINE
  5
21CA
330
105C
100
AcDbEntity
  8
0
100
AcDbLine
 10
270.5778636156721
 20
104.0000008394968
 30
0.0
 11
269.7118376156721
 21
104.5000008394968
 31
0.0
  0
LINE
  5
21CB
330
105C
100
AcDbEntity
  8
0
100
AcDbLine
 10
269.7118376156721
 20
104.5000008394968
 30
0.0
 11
282.711837615672
 21
104.5000008394968
 31
0.0
  0
LINE
  5
21CC
330
105C
100
AcDbEntity
  8
0
100
AcDbLine
 10
269.7118376156721
 20
110.7500008394968
 30
0.0
 11
282.711837615672
 21
110.7500008394968
 31
0.0
  0
LINE
  5
21CD
330
105C
100
AcDbEntity
  8
0
100
AcDbLine
 10
281.8458136156721
 20
104.0000008394968
 30
0.0
 11
282.711839615672
 21
104.5000008394968
 31
0.0
  0
LINE
  5
21CE
330
105C
100
AcDbEntity
  8
0
100
AcDbLine
 10
282.711837615672
 20
104.5000008394968
 30
0.0
 11
282.711837615672
 21
112.0000008394968
 31
0.0
  0
LINE
  5
21CF
330
105C
100
AcDbEntity
  8
0
100
AcDbLine
 10
269.7118376156721
 20
104.5000008394968
 30
0.0
 11
269.7118376156721
 21
112.0000008394968
 31
0.0
  0
LINE
  5
21D0
330
105C
100
AcDbEntity
  8
0
100
AcDbLine
 10
270.5778636156721
 20
104.0000008394968
 30
0.0
 11
281.8458116156721
 21
104.0000008394968
 31
0.0
  0
LINE
  5
21D1
330
105C
100
AcDbEntity
  8
0
100
AcDbLine
 10
268.511837615672
 20
112.0000008394968
 30
0.0
 11
283.9118366156721
 21
112.0000008394968
 31
0.0
  0
LINE
  5
21D2
330
105C
100
AcDbEntity
  8
0
100
AcDbLine
 10
283.9118366156721
 20
112.0000008394968
 30
0.0
 11
283.9118366156721
 21
114.0000008394968
 31
0.0
  0
LINE
  5
21D3
330
105C
100
AcDbEntity
  8
0
100
AcDbLine
 10
331.488374615672
 20
112.0000008394968
 30
0.0
 11
331.488374615672
 21
114.0000008394968
 31
0.0
  0
LINE
  5
21D4
330
105C
100
AcDbEntity
  8
0
100
AcDbLine
 10
316.088375615672
 20
112.0000008394968
 30
0.0
 11
316.088375615672
 21
114.0000008394968
 31
0.0
  0
LINE
  5
21D5
330
105C
100
AcDbEntity
  8
0
100
AcDbLine
 10
318.154397615672
 20
104.0000008394968
 30
0.0
 11
317.2883736156721
 21
104.5000008394968
 31
0.0
  0
LINE
  5
21D6
330
105C
100
AcDbEntity
  8
0
100
AcDbLine
 10
317.2883756156721
 20
104.5000008394968
 30
0.0
 11
330.2883756156721
 21
104.5000008394968
 31
0.0
  0
LINE
  5
21D7
330
105C
100
AcDbEntity
  8
0
100
AcDbLine
 10
317.2883756156721
 20
110.7500008394968
 30
0.0
 11
330.2883756156721
 21
110.7500008394968
 31
0.0
  0
LINE
  5
21D8
330
105C
100
AcDbEntity
  8
0
100
AcDbLine
 10
330.2883756156721
 20
104.5000008394968
 30
0.0
 11
330.2883756156721
 21
112.0000008394968
 31
0.0
  0
LINE
  5
21D9
330
105C
100
AcDbEntity
  8
0
100
AcDbLine
 10
329.4223516156721
 20
104.0000008394968
 30
0.0
 11
330.2883776156721
 21
104.5000008394968
 31
0.0
  0
LINE
  5
21DA
330
105C
100
AcDbEntity
  8
0
100
AcDbLine
 10
317.2883756156721
 20
104.5000008394968
 30
0.0
 11
317.2883756156721
 21
112.0000008394968
 31
0.0
  0
LINE
  5
21DB
330
105C
100
AcDbEntity
  8
0
100
AcDbLine
 10
316.088375615672
 20
112.0000008394968
 30
0.0
 11
331.488374615672
 21
112.0000008394968
 31
0.0
  0
LINE
  5
21DC
330
105C
100
AcDbEntity
  8
0
100
AcDbLine
 10
268.511837615672
 20
112.0000008394968
 30
0.0
 11
268.511837615672
 21
114.0000008394968
 31
0.0
  0
LINE
  5
21DD
330
105C
100
AcDbEntity
  8
0
100
AcDbLine
 10
318.1544016156721
 20
104.0000008394968
 30
0.0
 11
329.4223496156722
 21
104.0000008394968
 31
0.0
  0
LINE
  5
21DE
330
105C
100
AcDbEntity
  8
0
100
AcDbLine
 10
327.5000456156721
 20
104.0000008394968
 30
0.0
 11
327.5000456156721
 21
84.93666183949683
 31
0.0
  0
LINE
  5
21DF
330
105C
100
AcDbEntity
  8
0
100
AcDbLine
 10
272.5000456156721
 20
104.0000008394968
 30
0.0
 11
272.5000456156721
 21
84.93666183949683
 31
0.0
  0
LINE
  5
21E0
330
105C
100
AcDbEntity
  8
0
100
AcDbLine
 10
318.7083326156721
 20
104.0000008394968
 30
0.0
 11
318.7083326156721
 21
80.00000083949679
 31
0.0
  0
LINE
  5
21E1
330
105C
100
AcDbEntity
  8
0
100
AcDbLine
 10
281.2917576156721
 20
104.0000008394968
 30
0.0
 11
281.2917576156721
 21
80.00000083949679
 31
0.0
  0
LINE
  5
21E2
330
105C
100
AcDbEntity
  8
0
100
AcDbLine
 10
285.0000456156721
 20
84.00000083949681
 30
0.0
 11
285.0000456156721
 21
82.0000008394968
 31
0.0
  0
LINE
  5
21E3
330
105C
100
AcDbEntity
  8
0
100
AcDbLine
 10
314.7500456156721
 20
114.0000008394968
 30
0.0
 11
314.7500456156721
 21
84.00000083949681
 31
0.0
  0
LINE
  5
21E4
330
105C
100
AcDbEntity
  8
0
100
AcDbLine
 10
285.2500456156721
 20
114.0000008394968
 30
0.0
 11
285.2500456156721
 21
84.00000083949681
 31
0.0
  0
LINE
  5
21E5
330
105C
100
AcDbEntity
  8
0
100
AcDbLine
 10
285.0000456156721
 20
84.00000083949681
 30
0.0
 11
315.0000456156721
 21
84.00000083949681
 31
0.0
  0
LINE
  5
21E6
330
105C
100
AcDbEntity
  8
0
100
AcDbLine
 10
315.5000456156721
 20
82.0000008394968
 30
0.0
 11
315.5000456156721
 21
80.00000083949679
 31
0.0
  0
ARC
  5
21E7
330
105C
100
AcDbEntity
  8
0
100
AcDbCircle
 10
389.2823926156722
 20
201.8300308394968
 30
0.0
 40
2.317657899999999
100
AcDbArc
 50
321.481050000002
 51
38.51894999999803
  0
ARC
  5
21E8
330
105C
100
AcDbEntity
  8
0
100
AcDbCircle
 10
383.0858976156721
 20
197.4999108394968
 30
0.0
 40
8.514156300000001
100
AcDbArc
 50
340.180819999997
 51
19.81917699999699
  0
ARC
  5
21E9
330
105C
100
AcDbEntity
  8
0
100
AcDbCircle
 10
389.2823926156722
 20
193.1697808394968
 30
0.0
 40
2.317657899999999
100
AcDbArc
 50
321.481050000002
 51
38.51894999999803
  0
ARC
  5
21EA
330
105C
100
AcDbEntity
  8
0
100
AcDbCircle
 10
389.2823926156722
 20
129.8300608394968
 30
0.0
 40
2.317657899999999
100
AcDbArc
 50
321.481050000002
 51
38.51894999999803
  0
ARC
  5
21EB
330
105C
100
AcDbEntity
  8
0
100
AcDbCircle
 10
383.0858976156721
 20
125.4999408394968
 30
0.0
 40
8.514156300000001
100
AcDbArc
 50
340.180819999997
 51
19.81917699999699
  0
ARC
  5
21EC
330
105C
100
AcDbEntity
  8
0
100
AcDbCircle
 10
389.2823926156722
 20
121.1698208394968
 30
0.0
 40
2.317657899999999
100
AcDbArc
 50
321.481050000002
 51
38.51894999999803
  0
ARC
  5
21ED
330
105C
100
AcDbEntity
  8
0
100
AcDbCircle
 10
230.7177106156721
 20
193.1697808394968
 30
0.0
 40
2.317657899999999
100
AcDbArc
 50
141.4810500000019
 51
218.518949999998
  0
ARC
  5
21EE
330
105C
100
AcDbEntity
  8
0
100
AcDbCircle
 10
236.914205615672
 20
197.4999108394968
 30
0.0
 40
8.514156300000001
100
AcDbArc
 50
160.1808199999969
 51
199.8191799999969
  0
ARC
  5
21EF
330
105C
100
AcDbEntity
  8
0
100
AcDbCircle
 10
230.7177106156721
 20
201.8300308394968
 30
0.0
 40
2.317657899999999
100
AcDbArc
 50
141.4810500000019
 51
218.518949999998
  0
ARC
  5
21F0
330
105C
100
AcDbEntity
  8
0
100
AcDbCircle
 10
230.7177106156721
 20
121.1698208394968
 30
0.0
 40
2.317657899999999
100
AcDbArc
 50
141.4810500000019
 51
218.518949999998
  0
ARC
  5
21F1
330
105C
100
AcDbEntity
  8
0
100
AcDbCircle
 10
236.914205615672
 20
125.4999408394968
 30
0.0
 40
8.514156300000001
100
AcDbArc
 50
160.1808199999969
 51
199.8191799999969
  0
ARC
  5
21F2
330
105C
100
AcDbEntity
  8
0
100
AcDbCircle
 10
230.7177106156721
 20
129.8300608394968
 30
0.0
 40
2.317657899999999
100
AcDbArc
 50
141.4810500000019
 51
218.518949999998
  0
ARC
  5
21F3
330
105C
100
AcDbEntity
  8
0
100
AcDbCircle
 10
222.791013615672
 20
155.8707408394966
 30
0.0
 40
2.790960799999998
100
AcDbArc
 50
137.7544199999995
 51
222.2455800000004
  0
ARC
  5
21F4
330
105C
100
AcDbEntity
  8
0
100
AcDbCircle
 10
230.0765516156721
 20
161.4999108394968
 30
0.0
 40
10.0765
100
AcDbArc
 50
158.134529999996
 51
201.865470000004
  0
ARC
  5
21F5
330
105C
100
AcDbEntity
  8
0
100
AcDbCircle
 10
222.791013615672
 20
167.1290708394967
 30
0.0
 40
2.790960799999998
100
AcDbArc
 50
137.7544199999995
 51
222.2455800000004
  0
ARC
  5
21F6
330
105C
100
AcDbEntity
  8
0
100
AcDbCircle
 10
238.976560615672
 20
161.4999108394968
 30
0.0
 40
10.076511
100
AcDbArc
 50
158.134549999997
 51
201.865450000003
  0
ARC
  5
21F7
330
105C
100
AcDbEntity
  8
0
100
AcDbCircle
 10
231.6910156156721
 20
155.8707408394966
 30
0.0
 40
2.7909629
100
AcDbArc
 50
137.7545300000052
 51
222.2454699999948
  0
ARC
  5
21F8
330
105C
100
AcDbEntity
  8
0
100
AcDbCircle
 10
231.6910156156721
 20
167.1290708394967
 30
0.0
 40
2.7909629
100
AcDbArc
 50
137.7545300000052
 51
222.2454699999948
  0
ARC
  5
21F9
330
105C
100
AcDbEntity
  8
0
100
AcDbCircle
 10
231.1090906156721
 20
167.1290708394967
 30
0.0
 40
2.7909629
100
AcDbArc
 50
317.7545300000052
 51
42.24547400000263
  0
ARC
  5
21FA
330
105C
100
AcDbEntity
  8
0
100
AcDbCircle
 10
231.1090906156721
 20
155.8707408394966
 30
0.0
 40
2.7909629
100
AcDbArc
 50
317.7545300000052
 51
42.24547400000263
  0
ARC
  5
21FB
330
105C
100
AcDbEntity
  8
0
100
AcDbCircle
 10
223.8235376156721
 20
161.4999108394968
 30
0.0
 40
10.076511
100
AcDbArc
 50
338.134549999997
 51
21.86545200000127
  0
ARC
  5
21FC
330
105C
100
AcDbEntity
  8
0
100
AcDbCircle
 10
397.2090896156722
 20
167.1290708394967
 30
0.0
 40
2.790960799999998
100
AcDbArc
 50
317.7544199999996
 51
42.24558000000039
  0
ARC
  5
21FD
330
105C
100
AcDbEntity
  8
0
100
AcDbCircle
 10
389.9235516156721
 20
161.4999108394968
 30
0.0
 40
10.0765
100
AcDbArc
 50
338.134529999996
 51
21.86546900000029
  0
ARC
  5
21FE
330
105C
100
AcDbEntity
  8
0
100
AcDbCircle
 10
397.2090896156722
 20
155.8707408394966
 30
0.0
 40
2.790960799999998
100
AcDbArc
 50
317.7544199999996
 51
42.24558000000039
  0
ARC
  5
21FF
330
105C
100
AcDbEntity
  8
0
100
AcDbCircle
 10
379.4235436156721
 20
161.4999108394968
 30
0.0
 40
10.076511
100
AcDbArc
 50
338.134549999997
 51
21.86545200000127
  0
ARC
  5
2200
330
105C
100
AcDbEntity
  8
0
100
AcDbCircle
 10
386.7090896156722
 20
167.1290708394967
 30
0.0
 40
2.7909629
100
AcDbArc
 50
317.7545300000052
 51
42.24547400000263
  0
ARC
  5
2201
330
105C
100
AcDbEntity
  8
0
100
AcDbCircle
 10
386.7090896156722
 20
155.8707408394966
 30
0.0
 40
2.7909629
100
AcDbArc
 50
317.7545300000052
 51
42.24547400000263
  0
ARC
  5
2202
330
105C
100
AcDbEntity
  8
0
100
AcDbCircle
 10
387.291013615672
 20
155.8707408394966
 30
0.0
 40
2.7909629
100
AcDbArc
 50
137.7545300000052
 51
222.2454699999948
  0
ARC
  5
2203
330
105C
100
AcDbEntity
  8
0
100
AcDbCircle
 10
387.291013615672
 20
167.1290708394967
 30
0.0
 40
2.7909629
100
AcDbArc
 50
137.7545300000052
 51
222.2454699999948
  0
ARC
  5
2204
330
105C
100
AcDbEntity
  8
0
100
AcDbCircle
 10
394.5765596156721
 20
161.4999108394968
 30
0.0
 40
10.076511
100
AcDbArc
 50
158.134549999997
 51
201.865450000003
  0
ARC
  5
2205
330
105C
100
AcDbEntity
  8
0
100
AcDbCircle
 10
300.0
 20
223.4000099999999
 30
0.0
 40
14.0
100
AcDbArc
 50
73.92713700000488
 51
106.0728600000029
  0
ARC
  5
2206
330
105C
100
AcDbEntity
  8
0
100
AcDbCircle
 10
303.3499999
 20
235.02702
 30
0.0
 40
1.9
100
AcDbArc
 50
0.0
 51
73.92713399999907
  0
ARC
  5
2207
330
105C
100
AcDbEntity
  8
0
100
AcDbCircle
 10
296.6500001
 20
235.02702
 30
0.0
 40
1.9
100
AcDbArc
 50
106.0728600000029
 51
180.0
  0
ARC
  5
2208
330
105C
100
AcDbEntity
  8
0
100
AcDbCircle
 10
309.5000449156721
 20
-80.00001416050327
 30
0.0
 40
8.0
100
AcDbArc
 50
270.000010000001
 51
324.340859999999
  0
ARC
  5
2209
330
105C
100
AcDbEntity
  8
0
100
AcDbCircle
 10
290.5000449156721
 20
-80.00001416050327
 30
0.0
 40
8.0
100
AcDbArc
 50
215.659140000001
 51
270.000010000001
  0
CIRCLE
  5
220A
330
105C
100
AcDbEntity
  8
0
100
AcDbCircle
 10
300.0
 20
0.0
 30
0.0
 40
36.149998
  0
CIRCLE
  5
220B
330
105C
100
AcDbEntity
  8
0
100
AcDbCircle
 10
300.0
 20
0.0
 30
0.0
 40
45.49999999999999
  0
CIRCLE
  5
220C
330
105C
100
AcDbEntity
  8
0
100
AcDbCircle
 10
300.0
 20
0.0
 30
0.0
 40
59.20999499999999
  0
ARC
  5
220D
330
105C
100
AcDbEntity
  8
0
100
AcDbCircle
 10
300.0
 20
0.0
 30
0.0
 40
78.25
100
AcDbArc
 50
29.98802100000239
 51
160.5830599999997
  0
ARC
  5
220E
330
105C
100
AcDbEntity
  8
0
100
AcDbCircle
 10
300.0
 20
0.0
 30
0.0
 40
70.75
100
AcDbArc
 50
348.1034999999983
 51
11.89650500000135
  0
ARC
  5
220F
330
105C
100
AcDbEntity
  8
0
100
AcDbCircle
 10
300.0
 20
0.0
 30
0.0
 40
67.249992
100
AcDbArc
 50
29.98750199999879
 51
160.5830800000003
  0
ARC
  5
2210
330
105C
100
AcDbEntity
  8
0
100
AcDbCircle
 10
212.0536706156721
 20
30.99999683949683
 30
0.0
 40
26.0
100
AcDbArc
 50
270.0
 51
340.5830800000003
  0
ARC
  5
2211
330
105C
100
AcDbEntity
  8
0
100
AcDbCircle
 10
212.0536706156721
 20
-31.00001216050316
 30
0.0
 40
26.0
100
AcDbArc
 50
19.41692400000215
 51
90.0
  0
ARC
  5
2212
330
105C
100
AcDbEntity
  8
0
100
AcDbCircle
 10
212.0536706156721
 20
30.99999683949683
 30
0.0
 40
15.0
100
AcDbArc
 50
270.0
 51
340.5831499999977
  0
ARC
  5
2213
330
105C
100
AcDbEntity
  8
0
100
AcDbCircle
 10
212.0536706156721
 20
-31.00001216050316
 30
0.0
 40
15.0
100
AcDbArc
 50
19.41684499999887
 51
90.0
  0
ARC
  5
2214
330
105C
100
AcDbEntity
  8
0
100
AcDbCircle
 10
300.0
 20
0.0
 30
0.0
 40
67.249992
100
AcDbArc
 50
199.4169299999987
 51
330.0124899999992
  0
ARC
  5
2215
330
105C
100
AcDbEntity
  8
0
100
AcDbCircle
 10
300.0
 20
0.0
 30
0.0
 40
78.25
100
AcDbArc
 50
199.4169400000003
 51
330.0119800000014
  0
CIRCLE
  5
2216
330
105C
100
AcDbEntity
  8
0
100
AcDbCircle
 10
377.650014615672
 20
-11.00001516050315
 30
0.0
 40
2.499999799999998
  0
CIRCLE
  5
2217
330
105C
100
AcDbEntity
  8
0
100
AcDbCircle
 10
377.650014615672
 20
11.0000028394968
 30
0.0
 40
2.499999799999998
  0
ARC
  5
2218
330
105C
100
AcDbEntity
  8
0
100
AcDbCircle
 10
358.5927636156721
 20
-0.0000005416509339
 30
0.0
 40
16.504068
100
AcDbArc
 50
330.0061700000022
 51
29.99381699999955
  0
ARC
  5
2219
330
105C
100
AcDbEntity
  8
0
100
AcDbCircle
 10
358.5927636156721
 20
-0.0000005416509339
 30
0.0
 40
27.504068
100
AcDbArc
 50
330.0060700000023
 51
29.99392400000115
  0
ARC
  5
221A
330
105C
100
AcDbEntity
  8
0
100
AcDbCircle
 10
377.650014615672
 20
11.0000028394968
 30
0.0
 40
5.5
100
AcDbArc
 50
29.9941000000008
 51
209.9941000000008
  0
ARC
  5
221B
330
105C
100
AcDbEntity
  8
0
100
AcDbCircle
 10
210.0000056156721
 20
-41.00001416050321
 30
0.0
 40
8.0
100
AcDbArc
 50
153.6123100000046
 51
26.38769099999603
  0
ARC
  5
221C
330
105C
100
AcDbEntity
  8
0
100
AcDbCircle
 10
192.0000016156721
 20
-25.0148571605032
 30
0.0
 40
10.0
100
AcDbArc
 50
319.6363299999963
 51
0.0
  0
ARC
  5
221D
330
105C
100
AcDbEntity
  8
0
100
AcDbCircle
 10
377.650014615672
 20
-11.00001516050315
 30
0.0
 40
5.5
100
AcDbArc
 50
150.005879999998
 51
330.0058999999992
  0
ARC
  5
221E
330
105C
100
AcDbEntity
  8
0
100
AcDbCircle
 10
194.0417716156721
 20
-54.00001016050317
 30
0.0
 40
2.0
100
AcDbArc
 50
177.607309999996
 51
270.0
  0
ARC
  5
221F
330
105C
100
AcDbEntity
  8
0
100
AcDbCircle
 10
210.0000056156721
 20
-32.00001416050322
 30
0.0
 40
4.0
100
AcDbArc
 50
26.3884979999981
 51
153.6114999999984
  0
ARC
  5
2220
330
105C
100
AcDbEntity
  8
0
100
AcDbCircle
 10
225.9583266156722
 20
-54.00001016050317
 30
0.0
 40
2.0
100
AcDbArc
 50
270.0
 51
2.392686399997244
  0
ARC
  5
2221
330
105C
100
AcDbEntity
  8
0
100
AcDbCircle
 10
228.0000056156721
 20
-25.0148571605032
 30
0.0
 40
10.0
100
AcDbArc
 50
179.999989999999
 51
220.3636599999956
  0
ARC
  5
2222
330
105C
100
AcDbEntity
  8
0
100
AcDbCircle
 10
300.0
 20
0.0
 30
0.0
 40
70.75
100
AcDbArc
 50
169.7834800000021
 51
190.2165300000019
  0
ARC
  5
2223
330
105C
100
AcDbEntity
  8
0
100
AcDbCircle
 10
281.5000456156721
 20
84.93666183949683
 30
0.0
 40
9.0
100
AcDbArc
 50
180.0
 51
201.0774300000018
  0
ARC
  5
2224
330
105C
100
AcDbEntity
  8
0
100
AcDbCircle
 10
318.5000456156721
 20
84.93666183949683
 30
0.0
 40
9.0
100
AcDbArc
 50
304.9999999999974
 51
0.0
  0
ARC
  5
2225
330
105C
100
AcDbEntity
  8
0
100
AcDbCircle
 10
323.0000456156721
 20
73.43830183949683
 30
0.0
 40
3.0
100
AcDbArc
 50
124.999980000002
 51
138.05565
  0
ARC
  5
2226
330
105C
100
AcDbEntity
  8
0
100
AcDbCircle
 10
201.000020615672
 20
14.99999683949681
 30
0.0
 40
1.0
100
AcDbArc
 50
90.0
 51
180.0
  0
ARC
  5
2227
330
105C
100
AcDbEntity
  8
0
100
AcDbCircle
 10
201.000020615672
 20
6.000004639496808
 30
0.0
 40
1.0
100
AcDbArc
 50
180.0
 51
270.0
  0
ARC
  5
2228
330
105C
100
AcDbEntity
  8
0
100
AcDbCircle
 10
201.000020615672
 20
-6.000014460503165
 30
0.0
 40
1.0
100
AcDbArc
 50
90.0
 51
180.0
  0
CIRCLE
  5
2229
330
105C
100
AcDbEntity
  8
0
100
AcDbCircle
 10
210.0000056156721
 20
10.5000008394968
 30
0.0
 40
3.625
  0
ARC
  5
222A
330
105C
100
AcDbEntity
  8
0
100
AcDbCircle
 10
201.000020615672
 20
-15.0000171605032
 30
0.0
 40
1.0
100
AcDbArc
 50
180.0
 51
270.0
  0
ARC
  5
222B
330
105C
100
AcDbEntity
  8
0
100
AcDbCircle
 10
205.0000056156721
 20
-19.23341816050321
 30
0.0
 40
3.0
100
AcDbArc
 50
114.6243099999968
 51
180.0
  0
ARC
  5
222C
330
105C
100
AcDbEntity
  8
0
100
AcDbCircle
 10
215.0000056156721
 20
-19.23341816050321
 30
0.0
 40
3.0
100
AcDbArc
 50
0.0
 51
65.37568599999627
  0
ARC
  5
222D
330
105C
100
AcDbEntity
  8
0
100
AcDbCircle
 10
210.0000056156721
 20
-30.1421311605032
 30
0.0
 40
15.0
100
AcDbArc
 50
109.4714699999991
 51
114.6243200000037
  0
ELLIPSE
  5
222E
330
105C
100
AcDbEntity
  8
0
100
AcDbEllipse
 10
210.0000056156721
 20
-56.00001016050317
 30
0.0
 11
0.0000038146977
 21
30.0
 31
0.0
210
0.0
220
0.0
230
1.0
 40
0.60000002
 41
4.781893799999998
 42
5.668186722935044
  0
SPLINE
  5
222F
330
105C
100
AcDbEntity
  8
0
100
AcDbSpline
210
0.0
220
0.0
230
1.0
 70
  1064
 71
     3
 72
    13
 73
     9
 74
     7
 42
0.000000001
 43
0.0000000001
 44
0.00001
 12
0.3961836001156706
 22
-0.918171310268071
 32
0.0
 13
0.8422435502752508
 23
-0.5390972101761805
 33
0.0
 40
0.0
 40
0.0
 40
0.0
 40
0.0
 40
0.9157018415220777
 40
1.831685203806206
 40
2.747945857575577
 40
3.664036041423282
 40
4.580433597745763
 40
5.49398967193328
 40
5.49398967193328
 40
5.49398967193328
 40
5.49398967193328
 10
274.8356896156721
 20
81.69999783949679
 30
0.0
 10
274.956618299741
 20
81.41974078628171
 30
0.0
 10
275.2249046532979
 20
80.87010364492414
 30
0.0
 10
275.7032134096023
 20
80.08736921968013
 30
0.0
 10
276.2555601303335
 20
79.354561706673
 30
0.0
 10
276.8809200303337
 20
78.68251051543437
 30
0.0
 10
277.5734701938883
 20
78.08157873084809
 30
0.0
 10
278.0721767119056
 20
77.72845901647483
 30
0.0
 10
278.328655615672
 20
77.56429383949683
 30
0.0
 11
274.8356896156721
 21
81.69999783949679
 31
0.0
 11
275.2374856156721
 21
80.87715383949683
 31
0.0
 11
275.715481615672
 21
80.09577983949681
 31
0.0
 11
276.2677426156721
 21
79.36465583949679
 31
0.0
 11
276.8921506156721
 21
78.69432983949685
 31
0.0
 11
277.5835066156722
 21
78.0928218394968
 31
0.0
 11
278.328655615672
 21
77.56429383949683
 31
0.0
  0
ELLIPSE
  5
2230
330
105C
100
AcDbEntity
  8
0
100
AcDbEllipse
 10
308.0000449156721
 20
-79.99954916050319
 30
0.0
 11
-6.1390149
 21
0.0
 31
0.0
210
0.0
220
0.0
230
1.0
 40
0.7596803100000002
 41
0.0
 42
3.1415927
  0
ELLIPSE
  5
2231
330
105C
100
AcDbEntity
  8
0
100
AcDbEllipse
 10
292.0000449156721
 20
-79.99954916050319
 30
0.0
 11
6.1390149
 21
0.0
 31
0.0
210
0.0
220
0.0
230
1.0
 40
0.7596803100000002
 41
3.1415927
 42
6.283185299999998
  0
ELLIPSE
  5
2232
330
105C
100
AcDbEntity
  8
0
100
AcDbEllipse
 10
210.0000056156721
 20
-56.00001016050317
 30
0.0
 11
-0.0000038146977
 21
30.0
 31
0.0
210
0.0
220
0.0
230
-1.0
 40
0.60000002
 41
4.781893799999998
 42
5.668186722935044
  0
LINE
  5
2233
330
105C
100
AcDbEntity
  8
0
  6
CENTER
100
AcDbLine
 10
300.0
 20
-102.8540287009036
 30
0.0
 11
300.0
 21
247.5932556312764
 31
0.0
  0
LINE
  5
2234
330
105C
100
AcDbEntity
  8
0
  6
CENTER
100
AcDbLine
 10
193.6274389013124
 20
0.0
 30
0.0
 11
396.5929168355143
 21
0.0
 31
0.0
  0
LINE
  5
2235
330
105C
100
AcDbEntity
  8
0
  6
CENTER
100
AcDbLine
 10
0.0
 20
-102.8540287009036
 30
0.0
 11
0.0
 21
247.5932556312764
 31
0.0
  0
LINE
  5
2236
330
105C
100
AcDbEntity
  8
0
  6
CENTER
100
AcDbLine
 10
-106.3725610986876
 20
0.0
 30
0.0
 11
96.59291683551421
 21
0.0
 31
0.0
  0
LINE
  5
2237
330
105C
100
AcDbEntity
  8
0
  6
CENTER
100
AcDbLine
 10
0.0000000000000568
 20
336.4186810379852
 30
0.0
 11
0.0000000000000568
 21
499.1459442037212
 31
0.0
  0
LINE
  5
2238
330
105C
100
AcDbEntity
  8
0
  6
CENTER
100
AcDbLine
 10
-106.3725610986876
 20
410.0
 30
0.0
 11
96.59291683551421
 21
410.0
 31
0.0
  0
TEXT
  5
2239
330
105C
100
AcDbEntity
  8
0
100
AcDbText
 10
-354.1666666666666
 20
559.1666666666666
 30
0.0
 40
50.0
  1
2MA__T35000  3S
 72
     4
 11
0.0
 21
580.0
 31
0.0
100
AcDbText
  0
TEXT
  5
23B5
330
105C
100
AcDbEntity
  8
0
100
AcDbText
 10
-354.1666666666666
 20
659.1666666666666
 30
0.0
 40
50.0
  1
2BA__T35000  3S
 72
     4
 11
0.0
 21
680.0
 31
0.0
100
AcDbText
  0
ENDSEC
  0
SECTION
  2
OBJECTS
  0
DICTIONARY
  5
FFD
330
0
100
AcDbDictionary
281
     1
  3
ACAD_CIP_PREVIOUS_PRODUCT_INFO
350
11C9
  3
ACAD_COLOR
350
1053
  3
ACAD_DETAILVIEWSTYLE
350
238D
  3
ACAD_GROUP
350
FFE
  3
ACAD_LAYOUT
350
1052
  3
ACAD_MATERIAL
350
1001
  3
ACAD_MLEADERSTYLE
350
1056
  3
ACAD_MLINESTYLE
350
104F
  3
ACAD_PLOTSETTINGS
350
1051
  3
ACAD_PLOTSTYLENAME
350
FFF
  3
ACAD_SCALELIST
350
1033
  3
ACAD_SECTIONVIEWSTYLE
350
238B
  3
ACAD_TABLESTYLE
350
1054
  3
ACAD_VISUALSTYLE
350
101A
  3
ACDB_RECOMPOSE_DATA
350
23B8
  3
AcDbVariableDictionary
350
1269
  3
AcmDictionary
350
11EF
  3
AEC_PROPERTY_SET_DEFS
350
1413
  3
AMG
350
11CA
  3
AMGSNAPSETTINGS
350
1221
  0
DICTIONARY
  5
122E
330
FF9
100
AcDbDictionary
280
     1
281
     1
  0
DICTIONARY
  5
155F
330
FF3
100
AcDbDictionary
280
     1
281
     1
  3
ACAD_LAYERSTATES
360
1560
  0
DICTIONARY
  5
1228
330
1045
100
AcDbDictionary
280
     1
281
     1
  3
ADSK_XREC_LAYER_RECONCILED
360
1229
  0
DICTIONARY
  5
12F8
330
105C
100
AcDbDictionary
280
     1
281
     1
  3
ACAD_SORTENTS
360
12F9
  0
XRECORD
  5
11C9
102
{ACAD_REACTORS
330
FFD
102
}
330
FFD
100
AcDbXrecord
280
     1
300
ACDLT
300
2019
300
ACDLT_F_S
  0
DICTIONARY
  5
1053
102
{ACAD_REACTORS
330
FFD
102
}
330
FFD
100
AcDbDictionary
281
     1
  0
DICTIONARY
  5
238D
102
{ACAD_REACTORS
330
FFD
102
}
330
FFD
100
AcDbDictionary
281
     1
  3
Imperial24
350
238E
  0
DICTIONARY
  5
FFE
102
{ACAD_REACTORS
330
FFD
102
}
330
FFD
100
AcDbDictionary
281
     1
  0
DICTIONARY
  5
1052
102
{ACAD_REACTORS
330
FFD
102
}
330
FFD
100
AcDbDictionary
281
     1
  3
Model
350
105F
  3
レイアウト1
350
105B
  0
DICTIONARY
  5
1001
102
{ACAD_REACTORS
330
FFD
102
}
330
FFD
100
AcDbDictionary
281
     1
  3
ByBlock
350
100A
  3
ByLayer
350
1002
  3
Global
350
1012
  0
DICTIONARY
  5
1056
102
{ACAD_REACTORS
330
FFD
102
}
330
FFD
100
AcDbDictionary
281
     1
  3
Standard
350
1057
  0
DICTIONARY
  5
104F
102
{ACAD_REACTORS
330
FFD
102
}
330
FFD
100
AcDbDictionary
281
     1
  3
Standard
350
1050
  0
DICTIONARY
  5
1051
102
{ACAD_REACTORS
330
FFD
102
}
330
FFD
100
AcDbDictionary
281
     1
  0
ACDBDICTIONARYWDFLT
  5
FFF
102
{ACAD_REACTORS
330
FFD
102
}
330
FFD
100
AcDbDictionary
281
     1
  3
Normal
350
1000
100
AcDbDictionaryWithDefault
340
1000
  0
DICTIONARY
  5
1033
102
{ACAD_REACTORS
330
FFD
102
}
330
FFD
100
AcDbDictionary
281
     1
  3
A0
350
1034
  3
A1
350
1035
  3
A2
350
1036
  3
A3
350
1037
  3
A4
350
1038
  3
A5
350
1039
  3
A6
350
103A
  3
A7
350
103B
  3
A8
350
103C
  3
A9
350
103D
  3
B0
350
103E
  3
B1
350
103F
  3
B2
350
1040
  3
B3
350
1041
  3
B4
350
1042
  3
B5
350
1043
  3
B6
350
1044
  0
DICTIONARY
  5
238B
102
{ACAD_REACTORS
330
FFD
102
}
330
FFD
100
AcDbDictionary
281
     1
  3
Imperial24
350
238C
  0
DICTIONARY
  5
1054
102
{ACAD_REACTORS
330
FFD
102
}
330
FFD
100
AcDbDictionary
281
     1
  3
Standard
350
1055
  0
DICTIONARY
  5
101A
102
{ACAD_REACTORS
330
FFD
102
}
330
FFD
100
AcDbDictionary
281
     1
  3
2dWireframe
350
1020
  3
3D Hidden
350
1558
  3
3dWireframe
350
1557
  3
Basic
350
101F
  3
Brighten
350
1026
  3
ColorChange
350
102A
  3
Conceptual
350
1023
  3
Dim
350
1025
  3
EdgeColorOff
350
1032
  3
Facepattern
350
1029
  3
Flat
350
101B
  3
FlatWithEdges
350
101C
  3
Gouraud
350
101D
  3
GouraudWithEdges
350
101E
  3
Hidden
350
1022
  3
JitterOff
350
1030
  3
Linepattern
350
1028
  3
OverhangOff
350
1031
  3
Realistic
350
1024
  3
Shaded
350
102F
  3
Shaded with edges
350
102E
  3
Shades of Gray
350
102B
  3
Sketchy
350
102C
  3
Thicken
350
1027
  3
Wireframe
350
1021
  3
X-Ray
350
102D
  0
XRECORD
  5
23B8
102
{ACAD_REACTORS
330
FFD
102
}
330
FFD
100
AcDbXrecord
280
     1
 90
        1
330
1055
  0
DICTIONARY
  5
1269
102
{ACAD_REACTORS
330
FFD
102
}
330
FFD
100
AcDbDictionary
281
     1
  3
CANNOSCALE
350
126C
  3
CMLEADERSTYLE
350
126B
  3
CTABLESTYLE
350
126A
  3
CVIEWDETAILSTYLE
350
239E
  3
CVIEWSECTIONSTYLE
350
239F
  3
DIMASSOC
350
126F
  3
INDEXCTL
350
126E
  3
LAYEREVAL
350
1569
  3
LAYERNOTIFY
350
156A
  3
LIGHTINGUNITS
350
1568
  3
MSLTSCALE
350
1567
  3
SOLIDHIST
350
15E4
  3
SORTENTS
350
126D
  0
DICTIONARY
  5
11EF
102
{ACAD_REACTORS
330
FFD
102
}
330
FFD
100
AcDbDictionary
281
     1
  3
AcmStdDictionary
350
11F8
  0
DICTIONARY
  5
1413
102
{ACAD_REACTORS
330
FFD
102
}
330
FFD
100
AcDbDictionary
281
     1
  0
DICTIONARY
  5
11CA
102
{ACAD_REACTORS
330
FFD
102
}
330
FFD
100
AcDbDictionary
281
     1
  0
DICTIONARY
  5
1221
102
{ACAD_REACTORS
330
FFD
102
}
330
FFD
100
AcDbDictionary
281
     1
  0
DICTIONARY
  5
1560
102
{ACAD_REACTORS
330
155F
102
}
330
155F
100
AcDbDictionary
281
     1
  0
XRECORD
  5
1229
102
{ACAD_REACTORS
330
1228
102
}
330
1228
100
AcDbXrecord
280
     1
290
     1
  0
SORTENTSTABLE
  5
12F9
102
{ACAD_REACTORS
330
12F8
102
}
330
12F8
100
AcDbSortentsTable
330
105C
  0
ACDBDETAILVIEWSTYLE
  5
238E
102
{ACAD_XDICTIONARY
360
23F1
102
}
102
{ACAD_REACTORS
330
238D
102
}
330
238D
100
AcDbModelDocViewStyle
 70
     0
  3
Imperial24
290
     0
100
AcDbDetailViewStyle
 70
     0
 71
     0
 90
        3
 71
     1
340
1046
 62
   256
 40
0.24
340
0
 62
   256
 40
0.24
300

 40
0.36
280
     3
 71
     2
340
104D
 90
       25
 62
   256
 71
     3
340
1046
 62
   256
 40
0.24
 90
        1
 40
0.75
 90
        1
300
%<\AcVar ViewType \f "%tc1">% %<\AcVar ViewDetailId>%\PSCALE %<\AcVar ViewScale \f "%sn">%
 71
     4
340
104D
 90
       25
 62
   256
340
104D
 90
       25
 62
   256
280
     0
  0
LAYOUT
  5
105F
102
{ACAD_XDICTIONARY
360
1565
102
}
102
{ACAD_REACTORS
330
1052
102
}
330
1052
100
AcDbPlotSettings
  1

  2
iR C4580
  4

  6

 40
0.0
 41
0.0
 42
0.0
 43
0.0
 44
0.0
 45
0.0
 46
0.0
 47
0.0
 48
0.0
 49
0.0
140
0.0
141
0.0
142
1.0
143
1.0
 70
  1712
 72
     0
 73
     0
 74
     0
  7

 75
     0
147
1.0
 76
     0
 77
     2
 78
   300
148
0.0
149
0.0
100
AcDbLayout
  1
Model
 70
     1
 71
     0
 10
0.0
 20
0.0
 11
12.0
 21
9.0
 12
0.0
 22
0.0
 32
0.0
 14
0.0
 24
0.0
 34
0.0
 15
0.0
 25
0.0
 35
0.0
146
0.0
 13
0.0
 23
0.0
 33
0.0
 16
1.0
 26
0.0
 36
0.0
 17
0.0
 27
1.0
 37
0.0
 76
     0
330
105C
331
1060
  0
LAYOUT
  5
105B
102
{ACAD_REACTORS
330
1052
102
}
330
1052
100
AcDbPlotSettings
  1

  2
iR C4580
  4

  6

 40
0.0
 41
0.0
 42
0.0
 43
0.0
 44
0.0
 45
0.0
 46
0.0
 47
0.0
 48
0.0
 49
0.0
140
0.0
141
0.0
142
1.0
143
1.0
 70
   688
 72
     0
 73
     0
 74
     5
  7

 75
    16
147
1.0
 76
     0
 77
     2
 78
   300
148
0.0
149
0.0
100
AcDbLayout
  1
レイアウト1
 70
     1
 71
     1
 10
-584.0
 20
0.0
 11
0.0
 21
588.9623999834062
 12
0.0
 22
0.0
 32
0.0
 14
1.000000000000000E+20
 24
1.000000000000000E+20
 34
1.000000000000000E+20
 15
-1.000000000000000E+20
 25
-1.000000000000000E+20
 35
-1.000000000000000E+20
146
0.0
 13
0.0
 23
0.0
 33
0.0
 16
1.0
 26
0.0
 36
0.0
 17
0.0
 27
1.0
 37
0.0
 76
     0
330
1058
  0
MATERIAL
  5
100A
102
{ACAD_XDICTIONARY
360
100B
102
}
102
{ACAD_REACTORS
330
1001
102
}
330
1001
100
AcDbMaterial
  1
ByBlock
 72
     0
 43
0.0208333333333333
 43
0.0
 43
0.0
 43
0.0
 43
0.0
 43
0.0208333333333333
 43
0.0
 43
0.0
 43
0.0
 43
0.0
 43
1.0
 43
0.0
 43
0.0
 43
0.0
 43
0.0
 43
1.0
 77
     0
 47
0.0208333333333333
 47
0.0
 47
0.0
 47
0.0
 47
0.0
 47
0.0208333333333333
 47
0.0
 47
0.0
 47
0.0
 47
0.0
 47
1.0
 47
0.0
 47
0.0
 47
0.0
 47
0.0
 47
1.0
171
     0
 49
0.0208333333333333
 49
0.0
 49
0.0
 49
0.0
 49
0.0
 49
0.0208333333333333
 49
0.0
 49
0.0
 49
0.0
 49
0.0
 49
1.0
 49
0.0
 49
0.0
 49
0.0
 49
0.0
 49
1.0
175
     0
142
0.0208333333333333
142
0.0
142
0.0
142
0.0
142
0.0
142
0.0208333333333333
142
0.0
142
0.0
142
0.0
142
0.0
142
1.0
142
0.0
142
0.0
142
0.0
142
0.0
142
1.0
179
     0
144
0.0208333333333333
144
0.0
144
0.0
144
0.0
144
0.0
144
0.0208333333333333
144
0.0
144
0.0
144
0.0
144
0.0
144
1.0
144
0.0
144
0.0
144
0.0
144
0.0
144
1.0
147
0.0208333333333333
147
0.0
147
0.0
147
0.0
147
0.0
147
0.0208333333333333
147
0.0
147
0.0
147
0.0
147
0.0
147
1.0
147
0.0
147
0.0
147
0.0
147
0.0
147
1.0
  0
MATERIAL
  5
1002
102
{ACAD_XDICTIONARY
360
1003
102
}
102
{ACAD_REACTORS
330
1001
102
}
330
1001
100
AcDbMaterial
  1
ByLayer
 72
     0
 43
0.0208333333333333
 43
0.0
 43
0.0
 43
0.0
 43
0.0
 43
0.0208333333333333
 43
0.0
 43
0.0
 43
0.0
 43
0.0
 43
1.0
 43
0.0
 43
0.0
 43
0.0
 43
0.0
 43
1.0
 77
     0
 47
0.0208333333333333
 47
0.0
 47
0.0
 47
0.0
 47
0.0
 47
0.0208333333333333
 47
0.0
 47
0.0
 47
0.0
 47
0.0
 47
1.0
 47
0.0
 47
0.0
 47
0.0
 47
0.0
 47
1.0
171
     0
 49
0.0208333333333333
 49
0.0
 49
0.0
 49
0.0
 49
0.0
 49
0.0208333333333333
 49
0.0
 49
0.0
 49
0.0
 49
0.0
 49
1.0
 49
0.0
 49
0.0
 49
0.0
 49
0.0
 49
1.0
175
     0
142
0.0208333333333333
142
0.0
142
0.0
142
0.0
142
0.0
142
0.0208333333333333
142
0.0
142
0.0
142
0.0
142
0.0
142
1.0
142
0.0
142
0.0
142
0.0
142
0.0
142
1.0
179
     0
144
0.0208333333333333
144
0.0
144
0.0
144
0.0
144
0.0
144
0.0208333333333333
144
0.0
144
0.0
144
0.0
144
0.0
144
1.0
144
0.0
144
0.0
144
0.0
144
0.0
144
1.0
147
0.0208333333333333
147
0.0
147
0.0
147
0.0
147
0.0
147
0.0208333333333333
147
0.0
147
0.0
147
0.0
147
0.0
147
1.0
147
0.0
147
0.0
147
0.0
147
0.0
147
1.0
  0
MATERIAL
  5
1012
102
{ACAD_XDICTIONARY
360
1013
102
}
102
{ACAD_REACTORS
330
1001
102
}
330
1001
100
AcDbMaterial
  1
Global
 72
     0
 43
0.0208333333333333
 43
0.0
 43
0.0
 43
0.0
 43
0.0
 43
0.0208333333333333
 43
0.0
 43
0.0
 43
0.0
 43
0.0
 43
1.0
 43
0.0
 43
0.0
 43
0.0
 43
0.0
 43
1.0
 77
     0
 47
0.0208333333333333
 47
0.0
 47
0.0
 47
0.0
 47
0.0
 47
0.0208333333333333
 47
0.0
 47
0.0
 47
0.0
 47
0.0
 47
1.0
 47
0.0
 47
0.0
 47
0.0
 47
0.0
 47
1.0
171
     0
 49
0.0208333333333333
 49
0.0
 49
0.0
 49
0.0
 49
0.0
 49
0.0208333333333333
 49
0.0
 49
0.0
 49
0.0
 49
0.0
 49
1.0
 49
0.0
 49
0.0
 49
0.0
 49
0.0
 49
1.0
175
     0
142
0.0208333333333333
142
0.0
142
0.0
142
0.0
142
0.0
142
0.0208333333333333
142
0.0
142
0.0
142
0.0
142
0.0
142
1.0
142
0.0
142
0.0
142
0.0
142
0.0
142
1.0
179
     0
144
0.0208333333333333
144
0.0
144
0.0
144
0.0
144
0.0
144
0.0208333333333333
144
0.0
144
0.0
144
0.0
144
0.0
144
1.0
144
0.0
144
0.0
144
0.0
144
0.0
144
1.0
147
0.0208333333333333
147
0.0
147
0.0
147
0.0
147
0.0
147
0.0208333333333333
147
0.0
147
0.0
147
0.0
147
0.0
147
1.0
147
0.0
147
0.0
147
0.0
147
0.0
147
1.0
  0
MLEADERSTYLE
  5
1057
102
{ACAD_XDICTIONARY
360
23E9
102
}
102
{ACAD_REACTORS
330
1056
102
}
330
1056
100
AcDbMLeaderStyle
179
     2
170
     2
171
     1
172
     0
 90
        2
 40
0.0
 41
0.0
173
     1
 91
-1056964608
340
104B
 92
       -2
290
     1
 42
0.09
291
     1
 43
0.36
  3
Standard
 44
0.18
300

342
1046
174
     1
178
     6
175
     1
176
     0
 93
-1056964608
 45
0.18
292
     0
297
     0
 46
0.18
 94
-1056964608
 47
1.0
 49
1.0
140
1.0
293
     1
141
0.0
294
     1
177
     0
142
1.0
295
     0
296
     0
143
0.125
271
     0
272
     9
273
     9
1001
ACAD_MLEADERVER
1070
     2
  0
MLINESTYLE
  5
1050
102
{ACAD_REACTORS
330
104F
102
}
330
104F
100
AcDbMlineStyle
  2
STANDARD
 70
     0
  3

 62
   256
 51
90.0
 52
90.0
 71
     2
 49
0.5
 62
   256
  6
BYLAYER
 49
-0.5
 62
   256
  6
BYLAYER
  0
ACDBPLACEHOLDER
  5
1000
102
{ACAD_REACTORS
330
FFF
102
}
330
FFF
  0
SCALE
  5
1034
102
{ACAD_REACTORS
330
1033
102
}
330
1033
100
AcDbScale
 70
     0
300
1:1
140
1.0
141
1.0
290
     1
  0
SCALE
  5
1035
102
{ACAD_REACTORS
330
1033
102
}
330
1033
100
AcDbScale
 70
     0
300
1/128" = 1'-0"
140
0.0078125
141
12.0
290
     0
  0
SCALE
  5
1036
102
{ACAD_REACTORS
330
1033
102
}
330
1033
100
AcDbScale
 70
     0
300
1/64" = 1'-0"
140
0.015625
141
12.0
290
     0
  0
SCALE
  5
1037
102
{ACAD_REACTORS
330
1033
102
}
330
1033
100
AcDbScale
 70
     0
300
1/32" = 1'-0"
140
0.03125
141
12.0
290
     0
  0
SCALE
  5
1038
102
{ACAD_REACTORS
330
1033
102
}
330
1033
100
AcDbScale
 70
     0
300
1/16" = 1'-0"
140
0.0625
141
12.0
290
     0
  0
SCALE
  5
1039
102
{ACAD_REACTORS
330
1033
102
}
330
1033
100
AcDbScale
 70
     0
300
3/32" = 1'-0"
140
0.09375
141
12.0
290
     0
  0
SCALE
  5
103A
102
{ACAD_REACTORS
330
1033
102
}
330
1033
100
AcDbScale
 70
     0
300
1/8" = 1'-0"
140
0.125
141
12.0
290
     0
  0
SCALE
  5
103B
102
{ACAD_REACTORS
330
1033
102
}
330
1033
100
AcDbScale
 70
     0
300
3/16" = 1'-0"
140
0.1875
141
12.0
290
     0
  0
SCALE
  5
103C
102
{ACAD_REACTORS
330
1033
102
}
330
1033
100
AcDbScale
 70
     0
300
1/4" = 1'-0"
140
0.25
141
12.0
290
     0
  0
SCALE
  5
103D
102
{ACAD_REACTORS
330
1033
102
}
330
1033
100
AcDbScale
 70
     0
300
3/8" = 1'-0"
140
0.375
141
12.0
290
     0
  0
SCALE
  5
103E
102
{ACAD_REACTORS
330
1033
102
}
330
1033
100
AcDbScale
 70
     0
300
1/2" = 1'-0"
140
0.5
141
12.0
290
     0
  0
SCALE
  5
103F
102
{ACAD_REACTORS
330
1033
102
}
330
1033
100
AcDbScale
 70
     0
300
3/4" = 1'-0"
140
0.75
141
12.0
290
     0
  0
SCALE
  5
1040
102
{ACAD_REACTORS
330
1033
102
}
330
1033
100
AcDbScale
 70
     0
300
1" = 1'-0"
140
1.0
141
12.0
290
     0
  0
SCALE
  5
1041
102
{ACAD_REACTORS
330
1033
102
}
330
1033
100
AcDbScale
 70
     0
300
1-1/2" = 1'-0"
140
1.5
141
12.0
290
     0
  0
SCALE
  5
1042
102
{ACAD_REACTORS
330
1033
102
}
330
1033
100
AcDbScale
 70
     0
300
3" = 1'-0"
140
3.0
141
12.0
290
     0
  0
SCALE
  5
1043
102
{ACAD_REACTORS
330
1033
102
}
330
1033
100
AcDbScale
 70
     0
300
6" = 1'-0"
140
6.0
141
12.0
290
     0
  0
SCALE
  5
1044
102
{ACAD_REACTORS
330
1033
102
}
330
1033
100
AcDbScale
 70
     0
300
1'-0" = 1'-0"
140
12.0
141
12.0
290
     0
  0
ACDBSECTIONVIEWSTYLE
  5
238C
102
{ACAD_XDICTIONARY
360
23EF
102
}
102
{ACAD_REACTORS
330
238B
102
}
330
238B
100
AcDbModelDocViewStyle
 70
     0
  3
Imperial24
290
     0
100
AcDbSectionViewStyle
 70
     0
 71
     0
 90
      102
 71
     1
340
1046
 62
   256
 40
5.0
340
0
340
0
 62
   256
 40
5.0
300
I, O, Q, S, X, Z
 40
10.0
 90
        0
 40
2.5
 90
        0
 71
     2
340
104D
 90
       25
 62
   256
340
104D
 90
       50
 62
   256
 40
5.0
 40
2.5
 40
5.0
 71
     3
340
1046
 62
   256
 40
5.0
 90
        0
 40
15.0
 90
        1
300
%<\AcVar ViewSectionStartId>%-%<\AcVar ViewSectionEndId>% (%<\AcVar ViewScale \f "%sn">%)
 71
     4
 62
   256
 62
   257
300
ANSI31
 40
1.0
 90
        0
290
     0
290
     0
 90
        6
 40
0.0
 40
1.570796326794896
 40
0.2617993877991494
 40
1.308996938995747
 40
-0.2617993877991494
 40
1.832595714594046
  0
TABLESTYLE
  5
1055
102
{ACAD_XDICTIONARY
360
122A
102
}
102
{ACAD_REACTORS
330
1054
102
}
330
1054
100
AcDbTableStyle
280
     0
  3
Standard
 70
     0
 71
     0
 40
0.06
 41
0.06
280
     0
281
     0
  7
STANDARD
140
0.18
170
     2
 62
     0
 63
     7
283
     0
 90
      512
 91
        0
  1

274
    -2
284
     1
 64
     0
275
    -2
285
     1
 65
     0
276
    -2
286
     1
 66
     0
277
    -2
287
     1
 67
     0
278
    -2
288
     1
 68
     0
279
    -2
289
     1
 69
     0
  7
STANDARD
140
0.25
170
     5
 62
     0
 63
     7
283
     0
 90
      512
 91
        0
  1

274
    -2
284
     1
 64
     0
275
    -2
285
     1
 65
     0
276
    -2
286
     1
 66
     0
277
    -2
287
     1
 67
     0
278
    -2
288
     1
 68
     0
279
    -2
289
     1
 69
     0
  7
STANDARD
140
0.18
170
     5
 62
     0
 63
     7
283
     0
 90
      512
 91
        0
  1

274
    -2
284
     1
 64
     0
275
    -2
285
     1
 65
     0
276
    -2
286
     1
 66
     0
277
    -2
287
     1
 67
     0
278
    -2
288
     1
 68
     0
279
    -2
289
     1
 69
     0
  0
VISUALSTYLE
  5
1020
102
{ACAD_XDICTIONARY
360
23C3
102
}
102
{ACAD_REACTORS
330
101A
102
}
330
101A
100
AcDbVisualStyle
  2

 70
     4
177
     2
291
     0
 71
     0
176
     1
 72
     2
176
     1
 73
     0
176
     1
 90
        0
176
     1
 40
0.6
176
     1
 41
30.0
176
     1
 63
     7
176
     1
 74
     1
176
     1
 91
        4
176
     1
 64
     7
176
     1
 65
   257
176
     1
 75
     1
176
     1
175
     1
176
     1
 42
1.0
176
     1
 92
        0
176
     1
 66
   257
176
     1
 43
1.0
176
     1
 76
     1
176
     1
 77
     6
176
     1
 78
     2
176
     1
 67
     7
176
     1
 79
     5
176
     1
170
     0
176
     1
171
     0
176
     1
290
     0
176
     1
 93
        1
176
     1
 44
0.0
176
     1
173
     0
176
     1
1001
ACAD
1000
AcDbSavedByObjectVersion
1070
     0
  0
VISUALSTYLE
  5
1558
102
{ACAD_XDICTIONARY
360
23ED
102
}
102
{ACAD_REACTORS
330
101A
102
}
330
101A
100
AcDbVisualStyle
  2

 70
     6
177
     2
291
     0
 71
     1
176
     1
 72
     2
176
     1
 73
     2
176
     1
 90
        0
176
     1
 40
0.6
176
     1
 41
30.0
176
     1
 63
     7
176
     1
 74
     2
176
     1
 91
        2
176
     1
 64
     7
176
     1
 65
   257
176
     1
 75
     2
176
     1
175
     1
176
     1
 42
179.0
176
     1
 92
        0
176
     1
 66
   257
176
     1
 43
1.0
176
     1
 76
     1
176
     1
 77
     6
176
     1
 78
     2
176
     1
 67
     7
176
     1
 79
     3
176
     1
170
     0
176
     1
171
     0
176
     1
290
     0
176
     1
 93
        1
176
     1
 44
0.0
176
     1
173
     0
176
     1
1001
ACAD
1000
AcDbSavedByObjectVersion
1070
     0
  0
VISUALSTYLE
  5
1557
102
{ACAD_XDICTIONARY
360
23EB
102
}
102
{ACAD_REACTORS
330
101A
102
}
330
101A
100
AcDbVisualStyle
  2

 70
     5
177
     2
291
     0
 71
     0
176
     1
 72
     2
176
     1
 73
     0
176
     1
 90
        0
176
     1
 40
0.6
176
     1
 41
30.0
176
     1
 63
     7
176
     1
 74
     1
176
     1
 91
        4
176
     1
 64
     7
176
     1
 65
   257
176
     1
 75
     1
176
     1
175
     1
176
     1
 42
1.0
176
     1
 92
        0
176
     1
 66
   257
176
     1
 43
1.0
176
     1
 76
     1
176
     1
 77
     6
176
     1
 78
     2
176
     1
 67
     7
176
     1
 79
     5
176
     1
170
     0
176
     1
171
     0
176
     1
290
     0
176
     1
 93
        1
176
     1
 44
0.0
176
     1
173
     0
176
     1
1001
ACAD
1000
AcDbSavedByObjectVersion
1070
     0
  0
VISUALSTYLE
  5
101F
102
{ACAD_XDICTIONARY
360
23C1
102
}
102
{ACAD_REACTORS
330
101A
102
}
330
101A
100
AcDbVisualStyle
  2

 70
     7
177
     2
291
     1
 71
     1
176
     1
 72
     0
176
     1
 73
     1
176
     1
 90
        0
176
     1
 40
0.6
176
     1
 41
30.0
176
     1
 63
     7
176
     1
 74
     0
176
     1
 91
        4
176
     1
 64
     7
176
     1
 65
   257
176
     1
 75
     1
176
     1
175
     1
176
     1
 42
1.0
176
     1
 92
        8
176
     1
 66
     7
176
     1
 43
1.0
176
     1
 76
     1
176
     1
 77
     6
176
     1
 78
     2
176
     1
 67
     7
176
     1
 79
     5
176
     1
170
     0
176
     1
171
     0
176
     1
290
     0
176
     1
 93
        1
176
     1
 44
0.0
176
     1
173
     0
176
     1
1001
ACAD
1000
AcDbSavedByObjectVersion
1070
     0
  0
VISUALSTYLE
  5
1026
102
{ACAD_XDICTIONARY
360
23CF
102
}
102
{ACAD_REACTORS
330
101A
102
}
330
101A
100
AcDbVisualStyle
  2

 70
    12
177
     2
291
     1
 71
     2
176
     1
 72
     2
176
     1
 73
     0
176
     1
 90
        0
176
     1
 40
0.6
176
     1
 41
30.0
176
     1
 63
     7
176
     1
 74
     1
176
     1
 91
        4
176
     1
 64
     7
176
     1
 65
   257
176
     1
 75
     1
176
     1
175
     1
176
     1
 42
1.0
176
     1
 92
        8
176
     1
 66
     7
176
     1
 43
1.0
176
     1
 76
     1
176
     1
 77
     6
176
     1
 78
     2
176
     1
 67
     7
176
     1
 79
     5
176
     1
170
     0
176
     1
171
     0
176
     1
290
     0
176
     1
 93
        1
176
     1
 44
50.0
176
     1
173
     0
176
     1
1001
ACAD
1000
AcDbSavedByObjectVersion
1070
     0
  0
VISUALSTYLE
  5
102A
102
{ACAD_XDICTIONARY
360
23D7
102
}
102
{ACAD_REACTORS
330
101A
102
}
330
101A
100
AcDbVisualStyle
  2

 70
    16
177
     2
291
     1
 71
     2
176
     1
 72
     2
176
     1
 73
     3
176
     1
 90
        0
176
     1
 40
0.6
176
     1
 41
30.0
176
     1
 63
     8
176
     1
 74
     1
176
     1
 91
        4
176
     1
 64
     7
176
     1
 65
   257
176
     1
 75
     1
176
     1
175
     1
176
     1
 42
1.0
176
     1
 92
        8
176
     1
 66
     8
176
     1
 43
1.0
176
     1
 76
     1
176
     1
 77
     6
176
     1
 78
     2
176
     1
 67
     7
176
     1
 79
     5
176
     1
170
     0
176
     1
171
     0
176
     1
290
     0
176
     1
 93
        1
176
     1
 44
0.0
176
     1
173
     0
176
     1
1001
ACAD
1000
AcDbSavedByObjectVersion
1070
     0
  0
VISUALSTYLE
  5
1023
102
{ACAD_XDICTIONARY
360
23C9
102
}
102
{ACAD_REACTORS
330
101A
102
}
330
101A
100
AcDbVisualStyle
  2

 70
     9
177
     2
291
     0
 71
     3
176
     1
 72
     2
176
     1
 73
     0
176
     1
 90
        0
176
     1
 40
0.6
176
     1
 41
30.0
176
     1
 63
     7
176
     1
 74
     2
176
     1
 91
        2
176
     1
 64
     7
176
     1
 65
   257
176
     1
 75
     1
176
     1
175
     1
176
     1
 42
179.0
176
     1
 92
        8
176
     1
 66
     7
176
     1
 43
1.0
176
     1
 76
     1
176
     1
 77
     6
176
     1
 78
     2
176
     1
 67
     7
176
     1
 79
     3
176
     1
170
     0
176
     1
171
     0
176
     1
290
     0
176
     1
 93
        1
176
     1
 44
0.0
176
     1
173
     0
176
     1
1001
ACAD
1000
AcDbSavedByObjectVersion
1070
     0
  0
VISUALSTYLE
  5
1025
102
{ACAD_XDICTIONARY
360
23CD
102
}
102
{ACAD_REACTORS
330
101A
102
}
330
101A
100
AcDbVisualStyle
  2

 70
    11
177
     2
291
     1
 71
     2
176
     1
 72
     2
176
     1
 73
     0
176
     1
 90
        0
176
     1
 40
0.6
176
     1
 41
30.0
176
     1
 63
     7
176
     1
 74
     1
176
     1
 91
        4
176
     1
 64
     7
176
     1
 65
   257
176
     1
 75
     1
176
     1
175
     1
176
     1
 42
1.0
176
     1
 92
        8
176
     1
 66
     7
176
     1
 43
1.0
176
     1
 76
     1
176
     1
 77
     6
176
     1
 78
     2
176
     1
 67
     7
176
     1
 79
     5
176
     1
170
     0
176
     1
171
     0
176
     1
290
     0
176
     1
 93
        1
176
     1
 44
-50.0
176
     1
173
     0
176
     1
1001
ACAD
1000
AcDbSavedByObjectVersion
1070
     0
  0
VISUALSTYLE
  5
1032
102
{ACAD_XDICTIONARY
360
23E7
102
}
102
{ACAD_REACTORS
330
101A
102
}
330
101A
100
AcDbVisualStyle
  2

 70
    22
177
     2
291
     1
 71
     2
176
     0
 72
     2
176
     0
 73
     0
176
     0
 90
        0
176
     0
 40
0.6
176
     0
 41
30.0
176
     0
 63
     7
176
     0
 74
     1
176
     0
 91
        4
176
     0
 64
     7
176
     0
 65
   257
176
     0
 75
     1
176
     0
175
     1
176
     0
 42
1.0
176
     0
 92
        8
176
     2
 66
     7
176
     0
 43
1.0
176
     0
 76
     1
176
     0
 77
     6
176
     0
 78
     2
176
     0
 67
     7
176
     0
 79
     5
176
     0
170
     0
176
     0
171
     0
176
     0
290
     0
176
     0
 93
        1
176
     0
 44
0.0
176
     0
173
     0
176
     0
1001
ACAD
1000
AcDbSavedByObjectVersion
1070
     0
  0
VISUALSTYLE
  5
1029
102
{ACAD_XDICTIONARY
360
23D5
102
}
102
{ACAD_REACTORS
330
101A
102
}
330
101A
100
AcDbVisualStyle
  2

 70
    15
177
     2
291
     1
 71
     2
176
     1
 72
     2
176
     1
 73
     0
176
     1
 90
        0
176
     1
 40
0.6
176
     1
 41
30.0
176
     1
 63
     7
176
     1
 74
     1
176
     1
 91
        4
176
     1
 64
     7
176
     1
 65
   257
176
     1
 75
     1
176
     1
175
     1
176
     1
 42
1.0
176
     1
 92
        8
176
     1
 66
     7
176
     1
 43
1.0
176
     1
 76
     1
176
     1
 77
     6
176
     1
 78
     2
176
     1
 67
     7
176
     1
 79
     5
176
     1
170
     0
176
     1
171
     0
176
     1
290
     0
176
     1
 93
        1
176
     1
 44
0.0
176
     1
173
     0
176
     1
1001
ACAD
1000
AcDbSavedByObjectVersion
1070
     0
  0
VISUALSTYLE
  5
101B
102
{ACAD_XDICTIONARY
360
23B9
102
}
102
{ACAD_REACTORS
330
101A
102
}
330
101A
100
AcDbVisualStyle
  2

 70
     0
177
     2
291
     1
 71
     2
176
     1
 72
     1
176
     1
 73
     1
176
     1
 90
        2
176
     1
 40
0.6
176
     1
 41
30.0
176
     1
 63
     7
176
     1
 74
     0
176
     1
 91
        0
176
     1
 64
     7
176
     1
 65
   257
176
     1
 75
     1
176
     1
175
     1
176
     1
 42
1.0
176
     1
 92
        8
176
     1
 66
     7
176
     1
 43
1.0
176
     1
 76
     1
176
     1
 77
     6
176
     1
 78
     2
176
     1
 67
     7
176
     1
 79
     5
176
     1
170
     0
176
     1
171
     0
176
     1
290
     0
176
     1
 93
       13
176
     1
 44
0.0
176
     1
173
     0
176
     1
1001
ACAD
1000
AcDbSavedByObjectVersion
1070
     0
  0
VISUALSTYLE
  5
101C
102
{ACAD_XDICTIONARY
360
23BB
102
}
102
{ACAD_REACTORS
330
101A
102
}
330
101A
100
AcDbVisualStyle
  2

 70
     1
177
     2
291
     1
 71
     2
176
     1
 72
     1
176
     1
 73
     1
176
     1
 90
        2
176
     1
 40
0.6
176
     1
 41
30.0
176
     1
 63
     7
176
     1
 74
     1
176
     1
 91
        0
176
     1
 64
     7
176
     1
 65
   257
176
     1
 75
     1
176
     1
175
     1
176
     1
 42
1.0
176
     1
 92
        0
176
     1
 66
   257
176
     1
 43
1.0
176
     1
 76
     1
176
     1
 77
     6
176
     1
 78
     2
176
     1
 67
     7
176
     1
 79
     5
176
     1
170
     0
176
     1
171
     0
176
     1
290
     0
176
     1
 93
       13
176
     1
 44
0.0
176
     1
173
     0
176
     1
1001
ACAD
1000
AcDbSavedByObjectVersion
1070
     0
  0
VISUALSTYLE
  5
101D
102
{ACAD_XDICTIONARY
360
23BD
102
}
102
{ACAD_REACTORS
330
101A
102
}
330
101A
100
AcDbVisualStyle
  2

 70
     2
177
     2
291
     1
 71
     2
176
     1
 72
     2
176
     1
 73
     1
176
     1
 90
        2
176
     1
 40
0.6
176
     1
 41
30.0
176
     1
 63
     7
176
     1
 74
     0
176
     1
 91
        0
176
     1
 64
     7
176
     1
 65
   257
176
     1
 75
     1
176
     1
175
     1
176
     1
 42
1.0
176
     1
 92
        0
176
     1
 66
     7
176
     1
 43
1.0
176
     1
 76
     1
176
     1
 77
     6
176
     1
 78
     2
176
     1
 67
     7
176
     1
 79
     5
176
     1
170
     0
176
     1
171
     0
176
     1
290
     0
176
     1
 93
       13
176
     1
 44
0.0
176
     1
173
     0
176
     1
1001
ACAD
1000
AcDbSavedByObjectVersion
1070
     0
  0
VISUALSTYLE
  5
101E
102
{ACAD_XDICTIONARY
360
23BF
102
}
102
{ACAD_REACTORS
330
101A
102
}
330
101A
100
AcDbVisualStyle
  2

 70
     3
177
     2
291
     1
 71
     2
176
     1
 72
     2
176
     1
 73
     1
176
     1
 90
        2
176
     1
 40
0.6
176
     1
 41
30.0
176
     1
 63
     7
176
     1
 74
     1
176
     1
 91
        0
176
     1
 64
     7
176
     1
 65
   257
176
     1
 75
     1
176
     1
175
     1
176
     1
 42
1.0
176
     1
 92
        0
176
     1
 66
   257
176
     1
 43
1.0
176
     1
 76
     1
176
     1
 77
     6
176
     1
 78
     2
176
     1
 67
     7
176
     1
 79
     5
176
     1
170
     0
176
     1
171
     0
176
     1
290
     0
176
     1
 93
       13
176
     1
 44
0.0
176
     1
173
     0
176
     1
1001
ACAD
1000
AcDbSavedByObjectVersion
1070
     0
  0
VISUALSTYLE
  5
1022
102
{ACAD_XDICTIONARY
360
23C7
102
}
102
{ACAD_REACTORS
330
101A
102
}
330
101A
100
AcDbVisualStyle
  2

 70
     6
177
     2
291
     0
 71
     1
176
     1
 72
     2
176
     1
 73
     2
176
     1
 90
        0
176
     1
 40
0.6
176
     1
 41
30.0
176
     1
 63
     7
176
     1
 74
     2
176
     1
 91
        2
176
     1
 64
     7
176
     1
 65
   257
176
     1
 75
     2
176
     1
175
     1
176
     1
 42
40.0
176
     1
 92
        0
176
     1
 66
   257
176
     1
 43
1.0
176
     1
 76
     1
176
     1
 77
     6
176
     1
 78
     2
176
     1
 67
     7
176
     1
 79
     3
176
     1
170
     0
176
     1
171
     0
176
     1
290
     0
176
     1
 93
        1
176
     1
 44
0.0
176
     1
173
     0
176
     1
1001
ACAD
1000
AcDbSavedByObjectVersion
1070
     0
  0
VISUALSTYLE
  5
1030
102
{ACAD_XDICTIONARY
360
23E3
102
}
102
{ACAD_REACTORS
330
101A
102
}
330
101A
100
AcDbVisualStyle
  2

 70
    20
177
     2
291
     1
 71
     2
176
     0
 72
     2
176
     0
 73
     0
176
     0
 90
        0
176
     0
 40
0.6
176
     0
 41
30.0
176
     0
 63
     7
176
     0
 74
     1
176
     0
 91
        4
176
     0
 64
     7
176
     0
 65
   257
176
     0
 75
     1
176
     0
175
     1
176
     0
 42
1.0
176
     0
 92
       10
176
     2
 66
     7
176
     0
 43
1.0
176
     0
 76
     1
176
     0
 77
     6
176
     0
 78
     2
176
     0
 67
     7
176
     0
 79
     5
176
     0
170
     0
176
     0
171
     0
176
     0
290
     0
176
     0
 93
        1
176
     0
 44
0.0
176
     0
173
     0
176
     0
1001
ACAD
1000
AcDbSavedByObjectVersion
1070
     0
  0
VISUALSTYLE
  5
1028
102
{ACAD_XDICTIONARY
360
23D3
102
}
102
{ACAD_REACTORS
330
101A
102
}
330
101A
100
AcDbVisualStyle
  2

 70
    14
177
     2
291
     1
 71
     2
176
     1
 72
     2
176
     1
 73
     0
176
     1
 90
        0
176
     1
 40
0.6
176
     1
 41
30.0
176
     1
 63
     7
176
     1
 74
     1
176
     1
 91
        4
176
     1
 64
     7
176
     1
 65
   257
176
     1
 75
     7
176
     1
175
     7
176
     1
 42
1.0
176
     1
 92
        8
176
     1
 66
     7
176
     1
 43
1.0
176
     1
 76
     1
176
     1
 77
     6
176
     1
 78
     2
176
     1
 67
     7
176
     1
 79
     5
176
     1
170
     0
176
     1
171
     0
176
     1
290
     0
176
     1
 93
        1
176
     1
 44
0.0
176
     1
173
     0
176
     1
1001
ACAD
1000
AcDbSavedByObjectVersion
1070
     0
  0
VISUALSTYLE
  5
1031
102
{ACAD_XDICTIONARY
360
23E5
102
}
102
{ACAD_REACTORS
330
101A
102
}
330
101A
100
AcDbVisualStyle
  2

 70
    21
177
     2
291
     1
 71
     2
176
     0
 72
     2
176
     0
 73
     0
176
     0
 90
        0
176
     0
 40
0.6
176
     0
 41
30.0
176
     0
 63
     7
176
     0
 74
     1
176
     0
 91
        4
176
     0
 64
     7
176
     0
 65
   257
176
     0
 75
     1
176
     0
175
     1
176
     0
 42
1.0
176
     0
 92
        9
176
     2
 66
     7
176
     0
 43
1.0
176
     0
 76
     1
176
     0
 77
     6
176
     0
 78
     2
176
     0
 67
     7
176
     0
 79
     5
176
     0
170
     0
176
     0
171
     0
176
     0
290
     0
176
     0
 93
        1
176
     0
 44
0.0
176
     0
173
     0
176
     0
1001
ACAD
1000
AcDbSavedByObjectVersion
1070
     0
  0
VISUALSTYLE
  5
1024
102
{ACAD_XDICTIONARY
360
23CB
102
}
102
{ACAD_REACTORS
330
101A
102
}
330
101A
100
AcDbVisualStyle
  2

 70
     8
177
     2
291
     0
 71
     2
176
     1
 72
     2
176
     1
 73
     0
176
     1
 90
        2
176
     1
 40
0.6
176
     1
 41
30.0
176
     1
 63
     7
176
     1
 74
     0
176
     1
 91
        0
176
     1
 64
     7
176
     1
 65
   257
176
     1
 75
     1
176
     1
175
     1
176
     1
 42
1.0
176
     1
 92
        8
176
     1
 66
   257
176
     1
 43
1.0
176
     1
 76
     1
176
     1
 77
     6
176
     1
 78
     2
176
     1
 67
     7
176
     1
 79
     3
176
     1
170
     0
176
     1
171
     0
176
     1
290
     0
176
     1
 93
       13
176
     1
 44
0.0
176
     1
173
     0
176
     1
1001
ACAD
1000
AcDbSavedByObjectVersion
1070
     0
  0
VISUALSTYLE
  5
102F
102
{ACAD_XDICTIONARY
360
23E1
102
}
102
{ACAD_REACTORS
330
101A
102
}
330
101A
100
AcDbVisualStyle
  2

 70
    27
177
     2
291
     0
 71
     2
176
     1
 72
     2
176
     1
 73
     1
176
     1
 90
        2
176
     1
 40
0.6
176
     1
 41
30.0
176
     1
 63
     7
176
     1
 74
     0
176
     1
 91
        4
176
     1
 64
     7
176
     1
 65
   257
176
     1
 75
     1
176
     1
175
     1
176
     1
 42
1.0
176
     1
 92
        8
176
     1
 66
   257
176
     1
 43
1.0
176
     1
 76
     1
176
     1
 77
     6
176
     1
 78
     2
176
     1
 67
     8
176
     1
 79
     3
176
     1
170
     0
176
     1
171
     0
176
     1
290
     0
176
     1
 93
        5
176
     1
 44
0.0
176
     1
173
     0
176
     1
1001
ACAD
1000
AcDbSavedByObjectVersion
1070
     0
  0
VISUALSTYLE
  5
102E
102
{ACAD_XDICTIONARY
360
23DF
102
}
102
{ACAD_REACTORS
330
101A
102
}
330
101A
100
AcDbVisualStyle
  2

 70
    26
177
     2
291
     0
 71
     2
176
     1
 72
     2
176
     1
 73
     1
176
     1
 90
        2
176
     1
 40
0.6
176
     1
 41
30.0
176
     1
 63
     7
176
     1
 74
     1
176
     1
 91
       10
176
     1
 64
     7
176
     1
 65
   257
176
     1
 75
     2
176
     1
175
     1
176
     1
 42
1.0
176
     1
 92
        8
176
     1
 66
   257
176
     1
 43
1.0
176
     1
 76
     1
176
     1
 77
     6
176
     1
 78
     2
176
     1
 67
     7
176
     1
 79
     3
176
     1
170
     0
176
     1
171
     0
176
     1
290
     0
176
     1
 93
        5
176
     1
 44
0.0
176
     1
173
     0
176
     1
1001
ACAD
1000
AcDbSavedByObjectVersion
1070
     0
  0
VISUALSTYLE
  5
102B
102
{ACAD_XDICTIONARY
360
23D9
102
}
102
{ACAD_REACTORS
330
101A
102
}
330
101A
100
AcDbVisualStyle
  2

 70
    23
177
     2
291
     0
 71
     2
176
     1
 72
     2
176
     1
 73
     3
176
     1
 90
        0
176
     1
 40
0.6
176
     1
 41
30.0
176
     1
 63
     7
176
     1
 74
     2
176
     1
 91
        2
176
     1
 64
     7
176
     1
 65
     7
176
     1
 75
     1
176
     1
175
     1
176
     1
 42
40.0
176
     1
 92
        8
176
     1
 66
     7
176
     1
 43
1.0
176
     1
 76
     1
176
     1
 77
     6
176
     1
 78
     2
176
     1
 67
     7
176
     1
 79
     3
176
     1
170
     0
176
     1
171
     0
176
     1
290
     0
176
     1
 93
        1
176
     1
 44
0.0
176
     1
173
     0
176
     1
1001
ACAD
1000
AcDbSavedByObjectVersion
1070
     0
  0
VISUALSTYLE
  5
102C
102
{ACAD_XDICTIONARY
360
23DB
102
}
102
{ACAD_REACTORS
330
101A
102
}
330
101A
100
AcDbVisualStyle
  2

 70
    24
177
     2
291
     0
 71
     1
176
     1
 72
     2
176
     1
 73
     2
176
     1
 90
        0
176
     1
 40
0.6
176
     1
 41
30.0
176
     1
 63
     7
176
     1
 74
     2
176
     1
 91
        2
176
     1
 64
     7
176
     1
 65
     7
176
     1
 75
     1
176
     1
175
     1
176
     1
 42
40.0
176
     1
 92
       11
176
     1
 66
     7
176
     1
 43
1.0
176
     1
 76
     1
176
     1
 77
     6
176
     1
 78
     2
176
     1
 67
     7
176
     1
 79
     6
176
     1
170
     0
176
     1
171
     0
176
     1
290
     0
176
     1
 93
        1
176
     1
 44
0.0
176
     1
173
     0
176
     1
1001
ACAD
1000
AcDbSavedByObjectVersion
1070
     0
  0
VISUALSTYLE
  5
1027
102
{ACAD_XDICTIONARY
360
23D1
102
}
102
{ACAD_REACTORS
330
101A
102
}
330
101A
100
AcDbVisualStyle
  2

 70
    13
177
     2
291
     1
 71
     2
176
     1
 72
     2
176
     1
 73
     0
176
     1
 90
        0
176
     1
 40
0.6
176
     1
 41
30.0
176
     1
 63
     7
176
     1
 74
     1
176
     1
 91
        4
176
     1
 64
     7
176
     1
 65
   257
176
     1
 75
     1
176
     1
175
     1
176
     1
 42
1.0
176
     1
 92
       12
176
     1
 66
     7
176
     1
 43
1.0
176
     1
 76
     1
176
     1
 77
     6
176
     1
 78
     2
176
     1
 67
     7
176
     1
 79
     5
176
     1
170
     0
176
     1
171
     0
176
     1
290
     0
176
     1
 93
        1
176
     1
 44
0.0
176
     1
173
     0
176
     1
1001
ACAD
1000
AcDbSavedByObjectVersion
1070
     0
  0
VISUALSTYLE
  5
1021
102
{ACAD_XDICTIONARY
360
23C5
102
}
102
{ACAD_REACTORS
330
101A
102
}
330
101A
100
AcDbVisualStyle
  2

 70
     5
177
     2
291
     0
 71
     0
176
     1
 72
     2
176
     1
 73
     0
176
     1
 90
        0
176
     1
 40
0.6
176
     1
 41
30.0
176
     1
 63
     7
176
     1
 74
     1
176
     1
 91
        4
176
     1
 64
     7
176
     1
 65
   257
176
     1
 75
     1
176
     1
175
     1
176
     1
 42
1.0
176
     1
 92
        0
176
     1
 66
   257
176
     1
 43
1.0
176
     1
 76
     1
176
     1
 77
     6
176
     1
 78
     2
176
     1
 67
     7
176
     1
 79
     3
176
     1
170
     0
176
     1
171
     0
176
     1
290
     0
176
     1
 93
        1
176
     1
 44
0.0
176
     1
173
     0
176
     1
1001
ACAD
1000
AcDbSavedByObjectVersion
1070
     0
  0
VISUALSTYLE
  5
102D
102
{ACAD_XDICTIONARY
360
23DD
102
}
102
{ACAD_REACTORS
330
101A
102
}
330
101A
100
AcDbVisualStyle
  2

 70
    25
177
     2
291
     0
 71
     2
176
     1
 72
     2
176
     1
 73
     1
176
     1
 90
        1
176
     1
 40
0.5
176
     1
 41
30.0
176
     1
 63
     7
176
     1
 74
     1
176
     1
 91
        0
176
     1
 64
     7
176
     1
 65
   257
176
     1
 75
     1
176
     1
175
     1
176
     1
 42
1.0
176
     1
 92
        8
176
     1
 66
     7
176
     1
 43
1.0
176
     1
 76
     1
176
     1
 77
     6
176
     1
 78
     2
176
     1
 67
     7
176
     1
 79
     3
176
     1
170
     0
176
     1
171
     0
176
     1
290
     0
176
     1
 93
       13
176
     1
 44
0.0
176
     1
173
     0
176
     1
1001
ACAD
1000
AcDbSavedByObjectVersion
1070
     0
  0
DICTIONARYVAR
  5
126C
102
{ACAD_REACTORS
330
1269
102
}
330
1269
100
DictionaryVariables
280
     0
  1
1:1
  0
DICTIONARYVAR
  5
126B
102
{ACAD_REACTORS
330
1269
102
}
330
1269
100
DictionaryVariables
280
     0
  1
STANDARD
  0
DICTIONARYVAR
  5
126A
102
{ACAD_REACTORS
330
1269
102
}
330
1269
100
DictionaryVariables
280
     0
  1
STANDARD
  0
DICTIONARYVAR
  5
239E
102
{ACAD_REACTORS
330
1269
102
}
330
1269
100
DictionaryVariables
280
     0
  1
Imperial24
  0
DICTIONARYVAR
  5
239F
102
{ACAD_REACTORS
330
1269
102
}
330
1269
100
DictionaryVariables
280
     0
  1
Imperial24
  0
DICTIONARYVAR
  5
126F
102
{ACAD_REACTORS
330
1269
102
}
330
1269
100
DictionaryVariables
280
     0
  1
1
  0
DICTIONARYVAR
  5
126E
102
{ACAD_REACTORS
330
1269
102
}
330
1269
100
DictionaryVariables
280
     0
  1
0
  0
DICTIONARYVAR
  5
1569
102
{ACAD_REACTORS
330
1269
102
}
330
1269
100
DictionaryVariables
280
     0
  1
1
  0
DICTIONARYVAR
  5
156A
102
{ACAD_REACTORS
330
1269
102
}
330
1269
100
DictionaryVariables
280
     0
  1
15
  0
DICTIONARYVAR
  5
1568
102
{ACAD_REACTORS
330
1269
102
}
330
1269
100
DictionaryVariables
280
     0
  1
0
  0
DICTIONARYVAR
  5
1567
102
{ACAD_REACTORS
330
1269
102
}
330
1269
100
DictionaryVariables
280
     0
  1
0
  0
DICTIONARYVAR
  5
15E4
102
{ACAD_REACTORS
330
1269
102
}
330
1269
100
DictionaryVariables
280
     0
  1
1
  0
DICTIONARYVAR
  5
126D
102
{ACAD_REACTORS
330
1269
102
}
330
1269
100
DictionaryVariables
280
     0
  1
127
  0
DICTIONARY
  5
11F8
102
{ACAD_REACTORS
330
11EF
102
}
330
11EF
100
AcDbDictionary
281
     1
  0
DICTIONARY
  5
23F1
330
238E
100
AcDbDictionary
280
     1
281
     1
  3
ACAD_XREC_ROUNDTRIP
360
23F2
  0
DICTIONARY
  5
1565
330
105F
100
AcDbDictionary
280
     1
281
     1
  3
ADSK_XREC_LAYOUTTHUMBNAIL
360
1566
  0
DICTIONARY
  5
100B
330
100A
100
AcDbDictionary
280
     1
281
     1
  3
ACAD_XREC_ROUNDTRIP
360
23AE
  3
BUMPTILE
360
100D
  3
DIFFUSETILE
360
100C
  3
OPACITYTILE
360
1010
  3
REFLECTIONTILE
360
100F
  3
REFRACTIONTILE
360
1011
  3
SPECULARTILE
360
100E
  0
DICTIONARY
  5
1003
330
1002
100
AcDbDictionary
280
     1
281
     1
  3
ACAD_XREC_ROUNDTRIP
360
23AD
  3
BUMPTILE
360
1005
  3
DIFFUSETILE
360
1004
  3
OPACITYTILE
360
1008
  3
REFLECTIONTILE
360
1007
  3
REFRACTIONTILE
360
1009
  3
SPECULARTILE
360
1006
  0
DICTIONARY
  5
1013
330
1012
100
AcDbDictionary
280
     1
281
     1
  3
ACAD_XREC_ROUNDTRIP
360
23AF
  3
BUMPTILE
360
1015
  3
DIFFUSETILE
360
1014
  3
OPACITYTILE
360
1018
  3
REFLECTIONTILE
360
1017
  3
REFRACTIONTILE
360
1019
  3
SPECULARTILE
360
1016
  0
DICTIONARY
  5
23E9
330
1057
100
AcDbDictionary
280
     1
281
     1
  3
ACAD_XREC_ROUNDTRIP
360
23EA
  0
DICTIONARY
  5
23EF
330
238C
100
AcDbDictionary
280
     1
281
     1
  3
ACAD_XREC_ROUNDTRIP
360
23F0
  0
DICTIONARY
  5
122A
330
1055
100
AcDbDictionary
280
     1
281
     1
  3
ACAD_ROUNDTRIP_2008_TABLESTYLE_CELLSTYLEMAP
360
23B7
  0
DICTIONARY
  5
23C3
330
1020
100
AcDbDictionary
280
     1
281
     1
  3
ACAD_XREC_ROUNDTRIP
360
23C4
  0
DICTIONARY
  5
23ED
330
1558
100
AcDbDictionary
280
     1
281
     1
  3
ACAD_XREC_ROUNDTRIP
360
23EE
  0
DICTIONARY
  5
23EB
330
1557
100
AcDbDictionary
280
     1
281
     1
  3
ACAD_XREC_ROUNDTRIP
360
23EC
  0
DICTIONARY
  5
23C1
330
101F
100
AcDbDictionary
280
     1
281
     1
  3
ACAD_XREC_ROUNDTRIP
360
23C2
  0
DICTIONARY
  5
23CF
330
1026
100
AcDbDictionary
280
     1
281
     1
  3
ACAD_XREC_ROUNDTRIP
360
23D0
  0
DICTIONARY
  5
23D7
330
102A
100
AcDbDictionary
280
     1
281
     1
  3
ACAD_XREC_ROUNDTRIP
360
23D8
  0
DICTIONARY
  5
23C9
330
1023
100
AcDbDictionary
280
     1
281
     1
  3
ACAD_XREC_ROUNDTRIP
360
23CA
  0
DICTIONARY
  5
23CD
330
1025
100
AcDbDictionary
280
     1
281
     1
  3
ACAD_XREC_ROUNDTRIP
360
23CE
  0
DICTIONARY
  5
23E7
330
1032
100
AcDbDictionary
280
     1
281
     1
  3
ACAD_XREC_ROUNDTRIP
360
23E8
  0
DICTIONARY
  5
23D5
330
1029
100
AcDbDictionary
280
     1
281
     1
  3
ACAD_XREC_ROUNDTRIP
360
23D6
  0
DICTIONARY
  5
23B9
330
101B
100
AcDbDictionary
280
     1
281
     1
  3
ACAD_XREC_ROUNDTRIP
360
23BA
  0
DICTIONARY
  5
23BB
330
101C
100
AcDbDictionary
280
     1
281
     1
  3
ACAD_XREC_ROUNDTRIP
360
23BC
  0
DICTIONARY
  5
23BD
330
101D
100
AcDbDictionary
280
     1
281
     1
  3
ACAD_XREC_ROUNDTRIP
360
23BE
  0
DICTIONARY
  5
23BF
330
101E
100
AcDbDictionary
280
     1
281
     1
  3
ACAD_XREC_ROUNDTRIP
360
23C0
  0
DICTIONARY
  5
23C7
330
1022
100
AcDbDictionary
280
     1
281
     1
  3
ACAD_XREC_ROUNDTRIP
360
23C8
  0
DICTIONARY
  5
23E3
330
1030
100
AcDbDictionary
280
     1
281
     1
  3
ACAD_XREC_ROUNDTRIP
360
23E4
  0
DICTIONARY
  5
23D3
330
1028
100
AcDbDictionary
280
     1
281
     1
  3
ACAD_XREC_ROUNDTRIP
360
23D4
  0
DICTIONARY
  5
23E5
330
1031
100
AcDbDictionary
280
     1
281
     1
  3
ACAD_XREC_ROUNDTRIP
360
23E6
  0
DICTIONARY
  5
23CB
330
1024
100
AcDbDictionary
280
     1
281
     1
  3
ACAD_XREC_ROUNDTRIP
360
23CC
  0
DICTIONARY
  5
23E1
330
102F
100
AcDbDictionary
280
     1
281
     1
  3
ACAD_XREC_ROUNDTRIP
360
23E2
  0
DICTIONARY
  5
23DF
330
102E
100
AcDbDictionary
280
     1
281
     1
  3
ACAD_XREC_ROUNDTRIP
360
23E0
  0
DICTIONARY
  5
23D9
330
102B
100
AcDbDictionary
280
     1
281
     1
  3
ACAD_XREC_ROUNDTRIP
360
23DA
  0
DICTIONARY
  5
23DB
330
102C
100
AcDbDictionary
280
     1
281
     1
  3
ACAD_XREC_ROUNDTRIP
360
23DC
  0
DICTIONARY
  5
23D1
330
1027
100
AcDbDictionary
280
     1
281
     1
  3
ACAD_XREC_ROUNDTRIP
360
23D2
  0
DICTIONARY
  5
23C5
330
1021
100
AcDbDictionary
280
     1
281
     1
  3
ACAD_XREC_ROUNDTRIP
360
23C6
  0
DICTIONARY
  5
23DD
330
102D
100
AcDbDictionary
280
     1
281
     1
  3
ACAD_XREC_ROUNDTRIP
360
23DE
  0
XRECORD
  5
23F2
102
{ACAD_REACTORS
330
23F1
102
}
330
23F1
100
AcDbXrecord
280
     1
102
DISPLAYNAME
  1
Imperial24
102
FLAGS
 90
        0
  0
XRECORD
  5
1566
102
{ACAD_REACTORS
330
1565
102
}
330
1565
100
AcDbXrecord
280
     1
310
28000000000100009B0000000100080000000000009B0000000000000000000000010000000000000000000000000000FFFFFF000000000000000000000000000000000000000000000000000000000000000000330000006600000099000000CC000000FF00000000330000333300006633000099330000CC330000FF3300
310
0000660000336600006666000099660000CC660000FF66000000990000339900006699000099990000CC990000FF99000000CC000033CC000066CC000099CC0000CCCC0000FFCC000000FF000033FF000066FF000099FF0000CCFF0000FFFF000000003300330033006600330099003300CC003300FF003300003333003333
310
33006633330099333300CC333300FF33330000663300336633006666330099663300CC663300FF66330000993300339933006699330099993300CC993300FF99330000CC330033CC330066CC330099CC3300CCCC3300FFCC330000FF330033FF330066FF330099FF3300CCFF3300FFFF330000006600330066006600660099
310
006600CC006600FF00660000336600333366006633660099336600CC336600FF33660000666600336666006666660099666600CC666600FF66660000996600339966006699660099996600CC996600FF99660000CC660033CC660066CC660099CC6600CCCC6600FFCC660000FF660033FF660066FF660099FF6600CCFF6600
310
FFFF660000009900330099006600990099009900CC009900FF00990000339900333399006633990099339900CC339900FF33990000669900336699006666990099669900CC669900FF66990000999900339999006699990099999900CC999900FF99990000CC990033CC990066CC990099CC9900CCCC9900FFCC990000FF99
310
0033FF990066FF990099FF9900CCFF9900FFFF99000000CC003300CC006600CC009900CC00CC00CC00FF00CC000033CC003333CC006633CC009933CC00CC33CC00FF33CC000066CC003366CC006666CC009966CC00CC66CC00FF66CC000099CC003399CC006699CC009999CC00CC99CC00FF99CC0000CCCC0033CCCC0066CC
310
CC0099CCCC00CCCCCC00FFCCCC0000FFCC0033FFCC0066FFCC0099FFCC00CCFFCC00FFFFCC000000FF003300FF006600FF009900FF00CC00FF00FF00FF000033FF003333FF006633FF009933FF00CC33FF00FF33FF000066FF003366FF006666FF009966FF00CC66FF00FF66FF000099FF003399FF006699FF009999FF00CC
310
99FF00FF99FF0000CCFF0033CCFF0066CCFF0099CCFF00CCCCFF00FFCCFF0000FFFF0033FFFF0066FFFF0099FFFF00CCFFFF00FFFFFF00000000000D0D0D001A1A1A00282828003535350043434300505050005D5D5D006B6B6B00787878008686860093939300A1A1A100AEAEAE00BBBBBB00C9C9C900D6D6D600E4E4E400
310
F1F1F100FFFFFF0000000000000000000000000000000000000000000000000000000000000000000000000000000000E2E2E2E2E2E2E2E2E2E2E2E2E2E2E2E2E2E2E2E2E2E2E2E2E2E2E2E2E2E2E2E2E2E2E2E2E2E2E2E2E2E2E2E2E2E2E2E2E2E2E2E2E2E2E2E2E2E2E2E2E2E2E2E2E2E2E2E2E2E2E2E2E2E2E2E2E2E2E2
310
E2E2E2E2E2E2E2E2E2E2E2E2E2E2E2E2E2E2E2E2E2E2E2E2E2E2E2E2E2E2E2E2E2E2E2E2E2E2E2E2E2E2E2E2E2E2E2E2E2E2E2E2E2E2E2E2E2E2E2E2E2E2E2E2E2E2E2E2E2E2E2E2E2E2E2E2E2E2E2E2E2E2E2E2E2E2E2E2E2E2E2E2E2E2E2E2E2E2E2E2E2E2E2E2E2E2E2E2E2E2E2E2E2E2E2E2E2E2E2E2E2E2E2E2E2E2E2
310
E2E2E2E2E2E2E2E2E2E2E2E2E2E2E2E2E2E2E2E2E2E2E2E2E2E2E2E2E2E2E2E2E2E2E2E2E2E2E2E2E2E2E2E2E2E2E2E2E2E2E2E2E2E2E2E2E2E2E2E2E2E2E2E2E2E2E2E2E2E2E2E2E2E2E2E2E2E2E2E2E2E2E2E2E2E2E2E2E2E2E2E2E2E2E2E2E2E2E2E2E2E2E2E2E2E2E2E2E2E2E2E2E2E2E2E2E2E2E2E2E2E2E2E2E2E2E2
310
E2E2E2E2E2E2E2E2E2E2E2E2E2E2E2E2E2E2E2E2E2E2E2E2E2E2E2E2E2E2E2E2E2E2E2E2E2E2E2E2E2E2E2E2E2E2E2E2E2E2E2E2E2E2E2E2E2E2E2E2E2E2E2E2E2E2E2E2E2E2E2E2E2E2E2E2E2E2E2E2E2E2E2E2E2E2E2E2E2E2E2E2E2E2E2E2E2E2E2E2E2E2E2E2E2E2E2E2E2E2E2E2E2E2E2E2E2E2E2E2E2E2E2E2E2E2E2
310
E2E2E2E2E2E2E2E2E2E2E2E2E2E2E2E2E2E2E2E2E2E2E2E2E2E2E2E2E2E2E2E2E2E2E2E2E2E2E2E2E2E2E2E2E2E2E2E2E2E2E2E2E2E2E2E2E2E2E2E2E2E2E2E2E2E2E2E2E2E2E2E2E2E2E2E2E2E2E2E2E2E2E2E2E2E2E2E2E2E2E2E2E2E2E2E2E2E2E2E2E2E2E2E2E2E2E2E2E2E2E2E2E2E2E2E2E2E2E2E2E2E2E2E2E2E2E2
310
E2E2E2E2E2E2E2E2E2E2E2E2E2E2E2E2E2E2E2E2E2E2E2E2E2E2E2E2E2E2E2E2E2E2E2E2E2E2E2E2E2E2E2E2E2E2E2E2E2E2E2E2E2E2E2E2E2E2E2E2E2E2E2E2E2E2E2E2E2E2E2E2E2E2E2E2E2E2E2E2E2E2E2E2E2E2E2E2E2E2E2E2E2E2E2E2E2E2E2E2E2E2E2E2E2E2E2E2E2E2E2E2E2E2E2E2E2E2E2E2E2E2E2E2E2E2E2
310
E2E2E2E2E2E2E2E2E2E2E2E2E2E2E2E2E2E2E2E2E2E2E2E2E2E2E2E2E2E2E2E2E2E2E2E2E2E2E2E2E2E2E2E2E2E2E2E2E2E2E2E2E2E2E2E2E2E2E2E2E2E2E2E2E2E2E2E2E2E2E2E2E2E2E2E2E2E2E2E2E2E2E2E2E2E2E2E2E2E2E2E2E2E2E2E2E2E2E2E2E2E2E2E2E2E2E2E2E2E2E2E2E2E2E2E2E2E2E2E2E2E2E2E2E2E2E2
310
E2E2E2E2E2E2E2E2E2E2E2E2E2E2E2E2E2E2E2E2E2E2E2E2E2E2E2E2E2E2E2E2E2E2E2E2E2E2E2E2E2E2E2E2E2E2E2E2E2E2E2E2E2E2E2E2E2E2E2E2E2E2E2E2E2E2E2E2E2E2E2E2E2E2E2E2E2E2E2E2E2E2E2E2E2E2E2E2E2E2E2E2E2E2E2E2E2E2E2E2E2E2E2E2E2E2E2E2E2E2E2E2E2E2E2E2E2E2E2E2E2E2E2E2E2E2E2
310
E2E2E2E2E2E2E2E2E2E2E2E2E2E2E2E2E2E2E2E2E2E2E2E2E2E2E2E2E2E2E2E2E2E2E2E2E2E2E2E2E2E2E2E2E2E2E2E2E2E2E2E2E2E2E2E2E2E2E2E2E2E2E2E2E2E2E2E2E2E2E2E2E2E2E2E2E2E2E2E2E2E2E2E2E2E2E2E2E2E2E2E2E2E2E2E2E2E2E2E2E2E2E2E2E2E2E2E2E2E2E2E2E2E2E2E2E2E2E2E2E2E2E2E2E2E2E2
310
E2E2E2E2E2E2E2E2E2E2E2E2E2E2E2E2E2E2E2E2E2E2E2E2E2E2E2E2E2E2E2E2E2E2E2E2E2E2E2E2E2E2E2E2E2E2E2E2E2E2E2E2E2E2E2E2E2E2E2E2E2E2E2E2E2E2E2E2E2E2E2E2E2E2E2E2E2E2E2E2E2E2E2E2E2E2E2E2E2E2E2E2E2E2E2E2E2E2E2E2E2E2E2E2E2E2E2E2E2E2E2E2E2E2E2E2E2E2E2E2E2E2E2E2E2E2E2
310
E2E2E2E2E2E2E2E2E2E2E2E2E2E2E2E2E2E2E2E2E2E2E2E2E2E2E2E2E2E2E2E2E2E2E2E2E2E2E2E2E2E2E2E2E2E2E2E2E2E2E2E2E2E2E2E2E2E2E2E2E2E2E2E2E2E2E2E2E2E2E2E2E2E2E2E2E2E2E2E2E2E2E2E2E2E2E2E2E2E2E2E2E2E2E2E2E2E2E2E2E2E2E2E2E2E2E2E2E2E2E2E2E2E2E2E2E2E2E2E2E2E2E2E2E2E2E2
310
E2E2E2E2E2E2E2E2E2E2E2E2E2E2E2E2E2E2E2E2E2E2E2E2E2E2E2E2E2E2E2E2E2E2E2E2E2E2E2E2E2E2E2E2E2E2E2E2E2E2E2E2E2E2E2E2E2E2E2E2E2E2E2E2E2E2E2E2E2E2E2E2E2E2E2E2E2E2E2E2E2E2E2E2E2E2E2E2E2E2E2E2E2E2E2E2E2E2E2E2E2E2E2E2E2E2E2E2E2E2E2E2E2E2E2E2E2E2E2E2E2E2E2E2E2E2E2
310
E2E2E2E2E2E2E2E2E2E2E2E2E2E2E2E2E2E2E2E2E2E2E2E2E2E2E2E2E2E2E2E2E2E2E2E2E2E2E2E2E2E2E2E2E2E2E2E2E2E2E2E2E2E2E2E2E2E2E2E2E2E2E2E2E2E2E2E2E2E2E2E2E2E2E2E2E2E2E2E2E2E2E2E2E2E2E2E2E2E2E2E2E2E2E2E2E2E2E2E2E2E2E2E2E2E2E2E2E2E2E2E2E2E2E2E2E2E2E2E2E2E2E2E2E2E2E2
310
E2E2E2E2E2E2E2E2E2E2E2E2E2E2E2E2E2E2E2E2E2E2E2E2E2E2E2E2E2E2E2E2E2E2E2E2E2E2E2E2E2E2E2E2E2E2E2E2E2E2E2E2E2E2E2E2E2E2E2E2E2E2E2E2E2E2E2E2E2E2E2E2E2E2E2E2E2E2E2E2E2E2E2E2E2E2E2E2E2E2E2E2E2E2E2E2E2E2E2E2E2E2E2E2E2E2E2E2E2E2E2E2E2E2E2E2E2E2E2E2E2E2E2E2E2E2E2
310
E2E2E2E2E2E2E2E2E2E2E2E2E2E2E2E2E2E2E2E2E2E2E2E2E2E2E2E2E2E2E2E2E2E2E2E2E2E2E2E2E2E2E2E2E2E2E2E2E2E2E2E2E2E2E2E2E2E2E2E2E2E2E2E2E2E2E2E2E2E2E2E2E2E2E2E2E2E2E2E2E2E2E2E2E2E2E2E2E2E2E2E2E2E2E2E2E2E2E2E2E2E2E2E2E2E2E2E2E2E2E2E2E2E2E2E2E2E2E2E2E2E2E2E2E2E2E2
310
E2E2E2E2E2E2E2E2E2E2E2E2E2E2E2E2E2E2E2E2E2E2E2E2E2E2E2E2E2E2E2E2E2E2E2E2E2E2E2E2E2E2E2E2E2E2E2E2E2E2E2E2E2E2E2E2E2E2E2E2E2E2E2E2E2E2E2E2E2E2E2E2E2E2E2E2E2E2E2E2E2E2E2E2E2E2E2E2E2E2E2E2E2E2E2E2E2E2E2E2E2E2E2E2E2E2E2E2E2E2E2E2E2E2E2E2E2E2E2E2E2E2E2E2E2E2E2
310
E2E2E2E2E2E2E2E2E2E2E2E2E2E2E2E2E2E2E2E2E2E2E2E2E2E2E2E2E2E2E2E2E2E2E2E2E2E2E2E2E2E2E2E2E2E2E2E2E2E2E2E2E2E2E2E2E2E2E2E2E2E2E2E2E2E2E2E2E2E2E2E2E2E2E2E2E2E2E2E2E2E2E2E2E2E2E2E2E2E2E2E2E2E2E2E2E2E2E2E2E2E2E2E2E2E2E2E2E2E2E2E2E2E2E2E2E2E2E2E2E2E2E2E2E2E2E2
310
E2E2E2E2E2E2E2E2E2E2E2E2E2E2E2E2E2E2E2E2E2E2E2E2E2E2E2E2E2F5E2E2E2E2E2E2E2E2E2E2E2E2E2E2E2E2E2E2E2E2E2E2E2E2E2E2E2E2E2E2E2E2E2E2E2E2E2E2E2E2E2E2E2E2E2E2E2E2E2E2E2F5E2E2E2E2E2E2E2E2E2E2E2E2E2E2E2E2E2E2E2E2E2E2E2E2E2E2E2E2E2E2E2E2E2E2E2E2E2E2E2E2E2E2E2E2E2
310
E2E2E2E2E2E2E2E2E2E2E2E2E2E2E2E2E2E2E2E2E2E2E2E2E2E2E2E2E2E2E2E2E2E2E2E2E2E2E2E2E2E2E2E2E2E2E2E2E2E2E2E2E2E2E2E2E2E2E2E2E2E2E2E2E2E2E2E2E2E2E2E2E2E2E2E2E2E2E2E2E2E2E2E2E2E2E2E2E2E2E2E2E2E2E2E2E2E2E2E2E2E2E2E2E2E2E2E2E2E2E2E2E2E2E2E2E2E2E2E2E2E2E2E2E2E2E2
310
E2E2E2E2E2E2E2E2E2E2E2E2E2E2E2E2E2E2E2E2E2E2E2E2E2E2E2E2E2E2E2F5E2E2E2E2E2E2E2E2E2E2E2E2E2E2E2E2E2E2E2E2E2E2E2E2E2E2E2E2E2E2E2E2E2E2E2E2E2E2E2E2E2E2E2E2E2E2E2E2E2E2E2F5E2E2E2E2E2E2E2E2E2E2E2E2E2E2E2E2E2E2E2E2E2E2E2E2E2E2E2E2E2E2E2E2E2E2E2E2E2E2E2E2E2E2E2
310
E2E2E2E2E2E2E2E2E2E2E2E2E2E2E2E2E2E2E2E2E2E2E2E2E2E2E2E2E2E2E2E2E2E2E2E2E2E2E2E2E2E2E2E2E2E2E2E2E2E2E2E2E2E2E2E2E2E2E2E2E2E2E2E2E2E2E2E2E2E2E2E2E2E2E2E2E2E2E2E2E2E2E2E2E2E2E2E2E2E2E2E2E2E2E2E2E2E2E2E2E2E2E2E2E2E2E2E2E2E2E2E2E2E2E2E2E2E2E2E2E2E2E2E2E2E2E2
310
E2E2E2E2E2E2E2E2E2E2E2E2E2E2E2E2E2E2E2E2E2E2E2E2E2E2E2E2E2E2E2E2E2F5E2E2E2E2E2E2E2E2E2E2E2E2E2E2E2E2E2E2E2E2E2E2E2E2E2E2E2E2E2E2E2E2E2E2E2E2E2E2E2E2E2E2E2E2E2E2E2E2E2E2E2F5E2E2E2E2E2E2E2E2E2E2E2E2E2E2E2E2E2E2E2E2E2E2E2E2E2E2E2E2E2E2E2E2E2E2E2E2E2E2E2E2E2
310
E2E2E2E2E2E2E2E2E2E2E2E2E2E2E2E2E2E2E2E2E2E2E2E2E2E2E2E2E2E2E2E2E2E2E2E2E2E2E2E2E2E2E2E2E2E2E2E2E2E2E2E2E2E2E2E2E2E2E2E2E2E2E2E2E2E2E2E2E2E2E2E2E2E2E2E2E2E2E2E2E2E2E2E2E2E2E2E2E2E2E2E2E2E2E2E2E2E2E2E2E2E2E2E2E2E2E2E2E2E2E2E2E2E2E2E2E2E2E2E2E2E2E2E2E2E2E2
310
E2E2E2E2E2E2E2E2E2E2E2E2E2E2E2E2E2E2E2E2E2E2E2E2E2E2E2E2E2E2E2E2E2F5F5F5F5F5F5E2E2E2E2E2E2E2E2E2E2E2E2E2E2E2E2E2E2E2E2E2E2E2E2E2E2E2E2E2E2E2E2E2E2E2E2E2E2E2E2E2E2E2E2E2E2F5F5F5F5F5E2E2E2E2E2E2E2E2E2E2E2E2E2E2E2E2E2E2E2E2E2E2E2E2E2E2E2E2E2E2E2E2E2E2E2E2E2
310
E2E2E2E2E2E2E2E2E2E2E2E2E2E2E2E2E2E2E2E2E2E2E2E2E2E2E2E2E2E2E2E2E2E2E2E2E2E2E2E2E2E2E2E2E2E2E2E2E2E2E2E2E2E2E2E2E2E2E2E2E2E2E2E2E2E2E2E2E2E2E2E2E2E2E2E2E2E2E2E2E2E2E2E2E2E2E2E2E2E2E2E2E2E2E2E2E2E2E2E2E2E2E2E2E2E2E2E2E2E2E2E2E2E2E2E2E2E2E2E2E2E2E2E2E2E2E2
310
E2E2E2E2E2E2E2E2E2E2E2E2E2E2E2E2E2E2E2E2E2E2E2E2E2E2E2E2E2E2E2E2E2E2F5F5F5F5F5F5F5E2E2E2E2E2E2E2E2E2E2E2E2E2E2E2E2E2E2E2E2E2E2E2E2E2E2E2E2E2E2E2E2E2E2E2E2E2E2E2E2E2E2E2E2E2F5F5F5F5F5F5F5E2E2E2E2E2E2E2E2E2E2E2E2E2E2E2E2E2E2E2E2E2E2E2E2E2E2E2E2E2E2E2E2E2E2
310
E2E2E2E2E2E2E2E2E2E2E2E2E2E2E2E2E2E2E2E2E2E2E2E2E2E2E2E2E2E2E2E2E2E2E2E2E2E2E2E2E2E2E2E2E2E2E2E2E2E2E2E2E2E2E2E2E2E2E2E2E2E2E2E2E2E2E2E2E2E2E2E2E2E2E2E2E2E2E2E2E2E2E2E2E2E2E2E2E2E2E2E2E2E2E2E2E2E2E2E2E2E2E2E2E2E2E2E2E2E2E2E2E2E2E2E2E2E2E2E2E2E2E2E2E2E2E2
310
E2E2E2E2E2E2E2E2E2E2E2E2E2E2E2E2E2E2E2E2E2E2E2E2E2E2E2E2E2E2E2E2E2E2E2E2F5E2F5F5E2F5F5E2E2E2F5F5F5F5F5E2E2E2E2E2E2E2E2E2E2E2E2E2E2E2E2E2E2E2E2E2E2E2E2E2E2E2E2E2E2E2E2E2E2E2E2F5F5F5F5F5F5F5F5F5E2E2E2E2E2E2E2E2E2E2E2E2E2E2E2E2E2E2E2E2E2E2E2E2E2E2E2E2E2E2E2
310
E2E2E2E2E2E2E2E2E2E2E2E2E2E2E2E2E2E2E2E2E2E2E2E2E2E2E2E2E2E2E2E2E2E2E2E2E2E2E2E2E2E2E2E2E2E2E2E2E2E2E2E2E2E2E2E2E2E2E2E2E2E2E2E2E2E2E2E2E2E2E2E2E2E2E2E2E2E2E2E2E2E2E2E2E2E2E2E2E2E2E2E2E2E2E2E2E2E2E2E2E2E2E2E2E2E2E2E2E2E2E2E2E2E2E2E2E2E2E2E2E2E2E2E2E2E2E2
310
E2E2E2E2E2E2E2E2E2E2E2E2E2E2E2E2E2E2E2E2E2E2E2E2E2E2E2E2E2E2E2E2E2E2E2E2E2E2F5F5F5F5F5F5F5E2E2E2F5E2E2E2F5E2E2E2E2E2E2E2E2E2E2E2E2E2E2E2E2E2E2E2E2E2E2E2E2E2E2E2E2E2E2E2E2E2E2F5F5E2E2E2E2F5E2E2E2E2F5F5E2E2E2E2E2E2E2E2E2E2E2E2E2E2E2E2E2E2E2E2E2E2E2E2E2E2E2
310
E2E2E2E2E2E2E2E2E2E2E2E2E2E2E2E2E2E2E2E2E2E2E2E2E2E2E2E2E2E2E2E2E2E2E2E2E2E2E2E2E2E2E2E2E2E2E2E2E2E2E2E2E2E2E2E2E2E2E2E2E2E2E2E2E2E2E2E2E2E2E2E2E2E2E2E2E2E2E2E2E2E2E2E2E2E2E2E2E2E2E2E2E2E2E2E2E2E2E2E2E2E2E2E2E2E2E2E2E2E2E2E2E2E2E2E2E2E2E2E2E2E2E2E2E2E2E2
310
E2E2E2E2E2E2E2E2E2E2E2E2E2E2E2E2E2E2E2E2E2E2E2E2E2E2E2E2E2E2E2E2E2E2E2E2F5F5F5F5F5F5E2F5E2E2F5F5F5F5F5E2E2E2F5E2E2E2E2E2E2E2E2E2E2E2E2E2E2E2E2E2E2E2E2E2E2E2E2E2E2E2E2E2E2E2E2F5F5E2E2F5F5F5F5F5F5F5F5F5F5E2F5E2E2E2E2E2E2E2E2E2E2E2E2E2E2E2E2E2E2E2E2E2E2E2E2
310
E2E2E2E2E2E2E2E2E2E2E2E2E2E2E2E2E2E2E2E2E2E2E2E2E2E2E2E2E2E2E2E2E2E2E2E2E2E2E2E2E2E2E2E2E2E2E2E2E2E2E2E2E2E2E2E2E2E2E2E2E2E2E2E2E2E2E2E2E2E2E2E2E2E2E2E2E2E2E2E2E2E2E2E2E2E2E2E2E2E2E2E2E2E2E2E2E2E2E2E2E2E2E2E2E2E2E2E2E2E2E2E2E2E2E2E2E2E2E2E2E2E2E2E2E2E2E2
310
E2E2E2E2E2E2E2E2E2E2E2E2E2E2E2E2E2E2E2E2E2E2E2E2E2E2E2E2E2E2E2E2E2E2E2E2E2E2F5E2E2E2E2E2E2F5E2E2E2E2E2E2F5E2F5E2F5E2E2E2E2E2E2E2E2E2E2E2E2E2E2E2E2E2E2E2E2E2E2F5F5F5F5F5F5E2E2E2F5E2E2F5F5E2F5F5F5F5F5F5F5E2E2F5F5F5F5E2E2E2E2E2E2E2E2E2E2E2E2E2E2E2E2E2E2E2E2
310
E2E2E2E2E2E2E2E2E2E2E2E2E2E2E2E2E2E2E2E2E2E2E2E2E2E2E2E2E2E2E2E2E2E2E2E2E2E2E2E2E2E2E2E2E2E2E2E2E2E2E2E2E2E2E2E2E2E2E2E2E2E2E2E2E2E2E2E2E2E2E2E2E2E2E2E2E2E2E2E2E2E2E2E2E2E2E2E2E2E2E2E2E2E2E2E2E2E2E2E2E2E2E2E2E2E2E2E2E2E2E2E2E2E2E2E2E2E2E2E2E2E2E2E2E2E2E2
310
E2E2E2E2E2E2E2E2E2E2E2E2E2E2E2E2E2E2E2E2E2E2E2E2E2E2E2E2E2E2E2E2E2E2E2E2E2E2F5F5F5E2E2E2E2E2E2F5E2E2E2E2E2E2F5E2F5E2F5E2E2E2E2E2E2E2E2E2E2E2E2E2E2E2E2E2E2E2E2E2F5F5E2E2E2E2E2F5E2F5E2E2F5E2F5F5E2E2E2F5E2E2E2F5F5E2E2F5E2F5E2E2E2E2E2E2E2E2E2E2E2E2E2E2E2E2E2
310
E2E2E2E2E2E2E2E2E2E2E2E2E2E2E2E2E2E2E2E2E2E2E2E2E2E2E2E2E2E2E2E2E2E2E2E2E2E2E2E2E2E2E2E2E2E2E2E2E2E2E2E2E2E2E2E2E2E2E2E2E2E2E2E2E2E2E2E2E2E2E2E2E2E2E2E2E2E2E2E2E2E2E2E2E2E2E2E2E2E2E2E2E2E2E2E2E2E2E2E2E2E2E2E2E2E2E2E2E2E2E2E2E2E2E2E2E2E2E2E2E2E2E2E2E2E2E2
310
E2E2E2E2E2E2E2E2E2E2E2E2E2E2E2E2E2E2E2E2E2E2E2E2E2E2E2E2E2E2E2E2E2E2E2F5E2E2E2E2F5E2F5E2E2E2E2E2E2F5E2E2E2E2E2E2F5E2F5E2F5E2E2E2F5E2E2E2E2E2E2E2E2E2E2E2E2E2E2E2E2E2E2F5E2F5F5E2E2F5E2F5E2F5E2F5E2E2E2E2E2F5F5E2E2E2E2F5E2E2F5E2F5E2E2E2E2E2E2E2E2E2E2E2E2E2E2
310
E2E2E2E2E2E2E2E2E2E2E2E2E2E2E2E2E2E2E2E2E2E2E2E2E2E2E2E2E2E2E2E2E2E2E2E2E2E2E2E2E2E2E2E2E2E2E2E2E2E2E2E2E2E2E2E2E2E2E2E2E2E2E2E2E2E2E2E2E2E2E2E2E2E2E2E2E2E2E2E2E2E2E2E2E2E2E2E2E2E2E2E2E2E2E2E2E2E2E2E2E2E2E2E2E2E2E2E2E2E2E2E2E2E2E2E2E2E2E2E2E2E2E2E2E2E2E2
310
E2E2E2E2E2E2E2E2E2E2E2E2E2E2E2E2E2E2E2E2E2E2E2E2E2E2E2E2E2E2E2E2E2E2E2E2E2F5F5E2E2E2F5E2F5E2E2E2E2E2E2F5E2E2E2E2E2E2F5E2F5E2F5E2E2F5F5E2E2E2E2E2E2E2E2E2E2E2E2E2E2E2E2E2E2F5F5F5F5F5F5E2F5E2F5E2F5E2E2E2F5F5F5F5E2F5F5E2E2E2F5E2F5E2E2F5E2E2E2E2E2E2E2E2E2E2E2
310
E2E2E2E2E2E2E2E2E2E2E2E2E2E2E2E2E2E2E2E2E2E2E2E2E2E2E2E2E2E2E2E2E2E2E2E2E2E2E2E2E2E2E2E2E2E2E2E2E2E2E2E2E2E2E2E2E2E2E2E2E2E2E2E2E2E2E2E2E2E2E2E2E2E2E2E2E2E2E2E2E2E2E2E2E2E2E2E2E2E2E2E2E2E2E2E2E2E2E2E2E2E2E2E2E2E2E2E2E2E2E2E2E2E2E2E2E2E2E2E2E2E2E2E2E2E2E2
310
E2E2E2E2E2E2E2E2E2E2E2E2E2E2E2E2E2E2E2E2E2E2E2E2E2E2E2E2E2E2E2E2E2E2E2E2E2E2E2F5F5F5F5F5F5E2F5E2E2E2E2E2E2F5E2E2E2E2E2E2F5F5F5F5F5F5F5F5F5E2E2E2E2E2E2E2E2E2E2E2E2E2E2E2E2E2E2F5F5F5F5F5F5F5E2F5E2F5E2E2F5F5E2F5F5F5F5F5E2F5F5E2E2F5E2F5E2F5E2E2E2E2E2E2E2E2E2
310
E2E2E2E2E2E2E2E2E2E2E2E2E2E2E2E2E2E2E2E2E2E2E2E2E2E2E2E2E2E2E2E2E2E2E2E2E2E2E2E2E2E2E2E2E2E2E2E2E2E2E2E2E2E2E2E2E2E2E2E2E2E2E2E2E2E2E2E2E2E2E2E2E2E2E2E2E2E2E2E2E2E2E2E2E2E2E2E2E2E2E2E2E2E2E2E2E2E2E2E2E2E2E2E2E2E2E2E2E2E2E2E2E2E2E2E2E2E2E2E2E2E2E2E2E2E2E2
310
E2E2E2E2E2E2E2E2E2E2E2E2E2E2E2E2E2E2E2E2E2E2E2E2E2E2E2E2E2E2E2E2E2E2E2E2E2E2E2E2E2F5F5E2E2E2F5E2F5E2E2E2E2E2E2F5E2E2E2E2E2E2F5F5E2F5F5E2E2F5F5E2E2E2E2E2E2E2E2E2E2E2E2E2E2E2E2E2E2E2F5F5F5F5E2F5E2F5F5E2E2F5E2E2F5E2E2F5E2E2F5E2E2F5E2E2F5E2F5E2F5E2E2E2E2E2E2
310
E2E2E2E2E2E2E2E2E2E2E2E2E2E2E2E2E2E2E2E2E2E2E2E2E2E2E2E2E2E2E2E2E2E2E2E2E2E2E2E2E2E2E2E2E2E2E2E2E2E2E2E2E2E2E2E2E2E2E2E2E2E2E2E2E2E2E2E2E2E2E2E2E2E2E2E2E2E2E2E2E2E2E2E2E2E2E2E2E2E2E2E2E2E2E2E2E2E2E2E2E2E2E2E2E2E2E2E2E2E2E2E2E2E2E2E2E2E2E2E2E2E2E2E2E2E2E2
310
E2E2E2E2E2E2E2E2E2E2E2E2E2E2E2E2E2E2E2E2E2E2E2E2E2E2E2E2E2E2E2E2E2E2E2E2E2E2E2E2E2E2E2F5F5E2E2E2F5E2F5E2E2E2E2E2E2F5E2E2E2E2E2E2F5F5E2F5F5E2E2F5F5E2E2E2E2E2E2E2E2E2E2E2E2E2E2E2E2E2E2E2F5E2E2F5F5E2F5E2F5E2E2F5E2F5E2E2E2F5E2E2E2F5E2E2F5E2F5E2F5E2F5E2E2E2E2
310
E2E2E2E2E2E2E2E2E2E2E2E2E2E2E2E2E2E2E2E2E2E2E2E2E2E2E2E2E2E2E2E2E2E2E2E2E2E2E2E2E2E2E2E2E2E2E2E2E2E2E2E2E2E2E2E2E2E2E2E2E2E2E2E2E2E2E2E2E2E2E2E2E2E2E2E2E2E2E2E2E2E2E2E2E2E2E2E2E2E2E2E2E2E2E2E2E2E2E2E2E2E2E2E2E2E2E2E2E2E2E2E2E2E2E2E2E2E2E2E2E2E2E2E2E2E2E2
310
E2E2E2E2E2E2E2E2E2E2E2E2E2E2E2E2E2E2E2E2E2E2E2E2E2E2E2E2E2E2E2E2E2E2E2E2E2E2E2E2E2E2E2E2E2F5F5E2E2E2F5E2F5E2E2E2E2E2E2F5E2E2E2E2E2E2F5F5F5F5F5E2E2F5F5E2E2E2E2E2E2E2E2E2E2E2E2E2E2E2E2E2E2E2F5F5F5F5E2E2F5F5E2E2F5E2F5E2E2E2E2F5E2E2E2E2F5E2F5E2E2F5E2F5F5F5E2
310
E2E2E2E2E2E2E2E2E2E2E2E2E2E2E2E2E2E2E2E2E2E2E2E2E2E2E2E2E2E2E2E2E2E2E2E2E2E2E2E2E2E2E2E2E2E2E2E2E2E2E2E2E2E2E2E2E2E2E2E2E2E2E2E2E2E2E2E2E2E2E2E2E2E2E2E2E2E2E2E2E2E2E2E2E2E2E2E2E2E2E2E2E2E2E2E2E2E2E2E2E2E2E2E2E2E2E2E2E2E2E2E2E2E2E2E2E2E2E2E2E2E2E2E2E2E2E2
310
E2E2E2E2E2E2E2E2E2E2E2E2E2E2E2E2E2E2E2E2E2E2E2E2E2E2E2E2E2E2E2E2E2E2E2E2E2E2E2E2E2E2E2E2E2E2E2F5F5E2E2E2F5E2F5E2E2E2E2E2E2F5E2E2E2E2E2E2F5F5E2F5F5E2E2F5F5E2E2E2E2E2E2E2E2E2E2E2E2E2E2E2E2E2E2E2F5E2E2E2F5F5E2F5E2E2F5F5E2E2E2E2E2F5E2E2E2E2E2F5E2F5E2F5E2F5F5
310
F5E2E2E2E2E2E2E2E2E2E2E2E2E2E2E2E2E2E2E2E2E2E2E2E2E2E2E2E2E2E2E2E2E2E2E2E2E2E2E2E2E2E2E2E2E2E2E2E2E2E2E2E2E2E2E2E2E2E2E2E2E2E2E2E2E2E2E2E2E2E2E2E2E2E2E2E2E2E2E2E2E2E2E2E2E2E2E2E2E2E2E2E2E2E2E2E2E2E2E2E2E2E2E2E2E2E2E2E2E2E2E2E2E2E2E2E2E2E2E2E2E2E2E2E2E2E2
310
E2E2E2E2E2E2E2E2E2E2E2E2E2E2E2E2E2E2E2E2E2E2E2E2E2E2E2E2E2E2E2E2E2E2E2E2E2E2E2E2E2E2E2E2E2E2E2E2E2F5F5E2E2E2F5E2F5E2E2E2E2E2E2F5E2E2E2E2E2E2F5F5E2F5F5E2E2F5F5E2E2E2E2E2E2E2E2E2E2E2E2E2E2E2E2E2E2E2F5F5F5F5E2F5E2F5E2E2F5F5E2E2E2E2E2F5E2E2E2E2E2F5E2F5E2F5E2
310
F5F5E2F5E2E2E2E2E2E2E2E2E2E2E2E2E2E2E2E2E2E2E2E2E2E2E2E2E2E2E2E2E2E2E2E2E2E2E2E2E2E2E2E2E2E2E2E2E2E2E2E2E2E2E2E2E2E2E2E2E2E2E2E2E2E2E2E2E2E2E2E2E2E2E2E2E2E2E2E2E2E2E2E2E2E2E2E2E2E2E2E2E2E2E2E2E2E2E2E2E2E2E2E2E2E2E2E2E2E2E2E2E2E2E2E2E2E2E2E2E2E2E2E2E2E2E2
310
E2E2E2E2E2E2E2E2E2E2E2E2E2E2E2E2E2E2E2E2E2E2E2E2E2E2E2E2E2E2E2E2E2E2E2E2E2E2E2E2E2E2E2E2E2E2E2F5F5F5F5F5F5F5F5F5F5F5F5F5F5F5F5F5F5F5F5F5F5F5F5F5F5F5F5F5F5F5F5F5F5F5F5E2E2E2E2E2E2E2E2E2E2E2E2E2E2E2E2F5F5F5F5F5F5F5F5F5F5F5F5F5F5F5F5F5F5F5F5F5F5F5F5F5F5F5F5
310
F5F5F5F5F5F5F5F5E2E2E2E2E2E2E2E2E2E2E2E2E2E2E2E2E2E2E2E2E2E2E2E2E2E2E2E2E2E2E2E2E2E2E2E2E2E2E2E2E2E2E2E2E2E2E2E2E2E2E2E2E2E2E2E2E2E2E2E2E2E2E2E2E2E2E2E2E2E2E2E2E2E2E2E2E2E2E2E2E2E2E2E2E2E2E2E2E2E2E2E2E2E2E2E2E2E2E2E2E2E2E2E2E2E2E2E2E2E2E2E2E2E2E2E2E2E2E2
310
E2E2E2E2E2E2E2E2E2E2E2E2E2E2E2E2E2E2E2E2E2E2E2E2E2E2E2E2E2E2E2E2E2E2E2E2E2E2E2E2E2E2E2E2E2E2E2E2E2E2E2E2E2F5F5E2E2E2F5E2F5E2E2E2E2E2E2F5E2E2E2E2E2E2F5F5F5F5F5E2E2F5F5E2E2E2E2E2E2E2E2E2E2E2E2E2E2E2E2E2E2E2F5F5F5F5E2F5E2F5E2E2F5F5E2E2E2E2E2F5E2E2E2E2E2F5E2
310
F5E2F5E2F5F5E2F5E2E2E2E2E2E2E2E2E2E2E2E2E2E2E2E2E2E2E2E2E2E2E2E2E2E2E2E2E2E2E2E2E2E2E2E2E2E2E2E2E2E2E2E2E2E2E2E2E2E2E2E2E2E2E2E2E2E2E2E2E2E2E2E2E2E2E2E2E2E2E2E2E2E2E2E2E2E2E2E2E2E2E2E2E2E2E2E2E2E2E2E2E2E2E2E2E2E2E2E2E2E2E2E2E2E2E2E2E2E2E2E2E2E2E2E2E2E2E2
310
E2E2E2E2E2E2E2E2E2E2E2E2E2E2E2E2E2E2E2E2E2E2E2E2E2E2E2E2E2E2E2E2E2E2E2E2E2E2E2E2E2E2E2E2E2E2E2E2E2E2E2E2E2E2E2F5F5E2E2E2F5E2F5E2E2E2E2E2E2F5E2E2E2E2E2E2F5F5E2F5F5E2E2F5F5E2E2E2E2E2E2E2E2E2E2E2E2E2E2E2E2E2E2E2F5F5F5E2F5F5E2F5E2E2F5F5E2E2E2E2E2F5E2E2E2E2E2
310
F5E2F5E2F5E2F5F5F5E2E2E2E2E2E2E2E2E2E2E2E2E2E2E2E2E2E2E2E2E2E2E2E2E2E2E2E2E2E2E2E2E2E2E2E2E2E2E2E2E2E2E2E2E2E2E2E2E2E2E2E2E2E2E2E2E2E2E2E2E2E2E2E2E2E2E2E2E2E2E2E2E2E2E2E2E2E2E2E2E2E2E2E2E2E2E2E2E2E2E2E2E2E2E2E2E2E2E2E2E2E2E2E2E2E2E2E2E2E2E2E2E2E2E2E2E2E2
310
E2E2E2E2E2E2E2E2E2E2E2E2E2E2E2E2E2E2E2E2E2E2E2E2E2E2E2E2E2E2E2E2E2E2E2E2E2E2E2E2E2E2E2E2E2E2E2E2E2E2E2E2E2E2E2E2E2F5F5E2E2E2F5E2F5E2E2E2E2E2E2F5E2E2E2E2E2E2F5F5F5F5F5E2E2F5F5E2E2E2E2E2E2E2E2E2E2E2E2E2E2E2E2E2E2E2F5F5F5F5E2E2F5F5E2E2F5E2F5E2E2E2E2F5E2E2E2
310
E2F5E2F5E2E2F5E2F5F5F5E2E2E2E2E2E2E2E2E2E2E2E2E2E2E2E2E2E2E2E2E2E2E2E2E2E2E2E2E2E2E2E2E2E2E2E2E2E2E2E2E2E2E2E2E2E2E2E2E2E2E2E2E2E2E2E2E2E2E2E2E2E2E2E2E2E2E2E2E2E2E2E2E2E2E2E2E2E2E2E2E2E2E2E2E2E2E2E2E2E2E2E2E2E2E2E2E2E2E2E2E2E2E2E2E2E2E2E2E2E2E2E2E2E2E2E2
310
E2E2E2E2E2E2E2E2E2E2E2E2E2E2E2E2E2E2E2E2E2E2E2E2E2E2E2E2E2E2E2E2E2E2E2E2E2E2E2E2E2E2E2E2E2E2E2E2E2E2E2E2E2E2E2E2E2E2E2F5F5E2E2E2F5E2F5E2E2E2E2E2E2F5E2E2E2E2E2E2F5E2E2E2F5E2E2F5F5E2E2E2E2E2E2E2E2E2E2E2E2E2E2E2E2E2E2E2E2E2E2E2F5E2F5E2F5E2E2F5E2F5E2E2E2F5E2
310
E2E2F5E2E2F5E2F5E2F5E2F5E2E2E2E2E2E2E2E2E2E2E2E2E2E2E2E2E2E2E2E2E2E2E2E2E2E2E2E2E2E2E2E2E2E2E2E2E2E2E2E2E2E2E2E2E2E2E2E2E2E2E2E2E2E2E2E2E2E2E2E2E2E2E2E2E2E2E2E2E2E2E2E2E2E2E2E2E2E2E2E2E2E2E2E2E2E2E2E2E2E2E2E2E2E2E2E2E2E2E2E2E2E2E2E2E2E2E2E2E2E2E2E2E2E2E2
310
E2E2E2E2E2E2E2E2E2E2E2E2E2E2E2E2E2E2E2E2E2E2E2E2E2E2E2E2E2E2E2E2E2E2E2E2E2E2E2E2E2E2E2E2E2E2E2E2E2E2E2E2E2E2E2E2E2E2E2E2E2F5F5E2E2E2F5E2F5E2E2E2E2E2E2F5E2E2E2E2E2E2F5E2E2E2F5E2E2F5F5E2E2E2E2E2E2E2E2E2E2E2E2E2E2E2E2E2E2E2E2E2E2E2F5E2E2F5F5E2E2F5E2E2F5E2E2
310
F5E2E2F5E2E2F5E2E2F5E2F5E2F5E2E2E2E2E2E2E2E2E2E2E2E2E2E2E2E2E2E2E2E2E2E2E2E2E2E2E2E2E2E2E2E2E2E2E2E2E2E2E2E2E2E2E2E2E2E2E2E2E2E2E2E2E2E2E2E2E2E2E2E2E2E2E2E2E2E2E2E2E2E2E2E2E2E2E2E2E2E2E2E2E2E2E2E2E2E2E2E2E2E2E2E2E2E2E2E2E2E2E2E2E2E2E2E2E2E2E2E2E2E2E2E2E2
310
E2E2E2E2E2E2E2E2E2E2E2E2E2E2E2E2E2E2E2E2E2E2E2E2E2E2E2E2E2E2E2E2E2E2E2E2E2E2E2E2E2E2E2E2E2E2E2E2E2E2E2E2E2E2E2E2E2E2E2E2E2E2E2F5F5E2E2E2F5E2F5E2E2E2E2E2E2F5E2E2E2E2E2E2F5E2E2E2F5E2E2F5F5E2E2E2E2E2E2E2E2E2E2E2E2E2E2E2E2E2E2E2E2E2E2E2E2F5E2F5E2F5E2E2F5F5E2
310
F5F5F5F5F5E2E2F5E2E2F5E2F5E2F5E2E2E2E2E2E2E2E2E2E2E2E2E2E2E2E2E2E2E2E2E2E2E2E2E2E2E2E2E2E2E2E2E2E2E2E2E2E2E2E2E2E2E2E2E2E2E2E2E2E2E2E2E2E2E2E2E2E2E2E2E2E2E2E2E2E2E2E2E2E2E2E2E2E2E2E2E2E2E2E2E2E2E2E2E2E2E2E2E2E2E2E2E2E2E2E2E2E2E2E2E2E2E2E2E2E2E2E2E2E2E2E2
310
E2E2E2E2E2E2E2E2E2E2E2E2E2E2E2E2E2E2E2E2E2E2E2E2E2E2E2E2E2E2E2E2E2E2E2E2E2E2E2E2E2E2E2E2E2E2E2E2E2E2E2E2E2E2E2E2E2E2E2E2E2E2E2E2E2F5F5F5F5F5F5E2F5E2E2E2E2E2E2F5E2E2E2E2E2E2F5E2E2E2F5F5F5F5F5E2E2E2E2E2E2E2E2E2E2E2E2E2E2E2E2E2E2E2E2E2E2E2E2F5E2E2F5E2F5E2E2
310
E2F5F5E2F5E2F5F5F5E2E2F5E2F5E2E2F5E2E2E2E2E2E2E2E2E2E2E2E2E2E2E2E2E2E2E2E2E2E2E2E2E2E2E2E2E2E2E2E2E2E2E2E2E2E2E2E2E2E2E2E2E2E2E2E2E2E2E2E2E2E2E2E2E2E2E2E2E2E2E2E2E2E2E2E2E2E2E2E2E2E2E2E2E2E2E2E2E2E2E2E2E2E2E2E2E2E2E2E2E2E2E2E2E2E2E2E2E2E2E2E2E2E2E2E2E2E2
310
E2E2E2E2E2E2E2E2E2E2E2E2E2E2E2E2E2E2E2E2E2E2E2E2E2E2E2E2E2E2E2E2E2E2E2E2E2E2E2E2E2E2E2E2E2E2E2E2E2E2E2E2E2E2E2E2E2E2E2E2E2E2E2E2E2E2E2F5E2E2E2E2F5E2F5E2E2E2E2E2E2F5E2E2E2E2E2E2F5E2E2E2F5E2E2E2F5E2E2E2E2E2E2E2E2E2E2E2E2E2E2E2E2E2E2E2E2E2E2E2E2E2F5E2E2F5E2
310
F5E2E2E2E2F5F5F5E2E2E2E2F5E2E2F5E2F5E2E2E2E2E2E2E2E2E2E2E2E2E2E2E2E2E2E2E2E2E2E2E2E2E2E2E2E2E2E2E2E2E2E2E2E2E2E2E2E2E2E2E2E2E2E2E2E2E2E2E2E2E2E2E2E2E2E2E2E2E2E2E2E2E2E2E2E2E2E2E2E2E2E2E2E2E2E2E2E2E2E2E2E2E2E2E2E2E2E2E2E2E2E2E2E2E2E2E2E2E2E2E2E2E2E2E2E2E2
310
E2E2E2E2E2E2E2E2E2E2E2E2E2E2E2E2E2E2E2E2E2E2E2E2E2E2E2E2E2E2E2E2E2E2E2E2E2E2E2E2E2E2E2E2E2E2E2E2E2E2E2E2E2E2E2E2E2E2E2E2E2E2E2E2E2E2E2E2E2E2E2E2E2E2F5F5F5E2E2E2E2E2E2F5E2E2E2E2E2E2F5E2E2E2F5E2E2E2E2E2E2E2E2E2E2E2E2E2E2E2E2E2E2E2E2E2E2E2E2E2E2E2E2E2E2F5E2
310
E2F5E2F5F5E2E2E2F5E2E2E2F5F5E2E2F5E2F5E2E2E2E2E2E2E2E2E2E2E2E2E2E2E2E2E2E2E2E2E2E2E2E2E2E2E2E2E2E2E2E2E2E2E2E2E2E2E2E2E2E2E2E2E2E2E2E2E2E2E2E2E2E2E2E2E2E2E2E2E2E2E2E2E2E2E2E2E2E2E2E2E2E2E2E2E2E2E2E2E2E2E2E2E2E2E2E2E2E2E2E2E2E2E2E2E2E2E2E2E2E2E2E2E2E2E2E2
310
E2E2E2E2E2E2E2E2E2E2E2E2E2E2E2E2E2E2E2E2E2E2E2E2E2E2E2E2E2E2E2E2E2E2E2E2E2E2E2E2E2E2E2E2E2E2E2E2E2E2E2E2E2E2E2E2E2E2E2E2E2E2E2E2E2E2E2E2E2E2E2E2E2E2E2E2E2E2F5E2E2E2E2E2E2F5E2E2E2E2E2E2F5E2E2E2F5E2E2E2E2E2E2E2E2E2E2E2E2E2E2E2E2E2E2E2E2E2E2E2E2E2E2E2E2E2E2
310
E2F5E2E2F5F5E2F5F5F5F5F5F5F5E2E2F5F5E2F5E2E2E2E2E2E2E2E2E2E2E2E2E2E2E2E2E2E2E2E2E2E2E2E2E2E2E2E2E2E2E2E2E2E2E2E2E2E2E2E2E2E2E2E2E2E2E2E2E2E2E2E2E2E2E2E2E2E2E2E2E2E2E2E2E2E2E2E2E2E2E2E2E2E2E2E2E2E2E2E2E2E2E2E2E2E2E2E2E2E2E2E2E2E2E2E2E2E2E2E2E2E2E2E2E2E2E2
310
E2E2E2E2E2E2E2E2E2E2E2E2E2E2E2E2E2E2E2E2E2E2E2E2E2E2E2E2E2E2E2E2E2E2E2E2E2E2E2E2E2E2E2E2E2E2E2E2E2E2E2E2E2E2E2E2E2E2E2E2E2E2E2E2E2E2E2E2E2E2E2E2E2E2E2E2E2E2E2E2F5F5F5F5F5E2E2F5E2E2E2F5F5F5F5E2E2E2F5E2E2E2E2E2E2E2E2E2E2E2E2E2E2E2E2E2E2E2E2E2E2E2E2E2E2E2E2
310
E2E2E2E2F5F5E2E2F5F5F5E2F5E2E2E2F5F5E2E2F5E2E2E2E2E2E2E2E2E2E2E2E2E2E2E2E2E2E2E2E2E2E2E2E2E2E2E2E2E2E2E2E2E2E2E2E2E2E2E2E2E2E2E2E2E2E2E2E2E2E2E2E2E2E2E2E2E2E2E2E2E2E2E2E2E2E2E2E2E2E2E2E2E2E2E2E2E2E2E2E2E2E2E2E2E2E2E2E2E2E2E2E2E2E2E2E2E2E2E2E2E2E2E2E2E2E2
310
E2E2E2E2E2E2E2E2E2E2E2E2E2E2E2E2E2E2E2E2E2E2E2E2E2E2E2E2E2E2E2E2E2E2E2E2E2E2E2E2E2E2E2E2E2E2E2E2E2E2E2E2E2E2E2E2E2E2E2E2E2E2E2E2E2E2E2E2E2E2E2E2E2E2E2E2E2E2E2E2E2E2E2E2E2E2F5F5F5F5F5F5F5F5E2E2F5E2E2E2F5E2E2E2E2E2E2E2E2E2E2E2E2E2E2E2E2E2E2E2E2E2E2E2E2E2E2
310
E2E2E2E2E2E2E2E2F5F5E2E2E2F5F5F5F5F5E2E2F5F5E2E2E2E2E2E2E2E2E2E2E2E2E2E2E2E2E2E2E2E2E2E2E2E2E2E2E2E2E2E2E2E2E2E2E2E2E2E2E2E2E2E2E2E2E2E2E2E2E2E2E2E2E2E2E2E2E2E2E2E2E2E2E2E2E2E2E2E2E2E2E2E2E2E2E2E2E2E2E2E2E2E2E2E2E2E2E2E2E2E2E2E2E2E2E2E2E2E2E2E2E2E2E2E2E2
310
E2E2E2E2E2E2E2E2E2E2E2E2E2E2E2E2E2E2E2E2E2E2E2E2E2E2E2E2E2E2E2E2E2E2E2E2E2E2E2E2E2E2E2E2E2E2E2E2E2E2E2E2E2E2E2E2E2E2E2E2E2E2E2E2E2E2E2E2E2E2E2E2E2E2E2E2E2E2E2E2E2E2E2E2E2E2E2E2F5F5E2F5F5F5F5F5E2E2F5F5F5F5F5E2E2E2E2E2E2E2E2E2E2E2E2E2E2E2E2E2E2E2E2E2E2E2E2
310
E2E2E2E2E2E2E2E2E2E2E2E2F5F5F5F5F5F5F5F5F5F5E2E2E2E2E2E2E2E2E2E2E2E2E2E2E2E2E2E2E2E2E2E2E2E2E2E2E2E2E2E2E2E2E2E2E2E2E2E2E2E2E2E2E2E2E2E2E2E2E2E2E2E2E2E2E2E2E2E2E2E2E2E2E2E2E2E2E2E2E2E2E2E2E2E2E2E2E2E2E2E2E2E2E2E2E2E2E2E2E2E2E2E2E2E2E2E2E2E2E2E2E2E2E2E2E2
310
E2E2E2E2E2E2E2E2E2E2E2E2E2E2E2E2E2E2E2E2E2E2E2E2E2E2E2E2E2E2E2E2E2E2E2E2E2E2E2E2E2E2E2E2E2E2E2E2E2E2E2E2E2E2E2E2E2E2E2E2E2E2E2E2E2E2E2E2E2E2E2E2E2E2E2E2E2E2E2E2E2E2E2E2E2E2F5F5F5F5F5F5E2F5F5F5F5F5E2E2E2E2E2E2E2E2E2E2E2E2E2E2E2E2E2E2E2E2E2E2E2E2E2E2E2E2E2
310
E2E2E2E2E2E2E2E2E2E2E2E2E2F5F5F5F5F5F5F5F5F5E2F5E2E2E2E2E2E2E2E2E2E2E2E2E2E2E2E2E2E2E2E2E2E2E2E2E2E2E2E2E2E2E2E2E2E2E2E2E2E2E2E2E2E2E2E2E2E2E2E2E2E2E2E2E2E2E2E2E2E2E2E2E2E2E2E2E2E2E2E2E2E2E2E2E2E2E2E2E2E2E2E2E2E2E2E2E2E2E2E2E2E2E2E2E2E2E2E2E2E2E2E2E2E2E2
310
E2E2E2E2E2E2E2E2E2E2E2E2E2E2E2E2E2E2E2E2E2E2E2E2E2E2E2E2E2E2E2E2E2E2E2E2E2E2E2E2E2E2E2E2E2E2E2E2E2E2E2E2E2E2E2E2E2E2E2E2E2E2E2E2E2E2E2E2E2E2E2E2E2E2E2E2E2E2E2E2E2E2E2E2E2E2E2E2E2E2E2E2E2F5E2F5E2E2F5E2E2E2E2E2E2E2E2E2E2E2E2E2E2E2E2E2E2E2E2E2E2E2E2E2E2E2E2
310
E2E2E2E2E2E2E2E2E2E2E2E2E2E2E2F5E2F5F5E2F5E2E2F5E2F5E2E2E2E2E2E2E2E2E2E2E2E2E2E2E2E2E2E2E2E2E2E2E2E2E2E2E2E2E2E2E2E2E2E2E2E2E2E2E2E2E2E2E2E2E2E2E2E2E2E2E2E2E2E2E2E2E2E2E2E2E2E2E2E2E2E2E2E2E2E2E2E2E2E2E2E2E2E2E2E2E2E2E2E2E2E2E2E2E2E2E2E2E2E2E2E2E2E2E2E2E2
310
E2E2E2E2E2E2E2E2E2E2E2E2E2E2E2E2E2E2E2E2E2E2E2E2E2E2E2E2E2E2E2E2E2E2E2E2E2E2E2E2E2E2E2E2E2E2E2E2E2E2E2E2E2E2E2E2E2E2E2E2E2E2E2E2E2E2E2E2E2E2E2E2E2E2E2E2E2E2E2E2E2E2E2E2E2E2E2E2E2E2E2E2E2E2E2F5E2F5E2E2F5E2E2E2E2E2E2E2E2E2E2E2E2E2E2E2E2E2E2E2E2E2E2E2E2E2E2
310
E2E2E2E2E2E2E2E2E2E2E2E2E2E2E2E2E2F5E2F5F5E2F5E2E2F5E2F5E2E2E2E2E2E2E2E2E2E2E2E2E2E2E2E2E2E2E2E2E2E2E2E2E2E2E2E2E2E2E2E2E2E2E2E2E2E2E2E2E2E2E2E2E2E2E2E2E2E2E2E2E2E2E2E2E2E2E2E2E2E2E2E2E2E2E2E2E2E2E2E2E2E2E2E2E2E2E2E2E2E2E2E2E2E2E2E2E2E2E2E2E2E2E2E2E2E2E2
310
E2E2E2E2E2E2E2E2E2E2E2E2E2E2E2E2E2E2E2E2E2E2E2E2E2E2E2E2E2E2E2E2E2E2E2E2E2E2E2E2E2E2E2E2E2E2E2E2E2E2E2E2E2E2E2E2E2E2E2E2E2E2E2E2E2E2E2E2E2E2E2E2E2E2E2E2E2E2E2E2E2E2E2E2E2E2E2E2E2E2E2E2E2E2E2E2E2F5E2F5E2E2F5E2E2E2E2E2E2E2E2E2E2E2E2E2E2E2E2E2E2E2E2E2E2E2E2
310
E2E2E2E2E2E2E2E2E2E2E2E2E2E2E2E2E2E2E2F5E2F5F5E2F5E2E2F5E2F5E2E2E2E2E2E2E2E2E2E2E2E2E2E2E2E2E2E2E2E2E2E2E2E2E2E2E2E2E2E2E2E2E2E2E2E2E2E2E2E2E2E2E2E2E2E2E2E2E2E2E2E2E2E2E2E2E2E2E2E2E2E2E2E2E2E2E2E2E2E2E2E2E2E2E2E2E2E2E2E2E2E2E2E2E2E2E2E2E2E2E2E2E2E2E2E2E2
310
E2E2E2E2E2E2E2E2E2E2E2E2E2E2E2E2E2E2E2E2E2E2E2E2E2E2E2E2E2E2E2E2E2E2E2E2E2E2E2E2E2E2E2E2E2E2E2E2E2E2E2E2E2E2E2E2E2E2E2E2E2E2E2E2E2E2E2E2E2E2E2E2E2E2E2E2E2E2E2E2E2E2E2E2E2E2E2E2E2E2E2E2E2E2E2E2F5F5F5F5E2F5E2E2F5F5F5F5E2E2E2E2E2E2E2E2E2E2E2E2E2E2E2E2E2E2E2
310
E2E2E2E2E2E2E2E2E2E2E2E2E2E2E2E2E2E2E2E2E2F5F5F5F5E2F5E2E2F5F5F5E2E2E2E2E2E2E2E2E2E2E2E2E2E2E2E2E2E2E2E2E2E2E2E2E2E2E2E2E2E2E2E2E2E2E2E2E2E2E2E2E2E2E2E2E2E2E2E2E2E2E2E2E2E2E2E2E2E2E2E2E2E2E2E2E2E2E2E2E2E2E2E2E2E2E2E2E2E2E2E2E2E2E2E2E2E2E2E2E2E2E2E2E2E2E2
310
E2E2E2E2E2E2E2E2E2E2E2E2E2E2E2E2E2E2E2E2E2E2E2E2E2E2E2E2E2E2E2E2E2E2E2E2E2E2E2E2E2E2E2E2E2E2E2E2E2E2E2E2E2E2E2E2E2E2E2E2E2E2E2E2E2E2E2E2E2E2E2E2E2E2E2E2E2E2E2E2E2E2E2E2E2E2E2E2E2E2E2E2E2E2E2E2E2E2F5F5F5F5E2F5E2E2F5F5F5F5E2E2E2E2E2E2E2E2E2E2E2E2E2E2E2E2E2
310
E2E2E2E2E2E2E2E2E2E2E2E2E2E2E2E2E2E2E2E2E2E2E2F5F5F5F5E2F5E2E2F5F5F5F5E2E2E2E2E2E2E2E2E2E2E2E2E2E2E2E2E2E2E2E2E2E2E2E2E2E2E2E2E2E2E2E2E2E2E2E2E2E2E2E2E2E2E2E2E2E2E2E2E2E2E2E2E2E2E2E2E2E2E2E2E2E2E2E2E2E2E2E2E2E2E2E2E2E2E2E2E2E2E2E2E2E2E2E2E2E2E2E2E2E2E2E2
310
E2E2E2E2E2E2E2E2E2E2E2E2E2E2E2E2E2E2E2E2E2E2E2E2E2E2E2E2E2E2E2E2E2E2E2E2E2E2E2E2E2E2E2E2E2E2E2E2E2E2E2E2E2E2E2E2E2E2E2E2E2E2E2E2E2E2E2E2E2E2E2E2E2E2E2E2E2E2E2E2E2E2E2E2E2E2E2E2E2E2E2E2E2E2E2E2E2E2E2E2F5F5F5F5F5F5F5F5F5F5F5F5E2E2E2E2E2E2E2E2E2E2E2E2E2E2E2
310
E2E2E2E2E2E2E2E2E2E2E2E2E2E2E2E2E2E2E2F5F5F5F5F5F5F5F5F5F5F5F5F5F5F5F5F5F5F5F5F5F5F5F5F5F5F5E2E2E2E2E2E2E2E2E2E2E2E2E2E2E2E2E2E2E2E2E2E2E2E2E2E2E2E2E2E2E2E2E2E2E2E2E2E2E2E2E2E2E2E2E2E2E2E2E2E2E2E2E2E2E2E2E2E2E2E2E2E2E2E2E2E2E2E2E2E2E2E2E2E2E2E2E2E2E2E2E2
310
E2E2E2E2E2E2E2E2E2E2E2E2E2E2E2E2E2E2E2E2E2E2E2E2E2E2E2E2E2E2E2E2E2E2E2E2E2E2E2E2E2E2E2E2E2E2E2E2E2E2E2E2E2E2E2E2E2E2E2E2E2E2E2E2E2E2E2E2E2E2E2E2E2E2E2E2E2E2E2E2E2E2E2E2E2E2E2E2E2E2E2E2E2E2E2E2E2E2E2E2E2E2F5F5F5F5F5F5F5F5F5F5F5F5E2E2E2E2E2E2E2E2E2E2E2E2E2
310
E2E2E2E2E2E2E2E2E2E2E2E2E2E2E2E2E2E2E2E2F5F5F5E2E2E2E2E2E2E2E2E2F5E2E2E2E2E2E2E2E2E2E2E2E2E2F5F5F5E2E2E2E2E2E2E2E2E2E2E2E2E2E2E2E2E2E2E2E2E2E2E2E2E2E2E2E2E2E2E2E2E2E2E2E2E2E2E2E2E2E2E2E2E2E2E2E2E2E2E2E2E2E2E2E2E2E2E2E2E2E2E2E2E2E2E2E2E2E2E2E2E2E2E2E2E2E2
310
E2E2E2E2E2E2E2E2E2E2E2E2E2E2E2E2E2E2E2E2E2E2E2E2E2E2E2E2E2E2E2E2E2E2E2E2E2E2E2E2E2E2E2E2E2E2E2E2E2E2E2E2E2E2E2E2E2E2E2E2E2E2E2E2E2E2E2E2E2E2E2E2E2E2E2E2E2E2E2E2E2E2E2E2E2E2E2E2E2E2E2E2E2E2E2E2E2E2E2E2E2E2E2E2F5F5F5E2E2F5E2E2E2F5F5F5E2E2E2E2E2E2E2E2E2E2E2
310
E2E2E2E2E2E2E2E2E2E2E2E2E2E2E2E2E2E2E2E2E2E2F5F5F5E2E2E2E2E2E2E2E2E2F5E2E2E2E2E2E2E2E2E2E2E2E2E2F5F5F5E2E2E2E2E2E2E2E2E2E2E2E2E2E2E2E2E2E2E2E2E2E2E2E2E2E2E2E2E2E2E2E2E2E2E2E2E2E2E2E2E2E2E2E2E2E2E2E2E2E2E2E2E2E2E2E2E2E2E2E2E2E2E2E2E2E2E2E2E2E2E2E2E2E2E2E2
310
E2E2E2E2E2E2E2E2E2E2E2E2E2E2E2E2E2E2E2E2E2E2E2E2E2E2E2E2E2E2E2E2E2E2E2E2E2E2E2E2E2E2E2E2E2E2E2E2E2E2E2E2E2E2E2E2E2E2E2E2E2E2E2E2E2E2E2E2E2E2E2E2E2E2E2E2E2E2E2E2E2E2E2E2E2E2E2E2E2E2E2E2E2E2E2E2E2E2E2E2E2E2E2E2E2E2F5F5E2E2E2F5E2E2E2E2F5F5E2E2E2E2E2E2E2E2E2
310
E2E2E2E2E2E2E2E2E2E2E2E2E2E2E2E2E2E2E2E2E2E2E2E2F5F5F5E2E2E2E2E2E2E2E2E2F5E2E2E2E2E2E2E2E2E2E2E2E2E2F5F5F5E2E2E2E2E2E2E2E2E2E2E2E2E2E2E2E2E2E2E2E2E2E2E2E2E2E2E2E2E2E2E2E2E2E2E2E2E2E2E2E2E2E2E2E2E2E2E2E2E2E2E2E2E2E2E2E2E2E2E2E2E2E2E2E2E2E2E2E2E2E2E2E2E2E2
310
E2E2E2E2E2E2E2E2E2E2E2E2E2E2E2E2E2E2E2E2E2E2E2E2E2E2E2E2E2E2E2E2E2E2E2E2E2E2E2E2E2E2E2E2E2E2E2E2E2E2E2E2E2E2E2E2E2E2E2E2E2E2E2E2E2E2E2E2E2E2E2E2E2E2E2E2E2E2E2E2E2E2E2E2E2E2E2E2E2E2E2E2E2E2E2E2E2E2E2E2E2E2E2E2E2E2E2E2F5E2E2E2E2F5E2E2E2E2E2F5E2E2E2E2E2E2E2
310
E2E2E2E2E2E2E2E2E2E2E2E2E2E2E2E2E2E2E2E2E2E2E2E2E2E2E2F5F5F5F5F5F5F5F5F5F5F5F5F5F5F5F5F5F5F5F5F5F5F5F5F5F5F5E2E2E2E2E2E2E2E2E2E2E2E2E2E2E2E2E2E2E2E2E2E2E2E2E2E2E2E2E2E2E2E2E2E2E2E2E2E2E2E2E2E2E2E2E2E2E2E2E2E2E2E2E2E2E2E2E2E2E2E2E2E2E2E2E2E2E2E2E2E2E2E2E2
310
E2E2E2E2E2E2E2E2E2E2E2E2E2E2E2E2E2E2E2E2E2E2E2E2E2E2E2E2E2E2E2E2E2E2E2E2E2E2E2E2E2E2E2E2E2E2E2E2E2E2E2E2E2E2E2E2E2E2E2E2E2E2E2E2E2E2E2E2E2E2E2E2E2E2E2E2E2E2E2E2E2E2E2E2E2E2E2E2E2E2E2E2E2E2E2E2E2E2E2E2E2E2E2E2E2E2E2E2E2E2F5E2E2E2E2F5E2E2E2E2E2E2F5E2E2E2E2
310
E2E2E2E2E2E2E2E2E2E2E2E2E2E2E2E2E2E2E2E2E2E2E2E2E2E2E2E2E2F5F5E2E2E2E2E2E2E2E2E2F5E2E2E2E2E2E2E2E2E2E2E2E2E2F5F5E2E2E2E2E2E2E2E2E2E2E2E2E2E2E2E2E2E2E2E2E2E2E2E2E2E2E2E2E2E2E2E2E2E2E2E2E2E2E2E2E2E2E2E2E2E2E2E2E2E2E2E2E2E2E2E2E2E2E2E2E2E2E2E2E2E2E2E2E2E2E2
310
E2E2E2E2E2E2E2E2E2E2E2E2E2E2E2E2E2E2E2E2E2E2E2E2E2E2E2E2E2E2E2E2E2E2E2E2E2E2E2E2E2E2E2E2E2E2E2E2E2E2E2E2E2E2E2E2E2E2E2E2E2E2E2E2E2E2E2E2E2E2E2E2E2E2E2E2E2E2E2E2E2E2E2E2E2E2E2E2E2E2E2E2E2E2E2E2E2E2E2E2E2E2E2E2E2E2E2E2E2E2E2F5E2E2E2E2E2F5E2E2E2F5E2E2F5E2E2
310
E2E2E2E2E2E2E2E2E2E2E2E2E2E2E2E2E2E2E2E2E2E2E2E2E2E2E2E2F5F5F5F5F5E2E2E2E2E2E2E2E2E2F5E2E2E2E2E2E2E2E2E2E2E2E2E2F5F5F5F5E2E2E2E2E2E2E2E2E2E2E2E2E2E2E2E2E2E2E2E2E2E2E2E2E2E2E2E2E2E2E2E2E2E2E2E2E2E2E2E2E2E2E2E2E2E2E2E2E2E2E2E2E2E2E2E2E2E2E2E2E2E2E2E2E2E2E2
310
E2E2E2E2E2E2E2E2E2E2E2E2E2E2E2E2E2E2E2E2E2E2E2E2E2E2E2E2E2E2E2E2E2E2E2E2E2E2E2E2E2E2E2E2E2E2E2E2E2E2E2E2E2E2E2E2E2E2E2E2E2E2E2E2E2E2E2E2E2E2E2E2E2E2E2E2E2E2E2E2E2E2E2E2E2E2E2E2E2E2E2E2E2E2E2E2E2E2E2E2E2E2E2E2E2E2E2E2E2E2E2E2E2F5E2F5F5F5E2F5E2E2F5F5F5E2F5
310
E2E2E2E2E2E2E2E2E2E2E2E2E2E2E2E2E2E2E2E2E2E2E2E2E2E2E2E2E2E2F5F5F5F5F5E2E2E2E2E2E2E2E2E2F5E2E2E2E2E2E2E2E2E2E2E2E2E2F5F5F5F5E2E2E2E2E2E2E2E2E2E2E2E2E2E2E2E2E2E2E2E2E2E2E2E2E2E2E2E2E2E2E2E2E2E2E2E2E2E2E2E2E2E2E2E2E2E2E2E2E2E2E2E2E2E2E2E2E2E2E2E2E2E2E2E2E2
310
E2E2E2E2E2E2E2E2E2E2E2E2E2E2E2E2E2E2E2E2E2E2E2E2E2E2E2E2E2E2E2E2E2E2E2E2E2E2E2E2E2E2E2E2E2E2E2E2E2E2E2E2E2E2E2E2E2E2E2E2E2E2E2E2E2E2E2E2E2E2E2E2E2E2E2E2E2E2E2E2E2E2E2E2E2E2E2E2E2E2E2E2E2E2E2E2E2E2E2E2E2E2E2E2E2E2E2E2E2E2E2E2E2E2E2F5E2F5F5F5E2F5E2E2F5E2F5
310
E2F5E2E2E2E2E2E2E2E2E2E2E2E2E2E2E2E2E2E2E2E2E2E2E2E2E2E2E2E2E2E2F5F5F5F5F5E2E2E2E2E2E2E2E2E2F5E2E2E2E2E2E2E2E2E2E2E2E2E2F5F5F5F5E2E2E2E2E2E2E2E2E2E2E2E2E2E2E2E2E2E2E2E2E2E2E2E2E2E2E2E2E2E2E2E2E2E2E2E2E2E2E2E2E2E2E2E2E2E2E2E2E2E2E2E2E2E2E2E2E2E2E2E2E2E2E2
310
E2E2E2E2E2E2E2E2E2E2E2E2E2E2E2E2E2E2E2E2E2E2E2E2E2E2E2E2E2E2E2E2E2E2E2E2E2E2E2E2E2E2E2E2E2E2E2E2E2E2E2E2E2E2E2E2E2E2E2E2E2E2E2E2E2E2E2E2E2E2E2E2E2E2E2E2E2E2E2E2E2E2E2E2E2E2E2E2E2E2E2E2E2E2E2E2E2E2E2E2E2E2E2E2E2E2E2E2E2E2E2E2E2E2E2E2E2F5E2E2F5E2E2F5E2E2F5
310
F5F5E2F5E2E2E2E2E2E2E2E2E2E2E2E2E2E2E2E2E2E2E2E2E2E2E2E2E2E2E2E2E2E2F5F5F5F5F5E2E2E2E2E2E2E2E2E2F5E2E2E2E2E2E2E2E2E2E2E2E2E2F5F5F5F5E2E2E2E2E2E2E2E2E2E2E2E2E2E2E2E2E2E2E2E2E2E2E2E2E2E2E2E2E2E2E2E2E2E2E2E2E2E2E2E2E2E2E2E2E2E2E2E2E2E2E2E2E2E2E2E2E2E2E2E2E2
310
E2E2E2E2E2E2E2E2E2E2E2E2E2E2E2E2E2E2E2E2E2E2E2E2E2E2E2E2E2E2E2E2E2E2E2E2E2E2E2E2E2E2E2E2E2E2E2E2E2E2E2E2E2E2E2E2E2E2E2E2E2E2E2E2E2E2E2E2E2E2E2E2E2E2E2E2E2E2E2E2E2E2E2E2E2E2E2E2E2E2E2E2E2E2E2E2E2E2E2E2E2E2E2E2E2E2E2E2E2E2E2E2E2E2E2E2E2E2E2F5E2E2E2E2E2F5E2
310
E2E2E2E2E2F5E2E2E2E2E2E2E2E2E2E2E2E2E2E2E2E2E2E2E2E2E2E2E2E2E2E2E2E2E2E2E2E2E2F5F5E2E2E2E2E2E2E2E2E2F5E2E2E2E2E2E2E2E2E2E2E2E2E2F5F5E2E2E2E2E2E2E2E2E2E2E2E2E2E2E2E2E2E2E2E2E2E2E2E2E2E2E2E2E2E2E2E2E2E2E2E2E2E2E2E2E2E2E2E2E2E2E2E2E2E2E2E2E2E2E2E2E2E2E2E2E2
310
E2E2E2E2E2E2E2E2E2E2E2E2E2E2E2E2E2E2E2E2E2E2E2E2E2E2E2E2E2E2E2E2E2E2E2E2E2E2E2E2E2E2E2E2E2E2E2E2E2E2E2E2E2E2E2E2E2E2E2E2E2E2E2E2E2E2E2E2E2E2E2E2E2E2E2E2E2E2E2E2E2E2E2E2E2E2E2E2E2E2E2E2E2E2E2E2E2E2E2E2E2E2E2E2E2E2E2E2E2E2E2E2E2E2E2E2E2E2E2E2E2E2F5E2E2E2E2
310
F5E2E2E2E2E2F5E2E2E2E2E2E2E2E2E2E2E2E2E2E2E2E2E2E2E2E2E2E2E2E2E2E2E2E2E2E2E2E2E2E2F5F5E2E2E2E2E2E2E2E2E2F5E2E2E2E2E2E2E2E2E2E2E2E2E2F5F5E2E2E2E2E2E2E2E2E2E2E2E2E2E2E2E2E2E2E2E2E2E2E2E2E2E2E2E2E2E2E2E2E2E2E2E2E2E2E2E2E2E2E2E2E2E2E2E2E2E2E2E2E2E2E2E2E2E2E2
310
E2E2E2E2E2E2E2E2E2E2E2E2E2E2E2E2E2E2E2E2E2E2E2E2E2E2E2E2E2E2E2E2E2E2E2E2E2E2E2E2E2E2E2E2E2E2E2E2E2E2E2E2E2E2E2E2E2E2E2E2E2E2E2E2E2E2E2E2E2E2E2E2E2E2E2E2E2E2E2E2E2E2E2E2E2E2E2E2E2E2E2E2E2E2E2E2E2E2E2E2E2E2E2E2E2E2E2E2E2E2E2E2E2E2E2E2E2E2E2E2E2E2E2E2F5E2E2
310
E2E2F5E2E2E2E2E2F5E2E2E2E2E2E2E2E2E2E2E2E2E2E2E2E2E2E2E2E2E2E2E2E2E2E2E2E2E2E2E2E2E2E2F5F5F5F5F5F5F5F5F5F5F5F5F5F5F5F5F5F5F5F5F5F5F5F5F5F5F5E2E2E2E2E2E2E2E2E2E2E2E2E2E2E2E2E2E2E2E2E2E2E2E2E2E2E2E2E2E2E2E2E2E2E2E2E2E2E2E2E2E2E2E2E2E2E2E2E2E2E2E2E2E2E2E2E2
310
E2E2E2E2E2E2E2E2E2E2E2E2E2E2E2E2E2E2E2E2E2E2E2E2E2E2E2E2E2E2E2E2E2E2E2E2E2E2E2E2E2E2E2E2E2E2E2E2E2E2E2E2E2E2E2E2E2E2E2E2E2E2E2E2E2E2E2E2E2E2E2E2E2E2E2E2E2E2E2E2E2E2E2E2E2E2E2E2E2E2E2E2E2E2E2E2E2E2E2E2E2E2E2E2E2E2E2E2E2E2E2E2E2E2E2E2E2E2E2E2E2E2E2E2E2E2F5
310
F5F5E2E2F5E2E2E2F5F5F5E2E2E2E2E2E2E2E2E2E2E2E2E2E2E2E2E2E2E2E2E2E2E2E2E2E2E2E2E2E2E2E2E2F5F5F5E2E2E2E2E2E2E2E2E2F5E2E2E2E2E2E2E2E2E2E2E2E2E2F5F5F5E2E2E2E2E2E2E2E2E2E2E2E2E2E2E2E2E2E2E2E2E2E2E2E2E2E2E2E2E2E2E2E2E2E2E2E2E2E2E2E2E2E2E2E2E2E2E2E2E2E2E2E2E2E2
310
E2E2E2E2E2E2E2E2E2E2E2E2E2E2E2E2E2E2E2E2E2E2E2E2E2E2E2E2E2E2E2E2E2E2E2E2E2E2E2E2E2E2E2E2E2E2E2E2E2E2E2E2E2E2E2E2E2E2E2E2E2E2E2E2E2E2E2E2E2E2E2E2E2E2E2E2E2E2E2E2E2E2E2E2E2E2E2E2E2E2E2E2E2E2E2E2E2E2E2E2E2E2E2E2E2E2E2E2E2E2E2E2E2E2E2E2E2E2E2E2E2E2E2E2E2E2E2
310
E2F5E2F5E2E2F5E2E2E2F5F5F5E2E2E2E2E2E2E2E2E2E2E2E2E2E2E2E2E2E2E2E2E2E2E2E2E2E2E2E2E2E2E2E2E2F5F5F5E2E2E2E2E2E2E2E2E2F5E2E2E2E2E2E2E2E2E2E2E2E2E2F5F5F5E2E2E2E2E2E2E2E2E2E2E2E2E2E2E2E2E2E2E2E2E2E2E2E2E2E2E2E2E2E2E2E2E2E2E2E2E2E2E2E2E2E2E2E2E2E2E2E2E2E2E2E2
310
E2E2E2E2E2E2E2E2E2E2E2E2E2E2E2E2E2E2E2E2E2E2E2E2E2E2E2E2E2E2E2E2E2E2E2E2E2E2E2E2E2E2E2E2E2E2E2E2E2E2E2E2E2E2E2E2E2E2E2E2E2E2E2E2E2E2E2E2E2E2E2E2E2E2E2E2E2E2E2E2E2E2E2E2E2E2E2E2E2E2E2E2E2E2E2E2E2E2E2E2E2E2E2E2E2E2E2E2E2E2E2E2E2E2E2E2E2E2E2E2E2E2E2E2E2E2E2
310
E2E2E2F5F5F5F5F5F5F5F5F5F5F5F5E2E2E2E2E2E2E2E2E2E2E2E2E2E2E2E2E2E2E2E2E2E2E2E2E2E2E2E2E2E2E2E2E2F5F5F5F5F5F5F5F5F5F5F5F5F5F5F5F5F5F5F5F5F5F5F5F5F5F5F5F5F5E2E2E2E2E2E2E2E2E2E2E2E2E2E2E2E2E2E2E2E2E2E2E2E2E2E2E2E2E2E2E2E2E2E2E2E2E2E2E2E2E2E2E2E2E2E2E2E2E2E2
310
E2E2E2E2E2E2E2E2E2E2E2E2E2E2E2E2E2E2E2E2E2E2E2E2E2E2E2E2E2E2E2E2E2E2E2E2E2E2E2E2E2E2E2E2E2E2E2E2E2E2E2E2E2E2E2E2E2E2E2E2E2E2E2E2E2E2E2E2E2E2E2E2E2E2E2E2E2E2E2E2E2E2E2E2E2E2E2E2E2E2E2E2E2E2E2E2E2E2E2E2E2E2E2E2E2E2E2E2E2E2E2E2E2E2E2E2E2E2E2E2E2E2E2E2E2E2E2
310
E2E2E2E2F5F5F5F5F5F5F5F5F5F5F5F5F5F5E2E2E2E2E2E2E2E2E2E2E2E2E2E2E2E2E2E2E2E2E2E2E2E2E2E2E2E2E2E2E2E2E2E2E2E2E2E2E2E2E2F5F5F5F5F5F5F5E2E2E2E2E2E2E2E2E2E2E2E2E2E2E2E2E2E2E2E2E2E2E2E2E2E2E2E2E2E2E2E2E2E2E2E2E2E2E2E2E2E2E2E2E2E2E2E2E2E2E2E2E2E2E2E2E2E2E2E2E2
310
E2E2E2E2E2E2E2E2E2E2E2E2E2E2E2E2E2E2E2E2E2E2E2E2E2E2E2E2E2E2E2E2E2E2E2E2E2E2E2E2E2E2E2E2E2E2E2E2E2E2E2E2E2E2E2E2E2E2E2E2E2E2E2E2E2E2E2E2E2E2E2E2E2E2E2E2E2E2E2E2E2E2E2E2E2E2E2E2E2E2E2E2E2E2E2E2E2E2E2E2E2E2E2E2E2E2E2E2E2E2E2E2E2E2E2E2E2E2E2E2E2E2E2E2E2E2E2
310
E2E2E2E2E2E2F5E2E2E2E2E2F5E2E2E2E2E2E2F5E2E2E2E2E2E2E2E2E2E2E2E2E2E2E2E2E2E2E2E2E2E2E2E2E2E2E2E2E2E2E2E2E2E2E2E2E2E2E2E2E2F5E2E2F5F5E2F5E2E2E2E2E2E2E2E2E2E2E2E2E2E2E2E2E2E2E2E2E2E2E2E2E2E2E2E2E2E2E2E2E2E2E2E2E2E2E2E2E2E2E2E2E2E2E2E2E2E2E2E2E2E2E2E2E2E2E2
310
E2E2E2E2E2E2E2E2E2E2E2E2E2E2E2E2E2E2E2E2E2E2E2E2E2E2E2E2E2E2E2E2E2E2E2E2E2E2E2E2E2E2E2E2E2E2E2E2E2E2E2E2E2E2E2E2E2E2E2E2E2E2E2E2E2E2E2E2E2E2E2E2E2E2E2E2E2E2E2E2E2E2E2E2E2E2E2E2E2E2E2E2E2E2E2E2E2E2E2E2E2E2E2E2E2E2E2E2E2E2E2E2E2E2E2E2E2E2E2E2E2E2E2E2E2E2E2
310
E2E2E2E2E2E2E2E2F5E2E2E2E2E2F5E2E2E2E2E2E2F5E2E2E2E2E2E2E2E2E2E2E2E2E2E2E2E2E2E2E2E2E2E2E2E2E2E2E2E2E2E2E2E2E2E2E2E2E2E2E2E2E2F5E2E2F5F5E2F5E2E2E2E2E2E2E2E2E2E2E2E2E2E2E2E2E2E2E2E2E2E2E2E2E2E2E2E2E2E2E2E2E2E2E2E2E2E2E2E2E2E2E2E2E2E2E2E2E2E2E2E2E2E2E2E2E2
310
E2E2E2E2E2E2E2E2E2E2E2E2E2E2E2E2E2E2E2E2E2E2E2E2E2E2E2E2E2E2E2E2E2E2E2E2E2E2E2E2E2E2E2E2E2E2E2E2E2E2E2E2E2E2E2E2E2E2E2E2E2E2E2E2E2E2E2E2E2E2E2E2E2E2E2E2E2E2E2E2E2E2E2E2E2E2E2E2E2E2E2E2E2E2E2E2E2E2E2E2E2E2E2E2E2E2E2E2E2E2E2E2E2E2E2E2E2E2E2E2E2E2E2E2E2E2E2
310
E2E2E2E2E2E2E2E2E2E2F5E2E2E2E2E2F5E2E2E2E2E2E2F5E2E2E2E2E2E2E2E2E2E2E2E2E2E2E2E2E2E2E2E2E2E2E2E2E2E2E2E2E2E2E2E2E2E2E2E2E2E2E2E2E2F5E2E2F5F5E2F5E2E2E2E2E2E2E2E2E2E2E2E2E2E2E2E2E2E2E2E2E2E2E2E2E2E2E2E2E2E2E2E2E2E2E2E2E2E2E2E2E2E2E2E2E2E2E2E2E2E2E2E2E2E2E2
310
E2E2E2E2E2E2E2E2E2E2E2E2E2E2E2E2E2E2E2E2E2E2E2E2E2E2E2E2E2E2E2E2E2E2E2E2E2E2E2E2E2E2E2E2E2E2E2E2E2E2E2E2E2E2E2E2E2E2E2E2E2E2E2E2E2E2E2E2E2E2E2E2E2E2E2E2E2E2E2E2E2E2E2E2E2E2E2E2E2E2E2E2E2E2E2E2E2E2E2E2E2E2E2E2E2E2E2E2E2E2E2E2E2E2E2E2E2E2E2E2E2E2E2E2E2E2E2
310
E2E2E2E2E2E2E2E2E2E2E2E2F5F5F5F5F5F5F5F5F5F5F5F5F5F5E2E2E2E2E2E2E2E2E2E2E2E2E2E2E2E2E2E2E2E2E2E2E2E2E2E2E2E2E2E2E2E2E2E2E2E2E2E2E2E2E2F5F5F5F5F5F5F5E2E2E2E2E2E2E2E2E2E2E2E2E2E2E2E2E2E2E2E2E2E2E2E2E2E2E2E2E2E2E2E2E2E2E2E2E2E2E2E2E2E2E2E2E2E2E2E2E2E2E2E2E2
310
E2E2E2E2E2E2E2E2E2E2E2E2E2E2E2E2E2E2E2E2E2E2E2E2E2E2E2E2E2E2E2E2E2E2E2E2E2E2E2E2E2E2E2E2E2E2E2E2E2E2E2E2E2E2E2E2E2E2E2E2E2E2E2E2E2E2E2E2E2E2E2E2E2E2E2E2E2E2E2E2E2E2E2E2E2E2E2E2E2E2E2E2E2E2E2E2E2E2E2E2E2E2E2E2E2E2E2E2E2E2E2E2E2E2E2E2E2E2E2E2E2E2E2E2E2E2E2
310
E2E2E2E2E2E2E2E2E2E2E2E2E2E2E2E2E2E2E2E2F5F5E2E2E2E2E2E2E2E2E2E2E2E2E2E2E2E2E2E2E2E2E2E2E2E2E2E2E2E2E2E2E2E2E2E2E2E2E2E2E2E2E2E2E2E2E2E2E2E2E2F5F5F5E2E2E2E2E2E2E2E2E2E2E2E2E2E2E2E2E2E2E2E2E2E2E2E2E2E2E2E2E2E2E2E2E2E2E2E2E2E2E2E2E2E2E2E2E2E2E2E2E2E2E2E2E2
310
E2E2E2E2E2E2E2E2E2E2E2E2E2E2E2E2E2E2E2E2E2E2E2E2E2E2E2E2E2E2E2E2E2E2E2E2E2E2E2E2E2E2E2E2E2E2E2E2E2E2E2E2E2E2E2E2E2E2E2E2E2E2E2E2E2E2E2E2E2E2E2E2E2E2E2E2E2E2E2E2E2E2E2E2E2E2E2E2E2E2E2E2E2E2E2E2E2E2E2E2E2E2E2E2E2E2E2E2E2E2E2E2E2E2E2E2E2E2E2E2E2E2E2E2E2E2E2
310
E2E2E2E2E2E2E2E2E2E2E2E2E2E2E2E2E2E2E2E2E2E2F5E2E2E2E2E2E2E2E2E2E2E2E2E2E2E2E2E2E2E2E2E2E2E2E2E2E2E2E2E2E2E2E2E2E2E2E2E2E2E2E2E2E2E2E2E2E2E2E2E2E2E2F5E2E2E2E2E2E2E2E2E2E2E2E2E2E2E2E2E2E2E2E2E2E2E2E2E2E2E2E2E2E2E2E2E2E2E2E2E2E2E2E2E2E2E2E2E2E2E2E2E2E2E2E2
310
E2E2E2E2E2E2E2E2E2E2E2E2E2E2E2E2E2E2E2E2E2E2E2E2E2E2E2E2E2E2E2E2E2E2E2E2E2E2E2E2E2E2E2E2E2E2E2E2E2E2E2E2E2E2E2E2E2E2E2E2E2E2E2E2E2E2E2E2E2E2E2E2E2E2E2E2E2E2E2E2E2E2E2E2E2E2E2E2E2E2E2E2E2E2E2E2E2E2E2E2E2E2E2E2E2E2E2E2E2E2E2E2E2E2E2E2E2E2E2E2E2E2E2E2E2E2E2
310
E2E2E2E2E2E2E2E2E2E2E2E2E2E2E2E2E2E2E2E2E2E2E2E2F5E2E2E2E2E2E2E2E2E2E2E2E2E2E2E2E2E2E2E2E2E2E2E2E2E2E2E2E2E2E2E2E2E2E2E2E2E2E2E2E2E2E2E2E2E2E2E2E2E2E2E2F5E2E2E2E2E2E2E2E2E2E2E2E2E2E2E2E2E2E2E2E2E2E2E2E2E2E2E2E2E2E2E2E2E2E2E2E2E2E2E2E2E2E2E2E2E2E2E2E2E2E2
310
E2E2E2E2E2E2E2E2E2E2E2E2E2E2E2E2E2E2E2E2E2E2E2E2E2E2E2E2E2E2E2E2E2E2E2E2E2E2E2E2E2E2E2E2E2E2E2E2E2E2E2E2E2E2E2E2E2E2E2E2E2E2E2E2E2E2E2E2E2E2E2E2E2E2E2E2E2E2E2E2E2E2E2E2E2E2E2E2E2E2E2E2E2E2E2E2E2E2E2E2E2E2E2E2E2E2E2E2E2E2E2E2E2E2E2E2E2E2E2E2E2E2E2E2E2E2E2
310
E2E2E2E2E2E2E2E2E2E2E2E2E2E2E2E2E2E2E2E2E2E2E2E2E2E2E2E2E2E2E2E2E2E2E2E2E2E2E2E2E2E2E2E2E2E2E2E2E2E2E2E2E2E2E2E2E2E2E2E2E2E2E2E2E2E2E2E2E2E2E2E2E2E2E2E2E2E2E2E2E2E2E2E2E2E2E2E2E2E2E2E2E2E2E2E2E2E2E2E2E2E2E2E2E2E2E2E2E2E2E2E2E2E2E2E2E2E2E2E2E2E2E2E2E2E2E2
310
E2E2E2E2E2E2E2E2E2E2E2E2E2E2E2E2E2E2E2E2E2E2E2E2E2E2E2E2E2E2E2E2E2E2E2E2E2E2E2E2E2E2E2E2E2E2E2E2E2E2E2E2E2E2E2E2E2E2E2E2E2E2E2E2E2E2E2E2E2E2E2E2E2E2E2E2E2E2E2E2E2E2E2E2E2E2E2E2E2E2E2E2E2E2E2E2E2E2E2E2E2E2E2E2E2E2E2E2E2E2E2E2E2E2E2E2E2E2E2E2E2E2E2E2E2E2E2
310
E2E2E2E2E2E2E2E2E2E2E2E2E2E2E2E2E2E2E2E2E2E2E2E2E2E2E2E2E2E2E2E2E2E2E2E2E2E2E2E2E2E2E2E2E2E2E2E2E2E2E2E2E2E2E2E2E2E2E2E2E2E2E2E2E2E2E2E2E2E2E2E2E2E2E2E2E2E2E2E2E2E2E2E2E2E2E2E2E2E2E2E2E2E2E2E2E2E2E2E2E2E2E2E2E2E2E2E2E2E2E2E2E2E2E2E2E2E2E2E2E2E2E2E2E2E2E2
310
E2E2E2E2E2E2E2E2E2E2E2E2E2E2E2E2E2E2E2E2E2E2E2E2E2E2E2E2E2E2E2E2E2E2E2E2E2E2E2E2E2E2E2E2E2E2E2E2E2E2E2E2E2E2E2E2E2E2E2E2E2E2E2E2E2E2E2E2E2E2E2E2E2E2E2E2E2E2E2E2E2E2E2E2E2E2E2E2E2E2E2E2E2E2E2E2E2E2E2E2E2E2E2E2E2E2E2E2E2E2E2E2E2E2E2E2E2E2E2E2E2E2E2E2E2E2E2
310
E2E2E2E2E2E2E2E2E2E2E2E2E2E2E2E2E2E2E2E2E2E2E2E2E2E2E2E2E2E2E2E2E2E2E2E2E2E2E2E2E2E2E2E2E2E2E2E2E2E2E2E2E2E2E2E2E2E2E2E2E2E2E2E2E2E2E2E2E2E2E2E2E2E2E2E2E2E2E2E2E2E2E2E2E2E2E2E2E2E2E2E2E2E2E2E2E2E2E2E2E2E2E2E2E2E2E2E2E2E2E2E2E2E2E2E2E2E2E2E2E2E2E2E2E2E2E2
310
E2E2E2E2E2E2E2E2E2E2E2E2E2E2E2E2E2E2E2E2E2E2E2E2E2E2E2E2E2E2E2E2E2E2E2E2E2E2E2E2E2E2E2E2E2E2E2E2E2E2E2E2E2E2E2E2E2E2E2E2E2E2E2E2E2E2E2E2E2E2E2E2E2E2E2E2E2E2E2E2E2E2E2E2E2E2E2E2E2E2E2E2E2E2E2E2E2E2E2E2E2E2E2E2E2E2E2E2E2E2E2E2E2E2E2E2E2E2E2E2E2E2E2E2E2E2E2
310
E2E2E2E2E2E2E2E2E2E2E2E2E2E2E2E2E2E2E2E2E2E2E2E2E2E2E2E2E2E2E2E2E2E2E2E2E2E2E2E2E2E2E2E2E2E2E2E2E2E2E2E2E2E2E2E2E2E2E2E2E2E2E2E2E2E2E2E2E2E2E2E2E2E2E2E2E2E2E2E2E2E2E2E2E2E2E2E2E2E2E2E2E2E2E2E2E2E2E2E2E2E2E2E2E2E2E2E2E2E2E2E2E2E2E2E2E2E2E2E2E2E2E2E2E2E2E2
310
E2E2E2E2E2E2E2E2E2E2E2E2E2E2E2E2E2E2E2E2E2E2E2E2E2E2E2E2E2E2E2E2E2E2E2E2E2E2E2E2E2E2E2E2E2E2E2E2E2E2E2E2E2E2E2E2E2E2E2E2E2E2E2E2E2E2E2E2E2E2E2E2E2E2E2E2E2E2E2E2E2E2E2E2E2E2E2E2E2E2E2E2E2E2E2E2E2E2E2E2E2E2E2E2E2E2E2E2E2E2E2E2E2E2E2E2E2E2E2E2E2E2E2E2E2E2E2
310
E2E2E2E2E2E2E2E2E2E2E2E2E2E2E2E2E2E2E2E2E2E2E2E2E2E2E2E2E2E2E2E2E2E2E2E2E2E2E2E2E2E2E2E2E2E2E2E2E2E2E2E2E2E2E2E2E2E2E2E2E2E2E2E2E2E2E2E2E2E2E2E2E2E2E2E2E2E2E2E2E2E2E2E2E2E2E2E2E2E2E2E2E2E2E2E2E2E2E2E2E2E2E2E2E2E2E2E2E2E2E2E2E2E2E2E2E2E2E2E2E2E2E2E2E2E2E2
310
E2E2E2E2E2E2E2E2E2E2E2E2E2E2E2E2E2E2E2E2E2E2E2E2E2E2E2E2E2E2E2E2E2E2E2E2E2E2E2E2E2E2E2E2E2E2E2E2E2E2E2E2E2E2E2E2E2E2E2E2E2E2E2E2E2E2E2E2E2E2E2E2E2E2E2E2E2E2E2E2E2E2E2E2E2E2E2E2E2E2E2E2E2E2E2E2E2E2E2E2E2E2E2E2E2E2E2E2E2E2E2E2E2E2E2E2E2E2E2E2E2E2E2E2E2E2E2
310
E2E2E2E2E2E2E2E2E2E2E2E2E2E2E2E2E2E2E2E2E2E2E2E2E2E2E2E2E2E2E2E2E2E2E2E2E2E2E2E2E2E2E2E2E2E2E2E2E2E2E2E2E2E2E2E2E2E2E2E2E2E2E2E2E2E2E2E2E2E2E2E2E2E2E2E2E2E2E2E2E2E2E2E2E2E2E2E2E2E2E2E2E2E2E2E2E2E2E2E2E2E2E2E2E2E2E2E2E2E2E2E2E2E2E2E2E2E2E2E2E2E2E2E2E2E2E2
310
E2E2E2E2E2E2E2E2E2E2E2E2E2E2E2E2E2E2E2E2E2E2E2E2E2E2E2E2E2E2E2E2E2E2E2E2E2E2E2E2E2E2E2E2E2E2E2E2E2E2E2E2E2E2E2E2E2E2E2E2E2E2E2E2E2E2E2E2E2E2E2E2E2E2E2E2E2E2E2E2E2E2E2E2E2E2E2E2E2E2E2E2E2E2E2E2E2E2E2E2E2E2E2E2E2E2E2E2E2E2E2E2E2E2E2E2E2E2E2E2E2E2E2E2E2E2E2
310
E2E2E2E2E2E2E2E2E2E2E2E2E2E2E2E2E2E2E2E2E2E2E2E2E2E2E2E2E2E2E2E2E2E2E2E2E2E2E2E2E2E2E2E2E2E2E2E2E2E2E2E2E2E2E2E2E2E2E2E2E2E2E2E2E2E2E2E2E2E2E2E2E2E2E2E2E2E2E2E2E2E2E2E2E2E2E2E2E2E2E2E2E2E2E2E2E2E2E2E2E2E2E2E2E2E2E2E2E2E2E2E2E2E2E2E2E2E2E2E2E2E2E2E2E2E2E2
310
E2E2E2E2E2E2E2E2E2E2E2E2E2E2E2E2E2E2E2E2E2E2E2E2E2E2E2E2E2E2E2E2E2E2E2E2E2E2E2E2E2E2E2E2E2E2E2E2E2E2E2E2E2E2E2E2E2E2E2E2E2E2E2E2E2E2E2E2E2E2E2E2E2E2E2E2E2E2E2E2E2E2E2E2E2E2E2E2E2E2E2E2E2E2E2E2E2E2E2E2E2E2E2E2E2E2E2E2E2E2E2E2E2E2E2E2E2E2E2E2E2E2E2E2E2E2E2
310
E2E2E2E2E2E2E2E2E2E2E2E2E2E2E2E2E2E2E2E2E2E2E2E2E2E2E2E2E2E2E2E2E2E2E2E2E2E2E2E2E2E2E2E2E2E2E2E2E2E2E2E2E2E2E2E2E2E2E2E2E2E2E2E2E2E2E2E2E2E2E2E2E2E2E2E2E2E2E2E2E2E2E2E2E2E2E2E2E2E2E2E2E2E2E2E2E2E2E2E2E2E2E2E2E2E2E2E2E2E2E2E2E2E2E2E2E2E2E2E2E2E2E2E2E2E2E2
310
E2E2E2E2E2E2E2E2E2E2E2E2E2E2E2E2E2E2E2E2E2E2E2E2E2E2E2E2E2E2E2E2E2E2E2E2E2E2E2E2E2E2E2E2E2E2E2E2E2E2E2E2E2E2E2E2E2E2E2E2E2E2E2E2E2E2E2E2E2E2E2E2E2E2E2E2E2E2E2E2E2E2E2E2E2E2E2E2E2E2E2E2E2E2E2E2E2E2E2E2E2E2E2E2E2E2E2E2E2E2E2E2E2E2E2E2E2E2E2E2E2E2E2E2E2E2E2
310
E2E2E2E2E2E2E2E2E2E2E2E2E2E2E2E2E2E2E2E2E2E2E2E2E2E2E2E2E2E2E2E2E2E2E2E2E2E2E2E2E2E2E2E2E2E2E2E2E2E2E2F5E2E2E2E2E2E2E2E2E2E2E2E2E2E2E2E2E2E2E2E2E2E2E2E2E2E2E2E2E2E2E2E2E2E2E2E2E2E2E2E2E2E2E2E2E2E2E2E2E2E2E2E2E2E2E2E2E2E2E2E2E2E2E2E2E2E2E2E2E2E2E2E2E2E2E2
310
E2E2E2E2E2E2E2E2E2E2E2E2E2E2E2E2E2E2E2E2E2E2E2E2E2E2E2E2E2E2E2E2E2E2E2E2E2E2E2E2E2E2E2E2E2E2E2E2E2E2E2E2E2E2E2E2E2E2E2E2E2E2E2E2E2E2E2E2E2E2E2E2E2E2E2E2E2E2E2E2E2E2E2E2E2E2E2E2E2E2E2E2E2E2E2E2E2E2E2E2E2E2E2E2E2E2E2E2E2E2E2E2E2E2E2E2E2E2E2E2E2E2E2E2E2E2E2
310
E2E2E2E2E2E2E2E2E2E2E2E2E2E2E2E2E2E2E2E2E2E2E2E2E2E2E2E2E2E2E2E2E2E2E2E2E2E2E2E2E2E2E2E2E2E2E2E2E2E2E2F5F5F5F5F5E2E2E2E2E2E2E2E2E2E2E2E2E2E2E2E2E2E2E2E2E2E2E2E2E2E2E2E2E2E2E2E2E2E2E2E2E2E2E2E2E2E2E2E2E2E2E2E2E2E2E2E2E2E2E2E2E2E2E2E2E2E2E2E2E2E2E2E2E2E2E2
310
E2E2E2E2E2E2E2E2E2E2E2E2E2E2E2E2E2E2E2E2E2E2E2E2E2E2E2E2E2E2E2E2E2E2E2E2E2E2E2E2E2E2E2E2E2E2E2E2E2E2E2E2E2E2E2E2E2E2E2E2E2E2E2E2E2E2E2E2E2E2E2E2E2E2E2E2E2E2E2E2E2E2E2E2E2E2E2E2E2E2E2E2E2E2E2E2E2E2E2E2E2E2E2E2E2E2E2E2E2E2E2E2E2E2E2E2E2E2E2E2E2E2E2E2E2E2E2
310
E2E2E2E2E2E2E2E2E2E2E2E2E2E2E2E2E2E2E2E2E2E2E2E2E2E2E2E2E2E2E2E2E2E2E2E2E2E2E2E2E2E2E2E2E2E2E2E2E2E2E2E2E2F5F5F5F5F5E2E2E2E2E2E2E2E2E2E2E2E2E2E2E2E2E2E2E2E2E2E2E2E2E2E2E2E2E2E2E2E2E2E2E2E2E2E2E2E2E2E2E2E2E2E2E2E2E2E2E2E2E2E2E2E2E2E2E2E2E2E2E2E2E2E2E2E2E2
310
E2E2E2E2E2E2E2E2E2E2E2E2E2E2E2E2E2E2E2E2E2E2E2E2E2E2E2E2E2E2E2E2E2E2E2E2E2E2E2E2E2E2E2E2E2E2E2E2E2E2E2E2E2E2E2E2E2E2E2E2E2E2E2E2E2E2E2E2E2E2E2E2E2E2E2E2E2E2E2E2E2E2E2E2E2E2E2E2E2E2E2E2E2E2E2E2E2E2E2E2E2E2E2E2E2E2E2E2E2E2E2E2E2E2E2E2E2E2E2E2E2E2E2E2E2E2E2
310
E2E2E2E2E2E2E2E2E2E2E2E2E2E2E2E2E2E2E2E2E2E2E2E2E2E2E2E2E2E2E2E2E2E2E2E2E2E2E2E2E2E2E2E2E2E2E2E2E2E2E2E2E2E2E2F5F5E2F5F5E2E2E2E2E2E2E2E2E2E2E2E2E2E2E2E2E2E2E2E2E2E2E2E2E2E2E2E2E2E2E2E2E2E2E2E2E2E2E2E2E2E2E2E2E2E2E2E2E2E2E2E2E2E2E2E2E2E2E2E2E2E2E2E2E2E2E2
310
E2E2E2E2E2E2E2E2E2E2E2E2E2E2E2E2E2E2E2E2E2E2E2E2E2E2E2E2E2E2E2E2E2E2E2E2E2E2E2E2E2E2E2E2E2E2E2E2E2E2E2E2E2E2E2E2E2E2E2E2E2E2E2E2E2E2E2E2E2E2E2E2E2E2E2E2E2E2E2E2E2E2E2E2E2E2E2E2E2E2E2E2E2E2E2E2E2E2E2E2E2E2E2E2E2E2E2E2E2E2E2E2E2E2E2E2E2E2E2E2E2E2E2E2E2E2E2
310
E2E2E2E2E2E2E2E2E2E2E2E2E2E2E2E2E2E2E2E2E2E2E2E2E2E2E2E2E2E2E2E2E2E2E2E2E2E2E2E2E2E2E2E2E2E2E2E2E2E2E2E2E2E2E2E2E2F5F5F5F5F5E2E2E2E2E2E2E2E2E2E2E2E2E2E2E2E2E2E2E2E2E2E2E2E2E2E2E2E2E2E2E2E2E2E2E2E2E2E2E2E2E2E2E2E2E2E2E2E2E2E2E2E2E2E2E2E2E2E2E2E2E2E2E2E2E2
310
E2E2E2E2E2E2E2E2E2E2E2E2E2E2E2E2E2E2E2E2E2E2E2E2E2E2E2E2E2E2E2E2E2E2E2E2E2E2E2E2E2E2E2E2E2E2E2E2E2E2E2E2E2E2E2E2E2E2E2E2E2E2E2E2E2E2E2E2E2E2E2E2E2E2E2E2E2E2E2E2E2E2E2E2E2E2E2E2E2E2E2E2E2E2E2E2E2E2E2E2E2E2E2E2E2E2E2E2E2E2E2E2E2E2E2E2E2E2E2E2E2E2E2E2E2E2E2
310
E2E2E2E2E2E2E2E2E2E2E2E2E2E2E2E2E2E2E2E2E2E2E2E2E2E2E2E2E2E2E2E2E2E2E2E2E2E2E2E2E2E2E2E2E2E2E2E2E2E2E2E2E2E2E2F5F5F5E2F5F5F5F5F5E2E2E2E2E2E2E2E2E2E2E2E2E2E2E2E2E2E2E2E2E2E2E2E2E2E2E2E2E2E2E2E2E2E2E2E2E2E2E2E2E2E2E2E2E2E2E2E2E2E2E2E2E2E2E2E2E2E2E2E2E2E2E2
310
E2E2E2E2E2E2E2E2E2E2E2E2E2E2E2E2E2E2E2E2E2E2E2E2E2E2E2E2E2E2E2E2E2E2E2E2E2E2E2E2E2E2E2E2E2E2E2E2E2E2E2E2E2E2E2E2E2E2E2E2E2E2E2E2E2E2E2E2E2E2E2E2E2E2E2E2E2E2E2E2E2E2E2E2E2E2E2E2E2E2E2E2E2E2E2E2E2E2E2E2E2E2E2E2E2E2E2E2E2E2E2E2E2E2E2E2E2E2E2E2E2E2E2E2E2E2E2
310
E2E2E2E2E2E2E2E2E2E2E2E2E2E2E2E2E2E2E2E2E2E2E2E2E2E2E2E2E2E2E2E2E2E2E2E2E2E2E2E2E2E2E2E2E2E2E2E2E2F5F5F5E2E2F5E2E2F5F5F5E2F5E2E2E2F5E2E2E2E2E2E2E2E2E2E2E2E2E2E2E2E2E2E2E2E2E2E2E2E2E2E2E2E2E2E2E2E2E2E2E2E2E2E2E2E2E2E2E2E2E2E2E2E2E2E2E2E2E2E2E2E2E2E2E2E2E2
310
E2E2E2E2E2E2E2E2E2E2E2E2E2E2E2E2E2E2E2E2E2E2E2E2E2E2E2E2E2E2E2E2E2E2E2E2E2E2E2E2E2E2E2E2E2E2E2E2E2E2E2E2E2E2E2E2E2E2E2E2E2E2E2E2E2E2E2E2E2E2E2E2E2E2E2E2E2E2E2E2E2E2E2E2E2E2E2E2E2E2E2E2E2E2E2E2E2E2E2E2E2E2E2E2E2E2E2E2E2E2E2E2E2E2E2E2E2E2E2E2E2E2E2E2E2E2E2
310
E2E2E2E2E2E2E2E2E2E2E2E2E2E2E2E2E2E2E2E2E2E2E2E2E2E2E2E2E2E2E2E2E2E2E2E2E2E2E2E2E2E2E2E2E2E2E2E2E2E2F5F5F5F5F5F5F5F5F5F5F5F5F5F5E2E2E2F5E2E2E2E2E2E2E2E2E2E2E2E2E2E2E2E2E2E2E2E2E2E2E2E2E2E2E2E2E2E2E2E2E2E2E2E2E2E2E2E2E2E2E2E2E2E2E2E2E2E2E2E2E2E2E2E2E2E2E2
310
E2E2E2E2E2E2E2E2E2E2E2E2E2E2E2E2E2E2E2E2E2E2E2E2E2E2E2E2E2E2E2E2E2E2E2E2E2E2E2E2E2E2E2E2E2E2E2E2E2E2E2E2E2E2E2E2E2E2E2E2E2E2E2E2E2E2E2E2E2E2E2E2E2E2E2E2E2E2E2E2E2E2E2E2E2E2E2E2E2E2E2E2E2E2E2E2E2E2E2E2E2E2E2E2E2E2E2E2E2E2E2E2E2E2E2E2E2E2E2E2E2E2E2E2E2E2E2
310
E2E2E2E2E2E2E2E2E2E2E2E2E2E2E2E2E2E2E2E2E2E2E2E2E2E2E2E2E2E2E2E2E2E2E2E2E2E2E2E2E2E2E2E2E2E2E2E2E2E2E2F5F5F5F5F5F5F5F5F5F5F5F5F5F5F5E2E2E2F5E2E2E2E2E2E2E2E2E2E2E2E2E2E2E2E2E2E2E2E2E2E2E2E2E2E2E2E2E2E2E2E2E2E2E2E2E2E2E2E2E2E2E2E2E2E2E2E2E2E2E2E2E2E2E2E2E2
310
E2E2E2E2E2E2E2E2E2E2E2E2E2E2E2E2E2E2E2E2E2E2E2E2E2E2E2E2E2E2E2E2E2E2E2E2E2E2E2E2E2E2E2E2E2E2E2E2E2E2E2E2E2E2E2E2E2E2E2E2E2E2E2E2E2E2E2E2E2E2E2E2E2E2E2E2E2E2E2E2E2E2E2E2E2E2E2E2E2E2E2E2E2E2E2E2E2E2E2E2E2E2E2E2E2E2E2E2E2E2E2E2E2E2E2E2E2E2E2E2E2E2E2E2E2E2E2
310
E2E2E2E2E2E2E2E2E2E2E2E2E2E2E2E2E2E2E2E2E2E2E2E2E2E2E2E2E2E2E2E2E2E2E2E2E2E2E2E2E2E2E2E2E2E2E2E2E2E2E2F5F5F5F5F5E2F5F5E2F5E2E2F5E2E2F5F5E2E2E2F5E2E2E2E2E2E2E2E2E2E2E2E2E2E2E2E2E2E2E2E2E2E2E2E2E2E2E2E2E2E2E2E2E2E2E2E2E2E2E2E2E2E2E2E2E2E2E2E2E2E2E2E2E2E2E2
310
E2E2E2E2E2E2E2E2E2E2E2E2E2E2E2E2E2E2E2E2E2E2E2E2E2E2E2E2E2E2E2E2E2E2E2E2E2E2E2E2E2E2E2E2E2E2E2E2E2E2E2E2E2E2E2E2E2E2E2E2E2E2E2E2E2E2E2E2E2E2E2E2E2E2E2E2E2E2E2E2E2E2E2E2E2E2E2E2E2E2E2E2E2E2E2E2E2E2E2E2E2E2E2E2E2E2E2E2E2E2E2E2E2E2E2E2E2E2E2E2E2E2E2E2E2E2E2
310
E2E2E2E2E2E2E2E2E2E2E2E2E2E2E2E2E2E2E2E2E2E2E2E2E2E2E2E2E2E2E2E2E2E2E2E2E2E2E2E2E2E2E2E2E2E2E2E2E2E2E2E2E2F5E2F5F5F5E2F5F5E2F5E2E2F5E2E2F5F5E2E2E2F5E2E2E2E2E2E2E2E2E2E2E2E2E2E2E2E2E2E2E2E2E2E2E2E2E2E2E2E2E2E2E2E2E2E2E2E2E2E2E2E2E2E2E2E2E2E2E2E2E2E2E2E2E2
310
E2E2E2E2E2E2E2E2E2E2E2E2E2E2E2E2E2E2E2E2E2E2E2E2E2E2E2E2E2E2E2E2E2E2E2E2E2E2E2E2E2E2E2E2E2E2E2E2E2E2E2E2E2E2E2E2E2E2E2E2E2E2E2E2E2E2E2E2E2E2E2E2E2E2E2E2E2E2E2E2E2E2E2E2E2E2E2E2E2E2E2E2E2E2E2E2E2E2E2E2E2E2E2E2E2E2E2E2E2E2E2E2E2E2E2E2E2E2E2E2E2E2E2E2E2E2E2
310
E2E2E2E2E2E2E2E2E2E2E2E2E2E2E2E2E2E2E2E2E2E2E2E2E2E2E2E2E2E2E2E2E2E2E2E2E2E2E2E2E2E2E2E2E2E2E2E2E2E2F5E2E2E2E2F5E2F5F5F5E2F5F5E2F5E2E2F5E2E2F5F5E2E2E2F5E2E2E2F5E2E2E2E2E2E2E2E2E2E2E2E2E2E2E2E2E2E2E2E2E2E2E2E2E2E2E2E2E2E2E2E2E2E2E2E2E2E2E2E2E2E2E2E2E2E2E2
310
E2E2E2E2E2E2E2E2E2E2E2E2E2E2E2E2E2E2E2E2E2E2E2E2E2E2E2E2E2E2E2E2E2E2E2E2E2E2E2E2E2E2E2E2E2E2E2E2E2E2E2E2E2E2E2E2E2E2E2E2E2E2E2E2E2E2E2E2E2E2E2E2E2E2E2E2E2E2E2E2E2E2E2E2E2E2E2E2E2E2E2E2E2E2E2E2E2E2E2E2E2E2E2E2E2E2E2E2E2E2E2E2E2E2E2E2E2E2E2E2E2E2E2E2E2E2E2
310
E2E2E2E2E2E2E2E2E2E2E2E2E2E2E2E2E2E2E2E2E2E2E2E2E2E2E2E2E2E2E2E2E2E2E2E2E2E2E2E2E2E2E2E2E2E2E2E2E2E2E2E2F5F5F5F5F5F5E2F5F5F5E2F5F5E2F5E2E2F5E2E2F5F5E2E2E2F5F5F5F5F5E2E2E2E2E2E2E2E2E2E2E2E2E2E2E2E2E2E2E2E2E2E2E2E2E2E2E2E2E2E2E2E2E2E2E2E2E2E2E2E2E2E2E2E2E2
310
E2E2E2E2E2E2E2E2E2E2E2E2E2E2E2E2E2E2E2E2E2E2E2E2E2E2E2E2E2E2E2E2E2E2E2E2E2E2E2E2E2E2E2E2E2E2E2E2E2E2E2E2E2E2E2E2E2E2E2E2E2E2E2E2E2E2E2E2E2E2E2E2E2E2E2E2E2E2E2E2E2E2E2E2E2E2E2E2E2E2E2E2E2E2E2E2E2E2E2E2E2E2E2E2E2E2E2E2E2E2E2E2E2E2E2E2E2E2E2E2E2E2E2E2E2E2E2
310
E2E2E2E2E2E2E2E2E2E2E2E2E2E2E2E2E2E2E2E2E2E2E2E2E2E2E2E2E2E2E2E2E2E2E2E2E2E2E2E2E2E2E2E2E2E2E2E2E2E2E2E2E2E2F5F5E2E2E2F5E2F5F5F5E2F5F5E2F5E2E2F5E2E2F5F5E2E2E2F5E2E2F5F5E2E2E2E2E2E2E2E2E2E2E2E2E2E2E2E2E2E2E2E2E2E2E2E2E2E2E2E2E2E2E2E2E2E2E2E2E2E2E2E2E2E2E2
310
E2E2E2E2E2E2E2E2E2E2E2E2E2E2E2E2E2E2E2E2E2E2E2E2E2E2E2E2E2E2E2E2E2E2E2E2E2E2E2E2E2E2E2E2E2E2E2E2E2E2E2E2E2E2E2E2E2E2E2E2E2E2E2E2E2E2E2E2E2E2E2E2E2E2E2E2E2E2E2E2E2E2E2E2E2E2E2E2E2E2E2E2E2E2E2E2E2E2E2E2E2E2E2E2E2E2E2E2E2E2E2E2E2E2E2E2E2E2E2E2E2E2E2E2E2E2E2
310
E2E2E2E2E2E2E2E2E2E2E2E2E2E2E2E2E2E2E2E2E2E2E2E2E2E2E2E2E2E2E2E2E2E2E2E2E2E2E2E2E2E2E2E2E2E2E2E2E2E2E2E2E2E2E2E2F5F5E2E2E2F5E2F5F5F5F5F5F5E2F5E2E2F5F5F5F5F5E2E2E2F5E2E2F5F5E2E2E2E2E2E2E2E2E2E2E2E2E2E2E2E2E2E2E2E2E2E2E2E2E2E2E2E2E2E2E2E2E2E2E2E2E2E2E2E2E2
310
E2E2E2E2E2E2E2E2E2E2E2E2E2E2E2E2E2E2E2E2E2E2E2E2E2E2E2E2E2E2E2E2E2E2E2E2E2E2E2E2E2E2E2E2E2E2E2E2E2E2E2E2E2E2E2E2E2E2E2E2E2E2E2E2E2E2E2E2E2E2E2E2E2E2E2E2E2E2E2E2E2E2E2E2E2E2E2E2E2E2E2E2E2E2E2E2E2E2E2E2E2E2E2E2E2E2E2E2E2E2E2E2E2E2E2E2E2E2E2E2E2E2E2E2E2E2E2
310
E2E2E2E2E2E2E2E2E2E2E2E2E2E2E2E2E2E2E2E2E2E2E2E2E2E2E2E2E2E2E2E2E2E2E2E2E2E2E2E2E2E2E2E2E2E2E2E2E2E2E2E2E2E2E2E2E2E2F5F5E2E2E2F5E2F5F5F5F5F5F5E2F5F5E2F5F5F5F5F5E2E2E2F5E2E2F5F5E2E2E2E2E2E2E2E2E2E2E2E2E2E2E2E2E2E2E2E2E2E2E2E2E2E2E2E2E2E2E2E2E2E2E2E2E2E2E2
310
E2E2E2E2E2E2E2E2E2E2E2E2E2E2E2E2E2E2E2E2E2E2E2E2E2E2E2E2E2E2E2E2E2E2E2E2E2E2E2E2E2E2E2E2E2E2E2E2E2E2E2E2E2E2E2E2E2E2E2E2E2E2E2E2E2E2E2E2E2E2E2E2E2E2E2E2E2E2E2E2E2E2E2E2E2E2E2E2E2E2E2E2E2E2E2E2E2E2E2E2E2E2E2E2E2E2E2E2E2E2E2E2E2E2E2E2E2E2E2E2E2E2E2E2E2E2E2
310
E2E2E2E2E2E2E2E2E2E2E2E2E2E2E2E2E2E2E2E2E2E2E2E2E2E2E2E2E2E2E2E2E2E2E2E2E2E2E2E2E2E2E2E2E2E2E2E2E2E2E2E2E2E2E2E2E2E2E2E2F5F5E2E2E2F5E2F5F5F5E2F5F5F5F5E2F5F5E2E2F5F5E2E2E2F5E2E2F5F5E2E2E2E2E2E2E2E2E2E2E2E2E2E2E2E2E2E2E2E2E2E2E2E2E2E2E2E2E2E2E2E2E2E2E2E2E2
310
E2E2E2E2E2E2E2E2E2E2E2E2E2E2E2E2E2E2E2E2E2E2E2E2E2E2E2E2E2E2E2E2E2E2E2E2E2E2E2E2E2E2E2E2E2E2E2E2E2E2E2E2E2E2E2E2E2E2E2E2E2E2E2E2E2E2E2E2E2E2E2E2E2E2E2E2E2E2E2E2E2E2E2E2E2E2E2E2E2E2E2E2E2E2E2E2E2E2E2E2E2E2E2E2E2E2E2E2E2E2E2E2E2E2E2E2E2E2E2E2E2E2E2E2E2E2E2
310
E2E2E2E2E2E2E2E2E2E2E2E2E2E2E2E2E2E2E2E2E2E2E2E2E2E2E2E2E2E2E2E2E2E2E2E2E2E2E2E2E2E2E2E2E2E2E2E2E2E2E2E2E2E2E2E2E2E2E2E2E2E2F5F5E2E2E2F5E2F5F5F5F5F5E2E2F5E2E2E2F5F5F5F5E2E2E2F5E2E2F5F5E2E2E2E2E2E2E2E2E2E2E2E2E2E2E2E2E2E2E2E2E2E2E2E2E2E2E2E2E2E2E2E2E2E2E2
310
E2E2E2E2E2E2E2E2E2E2E2E2E2E2E2E2E2E2E2E2E2E2E2E2E2E2E2E2E2E2E2E2E2E2E2E2E2E2E2E2E2E2E2E2E2E2E2E2E2E2E2E2E2E2E2E2E2E2E2E2E2E2E2E2E2E2E2E2E2E2E2E2E2E2E2E2E2E2E2E2E2E2E2E2E2E2E2E2E2E2E2E2E2E2E2E2E2E2E2E2E2E2E2E2E2E2E2E2E2E2E2E2E2E2E2E2E2E2E2E2E2E2E2E2E2E2E2
310
E2E2E2E2E2E2E2E2E2E2E2E2E2E2E2E2E2E2E2E2E2E2E2E2E2E2E2E2E2E2E2E2E2E2E2E2E2E2E2E2E2E2E2E2E2E2E2E2E2E2E2E2E2E2E2E2E2E2E2E2F5F5F5F5F5F5F5F5F5F5F5F5F5F5F5F5F5F5F5F5F5F5F5F5F5F5F5F5F5F5F5F5F5F5F5F5E2E2E2E2E2E2E2E2E2E2E2E2E2E2E2E2E2E2E2E2E2E2E2E2E2E2E2E2E2E2E2
310
E2E2E2E2E2E2E2E2E2E2E2E2E2E2E2E2E2E2E2E2E2E2E2E2E2E2E2E2E2E2E2E2E2E2E2E2E2E2E2E2E2E2E2E2E2E2E2E2E2E2E2E2E2E2E2E2E2E2E2E2E2E2E2E2E2E2E2E2E2E2E2E2E2E2E2E2E2E2E2E2E2E2E2E2E2E2E2E2E2E2E2E2E2E2E2E2E2E2E2E2E2E2E2E2E2E2E2E2E2E2E2E2E2E2E2E2E2E2E2E2E2E2E2E2E2E2E2
310
E2E2E2E2E2E2E2E2E2E2E2E2E2E2E2E2E2E2E2E2E2E2E2E2E2E2E2E2E2E2E2E2E2E2E2E2E2E2E2E2E2E2E2E2E2E2E2E2E2E2E2E2E2E2E2E2E2E2E2E2E2E2E2E2E2E2F5F5E2E2E2F5E2F5F5F5E2E2E2E2F5F5E2E2E2E2F5F5E2E2E2F5E2E2F5F5E2E2E2E2E2E2E2E2E2E2E2E2E2E2E2E2E2E2E2E2E2E2E2E2E2E2E2E2E2E2E2
310
E2E2E2E2E2E2E2E2E2E2E2E2E2E2E2E2E2E2E2E2E2E2E2E2E2E2E2E2E2E2E2E2E2E2E2E2E2E2E2E2E2E2E2E2E2E2E2E2E2E2E2E2E2E2E2E2E2E2E2E2E2E2E2E2E2E2E2E2E2E2E2E2E2E2E2E2E2E2E2E2E2E2E2E2E2E2E2E2E2E2E2E2E2E2E2E2E2E2E2E2E2E2E2E2E2E2E2E2E2E2E2E2E2E2E2E2E2E2E2E2E2E2E2E2E2E2E2
310
E2E2E2E2E2E2E2E2E2E2E2E2E2E2E2E2E2E2E2E2E2E2E2E2E2E2E2E2E2E2E2E2E2E2E2E2E2E2E2E2E2E2E2E2E2E2E2E2E2E2E2E2E2E2E2E2E2E2E2E2E2E2E2E2E2E2E2E2F5F5E2E2E2F5E2F5F5F5F5F5F5E2F5E2F5F5F5F5F5F5E2E2E2F5E2E2F5F5E2E2E2E2E2E2E2E2E2E2E2E2E2E2E2E2E2E2E2E2E2E2E2E2E2E2E2E2E2
310
E2E2E2E2E2E2E2E2E2E2E2E2E2E2E2E2E2E2E2E2E2E2E2E2E2E2E2E2E2E2E2E2E2E2E2E2E2E2E2E2E2E2E2E2E2E2E2E2E2E2E2E2E2E2E2E2E2E2E2E2E2E2E2E2E2E2E2E2E2E2E2E2E2E2E2E2E2E2E2E2E2E2E2E2E2E2E2E2E2E2E2E2E2E2E2E2E2E2E2E2E2E2E2E2E2E2E2E2E2E2E2E2E2E2E2E2E2E2E2E2E2E2E2E2E2E2E2
310
E2E2E2E2E2E2E2E2E2E2E2E2E2E2E2E2E2E2E2E2E2E2E2E2E2E2E2E2E2E2E2E2E2E2E2E2E2E2E2E2E2E2E2E2E2E2E2E2E2E2E2E2E2E2E2E2E2E2E2E2E2E2E2E2E2E2E2E2E2E2F5F5E2E2E2F5E2F5F5F5E2F5F5F5F5F5E2F5E2E2F5F5E2E2E2F5E2E2F5F5E2E2E2E2E2E2E2E2E2E2E2E2E2E2E2E2E2E2E2E2E2E2E2E2E2E2E2
310
E2E2E2E2E2E2E2E2E2E2E2E2E2E2E2E2E2E2E2E2E2E2E2E2E2E2E2E2E2E2E2E2E2E2E2E2E2E2E2E2E2E2E2E2E2E2E2E2E2E2E2E2E2E2E2E2E2E2E2E2E2E2E2E2E2E2E2E2E2E2E2E2E2E2E2E2E2E2E2E2E2E2E2E2E2E2E2E2E2E2E2E2E2E2E2E2E2E2E2E2E2E2E2E2E2E2E2E2E2E2E2E2E2E2E2E2E2E2E2E2E2E2E2E2E2E2E2
310
E2E2E2E2E2E2E2E2E2E2E2E2E2E2E2E2E2E2E2E2E2E2E2E2E2E2E2E2E2E2E2E2E2E2E2E2E2E2E2E2E2E2E2E2E2E2E2E2E2E2E2E2E2E2E2E2E2E2E2E2E2E2E2E2E2E2E2E2E2E2E2E2F5F5E2E2E2F5E2F5F5F5F5F5F5E2F5E2E2F5F5F5F5F5E2E2E2F5E2E2F5F5E2E2E2E2E2E2E2E2E2E2E2E2E2E2E2E2E2E2E2E2E2E2E2E2E2
310
E2E2E2E2E2E2E2E2E2E2E2E2E2E2E2E2E2E2E2E2E2E2E2E2E2E2E2E2E2E2E2E2E2E2E2E2E2E2E2E2E2E2E2E2E2E2E2E2E2E2E2E2E2E2E2E2E2E2E2E2E2E2E2E2E2E2E2E2E2E2E2E2E2E2E2E2E2E2E2E2E2E2E2E2E2E2E2E2E2E2E2E2E2E2E2E2E2E2E2E2E2E2E2E2E2E2E2E2E2E2E2E2E2E2E2E2E2E2E2E2E2E2E2E2E2E2E2
310
E2E2E2E2E2E2E2E2E2E2E2E2E2E2E2E2E2E2E2E2E2E2E2E2E2E2E2E2E2E2E2E2E2E2E2E2E2E2E2E2E2E2E2E2E2E2E2E2E2E2E2E2E2E2E2E2E2E2E2E2E2E2E2E2E2E2E2E2E2E2E2E2E2E2F5F5E2E2E2F5E2F5F5F5F5F5F5E2F5E2E2F5F5F5F5F5E2E2E2F5E2E2F5F5E2E2E2E2E2E2E2E2E2E2E2E2E2E2E2E2E2E2E2E2E2E2E2
310
E2E2E2E2E2E2E2E2E2E2E2E2E2E2E2E2E2E2E2E2E2E2E2E2E2E2E2E2E2E2E2E2E2E2E2E2E2E2E2E2E2E2E2E2E2E2E2E2E2E2E2E2E2E2E2E2E2E2E2E2E2E2E2E2E2E2E2E2E2E2E2E2E2E2E2E2E2E2E2E2E2E2E2E2E2E2E2E2E2E2E2E2E2E2E2E2E2E2E2E2E2E2E2E2E2E2E2E2E2E2E2E2E2E2E2E2E2E2E2E2E2E2E2E2E2E2E2
310
E2E2E2E2E2E2E2E2E2E2E2E2E2E2E2E2E2E2E2E2E2E2E2E2E2E2E2E2E2E2E2E2E2E2E2E2E2E2E2E2E2E2E2E2E2E2E2E2E2E2E2E2E2E2E2E2E2E2E2E2E2E2E2E2E2E2E2E2E2E2E2E2E2E2E2E2F5F5E2E2E2F5E2F5F5F5E2F5F5E2F5E2E2F5E2E2F5F5E2E2E2F5E2E2F5F5E2E2E2E2E2E2E2E2E2E2E2E2E2E2E2E2E2E2E2E2E2
310
E2E2E2E2E2E2E2E2E2E2E2E2E2E2E2E2E2E2E2E2E2E2E2E2E2E2E2E2E2E2E2E2E2E2E2E2E2E2E2E2E2E2E2E2E2E2E2E2E2E2E2E2E2E2E2E2E2E2E2E2E2E2E2E2E2E2E2E2E2E2E2E2E2E2E2E2E2E2E2E2E2E2E2E2E2E2E2E2E2E2E2E2E2E2E2E2E2E2E2E2E2E2E2E2E2E2E2E2E2E2E2E2E2E2E2E2E2E2E2E2E2E2E2E2E2E2E2
310
E2E2E2E2E2E2E2E2E2E2E2E2E2E2E2E2E2E2E2E2E2E2E2E2E2E2E2E2E2E2E2E2E2E2E2E2E2E2E2E2E2E2E2E2E2E2E2E2E2E2E2E2E2E2E2E2E2E2E2E2E2E2E2E2E2E2E2E2E2E2E2E2E2E2E2E2E2E2F5F5F5F5F5F5E2F5F5F5E2F5F5E2F5E2E2F5E2E2F5F5E2E2E2F5F5F5F5F5E2E2E2E2E2E2E2E2E2E2E2E2E2E2E2E2E2E2E2
310
E2E2E2E2E2E2E2E2E2E2E2E2E2E2E2E2E2E2E2E2E2E2E2E2E2E2E2E2E2E2E2E2E2E2E2E2E2E2E2E2E2E2E2E2E2E2E2E2E2E2E2E2E2E2E2E2E2E2E2E2E2E2E2E2E2E2E2E2E2E2E2E2E2E2E2E2E2E2E2E2E2E2E2E2E2E2E2E2E2E2E2E2E2E2E2E2E2E2E2E2E2E2E2E2E2E2E2E2E2E2E2E2E2E2E2E2E2E2E2E2E2E2E2E2E2E2E2
310
E2E2E2E2E2E2E2E2E2E2E2E2E2E2E2E2E2E2E2E2E2E2E2E2E2E2E2E2E2E2E2E2E2E2E2E2E2E2E2E2E2E2E2E2E2E2E2E2E2E2E2E2E2E2E2E2E2E2E2E2E2E2E2E2E2E2E2E2E2E2E2E2E2E2E2E2E2E2E2E2F5E2E2E2E2F5E2F5F5F5E2F5F5E2F5E2E2F5E2E2F5F5E2E2E2F5E2E2E2F5E2E2E2E2E2E2E2E2E2E2E2E2E2E2E2E2E2
310
E2E2E2E2E2E2E2E2E2E2E2E2E2E2E2E2E2E2E2E2E2E2E2E2E2E2E2E2E2E2E2E2E2E2E2E2E2E2E2E2E2E2E2E2E2E2E2E2E2E2E2E2E2E2E2E2E2E2E2E2E2E2E2E2E2E2E2E2E2E2E2E2E2E2E2E2E2E2E2E2E2E2E2E2E2E2E2E2E2E2E2E2E2E2E2E2E2E2E2E2E2E2E2E2E2E2E2E2E2E2E2E2E2E2E2E2E2E2E2E2E2E2E2E2E2E2E2
310
E2E2E2E2E2E2E2E2E2E2E2E2E2E2E2E2E2E2E2E2E2E2E2E2E2E2E2E2E2E2E2E2E2E2E2E2E2E2E2E2E2E2E2E2E2E2E2E2E2E2E2E2E2E2E2E2E2E2E2E2E2E2E2E2E2E2E2E2E2E2E2E2E2E2E2E2E2E2E2E2E2E2E2E2E2E2E2F5E2F5F5F5E2F5F5E2F5E2E2F5E2E2F5F5E2E2E2F5E2E2E2E2E2E2E2E2E2E2E2E2E2E2E2E2E2E2E2
310
E2E2E2E2E2E2E2E2E2E2E2E2E2E2E2E2E2E2E2E2E2E2E2E2E2E2E2E2E2E2E2E2E2E2E2E2E2E2E2E2E2E2E2E2E2E2E2E2E2E2E2E2E2E2E2E2E2E2E2E2E2E2E2E2E2E2E2E2E2E2E2E2E2E2E2E2E2E2E2E2E2E2E2E2E2E2E2E2E2E2E2E2E2E2E2E2E2E2E2E2E2E2E2E2E2E2E2E2E2E2E2E2E2E2E2E2E2E2E2E2E2E2E2E2E2E2E2
310
E2E2E2E2E2E2E2E2E2E2E2E2E2E2E2E2E2E2E2E2E2E2E2E2E2E2E2E2E2E2E2E2E2E2E2E2E2E2E2E2E2E2E2E2E2E2E2E2E2E2E2E2E2E2E2E2E2E2E2E2E2E2E2E2E2E2E2E2E2E2E2E2E2E2E2E2E2E2E2E2E2E2E2E2E2E2E2E2E2F5F5F5F5F5E2F5F5E2F5E2E2F5E2E2F5F5E2E2E2F5E2E2E2E2E2E2E2E2E2E2E2E2E2E2E2E2E2
310
E2E2E2E2E2E2E2E2E2E2E2E2E2E2E2E2E2E2E2E2E2E2E2E2E2E2E2E2E2E2E2E2E2E2E2E2E2E2E2E2E2E2E2E2E2E2E2E2E2E2E2E2E2E2E2E2E2E2E2E2E2E2E2E2E2E2E2E2E2E2E2E2E2E2E2E2E2E2E2E2E2E2E2E2E2E2E2E2E2E2E2E2E2E2E2E2E2E2E2E2E2E2E2E2E2E2E2E2E2E2E2E2E2E2E2E2E2E2E2E2E2E2E2E2E2E2E2
310
E2E2E2E2E2E2E2E2E2E2E2E2E2E2E2E2E2E2E2E2E2E2E2E2E2E2E2E2E2E2E2E2E2E2E2E2E2E2E2E2E2E2E2E2E2E2E2E2E2E2E2E2E2E2E2E2E2E2E2E2E2E2E2E2E2E2E2E2E2E2E2E2E2E2E2E2E2E2E2E2E2E2E2E2E2E2E2E2E2E2E2E2E2F5F5F5E2F5F5E2F5E2E2F5E2E2F5F5E2E2E2F5E2E2E2E2E2E2E2E2E2E2E2E2E2E2E2
310
E2E2E2E2E2E2E2E2E2E2E2E2E2E2E2E2E2E2E2E2E2E2E2E2E2E2E2E2E2E2E2E2E2E2E2E2E2E2E2E2E2E2E2E2E2E2E2E2E2E2E2E2E2E2E2E2E2E2E2E2E2E2E2E2E2E2E2E2E2E2E2E2E2E2E2E2E2E2E2E2E2E2E2E2E2E2E2E2E2E2E2E2E2E2E2E2E2E2E2E2E2E2E2E2E2E2E2E2E2E2E2E2E2E2E2E2E2E2E2E2E2E2E2E2E2E2E2
310
E2E2E2E2E2E2E2E2E2E2E2E2E2E2E2E2E2E2E2E2E2E2E2E2E2E2E2E2E2E2E2E2E2E2E2E2E2E2E2E2E2E2E2E2E2E2E2E2E2E2E2E2E2E2E2E2E2E2E2E2E2E2E2E2E2E2E2E2E2E2E2E2E2E2E2E2E2E2E2E2E2E2E2E2E2E2E2E2E2E2E2E2E2E2E2E2F5F5E2F5F5E2F5E2E2F5E2E2F5F5E2E2E2F5E2E2E2E2E2E2E2E2E2E2E2E2E2
310
E2E2E2E2E2E2E2E2E2E2E2E2E2E2E2E2E2E2E2E2E2E2E2E2E2E2E2E2E2E2E2E2E2E2E2E2E2E2E2E2E2E2E2E2E2E2E2E2E2E2E2E2E2E2E2E2E2E2E2E2E2E2E2E2E2E2E2E2E2E2E2E2E2E2E2E2E2E2E2E2E2E2E2E2E2E2E2E2E2E2E2E2E2E2E2E2E2E2E2E2E2E2E2E2E2E2E2E2E2E2E2E2E2E2E2E2E2E2E2E2E2E2E2E2E2E2E2
310
E2E2E2E2E2E2E2E2E2E2E2E2E2E2E2E2E2E2E2E2E2E2E2E2E2E2E2E2E2E2E2E2E2E2E2E2E2E2E2E2E2E2E2E2E2E2E2E2E2E2E2E2E2E2E2E2E2E2E2E2E2E2E2E2E2E2E2E2E2E2E2E2E2E2E2E2E2E2E2E2E2E2E2E2E2E2E2E2E2E2E2E2E2E2E2E2E2E2F5F5E2F5F5E2F5E2E2F5E2E2F5F5E2E2E2F5E2E2E2E2E2E2E2E2E2E2E2
310
E2E2E2E2E2E2E2E2E2E2E2E2E2E2E2E2E2E2E2E2E2E2E2E2E2E2E2E2E2E2E2E2E2E2E2E2E2E2E2E2E2E2E2E2E2E2E2E2E2E2E2E2E2E2E2E2E2E2E2E2E2E2E2E2E2E2E2E2E2E2E2E2E2E2E2E2E2E2E2E2E2E2E2E2E2E2E2E2E2E2E2E2E2E2E2E2E2E2E2E2E2E2E2E2E2E2E2E2E2E2E2E2E2E2E2E2E2E2E2E2E2E2E2E2E2E2E2
310
E2E2E2E2E2E2E2E2E2E2E2E2E2E2E2E2E2E2E2E2E2E2E2E2E2E2E2E2E2E2E2E2E2E2E2E2E2E2E2E2E2E2E2E2E2E2E2E2E2E2E2E2E2E2E2E2E2E2E2E2E2E2E2E2E2E2E2E2E2E2E2E2E2E2E2E2E2E2E2E2E2E2E2E2E2E2E2E2E2E2E2E2E2E2E2E2E2E2E2E2F5F5F5F5F5F5F5F5F5F5F5F5F5F5E2E2E2F5E2E2E2E2E2E2E2E2E2
310
E2E2E2E2E2E2E2E2E2E2E2E2E2E2E2E2E2E2E2E2E2E2E2E2E2E2E2E2E2E2E2E2E2E2E2E2E2E2E2E2E2E2E2E2E2E2E2E2E2E2E2E2E2E2E2E2E2E2E2E2E2E2E2E2E2E2E2E2E2E2E2E2E2E2E2E2E2E2E2E2E2E2E2E2E2E2E2E2E2E2E2E2E2E2E2E2E2E2E2E2E2E2E2E2E2E2E2E2E2E2E2E2E2E2E2E2E2E2E2E2E2E2E2E2E2E2E2
310
E2E2E2E2E2E2E2E2E2E2E2E2E2E2E2E2E2E2E2E2E2E2E2E2E2E2E2E2E2E2E2E2E2E2E2E2E2E2E2E2E2E2E2E2E2E2E2E2E2E2E2E2E2E2E2E2E2E2E2E2E2E2E2E2E2E2E2E2E2E2E2E2E2E2E2E2E2E2E2E2E2E2E2E2E2E2E2E2E2E2E2E2E2E2E2E2E2E2E2E2E2E2F5F5F5F5F5F5F5F5F5F5F5F5F5F5F5F5F5F5E2E2E2E2E2E2E2
310
E2E2E2E2E2E2E2E2E2E2E2E2E2E2E2E2E2E2E2E2E2E2E2E2E2E2E2E2E2E2E2E2E2E2E2E2E2E2E2E2E2E2E2E2E2E2E2E2E2E2E2E2E2E2E2E2E2E2E2E2E2E2E2E2E2E2E2E2E2E2E2E2E2E2E2E2E2E2E2E2E2E2E2E2E2E2E2E2E2E2E2E2E2E2E2E2E2E2E2E2E2E2E2E2E2E2E2E2E2E2E2E2E2E2E2E2E2E2E2E2E2E2E2E2E2E2E2
310
E2E2E2E2E2E2E2E2E2E2E2E2E2E2E2E2E2E2E2E2E2E2E2E2E2E2E2E2E2E2E2E2E2E2E2E2E2E2E2E2E2E2E2E2E2E2E2E2E2E2E2E2E2E2E2E2E2E2E2E2E2E2E2E2E2E2E2E2E2E2E2E2E2E2E2E2E2E2E2E2E2E2E2E2E2E2E2E2E2E2E2E2E2E2E2E2E2E2E2E2E2E2E2E2E2F5F5F5E2E2F5E2E2F5F5F5E2E2E2E2E2E2E2E2E2E2E2
310
E2E2E2E2E2E2E2E2E2E2E2E2E2E2E2E2E2E2E2E2E2E2E2E2E2E2E2E2E2E2E2E2E2E2E2E2E2E2E2E2E2E2E2E2E2E2E2E2E2E2E2E2E2E2E2E2E2E2E2E2E2E2E2E2E2E2E2E2E2E2E2E2E2E2E2E2E2E2E2E2E2E2E2E2E2E2E2E2E2E2E2E2E2E2E2E2E2E2E2E2E2E2E2E2E2E2E2E2E2E2E2E2E2E2E2E2E2E2E2E2E2E2E2E2E2E2E2
310
E2E2E2E2E2E2E2E2E2E2E2E2E2E2E2E2E2E2E2E2E2E2E2E2E2E2E2E2E2E2E2E2E2E2E2E2E2E2E2E2E2E2E2E2E2E2E2E2E2E2E2E2E2E2E2E2E2E2E2E2E2E2E2E2E2E2E2E2E2E2E2E2E2E2E2E2E2E2E2E2E2E2E2E2E2E2E2E2E2E2E2E2E2E2E2E2E2E2E2E2E2E2E2E2E2E2E2E2E2E2E2E2E2E2E2F5F5F5E2E2E2E2E2E2E2E2E2
310
E2E2E2E2E2E2E2E2E2E2E2E2E2E2E2E2E2E2E2E2E2E2E2E2E2E2E2E2E2E2E2E2E2E2E2E2E2E2E2E2E2E2E2E2E2E2E2E2E2E2E2E2E2E2E2E2E2E2E2E2E2E2E2E2E2E2E2E2E2E2E2E2E2E2E2E2E2E2E2E2E2E2E2E2E2E2E2E2E2E2E2E2E2E2E2E2E2E2E2E2E2E2E2E2E2E2E2E2E2E2E2E2E2E2E2E2E2E2E2E2E2E2E2E2E2E2E2
310
E2E2E2E2E2E2E2E2E2E2E2E2E2E2E2E2E2E2E2E2E2E2E2E2E2E2E2E2E2E2E2E2E2E2E2E2E2E2E2E2E2E2E2E2E2E2E2E2E2E2E2E2E2E2E2E2E2E2E2E2E2E2E2E2E2E2E2E2E2E2E2E2E2E2E2E2E2E2E2E2E2E2E2E2E2E2E2E2E2E2E2E2E2E2E2E2E2E2E2E2E2E2E2E2E2E2E2E2E2E2E2E2E2E2E2E2E2E2E2E2E2E2E2E2E2E2E2
310
E2E2E2E2E2E2E2E2E2E2E2E2E2E2E2E2E2E2E2E2E2E2E2E2E2E2E2E2E2E2E2E2E2E2E2E2E2E2E2E2E2E2E2E2E2E2E2E2E2E2E2E2E2E2E2E2E2E2E2E2E2E2E2E2E2E2E2E2E2E2E2E2E2E2E2E2E2E2E2E2E2E2E2E2E2E2E2E2E2E2E2E2E2E2E2E2E2E2E2E2E2E2E2E2E2E2E2E2E2E2E2E2E2E2E2E2E2E2E2E2E2E2E2E2E2E2E2
310
E2E2E2E2E2E2E2E2E2E2E2E2E2E2E2E2E2E2E2E2E2E2E2E2E2E2E2E2E2E2E2E2E2E2E2E2E2E2E2E2E2E2E2E2E2E2E2E2E2E2E2E2E2E2E2E2E2E2E2E2E2E2E2E2E2E2E2E2E2E2E2E2E2E2E2E2E2E2E2E2E2E2E2E2E2E2E2E2E2E2E2E2E2E2E2E2E2E2E2E2E2E2E2E2E2E2E2E2E2E2E2E2E2E2E2E2E2E2E2E2E2E2E2E2E2E2E2
310
E2E2E2E2E2E2E2E2E2E2E2E2E2E2E2E2E2E2E2E2E2E2E2E2E2E2E2E2E2E2E2E2E2E2E2E2E2E2E2E2E2E2E2E2E2E2E2E2E2E2E2E2E2E2E2E2E2E2E2E2E2E2E2E2E2E2E2E2E2E2E2E2E2E2E2E2E2E2E2E2E2E2E2E2E2E2E2E2E2E2E2E2E2E2E2E2E2E2E2E2E2E2E2E2E2E2E2E2E2E2E2E2E2E2E2E2E2E2E2E2E2E2E2E2E2E2E2
310
E2E2E2E2E2E2E2E2E2E2E2E2E2E2E2E2E2E2E2E2E2E2E2E2E2E2E2E2E2E2E2E2E2E2E2E2E2E2E2E2E2E2E2E2E2E2E2E2E2E2E2E2E2E2E2E2E2E2E2E2E2E2E2E2E2E2E2E2E2E2E2E2E2E2E2E2E2E2E2E2E2E2E2E2E2E2E2E2E2E2E2E2E2E2E2E2E2E2E2E2E2E2E2E2E2E2E2E2E2E2E2E2E2E2E2E2E2E2E2E2E2E2E2E2E2E2E2
310
E2E2E2E2E2E2E2E2E2E2E2E2E2E2E2E2E2E2E2E2E2E2E2E2E2E2E2E2E2E2E2E2E2E2E2E2E2E2E2E2E2E2E2E2E2E2E2E2E2E2E2E2E2E2E2E2E2E2E2E2E2E2E2E2E2E2E2E2E2E2E2E2E2E2E2E2E2E2E2E2E2E2E2E2E2E2E2E2E2E2E2E2E2E2E2E2E2E2E2E2E2E2E2E2E2E2E2E2E2E2E2E2E2E2E2E2E2E2E2E2E2E2E2E2E2E2E2
310
E2E2E2E2E2E2E2E2E2E2E2E2E2E2E2E2E2E2E2E2E2E2E2E2E2E2E2E2E2E2E2E2E2E2E2E2E2E2E2E2E2E2E2E2E2E2E2E2E2E2E2E2E2E2E2E2E2E2E2E2E2E2E2E2E2E2E2E2E2E2E2E2E2E2E2E2E2E2E2E2E2E2E2E2E2E2E2E2E2E2E2E2E2E2E2E2E2E2E2E2E2E2E2E2E2E2E2E2E2E2E2E2E2E2E2E2E2E2E2E2E2E2E2E2E2E2E2
310
E2E2E2E2E2E2E2E2E2E2E2E2E2E2E2E2E2E2E2E2E2E2E2E2E2E2E2E2E2E2E2E2E2E2E2E2E2E2E2E2E2E2E2E2E2E2E2E2E2E2E2E2E2E2E2E2E2E2E2E2E2E2E2E2E2E2E2E2E2E2E2E2E2E2E2E2E2E2E2E2E2E2E2E2E2E2E2E2E2E2E2E2E2E2E2E2E2E2E2E2E2E2E2E2E2E2E2E2E2E2E2E2E2E2E2E2E2E2E2E2E2E2E2E2E2E2E2
310
E2E2E2E2E2E2E2E2E2E2E2E2E2E2E2E2E2E2E2E2E2E2E2E2E2E2E2E2E2E2E2E2E2E2E2E2E2E2E2E2E2E2E2E2E2E2E2E2E2E2E2E2E2E2E2E2E2E2E2E2E2E2E2E2E2E2E2E2E2E2E2E2E2E2E2E2E2E2E2E2E2E2E2E2E2E2E2E2E2E2E2E2E2E2E2E2E2E2E2E2E2E2E2E2E2E2E2E2E2E2E2E2E2E2E2E2E2E2E2E2E2E2E2E2E2E2E2
310
E2E2E2E2E2E2E2E2E2E2E2E2E2E2E2E2E2E2E2E2E2E2E2E2E2E2E2E2E2E2E2E2E2E2E2E2E2E2E2E2E2E2E2E2E2E2E2E2E2E2E2E2E2E2E2E2E2E2E2E2E2E2E2E2E2E2E2E2E2E2E2E2E2E2E2E2E2E2E2E2E2E2E2E2E2E2E2E2E2E2E2E2E2E2E2E2E2E2E2E2E2E2E2E2E2E2E2E2E2E2E2E2E2E2E2E2E2E2E2E2E2E2E2E2E2E2E2
310
E2E2E2E2E2E2E2E2E2E2E2E2E2E2E2E2E2E2E2E2E2E2E2E2E2E2E2E2E2E2E2E2E2E2E2E2E2E2E2E2E2E2E2E2E2E2E2E2E2E2E2E2E2E2E2E2E2E2E2E2E2E2E2E2E2E2E2E2E2E2E2E2E2E2E2E2E2E2E2E2E2E2E2E2E2E2E2E2E2E2E2E2E2E2E2E2E2E2E2E2E2E2E2E2E2E2E2E2E2E2E2E2E2E2E2E2E2E2E2E2E2E2E2E2E2E2E2
310
E2E2E2E2E2E2E2E2E2E2E2E2E2E2E2E2E2E2E2E2E2E2E2E2E2E2E2E2E2E2E2E2E2E2E2E2E2E2E2E2E2E2E2E2E2E2E2E2E2E2E2E2E2E2E2E2E2E2E2E2E2E2E2E2E2E2E2E2E2E2E2E2E2E2E2E2E2E2E2E2E2E2E2E2E2E2E2E2E2E2E2E2E2E2E2E2E2E2E2E2E2E2E2E2E2E2E2E2E2E2E2E2E2E2E2E2E2E2E2E2E2E2E2E2E2E2E2
310
E2E2E2E2E2E2E2E2E2E2E2E2E2E2E2E2E2E2E2E2E2E2E2E2E2E2E2E2E2E2E2E2E2E2E2E2E2E2E2E2E2E2E2E2E2E2E2E2E2E2E2E2E2E2E2E2E2E2E2E2E2E2E2E2E2E2E2E2E2E2E2E2E2E2E2E2E2E2E2E2E2E2E2E2E2E2E2E2E2E2E2F5F5F5F5F5F5F5E2E2F5F5F5F5F5F5F5E2E2E2E2E2E2E2E2E2E2E2E2E2E2E2E2E2E2E2E2
310
E2E2E2E2E2E2E2E2E2E2E2E2E2E2E2E2E2E2E2E2E2E2E2E2E2E2E2E2E2E2E2E2E2E2E2E2E2E2E2E2E2E2E2E2E2E2E2E2E2E2E2E2E2E2E2E2E2E2E2E2E2E2E2E2E2E2E2E2E2E2E2E2E2E2E2E2E2E2E2E2E2E2E2E2E2E2E2E2E2E2E2E2E2E2E2E2E2E2E2E2E2E2E2E2E2E2E2E2E2E2E2E2E2E2E2E2E2E2E2E2E2E2E2E2E2E2E2
310
E2E2E2E2E2E2E2E2E2E2E2E2E2E2E2E2E2E2E2E2E2E2E2E2E2E2E2E2E2E2E2E2E2E2E2E2E2E2E2E2E2E2E2E2E2E2E2E2E2E2E2E2E2E2E2E2E2E2E2E2E2E2E2E2E2E2E2E2E2E2E2E2E2E2E2E2E2E2E2E2E2E2E2E2E2E2E2E2E2E2E2E2E2E2E2E2E2E2E2E2E2E2E2E2E2E2E2E2E2E2E2E2E2E2E2E2E2E2E2E2E2E2E2E2E2E2E2
310
E2E2E2E2E2E2E2E2E2E2E2E2E2E2E2E2E2E2E2E2E2E2E2E2E2E2E2E2E2E2E2E2E2E2E2E2E2E2E2E2E2E2E2E2E2E2E2E2E2E2E2E2E2E2E2E2E2E2E2E2E2E2E2E2E2E2E2E2E2E2E2E2E2E2E2E2E2E2E2E2E2E2E2E2E2E2E2E2E2E2E2E2E2E2E2E2E2E2E2E2E2E2E2E2E2E2E2E2E2E2E2E2E2E2E2E2E2E2E2E2E2E2E2E2E2E2E2
310
E2E2E2E2E2E2E2E2E2E2E2E2E2E2E2E2E2E2E2E2E2E2E2E2E2E2E2E2E2E2E2E2E2E2E2E2E2E2E2E2E2E2E2E2E2E2E2E2E2E2E2E2E2E2E2E2E2E2E2E2E2E2E2E2E2E2E2E2E2F5F5F5F5F5F5F5E2E2F5F5F5F5F5E2E2E2E2F5E2E2E2E2F5E2E2E2E2E2E2E2E2E2E2E2E2E2E2E2E2E2E2E2E2E2E2F5E2E2E2E2E2E2E2F5F5F5E2
310
E2E2E2E2F5F5F5F5E2E2E2E2E2F5F5E2E2E2E2E2F5F5E2E2E2E2E2F5F5F5E2E2E2E2E2E2E2E2E2E2E2E2E2E2E2E2E2E2E2E2E2E2F5F5F5E2E2E2E2E2F5F5F5F5E2E2E2E2E2E2E2E2E2E2E2E2E2E2E2E2E2E2E2E2E2E2E2E2E2E2E2E2E2E2E2E2E2E2E2E2E2E2E2E2E2E2E2E2E2E2E2E2E2E2E2E2E2E2E2E2E2E2E2E2E2E2E2
310
E2E2E2E2E2E2E2E2E2E2E2E2E2E2E2E2E2E2E2E2E2E2E2E2E2E2E2E2E2E2E2E2E2E2E2E2E2E2E2E2E2E2E2E2E2E2E2E2E2E2E2E2E2E2E2E2E2E2E2E2E2E2E2E2E2E2E2E2E2E2E2F5E2E2E2E2E2E2E2E2E2F5E2E2E2F5F5E2E2F5E2E2E2E2F5E2E2E2E2E2E2E2E2E2E2E2E2E2E2E2E2E2E2E2E2E2E2F5E2E2E2E2E2F5F5E2E2
310
E2F5F5E2E2F5E2E2E2E2F5E2E2F5F5E2E2F5F5E2F5F5E2E2F5F5E2E2F5E2E2E2F5E2E2E2E2E2E2E2E2E2E2E2E2E2E2E2E2E2E2E2F5F5E2E2E2F5F5E2E2F5E2E2E2E2F5E2E2E2E2E2E2E2E2E2E2E2E2E2E2E2E2E2E2E2E2E2E2E2E2E2E2E2E2E2E2E2E2E2E2E2E2E2E2E2E2E2E2E2E2E2E2E2E2E2E2E2E2E2E2E2E2E2E2E2E2
310
E2E2E2E2E2E2E2E2E2E2E2E2E2E2E2E2E2E2E2E2E2E2E2E2E2E2E2E2E2E2E2E2E2E2E2E2E2E2E2E2E2E2E2E2E2E2E2E2E2E2E2E2E2E2E2E2E2E2E2E2E2E2E2E2E2E2E2E2E2E2E2E2E2F5E2E2E2E2E2E2E2E2E2F5E2E2E2E2F5E2E2F5E2E2E2E2F5E2E2E2E2E2E2E2E2E2E2E2E2E2E2E2E2E2E2E2E2E2E2F5E2E2E2E2E2E2E2
310
E2E2E2E2F5E2E2E2E2E2E2E2F5E2E2F5E2E2E2E2F5E2F5E2E2E2E2F5E2E2F5E2E2E2F5E2E2E2E2E2E2E2E2E2E2E2E2E2E2E2E2E2E2E2E2E2E2E2E2E2F5E2E2E2E2E2E2F5E2E2E2E2E2E2E2E2E2E2E2E2E2E2E2E2E2E2E2E2E2E2E2E2E2E2E2E2E2E2E2E2E2E2E2E2E2E2E2E2E2E2E2E2E2E2E2E2E2E2E2E2E2E2E2E2E2E2E2
310
E2E2E2E2E2E2E2E2E2E2E2E2E2E2E2E2E2E2E2E2E2E2E2E2E2E2E2E2E2E2E2E2E2E2E2E2E2E2E2E2E2E2E2E2E2E2E2E2E2E2E2E2E2E2E2E2E2E2E2E2E2E2E2E2E2E2E2E2E2E2E2E2E2E2E2F5E2E2E2E2E2E2E2E2E2F5E2E2E2E2F5E2E2F5F5F5F5F5F5E2E2E2E2E2E2E2E2E2E2E2E2E2E2E2E2E2E2E2E2E2E2F5E2E2E2E2E2
310
E2E2E2E2E2E2F5E2E2E2E2E2E2E2F5E2E2F5E2E2E2E2F5E2F5E2E2E2E2F5E2E2F5E2E2E2F5E2E2E2E2E2E2E2E2E2E2E2E2E2E2E2E2E2E2E2E2E2E2E2E2E2F5E2E2E2E2E2F5E2E2E2E2E2E2E2E2E2E2E2E2E2E2E2E2E2E2E2E2E2E2E2E2E2E2E2E2E2E2E2E2E2E2E2E2E2E2E2E2E2E2E2E2E2E2E2E2E2E2E2E2E2E2E2E2E2E2
310
E2E2E2E2E2E2E2E2E2E2E2E2E2E2E2E2E2E2E2E2E2E2E2E2E2E2E2E2E2E2E2E2E2E2E2E2E2E2E2E2E2E2E2E2E2E2E2E2E2E2E2E2E2E2E2E2E2E2E2E2E2E2E2E2E2E2E2E2E2E2E2E2E2E2E2E2E2E2F5F5F5F5F5E2E2E2E2F5F5F5F5F5E2E2E2E2F5E2E2E2F5E2E2E2E2E2E2E2E2E2E2E2E2E2E2E2E2E2E2E2E2E2E2F5E2E2E2
310
E2E2E2E2E2F5F5F5E2E2E2E2E2E2E2E2F5E2E2F5E2E2E2E2F5E2F5E2E2E2E2F5E2E2F5E2E2E2F5E2E2E2E2E2E2E2E2E2E2E2E2E2E2E2E2E2E2E2E2E2E2F5F5F5E2E2E2E2E2E2F5E2E2E2E2E2E2E2E2E2E2E2E2E2E2E2E2E2E2E2E2E2E2E2E2E2E2E2E2E2E2E2E2E2E2E2E2E2E2E2E2E2E2E2E2E2E2E2E2E2E2E2E2E2E2E2E2
310
E2E2E2E2E2E2E2E2E2E2E2E2E2E2E2E2E2E2E2E2E2E2E2E2E2E2E2E2E2E2E2E2E2E2E2E2E2E2E2E2E2E2E2E2E2E2E2E2E2E2E2E2E2E2E2E2E2E2E2E2E2E2E2E2E2E2E2E2E2E2E2E2E2E2E2E2E2E2E2E2E2E2E2E2E2F5E2E2E2F5E2E2E2F5E2E2E2E2F5E2E2F5E2E2E2E2E2E2E2E2E2E2E2E2E2E2E2E2E2E2E2E2E2E2E2F5E2
310
E2E2E2E2E2E2E2E2E2F5E2E2E2E2E2E2E2E2F5E2E2F5E2E2E2E2F5E2F5E2E2E2E2F5E2E2F5E2E2E2F5E2E2E2E2E2E2E2E2E2E2E2E2E2E2E2E2E2E2E2E2E2E2E2E2F5E2E2E2E2E2F5E2E2E2E2E2E2E2E2E2E2E2E2E2E2E2E2E2E2E2E2E2E2E2E2E2E2E2E2E2E2E2E2E2E2E2E2E2E2E2E2E2E2E2E2E2E2E2E2E2E2E2E2E2E2E2
310
E2E2E2E2E2E2E2E2E2E2E2E2E2E2E2E2E2E2E2E2E2E2E2E2E2E2E2E2E2E2E2E2E2E2E2E2E2E2E2E2E2E2E2E2E2E2E2E2E2E2E2E2E2E2E2E2E2E2E2E2E2E2E2E2E2E2E2E2E2E2E2E2E2E2E2E2E2E2E2E2E2E2E2E2E2E2E2F5E2E2E2F5E2E2E2E2F5E2E2E2E2F5E2F5E2E2E2E2E2E2E2E2E2E2E2E2E2E2E2E2E2E2E2E2E2E2E2
310
F5E2E2E2E2E2E2E2E2E2E2E2F5E2E2F5F5F5F5F5E2E2E2F5E2E2E2E2F5E2F5E2E2E2E2F5E2E2F5E2E2E2F5E2E2E2E2E2E2E2E2E2E2E2E2E2E2E2E2E2E2E2E2E2E2E2E2E2F5E2E2E2F5E2E2E2E2E2E2E2E2E2E2E2E2E2E2E2E2E2E2E2E2E2E2E2E2E2E2E2E2E2E2E2E2E2E2E2E2E2E2E2E2E2E2E2E2E2E2E2E2E2E2E2E2E2E2
310
E2E2E2E2E2E2E2E2E2E2E2E2E2E2E2E2E2E2E2E2E2E2E2E2E2E2E2E2E2E2E2E2E2E2E2E2E2E2E2E2E2E2E2E2E2E2E2E2E2E2E2E2E2E2E2E2E2E2E2E2E2E2E2E2E2E2E2E2E2E2E2E2E2E2E2E2E2E2E2E2E2E2E2F5E2E2E2E2E2F5E2E2E2F5E2E2E2E2F5E2E2E2E2F5F5E2E2E2E2E2E2E2E2E2E2E2E2E2E2E2E2E2E2E2E2E2E2
310
E2E2F5E2E2E2E2E2F5E2E2E2E2E2F5E2E2F5E2E2E2E2E2E2E2F5E2E2E2E2F5E2F5E2E2E2E2F5E2E2F5E2E2E2F5E2E2E2E2E2E2E2E2E2E2E2E2E2E2E2E2E2E2E2F5E2E2E2E2E2F5E2E2F5E2E2E2E2F5E2E2E2E2E2E2E2E2E2E2E2E2E2E2E2E2E2E2E2E2E2E2E2E2E2E2E2E2E2E2E2E2E2E2E2E2E2E2E2E2E2E2E2E2E2E2E2E2
310
E2E2E2E2E2E2E2E2E2E2E2E2E2E2E2E2E2E2E2E2E2E2E2E2E2E2E2E2E2E2E2E2E2E2E2E2E2E2E2E2E2E2E2E2E2E2E2E2E2E2E2E2E2E2E2E2E2E2E2E2E2E2E2E2E2E2E2E2E2E2E2E2E2E2E2E2E2E2E2E2E2E2E2E2E2E2F5F5F5F5F5E2E2E2F5F5F5F5F5F5E2E2E2E2E2E2F5E2E2E2E2E2E2E2E2E2E2E2E2E2E2E2E2E2E2E2E2
310
E2F5F5F5F5F5F5F5E2E2E2F5F5F5F5F5E2E2E2F5F5F5F5F5F5E2E2E2F5F5F5F5E2E2E2F5F5F5F5E2E2E2E2F5F5F5E2E2E2E2E2E2E2E2E2E2E2E2E2E2E2E2E2E2E2E2E2F5F5F5F5F5E2E2E2E2F5F5F5F5E2E2E2E2E2E2E2E2E2E2E2E2E2E2E2E2E2E2E2E2E2E2E2E2E2E2E2E2E2E2E2E2E2E2E2E2E2E2E2E2E2E2E2E2E2E2E2
310
E2E2E2E2E2E2E2E2E2E2E2E2E2E2E2E2E2E2E2E2E2E2E2E2E2E2E2E2E2E2E2E2E2E2E2E2E2E2E2E2E2E2E2E2E2E2E2E2E2E2E2E2E2E2E2E2E2E2E2E2E2E2E2E2E2E2E2E2E2E2E2E2E2E2E2E2E2E2E2E2E2E2E2E2E2E2E2E2E2E2E2E2E2E2E2E2E2E2E2E2E2E2E2E2E2E2E2E2E2E2E2E2E2E2E2E2E2E2E2E2E2E2E2E2E2E2E2
310
E2E2E2E2E2E2E2E2E2E2E2E2E2E2E2E2E2E2E2E2E2E2E2E2E2E2E2E2E2E2E2E2E2E2E2E2E2E2E2E2E2E2E2E2E2E2E2E2E2E2E2E2E2E2E2E2E2E2E2E2E2E2E2E2E2E2E2E2E2E2E2E2E2E2E2E2E2E2E2E2E2E2E2E2E2E2E2E2E2E2E2E2E2E2E2E2E2E2E2E2E2E2E2E2E2E2E2E2E2E2E2E2E2E2E2E2E2E2E2E2E2E2E2E2E2E2E2
310
E2E2E2E2E2E2E2E2E2E2E2E2E2E2E2E2E2E2E2E2E2E2E2E2E2E2E2E2E2E2E2E2E2E2E2E2E2E2E2E2E2E2E2E2E2E2E2E2E2E2E2E2E2E2E2E2E2E2E2E2E2E2E2E2E2E2E2E2E2E2E2E2E2E2E2E2E2E2E2E2E2E2E2E2E2E2E2E2E2E2E2E2E2E2E2E2E2E2E2E2E2E2E2E2E2E2E2E2E2E2E2E2E2E2E2E2E2E2E2E2E2E2E2E2E2E2E2
310
E2E2E2E2E2E2E2E2E2E2E2E2E2E2E2E2E2E2E2E2E2E2E2E2E2E2E2E2E2E2E2E2E2E2E2E2E2E2E2E2E2E2E2E2E2E2E2E2E2E2E2E2E2E2E2E2E2E2E2E2E2E2E2E2E2E2E2E2E2E2E2E2E2E2E2E2E2E2E2E2E2E2E2E2E2E2E2E2E2E2E2E2E2E2E2E2E2E2E2E2E2E2E2E2E2E2E2E2E2E2E2E2E2E2E2E2E2E2E2E2E2E2E2E2E2E2E2
310
E2E2E2E2E2E2E2E2E2E2E2E2E2E2E2E2E2E2E2E2E2E2E2E2E2E2E2E2E2E2E2E2E2E2E2E2E2E2E2E2E2E2E2E2E2E2E2E2E2E2E2E2E2E2E2E2E2E2E2E2E2E2E2E2E2E2E2E2E2E2E2E2E2E2E2E2E2E2E2E2E2E2E2E2E2E2E2E2E2E2E2E2E2E2E2E2E2E2E2E2E2E2E2E2E2E2E2E2E2E2E2E2E2E2E2E2E2E2E2E2E2E2E2E2E2E2E2
310
E2E2E2E2E2E2E2E2E2E2E2E2E2E2E2E2E2E2E2E2E2E2E2E2E2E2E2E2E2E2E2E2E2E2E2E2E2E2E2E2E2E2E2E2E2E2E2E2E2E2E2E2E2E2E2E2E2E2E2E2E2E2E2E2E2E2E2E2E2E2E2E2E2E2E2E2E2E2E2E2E2E2E2E2E2E2E2E2E2E2E2E2E2E2E2E2E2E2E2E2E2E2E2E2E2E2E2E2E2E2E2E2E2E2E2E2E2E2E2E2E2E2E2E2E2E2E2
310
E2E2E2E2E2E2E2E2E2E2E2E2E2E2E2E2E2E2E2E2E2E2E2E2E2E2E2E2E2E2E2E2E2E2E2E2E2E2E2E2E2E2E2E2E2E2E2E2E2E2E2E2E2E2E2E2E2E2E2E2E2E2E2E2E2E2E2E2E2E2E2E2E2E2E2E2E2E2E2E2E2E2E2E2E2E2E2E2E2E2E2E2E2E2E2E2E2E2E2E2E2E2E2E2E2E2E2E2E2E2E2E2E2E2E2E2E2E2E2E2E2E2E2E2E2E2E2
310
E2E2E2E2E2E2E2E2E2E2E2E2E2E2E2E2E2E2E2E2E2E2E2E2E2E2E2E2E2E2E2E2E2E2E2E2E2E2E2E2E2E2E2E2E2E2E2E2E2E2E2E2E2E2E2E2E2E2E2E2E2E2E2E2E2E2E2E2E2E2E2E2E2E2E2E2E2E2E2E2E2E2E2E2E2E2E2E2E2E2E2E2E2E2E2E2E2E2E2E2E2E2E2E2E2E2E2E2E2E2E2E2E2E2E2E2E2E2E2E2E2E2E2E2E2E2E2
310
E2E2E2E2E2E2E2E2E2E2E2E2E2E2E2E2E2E2E2E2E2E2E2E2E2E2E2E2E2E2E2E2E2E2E2E2E2E2E2E2E2E2E2E2E2E2E2E2E2E2E2E2E2E2E2E2E2E2E2E2E2E2E2E2E2E2E2E2E2E2E2E2E2E2E2E2E2E2E2E2E2E2E2E2E2E2E2E2E2E2E2E2E2E2E2E2E2E2E2E2E2E2E2E2E2E2E2E2E2E2E2E2E2E2E2E2E2E2E2E2E2E2E2E2E2E2E2
310
E2E2E2E2E2E2E2E2E2E2E2E2E2E2E2E2E2E2E2E2E2E2E2E2E2E2E2E2E2E2E2E2E2E2E2E2E2E2E2E2E2E2E2E2E2E2E2E2E2E2E2E2E2E2E2E2E2E2E2E2E2E2E2E2E2E2E2E2E2E2E2E2E2E2E2E2E2E2E2E2E2E2E2E2E2E2E2E2E2E2E2E2E2E2E2E2E2E2E2E2E2E2E2E2E2E2E2E2E2E2E2E2E2E2E2E2E2E2E2E2E2E2E2E2E2E2E2
310
E2E2E2E2E2E2E2E2E2E2E2E2E2E2E2E2E2E2E2E2E2E2E2E2E2E2E2E2E2E2E2E2E2E2E2E2E2E2E2E2E2E2E2E2E2E2E2E2E2E2E2E2E2E2E2E2E2E2E2E2E2E2E2E2E2E2E2E2E2E2E2E2E2E2E2E2E2E2E2E2E2E2E2E2E2E2E2E2E2E2E2E2E2E2E2E2E2E2E2E2E2E2E2E2E2E2E2E2E2E2E2E2E2E2E2E2E2E2E2E2E2E2E2E2E2E2E2
310
E2E2E2E2E2E2E2E2E2E2E2E2E2E2E2E2E2E2E2E2E2E2E2E2E2E2E2E2E2E2E2E2E2E2E2E2E2E2E2E2E2E2E2E2E2E2E2E2E2E2E2E2E2E2E2E2E2E2E2E2E2E2E2E2E2E2E2E2E2E2E2E2E2E2E2E2E2E2E2E2E2E2E2E2E2E2E2E2E2E2E2E2E2E2E2E2E2E2E2E2E2E2E2E2E2E2E2E2E2E2E2E2E2E2E2E2E2E2E2E2E2E2E2E2E2E2E2
310
E2E2E2E2E2E2E2E2E2E2E2E2E2E2E2E2E2E2E2E2E2E2E2E2E2E2E2E2E2E2E2E2E2E2E2E2E2E2E2E2E2E2E2E2E2E2E2E2E2E2E2E2E2E2E2E2E2E2E2E2E2E2E2E2E2E2E2E2E2E2E2E2E2E2E2E2E2E2E2E2E2E2E2E2E2E2E2E2E2E2E2E2E2E2E2E2E2E2E2E2E2E2E2E2E2E2E2E2E2E2E2E2E2E2E2E2E2E2E2E2E2E2E2E2E2E2E2
310
E2E2E2E2E2E2E2E2E2E2E2E2E2E2E2E2E2E2E2E2E2E2E2E2E2E2E2E2E2E2E2E2E2E2E2E2E2E2E2E2E2E2E2E2E2E2E2E2E2E2E2E2E2E2E2E2E2E2E2E2E2E2E2E2E2E2E2E2E2E2E2E2E2E2E2E2E2E2E2E2E2E2E2E2E2E2E2E2E2E2E2E2E2E2E2E2E2E2E2E2E2E2E2E2E2E2E2E2E2E2E2E2E2E2E2E2E2E2E2E2E2E2E2E2E2E2E2
310
E2E2E2E2E2E2E2E2E2E2E2E2E2E2E2E2E2E2E2E2E2E2E2E2E2E2E2E2E2E2E2E2E2E2E2E2E2E2E2E2E2E2E2E2E2E2E2E2E2E2E2E2E2E2E2E2E2E2E2E2E2E2E2E2E2E2E2E2E2E2E2E2E2E2E2E2E2E2E2E2E2E2E2E2E2E2E2E2E2E2E2E2E2E2E2E2E2E2E2E2E2E2E2E2E2E2E2E2E2E2E2E2E2E2E2E2E2E2E2E2E2E2E2E2E2E2E2
310
E2E2E2E2E2E2E2E2E2E2E2E2E2E2E2E2E2E2E2E2E2E2E2E2E2E2E2E2E2E2E2E2E2E2E2E2E2E2E2E2E2E2E2E2E2E2E2E2E2E2E2E2E2E2E2E2E2E2E2E2E2E2E2E2E2E2E2E2E2E2E2E2E2E2E2E2E2E2E2E2E2E2E2E2E2E2E2E2E2E2E2E2E2E2E2E2E2E2E2E2E2E2E2E2E2E2E2E2E2E2E2E2E2E2E2E2E2E2E2E2E2E2E2E2E2E2E2
310
E2E2E2E2E2E2E2E2E2E2E2E2E2E2E2E2E2E2E2E2E2E2E2E2E2E2E2E2E2E2E2E2E2E2E2E2E2E2E2E2E2E2E2E2E2E2E2E2E2E2E2E2E2E2E2E2E2E2E2E2E2E2E2E2E2E2E2E2E2E2E2E2E2E2E2E2E2E2E2E2E2E2E2E2E2E2E2E2E2E2E2E2E2E2E2E2E2E2E2E2E2E2E2E2E2E2E2E2E2E2E2E2E2E2E2E2E2E2E2E2E2E2E2E2E2E2E2
310
E2E2E2E2E2E2E2E2E2E2E2E2E2E2E2E2E2E2E2E2E2E2E2E2E2E2E2E2E2E2E2E2E2E2E2E2E2E2E2E2E2E2E2E2E2E2E2E2E2E2E2E2E2E2E2E2E2E2E2E2E2E2E2E2E2E2E2E2E2E2E2E2E2E2E2E2E2E2E2E2E2E2E2E2E2E2E2E2E2E2E2E2E2E2E2E2E2E2E2E2E2E2E2E2E2E2E2E2E2E2E2E2E2E2E2E2E2E2E2E2E2E2E2E2E2E2E2
310
E2E2E2E2E2E2E2E2E2E2E2E2E2E2E2E2E2E2E2E2E2E2E2E2E2E2E2E2E2E2E2E2E2E2E2E2E2E2E2E2E2E2E2E2E2E2E2E2E2E2E2E2E2E2E2E2E2E2E2E2E2E2E2E2E2E2E2E2E2E2E2E2E2E2E2E2E2E2E2E2E2E2E2E2E2E2E2E2E2E2E2E2E2E2E2E2E2E2E2E2E2E2E2E2E2E2E2E2E2E2E2E2E2E2E2E2E2E2E2E2E2E2E2E2E2E2E2
310
E2E2E2E2E2E2E2E2E2E2E2E2E2E2E2E2E2E2E2E2E2E2E2E2E2E2E2E2E2E2E2E2E2E2E2E2E2E2E2E2E2E2E2E2E2E2E2E2E2E2E2E2E2E2E2E2E2E2E2E2E2E2E2E2E2E2E2E2E2E2E2E2E2E2E2E2E2E2E2E2E2E2E2E2E2E2E2E2E2E2E2E2E2E2E2E2E2E2E2E2E2E2E2E2E2E2E2E2E2E2E2E2E2E2E2E2E2E2E2E2E2E2E2E2E2E2E2
310
E2E2E2E2E2E2E2E2E2E2E2E2E2E2E2E2E2E2E2E2E2E2E2E2E2E2E2E2E2E2E2E2E2E2E2E2E2E2E2E2E2E2E2E2E2E2E2E2E2E2E2E2E2E2E2E2E2E2E2E2E2E2E2E2E2E2E2E2E2E2E2E2E2E2E2E2E2E2E2E2E2E2E2E2E2E2E2E2E2E2E2E2E2E2E2E2E2E2E2E2E2E2E2E2E2E2E2E2E2E2E2E2E2E2E2E2E2E2E2E2E2E2E2E2E2E2E2
310
E2E2E2E2E2E2E2E2E2E2E2E2E2E2E2E2E2E2E2E2E2E2E2E2E2E2E2E2E2E2E2E2E2E2E2E2E2E2E2E2E2E2E2E2E2E2E2E2E2E2E2E2E2E2E2E2E2E2E2E2E2E2E2E2E2E2E2E2E2E2E2E2E2E2E2E2E2E2E2E2E2E2E2E2E2E2E2E2E2E2E2E2E2E2E2E2E2E2E2E2E2E2E2E2E2E2E2E2E2E2E2E2E2E2E2E2E2E2E2E2E2E2E2E2E2E2E2
310
E2E2E2E2E2E2E2E2E2E2E2E2E2E2E2E2E2E2E2E2E2E2E2E2E2E2E2E2E2E2E2E2E2E2E2E2E2E2E2E2E2E2E2E2E2E2E2E2E2E2E2E2E2E2E2E2E2E2E2E2E2E2E2E2E2E2E2E2E2E2E2E2E2E2E2E2E2E2E2E2E2E2E2E2E2E2E2E2E2E2E2E2E2E2E2E2E2E2E2E2E2E2E2E2E2E2E2E2E2E2E2E2E2E2E2E2E2E2E2E2E2E2E2E2E2E2E2
310
E2E2E2E2E2E2E2E2E2E2E2E2E2E2E2E2E2E2E2E2E2E2E2E2E2E2E2E2E2E2E2E2E2E2E2E2E2E2E2E2E2E2E2E2E2E2E2E2E2E2E2E2E2E2E2E2E2E2E2E2E2E2E2E2E2E2E2E2E2E2E2E2E2E2E2E2E2E2E2E2E2E2E2E2E2E2E2E2E2E2E2E2E2E2E2E2E2E2E2E2E2E2E2E2E2E2E2E2E2E2E2E2E2E2E2E2E2E2E2E2E2E2E2E2E2E2E2
310
E2E2E2E2E2E2E2E2E2E2E2E2E2E2E2E2E2E2E2E2E2E2E2E2E2E2E2E2E2E2E2E2E2E2E2E2E2E2E2E2E2E2E2E2E2E2E2E2E2E2E2E2E2E2E2E2E2E2E2E2E2E2E2E2E2E2E2E2E2E2E2E2E2E2E2E2E2E2E2E2E2E2E2E2E2E2E2E2E2E2E2E2E2E2E2E2E2E2E2E2E2E2E2E2E2E2E2E2E2E2E2E2E2E2E2E2E2E2E2E2E2E2E2E2E2E2E2
310
E2E2E2E2E2E2E2E2E2E2E2E2E2E2E2E2E2E2E2E2E2E2E2E2E2E2E2E2E2E2E2E2E2E2E2E2E2E2E2E2E2E2E2E2E2E2E2E2E2E2E2E2E2E2E2E2E2E2E2E2E2E2E2E2E2E2E2E2E2E2E2E2E2E2E2E2E2E2E2E2E2E2E2E2E2E2E2E2E2E2E2E2E2E2E2E2E2E2E2E2E2E2E2E2E2E2E2E2E2E2E2E2E2E2E2E2E2E2E2E2E2E2E2E2E2E2E2
310
E2E2E2E2E2E2E2E2E2E2E2E2E2E2E2E2E2E2E2E2E2E2E2E2E2E2E2E2E2E2E2E2E2E2E2E2E2E2E2E2E2E2E2E2E2E2E2E2E2E2E2E2E2E2E2E2E2E2E2E2E2E2E2E2E2E2E2E2E2E2E2E2E2E2E2E2E2E2E2E2E2E2E2E2E2E2E2E2E2E2E2E2E2E2E2E2E2E2E2E2E2E2E2E2E2E2E2E2E2E2E2E2E2E2E2E2E2E2E2E2E2E2E2E2E2E2E2
310
E2E2E2E2E2E2E2E2E2E2E2E2E2E2E2E2E2E2E2E2E2E2E2E2E2E2E2E2E2E2E2E2E2E2E2E2E2E2E2E2E2E2E2E2E2E2E2E2E2E2E2E2E2E2E2E2E2E2E2E2E2E2E2E2E2E2E2E2E2E2E2E2E2E2E2E2E2E2E2E2E2E2E2E2E2E2E2E2E2E2E2E2E2E2E2E2E2E2E2E2E2E2E2E2E2E2E2E2E2E2E2E2E2E2E2E2E2E2E2E2E2E2E2E2E2E2E2
310
E2E2E2E2E2E2E2E2E2E2E2E2E2E2E2E2E2E2E2E2E2E2E2E2E2E2E2E2E2E2E2E2E2E2E2E2E2E2E2E2E2E2E2E2E2E2E2E2E2E2E2E2E2E2E2E2E2E2E2E2E2E2E2E2E2E2E2E2E2E2E2E2E2E2E2E2E2E2E2E2E2E2E2E2E2E2E2E2E2E2E2E2E2E2E2E2E2E2E2E2E2E2E2E2E2E2E2E2E2E2E2E2E2E2E2E2E2E2E2E2E2E2E2E2E2E2E2
310
E2E2E2E2E2E2E2E2E2E2E2E2E2E2E2E2E2E2E2E2E2E2E2E2E2E2E2E2E2E2E2E2E2E2E2E2E2E2E2E2E2E2E2E2E2E2E2E2E2E2E2E2E2E2E2E2E2E2E2E2E2E2E2E2E2E2E2E2E2E2E2E2E2E2E2E2E2E2E2E2E2E2E2E2E2E2E2E2E2E2E2E2E2E2E2E2E2E2E2E2E2E2E2E2E2E2E2E2E2E2E2E2E2E2E2E2E2E2E2E2E2E2E2E2E2E2E2
310
E2E2E2E2E2E2E2E2E2E2E2E2E2E2E2E2E2E2E2E2E2E2E2E2E2E2E2E2E2E2E2E2E2E2E2E2E2E2E2E2E2E2E2E2E2E2E2E2E2E2E2E2E2E2E2E2E2E2E2E2E2E2E2E2E2E2E2E2E2E2E2E2E2E2E2E2E2E2E2E2E2E2E2E2E2E2E2E2E2E2E2E2E2E2E2E2E2E2E2E2E2E2E2E2E2E2E2E2E2E2E2E2E2E2E2E2E2E2E2E2E2E2E2E2E2E2E2
310
E2E2E2E2E2E2E2E2E2E2E2E2E2E2E2E2E2E2E2E2E2E2E2E2E2E2E2E2E2E2E2E2E2E2E2E2E2E2E2E2E2E2E2E2E2E2E2E2E2E2E2E2E2E2E2E2E2E2E2E2E2E2E2E2E2E2E2E2E2E2E2E2E2E2E2E2E2E2E2E2E2E2E2E2E2E2E2E2E2E2E2E2E2E2E2E2E2E2E2E2E2E2E2E2E2E2E2E2E2E2E2E2E2E2E2E2E2E2E2E2E2E2E2E2E2E2E2
310
E2E2E2E2E2E2E2E2E2E2E2E2E2E2E2E2E2E2E2E2E2E2E2E2E2E2E2E2E2E2E2E2E2E2E2E2E2E2E2E2E2E2E2E2E2E2E2E2E2E2E2E2E2E2E2E2E2E2E2E2E2E2E2E2E2E2E2E2E2E2E2E2E2E2E2E2E2E2E2E2E2E2E2E2E2E2E2E2E2E2E2E2E2E2E2E2E2E2E2E2E2E2E2E2E2E2E2E2E2E2E2E2E2E2E2E2E2E2E2E2E2E2E2E2E2E2E2
310
E2E2E2E2E2E2E2E2E2E2E2E2E2E2E2E2E2E2E2E2E2E2E2E2E2E2E2E2E2E2E2E2E2E2E2E2E2E2E2E2E2E2E2E2E2E2E2E2E2E2E2E2E2E2E2E2E2E2E2E2E2E2E2E2E2E2E2E2E2E2E2E2E2E2E2E2E2E2E2E2E2E2E2E2E2E2E2E2E2E2E2E2E2E2E2E2E2E2E2E2E2E2E2E2E2E2E2E2E2E2E2E2E2E2E2E2E2E2E2E2E2E2E2E2E2E2E2
310
E2E2E2E2E2E2E2E2E2E2E2E2E2E2E2E2E2E2E2E2E2E2E2E2E2E2E2E2E2E2E2E2E2E2E2E2E2E2E2E2E2E2E2E2E2E2E2E2E2E2E2E2E2E2E2E2E2E2E2E2E2E2E2E2E2E2E2E2E2E2E2E2E2E2E2E2E2E2E2E2E2E2E2E2E2E2E2E2E2E2E2E2E2E2E2E2E2E2E2E2E2E2E2E2E2E2E2E2E2E2E2E2E2E2E2E2E2E2E2E2E2E2E2E2E2E2E2
310
E2E2E2E2E2E2E2E2E2E2E2E2E2E2E2E2E2E2E2E2E2E2E2E2E2E2E2E2E2E2E2E2E2E2E2E2E2E2E2E2E2E2E2E2E2E2E2E2E2E2E2E2E2E2E2E2E2E2E2E2E2E2E2E2E2E2E2E2E2E2E2E2E2E2E2E2E2E2E2E2E2E2E2E2E2E2E2E2E2E2E2E2E2E2E2E2E2E2E2E2E2E2E2E2E2E2E2E2E2E2E2E2E2E2E2E2E2E2E2E2E2E2E2E2E2E2E2
310
E2E2E2E2E2E2E2E2E2E2E2E2E2E2E2E2E2E2E2E2E2E2E2E2E2E2E2E2E2E2E2E2E2E2E2E2E2E2E2E2E2E2E2E2E2E2E2E2E2E2E2E2E2E2E2E2E2E2E2E2E2E2E2E2E2E2E2E2E2E2E2E2E2E2E2E2E2E2E2E2E2E2E2E2E2E2E2E2E2E2E2E2E2E2E2E2E2E2E2E2E2E2E2E2E2E2E2E2E2E2E2E2E2E2E2E2E2E2E2E2E2E2E2E2E2E2E2
310
E2E2E2E2E2E2E2E2E2E2E2E2E2E2E2E2E2E2E2E2E2E2E2E2E2E2E2E2E2E2E2E2E2E2E2E2E2E2E2E2E2E2E2E2E2E2E2E2E2E2E2E2E2E2E2E2E2E2E2E2E2E2E2E2E2E2E2E2E2E2E2E2E2E2E2E2E2E2E2E2E2E2E2E2E2E2E2E2E2E2E2E2E2E2E2E2E2E2E2E2E2E2E2E2E2E2E2E2E2E2E2E2E2E2E2E2E2E2E2E2E2E2E2E2E2E2E2
310
E2E2E2E2E2E2E2E2E2E2E2E2E2E2E2E2E2E2E2E2E2E2E2E2E2E2E2E2E2E2E2E2E2E2E2E2E2E2E2E2E2E2E2E2E2E2E2E2E2E2E2E2E2E2E2E2E2E2E2E2E2E2E2E2E2E2E2E2E2E2E2E2E2E2E2E2E2E2E2E2E2E2E2E2E2E2E2E2E2E2E2E2E2E2E2E2E2E2E2E2E2E2E2E2E2E2E2E2E2E2E2E2E2E2E2E2E2E2E2E2E2E2E2E2E2E2E2
310
E2E2E2E2E2E2E2E2E2E2E2E2E2E2E2E2E2E2E2E2E2E2E2E2E2E2E2E2E2E2E2E2E2E2E2E2E2E2E2E2E2E2E2E2E2E2E2E2E2E2E2E2E2E2E2E2E2E2E2E2E2E2E2E2E2E2E2E2E2E2E2E2E2E2E2E2E2E2E2E2E2E2E2E2E2E2E2E2E2E2E2E2E2E2E2E2E2E2E2E2E2E2E2E2E2E2E2E2E2E2E2E2E2E2E2E2E2E2E2E2E2E2E2E2E2E2E2
310
E2E2E2E2E2E2E2E2E2E2E2E2E2E2E2E2E2E2E2E2E2E2E2E2E2E2E2E2E2E2E2E2E2E2E2E2E2E2E2E2E2E2E2E2E2E2E2E2E2E2E2E2E2E2E2E2E2E2E2E2E2E2E2E2E2E2E2E2E2E2E2E2E2E2E2E2E2E2E2E2E2E2E2E2E2E2E2E2E2E2E2E2E2E2E2E2E2E2E2E2E2E2E2E2E2E2E2E2E2E2E2E2E2E2E2E2E2E2E2E2E2E2E2E2E2E2E2
310
E2E2E2E2E2E2E2E2E2E2E2E2E2E2E2E2E2E2E2E2E2E2E2E2E2E2E2E2E2E2E2E2E2E2E2E2E2E2E2E2E2E2E2E2E2E2E2E2E2E2E2E2E2E2E2E2E2E2E2E2E2E2E2E2E2E2E2E2E2E2E2E2E2E2E2E2E2E2E2E2E2E2E2E2E2E2E2E2E2E2E2E2E2E2E2E2E2E2E2E2E2E2E2E2E2E2E2E2E2E2E2E2E2E2E2E2E2E2E2E2E2E2E2E2E2E2E2
310
E2E2E2E2E2E2E2E2E2E2E2E2E2E2E2E2E2E2E2E2E2E2E2E2E2E2E2E2E2E2E2E2E2E2E2E2E2E2E2E2E2E2E2E2E2E2E2E2E2E2E2E2E2E2E2E2E2E2E2E2E2E2E2E2E2E2E2E2E2E2E2E2E2E2E2E2E2E2E2E2E2E2E2E2E2E2E2E2E2E2E2E2E2E2E2E2E2E2E2E2E2E2E2E2E2E2E2E2E2E2E2E2E2E2E2E2E2E2E2E2E2E2E2E2E2E2E2
310
E2E2E2E2E2E2E2E2E2E2E2E2E2E2E2E2E2E2E2E2E2E2E2E2E2E2E2E2E2E2E2E2E2E2E2E2E2E2E2E2E2E2E2E2E2E2E2E2E2E2E2E2E2E2E2E2E2E2E2E2E2E2E2E2E2E2E2E2E2E2E2E2E2E2E2E2E2E2E2E2E2E2E2E2E2E2E2E2E2E2E2E2E2E2E2E2E2E2E2E2E2E2E2E2E2E2E2E2E2E2E2E2E2E2E2E2E2E2E2E2E2E2E2E2E2E2E2
310
E2E2E2E2E2E2E2E2E2E2E2E2E2E2E2E2E2E2E2E2E2E2E2E2E2E2E2E2E2E2E2E2E2E2E2E2E2E2E2E2E2E2E2E2E2E2E2E2E2E2E2E2E2E2E2E2E2E2E2E2E2E2E2E2E2E2E2E2E2E2E2E2E2E2E2E2E2E2E2E2E2E2E2E2E2E2E2E2E2E2E2E2E2E2E2E2E2E2E2E2E2E2E2E2E2E2E2E2E2E2E2E2E2E2E2E2E2E2E2E2E2E2E2E2E2E2E2
310
E2E2E2E2E2E2E2E2E2E2E2E2E2E2E2E2E2E2E2E2E2E2E2E2E2E2E2E2E2E2E2E2E2E2E2E2E2E2E2E2E2E2E2E2E2E2E2E2E2E2E2E2E2E2E2E2E2E2E2E2E2E2E2E2E2E2E2E2E2E2E2E2E2E2E2E2E2E2E2E2E2E2E2E2E2E2E2E2E2E2E2E2E2E2E2E2E2E2E2E2E2E2E2E2E2E2E2E2E2E2E2E2E2E2E2E2E2E2E2E2E2E2E2E2E2E2E2
310
E2E2E2E2E2E2E2E2E2E2E2E2E2E2E2E2E2E2E2E2E2E2E2E2E2E2E2E2E2E2E2E2E2E2E2E2E2E2E2E2E2E2E2E2E2E2E2E2E2E2E2E2E2E2E2E2E2E2E2E2E2E2E2E2E2E2E2E2E2E2E2E2E2E2E2E2E2E2E2E2E2E2E2E2E2E2E2E2E2E2E2E2E2E2E2E2E2E2E2E2E2E2E2E2E2E2E2E2E2E2E2E2E2E2E2E2E2E2E2E2E2E2E2E2E2E2E2
310
E2E2E2E2E2E2E2E2E2E2E2E2E2E2E2E2E2E2E2E2E2E2E2E2E2E2E2E2E2E2E2E2E2E2E2E2E2E2E2E2E2E2E2E2E2E2E2E2E2E2E2E2E2E2E2E2E2E2E2E2E2E2E2E2E2E2E2E2E2E2E2E2E2E2E2E2E2E2E2E2E2E2E2E2E2E2E2E2E2E2E2E2E2E2E2E2E2E2E2E2E2E2E2E2E2E2E2E2E2E2E2E2E2E2E2E2E2E2E2E2E2E2E2E2E2E2E2
310
E2E2E2E2E2E2E2E2E2E2E2E2E2E2E2E2E2E2E2E2E2E2E2E2E2E2E2E2E2E2E2E2E2E2E2E2E2E2E2E2E2E2E2E2E2E2E2E2E2E2E2E2E2E2E2E2E2E2E2E2E2E2E2E2E2E2E2E2E2E2E2E2E2E2E2E2E2E2E2E2E2E2E2E2E2E2E2E2E2E2E2E2E2E2E2E2E2E2E2E2E2E2E2E2
  0
XRECORD
  5
23AE
102
{ACAD_REACTORS
330
100B
102
}
330
100B
100
AcDbXrecord
280
     1
102
MATERIAL
148
0.0
149
0.0
149
0.0
 93
        0
 94
      127
282
     0
 72
     0
 77
     0
171
     0
175
     0
179
     0
273
     0
  0
XRECORD
  5
100D
102
{ACAD_REACTORS
330
100B
102
}
330
100B
100
AcDbXrecord
280
     1
270
     1
271
     1
  0
XRECORD
  5
100C
102
{ACAD_REACTORS
330
100B
102
}
330
100B
100
AcDbXrecord
280
     1
270
     1
271
     1
  0
XRECORD
  5
1010
102
{ACAD_REACTORS
330
100B
102
}
330
100B
100
AcDbXrecord
280
     1
270
     1
271
     1
  0
XRECORD
  5
100F
102
{ACAD_REACTORS
330
100B
102
}
330
100B
100
AcDbXrecord
280
     1
270
     1
271
     1
  0
XRECORD
  5
1011
102
{ACAD_REACTORS
330
100B
102
}
330
100B
100
AcDbXrecord
280
     1
270
     1
271
     1
  0
XRECORD
  5
100E
102
{ACAD_REACTORS
330
100B
102
}
330
100B
100
AcDbXrecord
280
     1
270
     1
271
     1
  0
XRECORD
  5
23AD
102
{ACAD_REACTORS
330
1003
102
}
330
1003
100
AcDbXrecord
280
     1
102
MATERIAL
148
0.0
149
0.0
149
0.0
 93
        0
 94
      127
282
     0
 72
     0
 77
     0
171
     0
175
     0
179
     0
273
     0
  0
XRECORD
  5
1005
102
{ACAD_REACTORS
330
1003
102
}
330
1003
100
AcDbXrecord
280
     1
270
     1
271
     1
  0
XRECORD
  5
1004
102
{ACAD_REACTORS
330
1003
102
}
330
1003
100
AcDbXrecord
280
     1
270
     1
271
     1
  0
XRECORD
  5
1008
102
{ACAD_REACTORS
330
1003
102
}
330
1003
100
AcDbXrecord
280
     1
270
     1
271
     1
  0
XRECORD
  5
1007
102
{ACAD_REACTORS
330
1003
102
}
330
1003
100
AcDbXrecord
280
     1
270
     1
271
     1
  0
XRECORD
  5
1009
102
{ACAD_REACTORS
330
1003
102
}
330
1003
100
AcDbXrecord
280
     1
270
     1
271
     1
  0
XRECORD
  5
1006
102
{ACAD_REACTORS
330
1003
102
}
330
1003
100
AcDbXrecord
280
     1
270
     1
271
     1
  0
XRECORD
  5
23AF
102
{ACAD_REACTORS
330
1013
102
}
330
1013
100
AcDbXrecord
280
     1
102
MATERIAL
148
0.0
149
0.0
149
0.0
 93
        0
 94
      127
282
     0
 72
     0
 77
     0
171
     0
175
     0
179
     0
273
     0
  0
XRECORD
  5
1015
102
{ACAD_REACTORS
330
1013
102
}
330
1013
100
AcDbXrecord
280
     1
270
     1
271
     1
  0
XRECORD
  5
1014
102
{ACAD_REACTORS
330
1013
102
}
330
1013
100
AcDbXrecord
280
     1
270
     1
271
     1
  0
XRECORD
  5
1018
102
{ACAD_REACTORS
330
1013
102
}
330
1013
100
AcDbXrecord
280
     1
270
     1
271
     1
  0
XRECORD
  5
1017
102
{ACAD_REACTORS
330
1013
102
}
330
1013
100
AcDbXrecord
280
     1
270
     1
271
     1
  0
XRECORD
  5
1019
102
{ACAD_REACTORS
330
1013
102
}
330
1013
100
AcDbXrecord
280
     1
270
     1
271
     1
  0
XRECORD
  5
1016
102
{ACAD_REACTORS
330
1013
102
}
330
1013
100
AcDbXrecord
280
     1
270
     1
271
     1
  0
XRECORD
  5
23EA
102
{ACAD_REACTORS
330
23E9
102
}
330
23E9
100
AcDbXrecord
280
     1
102
ACAD_ROUNDTRIP_2012_MLEADER_STYLE
298
     1
  0
XRECORD
  5
23F0
102
{ACAD_REACTORS
330
23EF
102
}
330
23EF
100
AcDbXrecord
280
     1
102
DISPLAYNAME
  1
Imperial24
102
FLAGS
 90
        0
  0
CELLSTYLEMAP
  5
23B7
102
{ACAD_REACTORS
330
122A
102
}
330
122A
100
AcDbCellStyleMap
 90
        3
300
CELLSTYLE
  1
TABLEFORMAT_BEGIN
 90
        5
170
     1
 91
        0
 92
    32768
 62
   257
 93
        1
300
CONTENTFORMAT
  1
CONTENTFORMAT_BEGIN
 90
        0
 91
        0
 92
      512
 93
        0
300

 40
0.0
140
1.0
 94
        5
 62
     0
340
1046
144
0.25
309
CONTENTFORMAT_END
171
     1
301
MARGIN
  1
CELLMARGIN_BEGIN
 40
0.06
 40
0.06
 40
0.06
 40
0.06
 40
0.18
 40
0.18
309
CELLMARGIN_END
 94
        6
 95
        1
302
GRIDFORMAT
  1
GRIDFORMAT_BEGIN
 90
        0
 91
        1
 62
     0
 92
       -2
340
0
 93
        0
 40
0.045
309
GRIDFORMAT_END
 95
        2
302
GRIDFORMAT
  1
GRIDFORMAT_BEGIN
 90
        0
 91
        1
 62
     0
 92
       -2
340
0
 93
        0
 40
0.045
309
GRIDFORMAT_END
 95
        4
302
GRIDFORMAT
  1
GRIDFORMAT_BEGIN
 90
        0
 91
        1
 62
     0
 92
       -2
340
0
 93
        0
 40
0.045
309
GRIDFORMAT_END
 95
        8
302
GRIDFORMAT
  1
GRIDFORMAT_BEGIN
 90
        0
 91
        1
 62
     0
 92
       -2
340
0
 93
        0
 40
0.045
309
GRIDFORMAT_END
 95
       16
302
GRIDFORMAT
  1
GRIDFORMAT_BEGIN
 90
        0
 91
        1
 62
     0
 92
       -2
340
0
 93
        0
 40
0.045
309
GRIDFORMAT_END
 95
       32
302
GRIDFORMAT
  1
GRIDFORMAT_BEGIN
 90
        0
 91
        1
 62
     0
 92
       -2
340
0
 93
        0
 40
0.045
309
GRIDFORMAT_END
309
TABLEFORMAT_END
  1
CELLSTYLE_BEGIN
 90
        1
 91
        1
300
_TITLE
309
CELLSTYLE_END
300
CELLSTYLE
  1
TABLEFORMAT_BEGIN
 90
        5
170
     1
 91
        0
 92
        0
 62
   257
 93
        1
300
CONTENTFORMAT
  1
CONTENTFORMAT_BEGIN
 90
        0
 91
        0
 92
      512
 93
        0
300

 40
0.0
140
1.0
 94
        5
 62
     0
340
1046
144
0.18
309
CONTENTFORMAT_END
171
     1
301
MARGIN
  1
CELLMARGIN_BEGIN
 40
0.06
 40
0.06
 40
0.06
 40
0.06
 40
0.18
 40
0.18
309
CELLMARGIN_END
 94
        6
 95
        1
302
GRIDFORMAT
  1
GRIDFORMAT_BEGIN
 90
        0
 91
        1
 62
     0
 92
       -2
340
0
 93
        0
 40
0.045
309
GRIDFORMAT_END
 95
        2
302
GRIDFORMAT
  1
GRIDFORMAT_BEGIN
 90
        0
 91
        1
 62
     0
 92
       -2
340
0
 93
        0
 40
0.045
309
GRIDFORMAT_END
 95
        4
302
GRIDFORMAT
  1
GRIDFORMAT_BEGIN
 90
        0
 91
        1
 62
     0
 92
       -2
340
0
 93
        0
 40
0.045
309
GRIDFORMAT_END
 95
        8
302
GRIDFORMAT
  1
GRIDFORMAT_BEGIN
 90
        0
 91
        1
 62
     0
 92
       -2
340
0
 93
        0
 40
0.045
309
GRIDFORMAT_END
 95
       16
302
GRIDFORMAT
  1
GRIDFORMAT_BEGIN
 90
        0
 91
        1
 62
     0
 92
       -2
340
0
 93
        0
 40
0.045
309
GRIDFORMAT_END
 95
       32
302
GRIDFORMAT
  1
GRIDFORMAT_BEGIN
 90
        0
 91
        1
 62
     0
 92
       -2
340
0
 93
        0
 40
0.045
309
GRIDFORMAT_END
309
TABLEFORMAT_END
  1
CELLSTYLE_BEGIN
 90
        2
 91
        1
300
_HEADER
309
CELLSTYLE_END
300
CELLSTYLE
  1
TABLEFORMAT_BEGIN
 90
        5
170
     1
 91
        0
 92
        0
 62
   257
 93
        1
300
CONTENTFORMAT
  1
CONTENTFORMAT_BEGIN
 90
        0
 91
        0
 92
      512
 93
        0
300

 40
0.0
140
1.0
 94
        2
 62
     0
340
1046
144
0.18
309
CONTENTFORMAT_END
171
     1
301
MARGIN
  1
CELLMARGIN_BEGIN
 40
0.06
 40
0.06
 40
0.06
 40
0.06
 40
0.18
 40
0.18
309
CELLMARGIN_END
 94
        6
 95
        1
302
GRIDFORMAT
  1
GRIDFORMAT_BEGIN
 90
        0
 91
        1
 62
     0
 92
       -2
340
0
 93
        0
 40
0.045
309
GRIDFORMAT_END
 95
        2
302
GRIDFORMAT
  1
GRIDFORMAT_BEGIN
 90
        0
 91
        1
 62
     0
 92
       -2
340
0
 93
        0
 40
0.045
309
GRIDFORMAT_END
 95
        4
302
GRIDFORMAT
  1
GRIDFORMAT_BEGIN
 90
        0
 91
        1
 62
     0
 92
       -2
340
0
 93
        0
 40
0.045
309
GRIDFORMAT_END
 95
        8
302
GRIDFORMAT
  1
GRIDFORMAT_BEGIN
 90
        0
 91
        1
 62
     0
 92
       -2
340
0
 93
        0
 40
0.045
309
GRIDFORMAT_END
 95
       16
302
GRIDFORMAT
  1
GRIDFORMAT_BEGIN
 90
        0
 91
        1
 62
     0
 92
       -2
340
0
 93
        0
 40
0.045
309
GRIDFORMAT_END
 95
       32
302
GRIDFORMAT
  1
GRIDFORMAT_BEGIN
 90
        0
 91
        1
 62
     0
 92
       -2
340
0
 93
        0
 40
0.045
309
GRIDFORMAT_END
309
TABLEFORMAT_END
  1
CELLSTYLE_BEGIN
 90
        3
 91
        2
300
_DATA
309
CELLSTYLE_END
  0
XRECORD
  5
23C4
102
{ACAD_REACTORS
330
23C3
102
}
330
23C3
100
AcDbXrecord
280
     1
102
RTVSPost2010Prop28
280
     1
102
RTVSPost2010PropOp28
 70
     1
102
RTVSPost2010Prop29
280
     1
102
RTVSPost2010PropOp29
 70
     1
102
RTVSPost2010Prop30
280
     0
102
RTVSPost2010PropOp30
 70
     1
102
RTVSPost2010Prop31
280
     0
102
RTVSPost2010PropOp31
 70
     1
102
RTVSPost2010Prop32
280
     0
102
RTVSPost2010PropOp32
 70
     1
102
RTVSPost2010Prop33
280
     0
102
RTVSPost2010PropOp33
 70
     1
102
RTVSPost2010Prop34
280
     0
102
RTVSPost2010PropOp34
 70
     1
102
RTVSPost2010Prop35
280
     0
102
RTVSPost2010PropOp35
 70
     1
102
RTVSPost2010Prop36
280
     0
102
RTVSPost2010PropOp36
 70
     1
102
RTVSPost2010Prop37
 90
       50
102
RTVSPost2010PropOp37
 70
     1
102
RTVSPost2010Prop38
140
0.0
102
RTVSPost2010PropOp38
 70
     1
102
RTVSPost2010Prop39
140
1.0
102
RTVSPost2010PropOp39
 70
     1
102
RTVSPost2010Prop40
 90
        0
102
RTVSPost2010PropOp40
 70
     1
102
RTVSPost2010Prop41ColorIndex
 90
       18
102
RTVSPost2010Prop41ColorRGB
 90
        0
102
RTVSPost2010PropOp41
 70
     1
102
RTVSPost2010Prop42
 90
       50
102
RTVSPost2010PropOp42
 70
     1
102
RTVSPost2010Prop43
 90
        3
102
RTVSPost2010PropOp43
 70
     1
102
RTVSPost2010Prop44ColorIndex
 90
        5
102
RTVSPost2010Prop44ColorRGB
 90
      255
102
RTVSPost2010PropOp44
 70
     1
102
RTVSPost2010Prop45
280
     0
102
RTVSPost2010PropOp45
 70
     1
102
RTVSPost2010Prop46
 90
       50
102
RTVSPost2010PropOp46
 70
     1
102
RTVSPost2010Prop47
 90
       50
102
RTVSPost2010PropOp47
 70
     1
102
RTVSPost2010Prop48
 90
       50
102
RTVSPost2010PropOp48
 70
     1
102
RTVSPost2010Prop49
280
     0
102
RTVSPost2010PropOp49
 70
     1
102
RTVSPost2010Prop50
 90
       50
102
RTVSPost2010PropOp50
 70
     1
102
RTVSPost2010Prop51ColorIndex
 90
      256
102
RTVSPost2010Prop51ColorRGB
 90
-16777216
102
RTVSPost2010PropOp51
 70
     0
102
RTVSPost2010Prop52
140
1.0
102
RTVSPost2010PropOp52
 70
     0
102
RTVSPost2010Prop53
 90
        2
102
RTVSPost2010PropOp53
 70
     1
102
RTVSPost2010Prop54
  1
strokes_ogs.tif
102
RTVSPost2010PropOp54
 70
     1
102
RTVSPost2010Prop55
280
     0
102
RTVSPost2010PropOp55
 70
     1
102
RTVSPost2010Prop56
140
1.0
102
RTVSPost2010PropOp56
 70
     1
102
RTVSPost2010Prop57
140
1.0
102
RTVSPost2010PropOp57
 70
     1
  0
XRECORD
  5
23EE
102
{ACAD_REACTORS
330
23ED
102
}
330
23ED
100
AcDbXrecord
280
     1
102
RTVSPost2010Prop28
280
     0
102
RTVSPost2010PropOp28
 70
     1
102
RTVSPost2010Prop29
280
     1
102
RTVSPost2010PropOp29
 70
     1
102
RTVSPost2010Prop30
280
     1
102
RTVSPost2010PropOp30
 70
     1
102
RTVSPost2010Prop31
280
     0
102
RTVSPost2010PropOp31
 70
     1
102
RTVSPost2010Prop32
280
     0
102
RTVSPost2010PropOp32
 70
     1
102
RTVSPost2010Prop33
280
     0
102
RTVSPost2010PropOp33
 70
     1
102
RTVSPost2010Prop34
280
     0
102
RTVSPost2010PropOp34
 70
     1
102
RTVSPost2010Prop35
280
     0
102
RTVSPost2010PropOp35
 70
     1
102
RTVSPost2010Prop36
280
     0
102
RTVSPost2010PropOp36
 70
     1
102
RTVSPost2010Prop37
 90
       50
102
RTVSPost2010PropOp37
 70
     1
102
RTVSPost2010Prop38
140
0.0
102
RTVSPost2010PropOp38
 70
     1
102
RTVSPost2010Prop39
140
1.0
102
RTVSPost2010PropOp39
 70
     1
102
RTVSPost2010Prop40
 90
        0
102
RTVSPost2010PropOp40
 70
     1
102
RTVSPost2010Prop41ColorIndex
 90
       18
102
RTVSPost2010Prop41ColorRGB
 90
        0
102
RTVSPost2010PropOp41
 70
     1
102
RTVSPost2010Prop42
 90
       50
102
RTVSPost2010PropOp42
 70
     1
102
RTVSPost2010Prop43
 90
        3
102
RTVSPost2010PropOp43
 70
     1
102
RTVSPost2010Prop44ColorIndex
 90
        5
102
RTVSPost2010Prop44ColorRGB
 90
      255
102
RTVSPost2010PropOp44
 70
     1
102
RTVSPost2010Prop45
280
     0
102
RTVSPost2010PropOp45
 70
     1
102
RTVSPost2010Prop46
 90
       50
102
RTVSPost2010PropOp46
 70
     1
102
RTVSPost2010Prop47
 90
       50
102
RTVSPost2010PropOp47
 70
     1
102
RTVSPost2010Prop48
 90
       50
102
RTVSPost2010PropOp48
 70
     1
102
RTVSPost2010Prop49
280
     0
102
RTVSPost2010PropOp49
 70
     1
102
RTVSPost2010Prop50
 90
       50
102
RTVSPost2010PropOp50
 70
     1
102
RTVSPost2010Prop51ColorIndex
 90
      256
102
RTVSPost2010Prop51ColorRGB
 90
-16777216
102
RTVSPost2010PropOp51
 70
     0
102
RTVSPost2010Prop52
140
1.0
102
RTVSPost2010PropOp52
 70
     0
102
RTVSPost2010Prop53
 90
        2
102
RTVSPost2010PropOp53
 70
     1
102
RTVSPost2010Prop54
  1
strokes_ogs.tif
102
RTVSPost2010PropOp54
 70
     1
102
RTVSPost2010Prop55
280
     0
102
RTVSPost2010PropOp55
 70
     1
102
RTVSPost2010Prop56
140
1.0
102
RTVSPost2010PropOp56
 70
     1
102
RTVSPost2010Prop57
140
1.0
102
RTVSPost2010PropOp57
 70
     1
  0
XRECORD
  5
23EC
102
{ACAD_REACTORS
330
23EB
102
}
330
23EB
100
AcDbXrecord
280
     1
102
RTVSPost2010Prop28
280
     0
102
RTVSPost2010PropOp28
 70
     1
102
RTVSPost2010Prop29
280
     1
102
RTVSPost2010PropOp29
 70
     1
102
RTVSPost2010Prop30
280
     1
102
RTVSPost2010PropOp30
 70
     1
102
RTVSPost2010Prop31
280
     0
102
RTVSPost2010PropOp31
 70
     1
102
RTVSPost2010Prop32
280
     0
102
RTVSPost2010PropOp32
 70
     1
102
RTVSPost2010Prop33
280
     0
102
RTVSPost2010PropOp33
 70
     1
102
RTVSPost2010Prop34
280
     0
102
RTVSPost2010PropOp34
 70
     1
102
RTVSPost2010Prop35
280
     0
102
RTVSPost2010PropOp35
 70
     1
102
RTVSPost2010Prop36
280
     0
102
RTVSPost2010PropOp36
 70
     1
102
RTVSPost2010Prop37
 90
       50
102
RTVSPost2010PropOp37
 70
     1
102
RTVSPost2010Prop38
140
0.0
102
RTVSPost2010PropOp38
 70
     1
102
RTVSPost2010Prop39
140
1.0
102
RTVSPost2010PropOp39
 70
     1
102
RTVSPost2010Prop40
 90
        0
102
RTVSPost2010PropOp40
 70
     1
102
RTVSPost2010Prop41ColorIndex
 90
       18
102
RTVSPost2010Prop41ColorRGB
 90
        0
102
RTVSPost2010PropOp41
 70
     1
102
RTVSPost2010Prop42
 90
       50
102
RTVSPost2010PropOp42
 70
     1
102
RTVSPost2010Prop43
 90
        3
102
RTVSPost2010PropOp43
 70
     1
102
RTVSPost2010Prop44ColorIndex
 90
        5
102
RTVSPost2010Prop44ColorRGB
 90
      255
102
RTVSPost2010PropOp44
 70
     1
102
RTVSPost2010Prop45
280
     0
102
RTVSPost2010PropOp45
 70
     1
102
RTVSPost2010Prop46
 90
       50
102
RTVSPost2010PropOp46
 70
     1
102
RTVSPost2010Prop47
 90
       50
102
RTVSPost2010PropOp47
 70
     1
102
RTVSPost2010Prop48
 90
       50
102
RTVSPost2010PropOp48
 70
     1
102
RTVSPost2010Prop49
280
     0
102
RTVSPost2010PropOp49
 70
     1
102
RTVSPost2010Prop50
 90
       50
102
RTVSPost2010PropOp50
 70
     1
102
RTVSPost2010Prop51ColorIndex
 90
      256
102
RTVSPost2010Prop51ColorRGB
 90
-16777216
102
RTVSPost2010PropOp51
 70
     0
102
RTVSPost2010Prop52
140
1.0
102
RTVSPost2010PropOp52
 70
     0
102
RTVSPost2010Prop53
 90
        2
102
RTVSPost2010PropOp53
 70
     1
102
RTVSPost2010Prop54
  1
strokes_ogs.tif
102
RTVSPost2010PropOp54
 70
     1
102
RTVSPost2010Prop55
280
     0
102
RTVSPost2010PropOp55
 70
     1
102
RTVSPost2010Prop56
140
1.0
102
RTVSPost2010PropOp56
 70
     1
102
RTVSPost2010Prop57
140
1.0
102
RTVSPost2010PropOp57
 70
     1
  0
XRECORD
  5
23C2
102
{ACAD_REACTORS
330
23C1
102
}
330
23C1
100
AcDbXrecord
280
     1
102
RTVSPost2010Prop28
280
     0
102
RTVSPost2010PropOp28
 70
     1
102
RTVSPost2010Prop29
280
     1
102
RTVSPost2010PropOp29
 70
     1
102
RTVSPost2010Prop30
280
     1
102
RTVSPost2010PropOp30
 70
     1
102
RTVSPost2010Prop31
280
     0
102
RTVSPost2010PropOp31
 70
     1
102
RTVSPost2010Prop32
280
     0
102
RTVSPost2010PropOp32
 70
     1
102
RTVSPost2010Prop33
280
     0
102
RTVSPost2010PropOp33
 70
     1
102
RTVSPost2010Prop34
280
     0
102
RTVSPost2010PropOp34
 70
     1
102
RTVSPost2010Prop35
280
     0
102
RTVSPost2010PropOp35
 70
     1
102
RTVSPost2010Prop36
280
     0
102
RTVSPost2010PropOp36
 70
     1
102
RTVSPost2010Prop37
 90
       50
102
RTVSPost2010PropOp37
 70
     1
102
RTVSPost2010Prop38
140
0.0
102
RTVSPost2010PropOp38
 70
     1
102
RTVSPost2010Prop39
140
1.0
102
RTVSPost2010PropOp39
 70
     1
102
RTVSPost2010Prop40
 90
        0
102
RTVSPost2010PropOp40
 70
     1
102
RTVSPost2010Prop41ColorIndex
 90
       18
102
RTVSPost2010Prop41ColorRGB
 90
        0
102
RTVSPost2010PropOp41
 70
     1
102
RTVSPost2010Prop42
 90
       50
102
RTVSPost2010PropOp42
 70
     1
102
RTVSPost2010Prop43
 90
        3
102
RTVSPost2010PropOp43
 70
     1
102
RTVSPost2010Prop44ColorIndex
 90
        5
102
RTVSPost2010Prop44ColorRGB
 90
      255
102
RTVSPost2010PropOp44
 70
     1
102
RTVSPost2010Prop45
280
     0
102
RTVSPost2010PropOp45
 70
     1
102
RTVSPost2010Prop46
 90
       50
102
RTVSPost2010PropOp46
 70
     1
102
RTVSPost2010Prop47
 90
       50
102
RTVSPost2010PropOp47
 70
     1
102
RTVSPost2010Prop48
 90
       50
102
RTVSPost2010PropOp48
 70
     1
102
RTVSPost2010Prop49
280
     0
102
RTVSPost2010PropOp49
 70
     1
102
RTVSPost2010Prop50
 90
       50
102
RTVSPost2010PropOp50
 70
     1
102
RTVSPost2010Prop51ColorIndex
 90
      256
102
RTVSPost2010Prop51ColorRGB
 90
-16777216
102
RTVSPost2010PropOp51
 70
     0
102
RTVSPost2010Prop52
140
1.0
102
RTVSPost2010PropOp52
 70
     0
102
RTVSPost2010Prop53
 90
        2
102
RTVSPost2010PropOp53
 70
     1
102
RTVSPost2010Prop54
  1
strokes_ogs.tif
102
RTVSPost2010PropOp54
 70
     1
102
RTVSPost2010Prop55
280
     0
102
RTVSPost2010PropOp55
 70
     1
102
RTVSPost2010Prop56
140
1.0
102
RTVSPost2010PropOp56
 70
     1
102
RTVSPost2010Prop57
140
1.0
102
RTVSPost2010PropOp57
 70
     1
  0
XRECORD
  5
23D0
102
{ACAD_REACTORS
330
23CF
102
}
330
23CF
100
AcDbXrecord
280
     1
102
RTVSPost2010Prop28
280
     0
102
RTVSPost2010PropOp28
 70
     1
102
RTVSPost2010Prop29
280
     1
102
RTVSPost2010PropOp29
 70
     1
102
RTVSPost2010Prop30
280
     1
102
RTVSPost2010PropOp30
 70
     1
102
RTVSPost2010Prop31
280
     0
102
RTVSPost2010PropOp31
 70
     1
102
RTVSPost2010Prop32
280
     0
102
RTVSPost2010PropOp32
 70
     1
102
RTVSPost2010Prop33
280
     0
102
RTVSPost2010PropOp33
 70
     1
102
RTVSPost2010Prop34
280
     0
102
RTVSPost2010PropOp34
 70
     1
102
RTVSPost2010Prop35
280
     0
102
RTVSPost2010PropOp35
 70
     1
102
RTVSPost2010Prop36
280
     0
102
RTVSPost2010PropOp36
 70
     1
102
RTVSPost2010Prop37
 90
       50
102
RTVSPost2010PropOp37
 70
     1
102
RTVSPost2010Prop38
140
0.0
102
RTVSPost2010PropOp38
 70
     1
102
RTVSPost2010Prop39
140
1.0
102
RTVSPost2010PropOp39
 70
     1
102
RTVSPost2010Prop40
 90
        0
102
RTVSPost2010PropOp40
 70
     1
102
RTVSPost2010Prop41ColorIndex
 90
       18
102
RTVSPost2010Prop41ColorRGB
 90
        0
102
RTVSPost2010PropOp41
 70
     1
102
RTVSPost2010Prop42
 90
       50
102
RTVSPost2010PropOp42
 70
     1
102
RTVSPost2010Prop43
 90
        3
102
RTVSPost2010PropOp43
 70
     1
102
RTVSPost2010Prop44ColorIndex
 90
        5
102
RTVSPost2010Prop44ColorRGB
 90
      255
102
RTVSPost2010PropOp44
 70
     1
102
RTVSPost2010Prop45
280
     0
102
RTVSPost2010PropOp45
 70
     1
102
RTVSPost2010Prop46
 90
       50
102
RTVSPost2010PropOp46
 70
     1
102
RTVSPost2010Prop47
 90
       50
102
RTVSPost2010PropOp47
 70
     1
102
RTVSPost2010Prop48
 90
       50
102
RTVSPost2010PropOp48
 70
     1
102
RTVSPost2010Prop49
280
     0
102
RTVSPost2010PropOp49
 70
     1
102
RTVSPost2010Prop50
 90
       50
102
RTVSPost2010PropOp50
 70
     1
102
RTVSPost2010Prop51ColorIndex
 90
      256
102
RTVSPost2010Prop51ColorRGB
 90
-16777216
102
RTVSPost2010PropOp51
 70
     0
102
RTVSPost2010Prop52
140
1.0
102
RTVSPost2010PropOp52
 70
     0
102
RTVSPost2010Prop53
 90
        2
102
RTVSPost2010PropOp53
 70
     1
102
RTVSPost2010Prop54
  1
strokes_ogs.tif
102
RTVSPost2010PropOp54
 70
     1
102
RTVSPost2010Prop55
280
     0
102
RTVSPost2010PropOp55
 70
     1
102
RTVSPost2010Prop56
140
1.0
102
RTVSPost2010PropOp56
 70
     1
102
RTVSPost2010Prop57
140
1.0
102
RTVSPost2010PropOp57
 70
     1
  0
XRECORD
  5
23D8
102
{ACAD_REACTORS
330
23D7
102
}
330
23D7
100
AcDbXrecord
280
     1
102
RTVSPost2010Prop28
280
     0
102
RTVSPost2010PropOp28
 70
     1
102
RTVSPost2010Prop29
280
     1
102
RTVSPost2010PropOp29
 70
     1
102
RTVSPost2010Prop30
280
     1
102
RTVSPost2010PropOp30
 70
     1
102
RTVSPost2010Prop31
280
     0
102
RTVSPost2010PropOp31
 70
     1
102
RTVSPost2010Prop32
280
     0
102
RTVSPost2010PropOp32
 70
     1
102
RTVSPost2010Prop33
280
     0
102
RTVSPost2010PropOp33
 70
     1
102
RTVSPost2010Prop34
280
     0
102
RTVSPost2010PropOp34
 70
     1
102
RTVSPost2010Prop35
280
     0
102
RTVSPost2010PropOp35
 70
     1
102
RTVSPost2010Prop36
280
     0
102
RTVSPost2010PropOp36
 70
     1
102
RTVSPost2010Prop37
 90
       50
102
RTVSPost2010PropOp37
 70
     1
102
RTVSPost2010Prop38
140
0.0
102
RTVSPost2010PropOp38
 70
     1
102
RTVSPost2010Prop39
140
1.0
102
RTVSPost2010PropOp39
 70
     1
102
RTVSPost2010Prop40
 90
        0
102
RTVSPost2010PropOp40
 70
     1
102
RTVSPost2010Prop41ColorIndex
 90
       18
102
RTVSPost2010Prop41ColorRGB
 90
        0
102
RTVSPost2010PropOp41
 70
     1
102
RTVSPost2010Prop42
 90
       50
102
RTVSPost2010PropOp42
 70
     1
102
RTVSPost2010Prop43
 90
        3
102
RTVSPost2010PropOp43
 70
     1
102
RTVSPost2010Prop44ColorIndex
 90
        5
102
RTVSPost2010Prop44ColorRGB
 90
      255
102
RTVSPost2010PropOp44
 70
     1
102
RTVSPost2010Prop45
280
     0
102
RTVSPost2010PropOp45
 70
     1
102
RTVSPost2010Prop46
 90
       50
102
RTVSPost2010PropOp46
 70
     1
102
RTVSPost2010Prop47
 90
       50
102
RTVSPost2010PropOp47
 70
     1
102
RTVSPost2010Prop48
 90
       50
102
RTVSPost2010PropOp48
 70
     1
102
RTVSPost2010Prop49
280
     0
102
RTVSPost2010PropOp49
 70
     1
102
RTVSPost2010Prop50
 90
       50
102
RTVSPost2010PropOp50
 70
     1
102
RTVSPost2010Prop51ColorIndex
 90
      256
102
RTVSPost2010Prop51ColorRGB
 90
-16777216
102
RTVSPost2010PropOp51
 70
     0
102
RTVSPost2010Prop52
140
1.0
102
RTVSPost2010PropOp52
 70
     0
102
RTVSPost2010Prop53
 90
        2
102
RTVSPost2010PropOp53
 70
     1
102
RTVSPost2010Prop54
  1
strokes_ogs.tif
102
RTVSPost2010PropOp54
 70
     1
102
RTVSPost2010Prop55
280
     0
102
RTVSPost2010PropOp55
 70
     1
102
RTVSPost2010Prop56
140
1.0
102
RTVSPost2010PropOp56
 70
     1
102
RTVSPost2010Prop57
140
1.0
102
RTVSPost2010PropOp57
 70
     1
  0
XRECORD
  5
23CA
102
{ACAD_REACTORS
330
23C9
102
}
330
23C9
100
AcDbXrecord
280
     1
102
RTVSPost2010Prop28
280
     0
102
RTVSPost2010PropOp28
 70
     1
102
RTVSPost2010Prop29
280
     1
102
RTVSPost2010PropOp29
 70
     1
102
RTVSPost2010Prop30
280
     1
102
RTVSPost2010PropOp30
 70
     1
102
RTVSPost2010Prop31
280
     0
102
RTVSPost2010PropOp31
 70
     1
102
RTVSPost2010Prop32
280
     0
102
RTVSPost2010PropOp32
 70
     1
102
RTVSPost2010Prop33
280
     0
102
RTVSPost2010PropOp33
 70
     1
102
RTVSPost2010Prop34
280
     0
102
RTVSPost2010PropOp34
 70
     1
102
RTVSPost2010Prop35
280
     0
102
RTVSPost2010PropOp35
 70
     1
102
RTVSPost2010Prop36
280
     0
102
RTVSPost2010PropOp36
 70
     1
102
RTVSPost2010Prop37
 90
       50
102
RTVSPost2010PropOp37
 70
     1
102
RTVSPost2010Prop38
140
0.0
102
RTVSPost2010PropOp38
 70
     1
102
RTVSPost2010Prop39
140
1.0
102
RTVSPost2010PropOp39
 70
     1
102
RTVSPost2010Prop40
 90
        0
102
RTVSPost2010PropOp40
 70
     1
102
RTVSPost2010Prop41ColorIndex
 90
       18
102
RTVSPost2010Prop41ColorRGB
 90
        0
102
RTVSPost2010PropOp41
 70
     1
102
RTVSPost2010Prop42
 90
       50
102
RTVSPost2010PropOp42
 70
     1
102
RTVSPost2010Prop43
 90
        3
102
RTVSPost2010PropOp43
 70
     1
102
RTVSPost2010Prop44ColorIndex
 90
        5
102
RTVSPost2010Prop44ColorRGB
 90
      255
102
RTVSPost2010PropOp44
 70
     1
102
RTVSPost2010Prop45
280
     0
102
RTVSPost2010PropOp45
 70
     1
102
RTVSPost2010Prop46
 90
       50
102
RTVSPost2010PropOp46
 70
     1
102
RTVSPost2010Prop47
 90
       50
102
RTVSPost2010PropOp47
 70
     1
102
RTVSPost2010Prop48
 90
       50
102
RTVSPost2010PropOp48
 70
     1
102
RTVSPost2010Prop49
280
     0
102
RTVSPost2010PropOp49
 70
     1
102
RTVSPost2010Prop50
 90
       50
102
RTVSPost2010PropOp50
 70
     1
102
RTVSPost2010Prop51ColorIndex
 90
      256
102
RTVSPost2010Prop51ColorRGB
 90
-16777216
102
RTVSPost2010PropOp51
 70
     0
102
RTVSPost2010Prop52
140
1.0
102
RTVSPost2010PropOp52
 70
     0
102
RTVSPost2010Prop53
 90
        2
102
RTVSPost2010PropOp53
 70
     1
102
RTVSPost2010Prop54
  1
strokes_ogs.tif
102
RTVSPost2010PropOp54
 70
     1
102
RTVSPost2010Prop55
280
     0
102
RTVSPost2010PropOp55
 70
     1
102
RTVSPost2010Prop56
140
1.0
102
RTVSPost2010PropOp56
 70
     1
102
RTVSPost2010Prop57
140
1.0
102
RTVSPost2010PropOp57
 70
     1
  0
XRECORD
  5
23CE
102
{ACAD_REACTORS
330
23CD
102
}
330
23CD
100
AcDbXrecord
280
     1
102
RTVSPost2010Prop28
280
     0
102
RTVSPost2010PropOp28
 70
     1
102
RTVSPost2010Prop29
280
     1
102
RTVSPost2010PropOp29
 70
     1
102
RTVSPost2010Prop30
280
     1
102
RTVSPost2010PropOp30
 70
     1
102
RTVSPost2010Prop31
280
     0
102
RTVSPost2010PropOp31
 70
     1
102
RTVSPost2010Prop32
280
     0
102
RTVSPost2010PropOp32
 70
     1
102
RTVSPost2010Prop33
280
     0
102
RTVSPost2010PropOp33
 70
     1
102
RTVSPost2010Prop34
280
     0
102
RTVSPost2010PropOp34
 70
     1
102
RTVSPost2010Prop35
280
     0
102
RTVSPost2010PropOp35
 70
     1
102
RTVSPost2010Prop36
280
     0
102
RTVSPost2010PropOp36
 70
     1
102
RTVSPost2010Prop37
 90
       50
102
RTVSPost2010PropOp37
 70
     1
102
RTVSPost2010Prop38
140
0.0
102
RTVSPost2010PropOp38
 70
     1
102
RTVSPost2010Prop39
140
1.0
102
RTVSPost2010PropOp39
 70
     1
102
RTVSPost2010Prop40
 90
        0
102
RTVSPost2010PropOp40
 70
     1
102
RTVSPost2010Prop41ColorIndex
 90
       18
102
RTVSPost2010Prop41ColorRGB
 90
        0
102
RTVSPost2010PropOp41
 70
     1
102
RTVSPost2010Prop42
 90
       50
102
RTVSPost2010PropOp42
 70
     1
102
RTVSPost2010Prop43
 90
        3
102
RTVSPost2010PropOp43
 70
     1
102
RTVSPost2010Prop44ColorIndex
 90
        5
102
RTVSPost2010Prop44ColorRGB
 90
      255
102
RTVSPost2010PropOp44
 70
     1
102
RTVSPost2010Prop45
280
     0
102
RTVSPost2010PropOp45
 70
     1
102
RTVSPost2010Prop46
 90
       50
102
RTVSPost2010PropOp46
 70
     1
102
RTVSPost2010Prop47
 90
       50
102
RTVSPost2010PropOp47
 70
     1
102
RTVSPost2010Prop48
 90
       50
102
RTVSPost2010PropOp48
 70
     1
102
RTVSPost2010Prop49
280
     0
102
RTVSPost2010PropOp49
 70
     1
102
RTVSPost2010Prop50
 90
       50
102
RTVSPost2010PropOp50
 70
     1
102
RTVSPost2010Prop51ColorIndex
 90
      256
102
RTVSPost2010Prop51ColorRGB
 90
-16777216
102
RTVSPost2010PropOp51
 70
     0
102
RTVSPost2010Prop52
140
1.0
102
RTVSPost2010PropOp52
 70
     0
102
RTVSPost2010Prop53
 90
        2
102
RTVSPost2010PropOp53
 70
     1
102
RTVSPost2010Prop54
  1
strokes_ogs.tif
102
RTVSPost2010PropOp54
 70
     1
102
RTVSPost2010Prop55
280
     0
102
RTVSPost2010PropOp55
 70
     1
102
RTVSPost2010Prop56
140
1.0
102
RTVSPost2010PropOp56
 70
     1
102
RTVSPost2010Prop57
140
1.0
102
RTVSPost2010PropOp57
 70
     1
  0
XRECORD
  5
23E8
102
{ACAD_REACTORS
330
23E7
102
}
330
23E7
100
AcDbXrecord
280
     1
102
RTVSPost2010Prop28
280
     0
102
RTVSPost2010PropOp28
 70
     1
102
RTVSPost2010Prop29
280
     1
102
RTVSPost2010PropOp29
 70
     1
102
RTVSPost2010Prop30
280
     1
102
RTVSPost2010PropOp30
 70
     1
102
RTVSPost2010Prop31
280
     0
102
RTVSPost2010PropOp31
 70
     1
102
RTVSPost2010Prop32
280
     0
102
RTVSPost2010PropOp32
 70
     1
102
RTVSPost2010Prop33
280
     0
102
RTVSPost2010PropOp33
 70
     1
102
RTVSPost2010Prop34
280
     0
102
RTVSPost2010PropOp34
 70
     1
102
RTVSPost2010Prop35
280
     0
102
RTVSPost2010PropOp35
 70
     1
102
RTVSPost2010Prop36
280
     0
102
RTVSPost2010PropOp36
 70
     1
102
RTVSPost2010Prop37
 90
       50
102
RTVSPost2010PropOp37
 70
     1
102
RTVSPost2010Prop38
140
0.0
102
RTVSPost2010PropOp38
 70
     1
102
RTVSPost2010Prop39
140
1.0
102
RTVSPost2010PropOp39
 70
     1
102
RTVSPost2010Prop40
 90
        0
102
RTVSPost2010PropOp40
 70
     1
102
RTVSPost2010Prop41ColorIndex
 90
       18
102
RTVSPost2010Prop41ColorRGB
 90
        0
102
RTVSPost2010PropOp41
 70
     1
102
RTVSPost2010Prop42
 90
       50
102
RTVSPost2010PropOp42
 70
     1
102
RTVSPost2010Prop43
 90
        3
102
RTVSPost2010PropOp43
 70
     1
102
RTVSPost2010Prop44ColorIndex
 90
        5
102
RTVSPost2010Prop44ColorRGB
 90
      255
102
RTVSPost2010PropOp44
 70
     1
102
RTVSPost2010Prop45
280
     0
102
RTVSPost2010PropOp45
 70
     1
102
RTVSPost2010Prop46
 90
       50
102
RTVSPost2010PropOp46
 70
     1
102
RTVSPost2010Prop47
 90
       50
102
RTVSPost2010PropOp47
 70
     1
102
RTVSPost2010Prop48
 90
       50
102
RTVSPost2010PropOp48
 70
     1
102
RTVSPost2010Prop49
280
     0
102
RTVSPost2010PropOp49
 70
     1
102
RTVSPost2010Prop50
 90
       50
102
RTVSPost2010PropOp50
 70
     1
102
RTVSPost2010Prop51ColorIndex
 90
      256
102
RTVSPost2010Prop51ColorRGB
 90
-16777216
102
RTVSPost2010PropOp51
 70
     0
102
RTVSPost2010Prop52
140
1.0
102
RTVSPost2010PropOp52
 70
     0
102
RTVSPost2010Prop53
 90
        2
102
RTVSPost2010PropOp53
 70
     1
102
RTVSPost2010Prop54
  1
strokes_ogs.tif
102
RTVSPost2010PropOp54
 70
     1
102
RTVSPost2010Prop55
280
     0
102
RTVSPost2010PropOp55
 70
     1
102
RTVSPost2010Prop56
140
1.0
102
RTVSPost2010PropOp56
 70
     1
102
RTVSPost2010Prop57
140
1.0
102
RTVSPost2010PropOp57
 70
     1
  0
XRECORD
  5
23D6
102
{ACAD_REACTORS
330
23D5
102
}
330
23D5
100
AcDbXrecord
280
     1
102
RTVSPost2010Prop28
280
     0
102
RTVSPost2010PropOp28
 70
     1
102
RTVSPost2010Prop29
280
     1
102
RTVSPost2010PropOp29
 70
     1
102
RTVSPost2010Prop30
280
     1
102
RTVSPost2010PropOp30
 70
     1
102
RTVSPost2010Prop31
280
     0
102
RTVSPost2010PropOp31
 70
     1
102
RTVSPost2010Prop32
280
     0
102
RTVSPost2010PropOp32
 70
     1
102
RTVSPost2010Prop33
280
     0
102
RTVSPost2010PropOp33
 70
     1
102
RTVSPost2010Prop34
280
     0
102
RTVSPost2010PropOp34
 70
     1
102
RTVSPost2010Prop35
280
     0
102
RTVSPost2010PropOp35
 70
     1
102
RTVSPost2010Prop36
280
     0
102
RTVSPost2010PropOp36
 70
     1
102
RTVSPost2010Prop37
 90
       50
102
RTVSPost2010PropOp37
 70
     1
102
RTVSPost2010Prop38
140
0.0
102
RTVSPost2010PropOp38
 70
     1
102
RTVSPost2010Prop39
140
1.0
102
RTVSPost2010PropOp39
 70
     1
102
RTVSPost2010Prop40
 90
        0
102
RTVSPost2010PropOp40
 70
     1
102
RTVSPost2010Prop41ColorIndex
 90
       18
102
RTVSPost2010Prop41ColorRGB
 90
        0
102
RTVSPost2010PropOp41
 70
     1
102
RTVSPost2010Prop42
 90
       50
102
RTVSPost2010PropOp42
 70
     1
102
RTVSPost2010Prop43
 90
        3
102
RTVSPost2010PropOp43
 70
     1
102
RTVSPost2010Prop44ColorIndex
 90
        5
102
RTVSPost2010Prop44ColorRGB
 90
      255
102
RTVSPost2010PropOp44
 70
     1
102
RTVSPost2010Prop45
280
     0
102
RTVSPost2010PropOp45
 70
     1
102
RTVSPost2010Prop46
 90
       50
102
RTVSPost2010PropOp46
 70
     1
102
RTVSPost2010Prop47
 90
       50
102
RTVSPost2010PropOp47
 70
     1
102
RTVSPost2010Prop48
 90
       50
102
RTVSPost2010PropOp48
 70
     1
102
RTVSPost2010Prop49
280
     0
102
RTVSPost2010PropOp49
 70
     1
102
RTVSPost2010Prop50
 90
       50
102
RTVSPost2010PropOp50
 70
     1
102
RTVSPost2010Prop51ColorIndex
 90
      256
102
RTVSPost2010Prop51ColorRGB
 90
-16777216
102
RTVSPost2010PropOp51
 70
     0
102
RTVSPost2010Prop52
140
1.0
102
RTVSPost2010PropOp52
 70
     0
102
RTVSPost2010Prop53
 90
        2
102
RTVSPost2010PropOp53
 70
     1
102
RTVSPost2010Prop54
  1
strokes_ogs.tif
102
RTVSPost2010PropOp54
 70
     1
102
RTVSPost2010Prop55
280
     0
102
RTVSPost2010PropOp55
 70
     1
102
RTVSPost2010Prop56
140
1.0
102
RTVSPost2010PropOp56
 70
     1
102
RTVSPost2010Prop57
140
1.0
102
RTVSPost2010PropOp57
 70
     1
  0
XRECORD
  5
23BA
102
{ACAD_REACTORS
330
23B9
102
}
330
23B9
100
AcDbXrecord
280
     1
102
RTVSPost2010Prop28
280
     0
102
RTVSPost2010PropOp28
 70
     1
102
RTVSPost2010Prop29
280
     1
102
RTVSPost2010PropOp29
 70
     1
102
RTVSPost2010Prop30
280
     1
102
RTVSPost2010PropOp30
 70
     1
102
RTVSPost2010Prop31
280
     0
102
RTVSPost2010PropOp31
 70
     1
102
RTVSPost2010Prop32
280
     0
102
RTVSPost2010PropOp32
 70
     1
102
RTVSPost2010Prop33
280
     0
102
RTVSPost2010PropOp33
 70
     1
102
RTVSPost2010Prop34
280
     0
102
RTVSPost2010PropOp34
 70
     1
102
RTVSPost2010Prop35
280
     0
102
RTVSPost2010PropOp35
 70
     1
102
RTVSPost2010Prop36
280
     0
102
RTVSPost2010PropOp36
 70
     1
102
RTVSPost2010Prop37
 90
       50
102
RTVSPost2010PropOp37
 70
     1
102
RTVSPost2010Prop38
140
0.0
102
RTVSPost2010PropOp38
 70
     1
102
RTVSPost2010Prop39
140
1.0
102
RTVSPost2010PropOp39
 70
     1
102
RTVSPost2010Prop40
 90
        0
102
RTVSPost2010PropOp40
 70
     1
102
RTVSPost2010Prop41ColorIndex
 90
       18
102
RTVSPost2010Prop41ColorRGB
 90
        0
102
RTVSPost2010PropOp41
 70
     1
102
RTVSPost2010Prop42
 90
       50
102
RTVSPost2010PropOp42
 70
     1
102
RTVSPost2010Prop43
 90
        3
102
RTVSPost2010PropOp43
 70
     1
102
RTVSPost2010Prop44ColorIndex
 90
        5
102
RTVSPost2010Prop44ColorRGB
 90
      255
102
RTVSPost2010PropOp44
 70
     1
102
RTVSPost2010Prop45
280
     0
102
RTVSPost2010PropOp45
 70
     1
102
RTVSPost2010Prop46
 90
       50
102
RTVSPost2010PropOp46
 70
     1
102
RTVSPost2010Prop47
 90
       50
102
RTVSPost2010PropOp47
 70
     1
102
RTVSPost2010Prop48
 90
       50
102
RTVSPost2010PropOp48
 70
     1
102
RTVSPost2010Prop49
280
     0
102
RTVSPost2010PropOp49
 70
     1
102
RTVSPost2010Prop50
 90
       50
102
RTVSPost2010PropOp50
 70
     1
102
RTVSPost2010Prop51ColorIndex
 90
      256
102
RTVSPost2010Prop51ColorRGB
 90
-16777216
102
RTVSPost2010PropOp51
 70
     0
102
RTVSPost2010Prop52
140
1.0
102
RTVSPost2010PropOp52
 70
     0
102
RTVSPost2010Prop53
 90
        2
102
RTVSPost2010PropOp53
 70
     1
102
RTVSPost2010Prop54
  1
strokes_ogs.tif
102
RTVSPost2010PropOp54
 70
     1
102
RTVSPost2010Prop55
280
     0
102
RTVSPost2010PropOp55
 70
     1
102
RTVSPost2010Prop56
140
1.0
102
RTVSPost2010PropOp56
 70
     1
102
RTVSPost2010Prop57
140
1.0
102
RTVSPost2010PropOp57
 70
     1
  0
XRECORD
  5
23BC
102
{ACAD_REACTORS
330
23BB
102
}
330
23BB
100
AcDbXrecord
280
     1
102
RTVSPost2010Prop28
280
     0
102
RTVSPost2010PropOp28
 70
     1
102
RTVSPost2010Prop29
280
     1
102
RTVSPost2010PropOp29
 70
     1
102
RTVSPost2010Prop30
280
     1
102
RTVSPost2010PropOp30
 70
     1
102
RTVSPost2010Prop31
280
     0
102
RTVSPost2010PropOp31
 70
     1
102
RTVSPost2010Prop32
280
     0
102
RTVSPost2010PropOp32
 70
     1
102
RTVSPost2010Prop33
280
     0
102
RTVSPost2010PropOp33
 70
     1
102
RTVSPost2010Prop34
280
     0
102
RTVSPost2010PropOp34
 70
     1
102
RTVSPost2010Prop35
280
     0
102
RTVSPost2010PropOp35
 70
     1
102
RTVSPost2010Prop36
280
     0
102
RTVSPost2010PropOp36
 70
     1
102
RTVSPost2010Prop37
 90
       50
102
RTVSPost2010PropOp37
 70
     1
102
RTVSPost2010Prop38
140
0.0
102
RTVSPost2010PropOp38
 70
     1
102
RTVSPost2010Prop39
140
1.0
102
RTVSPost2010PropOp39
 70
     1
102
RTVSPost2010Prop40
 90
        0
102
RTVSPost2010PropOp40
 70
     1
102
RTVSPost2010Prop41ColorIndex
 90
       18
102
RTVSPost2010Prop41ColorRGB
 90
        0
102
RTVSPost2010PropOp41
 70
     1
102
RTVSPost2010Prop42
 90
       50
102
RTVSPost2010PropOp42
 70
     1
102
RTVSPost2010Prop43
 90
        3
102
RTVSPost2010PropOp43
 70
     1
102
RTVSPost2010Prop44ColorIndex
 90
        5
102
RTVSPost2010Prop44ColorRGB
 90
      255
102
RTVSPost2010PropOp44
 70
     1
102
RTVSPost2010Prop45
280
     0
102
RTVSPost2010PropOp45
 70
     1
102
RTVSPost2010Prop46
 90
       50
102
RTVSPost2010PropOp46
 70
     1
102
RTVSPost2010Prop47
 90
       50
102
RTVSPost2010PropOp47
 70
     1
102
RTVSPost2010Prop48
 90
       50
102
RTVSPost2010PropOp48
 70
     1
102
RTVSPost2010Prop49
280
     0
102
RTVSPost2010PropOp49
 70
     1
102
RTVSPost2010Prop50
 90
       50
102
RTVSPost2010PropOp50
 70
     1
102
RTVSPost2010Prop51ColorIndex
 90
      256
102
RTVSPost2010Prop51ColorRGB
 90
-16777216
102
RTVSPost2010PropOp51
 70
     0
102
RTVSPost2010Prop52
140
1.0
102
RTVSPost2010PropOp52
 70
     0
102
RTVSPost2010Prop53
 90
        2
102
RTVSPost2010PropOp53
 70
     1
102
RTVSPost2010Prop54
  1
strokes_ogs.tif
102
RTVSPost2010PropOp54
 70
     1
102
RTVSPost2010Prop55
280
     0
102
RTVSPost2010PropOp55
 70
     1
102
RTVSPost2010Prop56
140
1.0
102
RTVSPost2010PropOp56
 70
     1
102
RTVSPost2010Prop57
140
1.0
102
RTVSPost2010PropOp57
 70
     1
  0
XRECORD
  5
23BE
102
{ACAD_REACTORS
330
23BD
102
}
330
23BD
100
AcDbXrecord
280
     1
102
RTVSPost2010Prop28
280
     0
102
RTVSPost2010PropOp28
 70
     1
102
RTVSPost2010Prop29
280
     1
102
RTVSPost2010PropOp29
 70
     1
102
RTVSPost2010Prop30
280
     1
102
RTVSPost2010PropOp30
 70
     1
102
RTVSPost2010Prop31
280
     0
102
RTVSPost2010PropOp31
 70
     1
102
RTVSPost2010Prop32
280
     0
102
RTVSPost2010PropOp32
 70
     1
102
RTVSPost2010Prop33
280
     0
102
RTVSPost2010PropOp33
 70
     1
102
RTVSPost2010Prop34
280
     0
102
RTVSPost2010PropOp34
 70
     1
102
RTVSPost2010Prop35
280
     0
102
RTVSPost2010PropOp35
 70
     1
102
RTVSPost2010Prop36
280
     0
102
RTVSPost2010PropOp36
 70
     1
102
RTVSPost2010Prop37
 90
       50
102
RTVSPost2010PropOp37
 70
     1
102
RTVSPost2010Prop38
140
0.0
102
RTVSPost2010PropOp38
 70
     1
102
RTVSPost2010Prop39
140
1.0
102
RTVSPost2010PropOp39
 70
     1
102
RTVSPost2010Prop40
 90
        0
102
RTVSPost2010PropOp40
 70
     1
102
RTVSPost2010Prop41ColorIndex
 90
       18
102
RTVSPost2010Prop41ColorRGB
 90
        0
102
RTVSPost2010PropOp41
 70
     1
102
RTVSPost2010Prop42
 90
       50
102
RTVSPost2010PropOp42
 70
     1
102
RTVSPost2010Prop43
 90
        3
102
RTVSPost2010PropOp43
 70
     1
102
RTVSPost2010Prop44ColorIndex
 90
        5
102
RTVSPost2010Prop44ColorRGB
 90
      255
102
RTVSPost2010PropOp44
 70
     1
102
RTVSPost2010Prop45
280
     0
102
RTVSPost2010PropOp45
 70
     1
102
RTVSPost2010Prop46
 90
       50
102
RTVSPost2010PropOp46
 70
     1
102
RTVSPost2010Prop47
 90
       50
102
RTVSPost2010PropOp47
 70
     1
102
RTVSPost2010Prop48
 90
       50
102
RTVSPost2010PropOp48
 70
     1
102
RTVSPost2010Prop49
280
     0
102
RTVSPost2010PropOp49
 70
     1
102
RTVSPost2010Prop50
 90
       50
102
RTVSPost2010PropOp50
 70
     1
102
RTVSPost2010Prop51ColorIndex
 90
      256
102
RTVSPost2010Prop51ColorRGB
 90
-16777216
102
RTVSPost2010PropOp51
 70
     0
102
RTVSPost2010Prop52
140
1.0
102
RTVSPost2010PropOp52
 70
     0
102
RTVSPost2010Prop53
 90
        2
102
RTVSPost2010PropOp53
 70
     1
102
RTVSPost2010Prop54
  1
strokes_ogs.tif
102
RTVSPost2010PropOp54
 70
     1
102
RTVSPost2010Prop55
280
     0
102
RTVSPost2010PropOp55
 70
     1
102
RTVSPost2010Prop56
140
1.0
102
RTVSPost2010PropOp56
 70
     1
102
RTVSPost2010Prop57
140
1.0
102
RTVSPost2010PropOp57
 70
     1
  0
XRECORD
  5
23C0
102
{ACAD_REACTORS
330
23BF
102
}
330
23BF
100
AcDbXrecord
280
     1
102
RTVSPost2010Prop28
280
     0
102
RTVSPost2010PropOp28
 70
     1
102
RTVSPost2010Prop29
280
     1
102
RTVSPost2010PropOp29
 70
     1
102
RTVSPost2010Prop30
280
     1
102
RTVSPost2010PropOp30
 70
     1
102
RTVSPost2010Prop31
280
     0
102
RTVSPost2010PropOp31
 70
     1
102
RTVSPost2010Prop32
280
     0
102
RTVSPost2010PropOp32
 70
     1
102
RTVSPost2010Prop33
280
     0
102
RTVSPost2010PropOp33
 70
     1
102
RTVSPost2010Prop34
280
     0
102
RTVSPost2010PropOp34
 70
     1
102
RTVSPost2010Prop35
280
     0
102
RTVSPost2010PropOp35
 70
     1
102
RTVSPost2010Prop36
280
     0
102
RTVSPost2010PropOp36
 70
     1
102
RTVSPost2010Prop37
 90
       50
102
RTVSPost2010PropOp37
 70
     1
102
RTVSPost2010Prop38
140
0.0
102
RTVSPost2010PropOp38
 70
     1
102
RTVSPost2010Prop39
140
1.0
102
RTVSPost2010PropOp39
 70
     1
102
RTVSPost2010Prop40
 90
        0
102
RTVSPost2010PropOp40
 70
     1
102
RTVSPost2010Prop41ColorIndex
 90
       18
102
RTVSPost2010Prop41ColorRGB
 90
        0
102
RTVSPost2010PropOp41
 70
     1
102
RTVSPost2010Prop42
 90
       50
102
RTVSPost2010PropOp42
 70
     1
102
RTVSPost2010Prop43
 90
        3
102
RTVSPost2010PropOp43
 70
     1
102
RTVSPost2010Prop44ColorIndex
 90
        5
102
RTVSPost2010Prop44ColorRGB
 90
      255
102
RTVSPost2010PropOp44
 70
     1
102
RTVSPost2010Prop45
280
     0
102
RTVSPost2010PropOp45
 70
     1
102
RTVSPost2010Prop46
 90
       50
102
RTVSPost2010PropOp46
 70
     1
102
RTVSPost2010Prop47
 90
       50
102
RTVSPost2010PropOp47
 70
     1
102
RTVSPost2010Prop48
 90
       50
102
RTVSPost2010PropOp48
 70
     1
102
RTVSPost2010Prop49
280
     0
102
RTVSPost2010PropOp49
 70
     1
102
RTVSPost2010Prop50
 90
       50
102
RTVSPost2010PropOp50
 70
     1
102
RTVSPost2010Prop51ColorIndex
 90
      256
102
RTVSPost2010Prop51ColorRGB
 90
-16777216
102
RTVSPost2010PropOp51
 70
     0
102
RTVSPost2010Prop52
140
1.0
102
RTVSPost2010PropOp52
 70
     0
102
RTVSPost2010Prop53
 90
        2
102
RTVSPost2010PropOp53
 70
     1
102
RTVSPost2010Prop54
  1
strokes_ogs.tif
102
RTVSPost2010PropOp54
 70
     1
102
RTVSPost2010Prop55
280
     0
102
RTVSPost2010PropOp55
 70
     1
102
RTVSPost2010Prop56
140
1.0
102
RTVSPost2010PropOp56
 70
     1
102
RTVSPost2010Prop57
140
1.0
102
RTVSPost2010PropOp57
 70
     1
  0
XRECORD
  5
23C8
102
{ACAD_REACTORS
330
23C7
102
}
330
23C7
100
AcDbXrecord
280
     1
102
RTVSPost2010Prop28
280
     0
102
RTVSPost2010PropOp28
 70
     1
102
RTVSPost2010Prop29
280
     1
102
RTVSPost2010PropOp29
 70
     1
102
RTVSPost2010Prop30
280
     1
102
RTVSPost2010PropOp30
 70
     1
102
RTVSPost2010Prop31
280
     0
102
RTVSPost2010PropOp31
 70
     1
102
RTVSPost2010Prop32
280
     0
102
RTVSPost2010PropOp32
 70
     1
102
RTVSPost2010Prop33
280
     0
102
RTVSPost2010PropOp33
 70
     1
102
RTVSPost2010Prop34
280
     0
102
RTVSPost2010PropOp34
 70
     1
102
RTVSPost2010Prop35
280
     0
102
RTVSPost2010PropOp35
 70
     1
102
RTVSPost2010Prop36
280
     0
102
RTVSPost2010PropOp36
 70
     1
102
RTVSPost2010Prop37
 90
       50
102
RTVSPost2010PropOp37
 70
     1
102
RTVSPost2010Prop38
140
0.0
102
RTVSPost2010PropOp38
 70
     1
102
RTVSPost2010Prop39
140
1.0
102
RTVSPost2010PropOp39
 70
     1
102
RTVSPost2010Prop40
 90
        0
102
RTVSPost2010PropOp40
 70
     1
102
RTVSPost2010Prop41ColorIndex
 90
       18
102
RTVSPost2010Prop41ColorRGB
 90
        0
102
RTVSPost2010PropOp41
 70
     1
102
RTVSPost2010Prop42
 90
       50
102
RTVSPost2010PropOp42
 70
     1
102
RTVSPost2010Prop43
 90
        3
102
RTVSPost2010PropOp43
 70
     1
102
RTVSPost2010Prop44ColorIndex
 90
        5
102
RTVSPost2010Prop44ColorRGB
 90
      255
102
RTVSPost2010PropOp44
 70
     1
102
RTVSPost2010Prop45
280
     0
102
RTVSPost2010PropOp45
 70
     1
102
RTVSPost2010Prop46
 90
       50
102
RTVSPost2010PropOp46
 70
     1
102
RTVSPost2010Prop47
 90
       50
102
RTVSPost2010PropOp47
 70
     1
102
RTVSPost2010Prop48
 90
       50
102
RTVSPost2010PropOp48
 70
     1
102
RTVSPost2010Prop49
280
     0
102
RTVSPost2010PropOp49
 70
     1
102
RTVSPost2010Prop50
 90
       50
102
RTVSPost2010PropOp50
 70
     1
102
RTVSPost2010Prop51ColorIndex
 90
      256
102
RTVSPost2010Prop51ColorRGB
 90
-16777216
102
RTVSPost2010PropOp51
 70
     0
102
RTVSPost2010Prop52
140
1.0
102
RTVSPost2010PropOp52
 70
     0
102
RTVSPost2010Prop53
 90
        2
102
RTVSPost2010PropOp53
 70
     1
102
RTVSPost2010Prop54
  1
strokes_ogs.tif
102
RTVSPost2010PropOp54
 70
     1
102
RTVSPost2010Prop55
280
     0
102
RTVSPost2010PropOp55
 70
     1
102
RTVSPost2010Prop56
140
1.0
102
RTVSPost2010PropOp56
 70
     1
102
RTVSPost2010Prop57
140
1.0
102
RTVSPost2010PropOp57
 70
     1
  0
XRECORD
  5
23E4
102
{ACAD_REACTORS
330
23E3
102
}
330
23E3
100
AcDbXrecord
280
     1
102
RTVSPost2010Prop28
280
     0
102
RTVSPost2010PropOp28
 70
     1
102
RTVSPost2010Prop29
280
     1
102
RTVSPost2010PropOp29
 70
     1
102
RTVSPost2010Prop30
280
     1
102
RTVSPost2010PropOp30
 70
     1
102
RTVSPost2010Prop31
280
     0
102
RTVSPost2010PropOp31
 70
     1
102
RTVSPost2010Prop32
280
     0
102
RTVSPost2010PropOp32
 70
     1
102
RTVSPost2010Prop33
280
     0
102
RTVSPost2010PropOp33
 70
     1
102
RTVSPost2010Prop34
280
     0
102
RTVSPost2010PropOp34
 70
     1
102
RTVSPost2010Prop35
280
     0
102
RTVSPost2010PropOp35
 70
     1
102
RTVSPost2010Prop36
280
     0
102
RTVSPost2010PropOp36
 70
     1
102
RTVSPost2010Prop37
 90
       50
102
RTVSPost2010PropOp37
 70
     1
102
RTVSPost2010Prop38
140
0.0
102
RTVSPost2010PropOp38
 70
     1
102
RTVSPost2010Prop39
140
1.0
102
RTVSPost2010PropOp39
 70
     1
102
RTVSPost2010Prop40
 90
        0
102
RTVSPost2010PropOp40
 70
     1
102
RTVSPost2010Prop41ColorIndex
 90
       18
102
RTVSPost2010Prop41ColorRGB
 90
        0
102
RTVSPost2010PropOp41
 70
     1
102
RTVSPost2010Prop42
 90
       50
102
RTVSPost2010PropOp42
 70
     1
102
RTVSPost2010Prop43
 90
        3
102
RTVSPost2010PropOp43
 70
     1
102
RTVSPost2010Prop44ColorIndex
 90
        5
102
RTVSPost2010Prop44ColorRGB
 90
      255
102
RTVSPost2010PropOp44
 70
     1
102
RTVSPost2010Prop45
280
     0
102
RTVSPost2010PropOp45
 70
     1
102
RTVSPost2010Prop46
 90
       50
102
RTVSPost2010PropOp46
 70
     1
102
RTVSPost2010Prop47
 90
       50
102
RTVSPost2010PropOp47
 70
     1
102
RTVSPost2010Prop48
 90
       50
102
RTVSPost2010PropOp48
 70
     1
102
RTVSPost2010Prop49
280
     0
102
RTVSPost2010PropOp49
 70
     1
102
RTVSPost2010Prop50
 90
       50
102
RTVSPost2010PropOp50
 70
     1
102
RTVSPost2010Prop51ColorIndex
 90
      256
102
RTVSPost2010Prop51ColorRGB
 90
-16777216
102
RTVSPost2010PropOp51
 70
     0
102
RTVSPost2010Prop52
140
1.0
102
RTVSPost2010PropOp52
 70
     0
102
RTVSPost2010Prop53
 90
        2
102
RTVSPost2010PropOp53
 70
     1
102
RTVSPost2010Prop54
  1
strokes_ogs.tif
102
RTVSPost2010PropOp54
 70
     1
102
RTVSPost2010Prop55
280
     0
102
RTVSPost2010PropOp55
 70
     1
102
RTVSPost2010Prop56
140
1.0
102
RTVSPost2010PropOp56
 70
     1
102
RTVSPost2010Prop57
140
1.0
102
RTVSPost2010PropOp57
 70
     1
  0
XRECORD
  5
23D4
102
{ACAD_REACTORS
330
23D3
102
}
330
23D3
100
AcDbXrecord
280
     1
102
RTVSPost2010Prop28
280
     0
102
RTVSPost2010PropOp28
 70
     1
102
RTVSPost2010Prop29
280
     1
102
RTVSPost2010PropOp29
 70
     1
102
RTVSPost2010Prop30
280
     1
102
RTVSPost2010PropOp30
 70
     1
102
RTVSPost2010Prop31
280
     0
102
RTVSPost2010PropOp31
 70
     1
102
RTVSPost2010Prop32
280
     0
102
RTVSPost2010PropOp32
 70
     1
102
RTVSPost2010Prop33
280
     0
102
RTVSPost2010PropOp33
 70
     1
102
RTVSPost2010Prop34
280
     0
102
RTVSPost2010PropOp34
 70
     1
102
RTVSPost2010Prop35
280
     0
102
RTVSPost2010PropOp35
 70
     1
102
RTVSPost2010Prop36
280
     0
102
RTVSPost2010PropOp36
 70
     1
102
RTVSPost2010Prop37
 90
       50
102
RTVSPost2010PropOp37
 70
     1
102
RTVSPost2010Prop38
140
0.0
102
RTVSPost2010PropOp38
 70
     1
102
RTVSPost2010Prop39
140
1.0
102
RTVSPost2010PropOp39
 70
     1
102
RTVSPost2010Prop40
 90
        0
102
RTVSPost2010PropOp40
 70
     1
102
RTVSPost2010Prop41ColorIndex
 90
       18
102
RTVSPost2010Prop41ColorRGB
 90
        0
102
RTVSPost2010PropOp41
 70
     1
102
RTVSPost2010Prop42
 90
       50
102
RTVSPost2010PropOp42
 70
     1
102
RTVSPost2010Prop43
 90
        3
102
RTVSPost2010PropOp43
 70
     1
102
RTVSPost2010Prop44ColorIndex
 90
        5
102
RTVSPost2010Prop44ColorRGB
 90
      255
102
RTVSPost2010PropOp44
 70
     1
102
RTVSPost2010Prop45
280
     0
102
RTVSPost2010PropOp45
 70
     1
102
RTVSPost2010Prop46
 90
       50
102
RTVSPost2010PropOp46
 70
     1
102
RTVSPost2010Prop47
 90
       50
102
RTVSPost2010PropOp47
 70
     1
102
RTVSPost2010Prop48
 90
       50
102
RTVSPost2010PropOp48
 70
     1
102
RTVSPost2010Prop49
280
     0
102
RTVSPost2010PropOp49
 70
     1
102
RTVSPost2010Prop50
 90
       50
102
RTVSPost2010PropOp50
 70
     1
102
RTVSPost2010Prop51ColorIndex
 90
      256
102
RTVSPost2010Prop51ColorRGB
 90
-16777216
102
RTVSPost2010PropOp51
 70
     0
102
RTVSPost2010Prop52
140
1.0
102
RTVSPost2010PropOp52
 70
     0
102
RTVSPost2010Prop53
 90
        2
102
RTVSPost2010PropOp53
 70
     1
102
RTVSPost2010Prop54
  1
strokes_ogs.tif
102
RTVSPost2010PropOp54
 70
     1
102
RTVSPost2010Prop55
280
     0
102
RTVSPost2010PropOp55
 70
     1
102
RTVSPost2010Prop56
140
1.0
102
RTVSPost2010PropOp56
 70
     1
102
RTVSPost2010Prop57
140
1.0
102
RTVSPost2010PropOp57
 70
     1
  0
XRECORD
  5
23E6
102
{ACAD_REACTORS
330
23E5
102
}
330
23E5
100
AcDbXrecord
280
     1
102
RTVSPost2010Prop28
280
     0
102
RTVSPost2010PropOp28
 70
     1
102
RTVSPost2010Prop29
280
     1
102
RTVSPost2010PropOp29
 70
     1
102
RTVSPost2010Prop30
280
     1
102
RTVSPost2010PropOp30
 70
     1
102
RTVSPost2010Prop31
280
     0
102
RTVSPost2010PropOp31
 70
     1
102
RTVSPost2010Prop32
280
     0
102
RTVSPost2010PropOp32
 70
     1
102
RTVSPost2010Prop33
280
     0
102
RTVSPost2010PropOp33
 70
     1
102
RTVSPost2010Prop34
280
     0
102
RTVSPost2010PropOp34
 70
     1
102
RTVSPost2010Prop35
280
     0
102
RTVSPost2010PropOp35
 70
     1
102
RTVSPost2010Prop36
280
     0
102
RTVSPost2010PropOp36
 70
     1
102
RTVSPost2010Prop37
 90
       50
102
RTVSPost2010PropOp37
 70
     1
102
RTVSPost2010Prop38
140
0.0
102
RTVSPost2010PropOp38
 70
     1
102
RTVSPost2010Prop39
140
1.0
102
RTVSPost2010PropOp39
 70
     1
102
RTVSPost2010Prop40
 90
        0
102
RTVSPost2010PropOp40
 70
     1
102
RTVSPost2010Prop41ColorIndex
 90
       18
102
RTVSPost2010Prop41ColorRGB
 90
        0
102
RTVSPost2010PropOp41
 70
     1
102
RTVSPost2010Prop42
 90
       50
102
RTVSPost2010PropOp42
 70
     1
102
RTVSPost2010Prop43
 90
        3
102
RTVSPost2010PropOp43
 70
     1
102
RTVSPost2010Prop44ColorIndex
 90
        5
102
RTVSPost2010Prop44ColorRGB
 90
      255
102
RTVSPost2010PropOp44
 70
     1
102
RTVSPost2010Prop45
280
     0
102
RTVSPost2010PropOp45
 70
     1
102
RTVSPost2010Prop46
 90
       50
102
RTVSPost2010PropOp46
 70
     1
102
RTVSPost2010Prop47
 90
       50
102
RTVSPost2010PropOp47
 70
     1
102
RTVSPost2010Prop48
 90
       50
102
RTVSPost2010PropOp48
 70
     1
102
RTVSPost2010Prop49
280
     0
102
RTVSPost2010PropOp49
 70
     1
102
RTVSPost2010Prop50
 90
       50
102
RTVSPost2010PropOp50
 70
     1
102
RTVSPost2010Prop51ColorIndex
 90
      256
102
RTVSPost2010Prop51ColorRGB
 90
-16777216
102
RTVSPost2010PropOp51
 70
     0
102
RTVSPost2010Prop52
140
1.0
102
RTVSPost2010PropOp52
 70
     0
102
RTVSPost2010Prop53
 90
        2
102
RTVSPost2010PropOp53
 70
     1
102
RTVSPost2010Prop54
  1
strokes_ogs.tif
102
RTVSPost2010PropOp54
 70
     1
102
RTVSPost2010Prop55
280
     0
102
RTVSPost2010PropOp55
 70
     1
102
RTVSPost2010Prop56
140
1.0
102
RTVSPost2010PropOp56
 70
     1
102
RTVSPost2010Prop57
140
1.0
102
RTVSPost2010PropOp57
 70
     1
  0
XRECORD
  5
23CC
102
{ACAD_REACTORS
330
23CB
102
}
330
23CB
100
AcDbXrecord
280
     1
102
RTVSPost2010Prop28
280
     0
102
RTVSPost2010PropOp28
 70
     1
102
RTVSPost2010Prop29
280
     1
102
RTVSPost2010PropOp29
 70
     1
102
RTVSPost2010Prop30
280
     1
102
RTVSPost2010PropOp30
 70
     1
102
RTVSPost2010Prop31
280
     0
102
RTVSPost2010PropOp31
 70
     1
102
RTVSPost2010Prop32
280
     0
102
RTVSPost2010PropOp32
 70
     1
102
RTVSPost2010Prop33
280
     0
102
RTVSPost2010PropOp33
 70
     1
102
RTVSPost2010Prop34
280
     0
102
RTVSPost2010PropOp34
 70
     1
102
RTVSPost2010Prop35
280
     0
102
RTVSPost2010PropOp35
 70
     1
102
RTVSPost2010Prop36
280
     0
102
RTVSPost2010PropOp36
 70
     1
102
RTVSPost2010Prop37
 90
       50
102
RTVSPost2010PropOp37
 70
     1
102
RTVSPost2010Prop38
140
0.0
102
RTVSPost2010PropOp38
 70
     1
102
RTVSPost2010Prop39
140
1.0
102
RTVSPost2010PropOp39
 70
     1
102
RTVSPost2010Prop40
 90
        0
102
RTVSPost2010PropOp40
 70
     1
102
RTVSPost2010Prop41ColorIndex
 90
       18
102
RTVSPost2010Prop41ColorRGB
 90
        0
102
RTVSPost2010PropOp41
 70
     1
102
RTVSPost2010Prop42
 90
       50
102
RTVSPost2010PropOp42
 70
     1
102
RTVSPost2010Prop43
 90
        3
102
RTVSPost2010PropOp43
 70
     1
102
RTVSPost2010Prop44ColorIndex
 90
        5
102
RTVSPost2010Prop44ColorRGB
 90
      255
102
RTVSPost2010PropOp44
 70
     1
102
RTVSPost2010Prop45
280
     0
102
RTVSPost2010PropOp45
 70
     1
102
RTVSPost2010Prop46
 90
       50
102
RTVSPost2010PropOp46
 70
     1
102
RTVSPost2010Prop47
 90
       50
102
RTVSPost2010PropOp47
 70
     1
102
RTVSPost2010Prop48
 90
       50
102
RTVSPost2010PropOp48
 70
     1
102
RTVSPost2010Prop49
280
     0
102
RTVSPost2010PropOp49
 70
     1
102
RTVSPost2010Prop50
 90
       50
102
RTVSPost2010PropOp50
 70
     1
102
RTVSPost2010Prop51ColorIndex
 90
      256
102
RTVSPost2010Prop51ColorRGB
 90
-16777216
102
RTVSPost2010PropOp51
 70
     0
102
RTVSPost2010Prop52
140
1.0
102
RTVSPost2010PropOp52
 70
     0
102
RTVSPost2010Prop53
 90
        2
102
RTVSPost2010PropOp53
 70
     1
102
RTVSPost2010Prop54
  1
strokes_ogs.tif
102
RTVSPost2010PropOp54
 70
     1
102
RTVSPost2010Prop55
280
     0
102
RTVSPost2010PropOp55
 70
     1
102
RTVSPost2010Prop56
140
1.0
102
RTVSPost2010PropOp56
 70
     1
102
RTVSPost2010Prop57
140
1.0
102
RTVSPost2010PropOp57
 70
     1
  0
XRECORD
  5
23E2
102
{ACAD_REACTORS
330
23E1
102
}
330
23E1
100
AcDbXrecord
280
     1
102
RTVSPost2010Prop28
280
     0
102
RTVSPost2010PropOp28
 70
     1
102
RTVSPost2010Prop29
280
     1
102
RTVSPost2010PropOp29
 70
     1
102
RTVSPost2010Prop30
280
     1
102
RTVSPost2010PropOp30
 70
     1
102
RTVSPost2010Prop31
280
     0
102
RTVSPost2010PropOp31
 70
     1
102
RTVSPost2010Prop32
280
     0
102
RTVSPost2010PropOp32
 70
     1
102
RTVSPost2010Prop33
280
     0
102
RTVSPost2010PropOp33
 70
     1
102
RTVSPost2010Prop34
280
     0
102
RTVSPost2010PropOp34
 70
     1
102
RTVSPost2010Prop35
280
     0
102
RTVSPost2010PropOp35
 70
     1
102
RTVSPost2010Prop36
280
     0
102
RTVSPost2010PropOp36
 70
     1
102
RTVSPost2010Prop37
 90
       50
102
RTVSPost2010PropOp37
 70
     1
102
RTVSPost2010Prop38
140
0.0
102
RTVSPost2010PropOp38
 70
     1
102
RTVSPost2010Prop39
140
1.0
102
RTVSPost2010PropOp39
 70
     1
102
RTVSPost2010Prop40
 90
        0
102
RTVSPost2010PropOp40
 70
     1
102
RTVSPost2010Prop41ColorIndex
 90
       18
102
RTVSPost2010Prop41ColorRGB
 90
        0
102
RTVSPost2010PropOp41
 70
     1
102
RTVSPost2010Prop42
 90
       50
102
RTVSPost2010PropOp42
 70
     1
102
RTVSPost2010Prop43
 90
        3
102
RTVSPost2010PropOp43
 70
     1
102
RTVSPost2010Prop44ColorIndex
 90
        5
102
RTVSPost2010Prop44ColorRGB
 90
      255
102
RTVSPost2010PropOp44
 70
     1
102
RTVSPost2010Prop45
280
     0
102
RTVSPost2010PropOp45
 70
     1
102
RTVSPost2010Prop46
 90
       50
102
RTVSPost2010PropOp46
 70
     1
102
RTVSPost2010Prop47
 90
       50
102
RTVSPost2010PropOp47
 70
     1
102
RTVSPost2010Prop48
 90
       50
102
RTVSPost2010PropOp48
 70
     1
102
RTVSPost2010Prop49
280
     0
102
RTVSPost2010PropOp49
 70
     1
102
RTVSPost2010Prop50
 90
       50
102
RTVSPost2010PropOp50
 70
     1
102
RTVSPost2010Prop51ColorIndex
 90
      256
102
RTVSPost2010Prop51ColorRGB
 90
-16777216
102
RTVSPost2010PropOp51
 70
     0
102
RTVSPost2010Prop52
140
1.0
102
RTVSPost2010PropOp52
 70
     0
102
RTVSPost2010Prop53
 90
        2
102
RTVSPost2010PropOp53
 70
     1
102
RTVSPost2010Prop54
  1
strokes_ogs.tif
102
RTVSPost2010PropOp54
 70
     1
102
RTVSPost2010Prop55
280
     0
102
RTVSPost2010PropOp55
 70
     1
102
RTVSPost2010Prop56
140
1.0
102
RTVSPost2010PropOp56
 70
     1
102
RTVSPost2010Prop57
140
1.0
102
RTVSPost2010PropOp57
 70
     1
  0
XRECORD
  5
23E0
102
{ACAD_REACTORS
330
23DF
102
}
330
23DF
100
AcDbXrecord
280
     1
102
RTVSPost2010Prop28
280
     0
102
RTVSPost2010PropOp28
 70
     1
102
RTVSPost2010Prop29
280
     1
102
RTVSPost2010PropOp29
 70
     1
102
RTVSPost2010Prop30
280
     1
102
RTVSPost2010PropOp30
 70
     1
102
RTVSPost2010Prop31
280
     0
102
RTVSPost2010PropOp31
 70
     1
102
RTVSPost2010Prop32
280
     0
102
RTVSPost2010PropOp32
 70
     1
102
RTVSPost2010Prop33
280
     0
102
RTVSPost2010PropOp33
 70
     1
102
RTVSPost2010Prop34
280
     0
102
RTVSPost2010PropOp34
 70
     1
102
RTVSPost2010Prop35
280
     0
102
RTVSPost2010PropOp35
 70
     1
102
RTVSPost2010Prop36
280
     0
102
RTVSPost2010PropOp36
 70
     1
102
RTVSPost2010Prop37
 90
       50
102
RTVSPost2010PropOp37
 70
     1
102
RTVSPost2010Prop38
140
0.0
102
RTVSPost2010PropOp38
 70
     1
102
RTVSPost2010Prop39
140
1.0
102
RTVSPost2010PropOp39
 70
     1
102
RTVSPost2010Prop40
 90
        0
102
RTVSPost2010PropOp40
 70
     1
102
RTVSPost2010Prop41ColorIndex
 90
       18
102
RTVSPost2010Prop41ColorRGB
 90
        0
102
RTVSPost2010PropOp41
 70
     1
102
RTVSPost2010Prop42
 90
       50
102
RTVSPost2010PropOp42
 70
     1
102
RTVSPost2010Prop43
 90
        3
102
RTVSPost2010PropOp43
 70
     1
102
RTVSPost2010Prop44ColorIndex
 90
        5
102
RTVSPost2010Prop44ColorRGB
 90
      255
102
RTVSPost2010PropOp44
 70
     1
102
RTVSPost2010Prop45
280
     0
102
RTVSPost2010PropOp45
 70
     1
102
RTVSPost2010Prop46
 90
       50
102
RTVSPost2010PropOp46
 70
     1
102
RTVSPost2010Prop47
 90
       50
102
RTVSPost2010PropOp47
 70
     1
102
RTVSPost2010Prop48
 90
       50
102
RTVSPost2010PropOp48
 70
     1
102
RTVSPost2010Prop49
280
     0
102
RTVSPost2010PropOp49
 70
     1
102
RTVSPost2010Prop50
 90
       50
102
RTVSPost2010PropOp50
 70
     1
102
RTVSPost2010Prop51ColorIndex
 90
      256
102
RTVSPost2010Prop51ColorRGB
 90
-16777216
102
RTVSPost2010PropOp51
 70
     0
102
RTVSPost2010Prop52
140
1.0
102
RTVSPost2010PropOp52
 70
     0
102
RTVSPost2010Prop53
 90
        2
102
RTVSPost2010PropOp53
 70
     1
102
RTVSPost2010Prop54
  1
strokes_ogs.tif
102
RTVSPost2010PropOp54
 70
     1
102
RTVSPost2010Prop55
280
     0
102
RTVSPost2010PropOp55
 70
     1
102
RTVSPost2010Prop56
140
1.0
102
RTVSPost2010PropOp56
 70
     1
102
RTVSPost2010Prop57
140
1.0
102
RTVSPost2010PropOp57
 70
     1
  0
XRECORD
  5
23DA
102
{ACAD_REACTORS
330
23D9
102
}
330
23D9
100
AcDbXrecord
280
     1
102
RTVSPost2010Prop28
280
     0
102
RTVSPost2010PropOp28
 70
     1
102
RTVSPost2010Prop29
280
     1
102
RTVSPost2010PropOp29
 70
     1
102
RTVSPost2010Prop30
280
     1
102
RTVSPost2010PropOp30
 70
     1
102
RTVSPost2010Prop31
280
     0
102
RTVSPost2010PropOp31
 70
     1
102
RTVSPost2010Prop32
280
     0
102
RTVSPost2010PropOp32
 70
     1
102
RTVSPost2010Prop33
280
     0
102
RTVSPost2010PropOp33
 70
     1
102
RTVSPost2010Prop34
280
     0
102
RTVSPost2010PropOp34
 70
     1
102
RTVSPost2010Prop35
280
     0
102
RTVSPost2010PropOp35
 70
     1
102
RTVSPost2010Prop36
280
     0
102
RTVSPost2010PropOp36
 70
     1
102
RTVSPost2010Prop37
 90
       50
102
RTVSPost2010PropOp37
 70
     1
102
RTVSPost2010Prop38
140
0.0
102
RTVSPost2010PropOp38
 70
     1
102
RTVSPost2010Prop39
140
1.0
102
RTVSPost2010PropOp39
 70
     1
102
RTVSPost2010Prop40
 90
        0
102
RTVSPost2010PropOp40
 70
     1
102
RTVSPost2010Prop41ColorIndex
 90
       18
102
RTVSPost2010Prop41ColorRGB
 90
        0
102
RTVSPost2010PropOp41
 70
     1
102
RTVSPost2010Prop42
 90
       50
102
RTVSPost2010PropOp42
 70
     1
102
RTVSPost2010Prop43
 90
        3
102
RTVSPost2010PropOp43
 70
     1
102
RTVSPost2010Prop44ColorIndex
 90
        5
102
RTVSPost2010Prop44ColorRGB
 90
      255
102
RTVSPost2010PropOp44
 70
     1
102
RTVSPost2010Prop45
280
     0
102
RTVSPost2010PropOp45
 70
     1
102
RTVSPost2010Prop46
 90
       50
102
RTVSPost2010PropOp46
 70
     1
102
RTVSPost2010Prop47
 90
       50
102
RTVSPost2010PropOp47
 70
     1
102
RTVSPost2010Prop48
 90
       50
102
RTVSPost2010PropOp48
 70
     1
102
RTVSPost2010Prop49
280
     0
102
RTVSPost2010PropOp49
 70
     1
102
RTVSPost2010Prop50
 90
       50
102
RTVSPost2010PropOp50
 70
     1
102
RTVSPost2010Prop51ColorIndex
 90
      256
102
RTVSPost2010Prop51ColorRGB
 90
-16777216
102
RTVSPost2010PropOp51
 70
     0
102
RTVSPost2010Prop52
140
1.0
102
RTVSPost2010PropOp52
 70
     0
102
RTVSPost2010Prop53
 90
        2
102
RTVSPost2010PropOp53
 70
     1
102
RTVSPost2010Prop54
  1
strokes_ogs.tif
102
RTVSPost2010PropOp54
 70
     1
102
RTVSPost2010Prop55
280
     0
102
RTVSPost2010PropOp55
 70
     1
102
RTVSPost2010Prop56
140
1.0
102
RTVSPost2010PropOp56
 70
     1
102
RTVSPost2010Prop57
140
1.0
102
RTVSPost2010PropOp57
 70
     1
  0
XRECORD
  5
23DC
102
{ACAD_REACTORS
330
23DB
102
}
330
23DB
100
AcDbXrecord
280
     1
102
RTVSPost2010Prop28
280
     0
102
RTVSPost2010PropOp28
 70
     1
102
RTVSPost2010Prop29
280
     1
102
RTVSPost2010PropOp29
 70
     1
102
RTVSPost2010Prop30
280
     1
102
RTVSPost2010PropOp30
 70
     1
102
RTVSPost2010Prop31
280
     0
102
RTVSPost2010PropOp31
 70
     1
102
RTVSPost2010Prop32
280
     0
102
RTVSPost2010PropOp32
 70
     1
102
RTVSPost2010Prop33
280
     0
102
RTVSPost2010PropOp33
 70
     1
102
RTVSPost2010Prop34
280
     0
102
RTVSPost2010PropOp34
 70
     1
102
RTVSPost2010Prop35
280
     0
102
RTVSPost2010PropOp35
 70
     1
102
RTVSPost2010Prop36
280
     0
102
RTVSPost2010PropOp36
 70
     1
102
RTVSPost2010Prop37
 90
       50
102
RTVSPost2010PropOp37
 70
     1
102
RTVSPost2010Prop38
140
0.0
102
RTVSPost2010PropOp38
 70
     1
102
RTVSPost2010Prop39
140
1.0
102
RTVSPost2010PropOp39
 70
     1
102
RTVSPost2010Prop40
 90
        0
102
RTVSPost2010PropOp40
 70
     1
102
RTVSPost2010Prop41ColorIndex
 90
       18
102
RTVSPost2010Prop41ColorRGB
 90
        0
102
RTVSPost2010PropOp41
 70
     1
102
RTVSPost2010Prop42
 90
       50
102
RTVSPost2010PropOp42
 70
     1
102
RTVSPost2010Prop43
 90
        3
102
RTVSPost2010PropOp43
 70
     1
102
RTVSPost2010Prop44ColorIndex
 90
        5
102
RTVSPost2010Prop44ColorRGB
 90
      255
102
RTVSPost2010PropOp44
 70
     1
102
RTVSPost2010Prop45
280
     0
102
RTVSPost2010PropOp45
 70
     1
102
RTVSPost2010Prop46
 90
       50
102
RTVSPost2010PropOp46
 70
     1
102
RTVSPost2010Prop47
 90
       50
102
RTVSPost2010PropOp47
 70
     1
102
RTVSPost2010Prop48
 90
       50
102
RTVSPost2010PropOp48
 70
     1
102
RTVSPost2010Prop49
280
     0
102
RTVSPost2010PropOp49
 70
     1
102
RTVSPost2010Prop50
 90
       50
102
RTVSPost2010PropOp50
 70
     1
102
RTVSPost2010Prop51ColorIndex
 90
      256
102
RTVSPost2010Prop51ColorRGB
 90
-16777216
102
RTVSPost2010PropOp51
 70
     0
102
RTVSPost2010Prop52
140
1.0
102
RTVSPost2010PropOp52
 70
     0
102
RTVSPost2010Prop53
 90
        2
102
RTVSPost2010PropOp53
 70
     1
102
RTVSPost2010Prop54
  1
strokes_ogs.tif
102
RTVSPost2010PropOp54
 70
     1
102
RTVSPost2010Prop55
280
     0
102
RTVSPost2010PropOp55
 70
     1
102
RTVSPost2010Prop56
140
1.0
102
RTVSPost2010PropOp56
 70
     1
102
RTVSPost2010Prop57
140
1.0
102
RTVSPost2010PropOp57
 70
     1
  0
XRECORD
  5
23D2
102
{ACAD_REACTORS
330
23D1
102
}
330
23D1
100
AcDbXrecord
280
     1
102
RTVSPost2010Prop28
280
     0
102
RTVSPost2010PropOp28
 70
     1
102
RTVSPost2010Prop29
280
     1
102
RTVSPost2010PropOp29
 70
     1
102
RTVSPost2010Prop30
280
     1
102
RTVSPost2010PropOp30
 70
     1
102
RTVSPost2010Prop31
280
     0
102
RTVSPost2010PropOp31
 70
     1
102
RTVSPost2010Prop32
280
     0
102
RTVSPost2010PropOp32
 70
     1
102
RTVSPost2010Prop33
280
     0
102
RTVSPost2010PropOp33
 70
     1
102
RTVSPost2010Prop34
280
     0
102
RTVSPost2010PropOp34
 70
     1
102
RTVSPost2010Prop35
280
     0
102
RTVSPost2010PropOp35
 70
     1
102
RTVSPost2010Prop36
280
     0
102
RTVSPost2010PropOp36
 70
     1
102
RTVSPost2010Prop37
 90
       50
102
RTVSPost2010PropOp37
 70
     1
102
RTVSPost2010Prop38
140
0.0
102
RTVSPost2010PropOp38
 70
     1
102
RTVSPost2010Prop39
140
1.0
102
RTVSPost2010PropOp39
 70
     1
102
RTVSPost2010Prop40
 90
        0
102
RTVSPost2010PropOp40
 70
     1
102
RTVSPost2010Prop41ColorIndex
 90
       18
102
RTVSPost2010Prop41ColorRGB
 90
        0
102
RTVSPost2010PropOp41
 70
     1
102
RTVSPost2010Prop42
 90
       50
102
RTVSPost2010PropOp42
 70
     1
102
RTVSPost2010Prop43
 90
        3
102
RTVSPost2010PropOp43
 70
     1
102
RTVSPost2010Prop44ColorIndex
 90
        5
102
RTVSPost2010Prop44ColorRGB
 90
      255
102
RTVSPost2010PropOp44
 70
     1
102
RTVSPost2010Prop45
280
     0
102
RTVSPost2010PropOp45
 70
     1
102
RTVSPost2010Prop46
 90
       50
102
RTVSPost2010PropOp46
 70
     1
102
RTVSPost2010Prop47
 90
       50
102
RTVSPost2010PropOp47
 70
     1
102
RTVSPost2010Prop48
 90
       50
102
RTVSPost2010PropOp48
 70
     1
102
RTVSPost2010Prop49
280
     0
102
RTVSPost2010PropOp49
 70
     1
102
RTVSPost2010Prop50
 90
       50
102
RTVSPost2010PropOp50
 70
     1
102
RTVSPost2010Prop51ColorIndex
 90
      256
102
RTVSPost2010Prop51ColorRGB
 90
-16777216
102
RTVSPost2010PropOp51
 70
     0
102
RTVSPost2010Prop52
140
1.0
102
RTVSPost2010PropOp52
 70
     0
102
RTVSPost2010Prop53
 90
        2
102
RTVSPost2010PropOp53
 70
     1
102
RTVSPost2010Prop54
  1
strokes_ogs.tif
102
RTVSPost2010PropOp54
 70
     1
102
RTVSPost2010Prop55
280
     0
102
RTVSPost2010PropOp55
 70
     1
102
RTVSPost2010Prop56
140
1.0
102
RTVSPost2010PropOp56
 70
     1
102
RTVSPost2010Prop57
140
1.0
102
RTVSPost2010PropOp57
 70
     1
  0
XRECORD
  5
23C6
102
{ACAD_REACTORS
330
23C5
102
}
330
23C5
100
AcDbXrecord
280
     1
102
RTVSPost2010Prop28
280
     0
102
RTVSPost2010PropOp28
 70
     1
102
RTVSPost2010Prop29
280
     1
102
RTVSPost2010PropOp29
 70
     1
102
RTVSPost2010Prop30
280
     1
102
RTVSPost2010PropOp30
 70
     1
102
RTVSPost2010Prop31
280
     0
102
RTVSPost2010PropOp31
 70
     1
102
RTVSPost2010Prop32
280
     0
102
RTVSPost2010PropOp32
 70
     1
102
RTVSPost2010Prop33
280
     0
102
RTVSPost2010PropOp33
 70
     1
102
RTVSPost2010Prop34
280
     0
102
RTVSPost2010PropOp34
 70
     1
102
RTVSPost2010Prop35
280
     0
102
RTVSPost2010PropOp35
 70
     1
102
RTVSPost2010Prop36
280
     0
102
RTVSPost2010PropOp36
 70
     1
102
RTVSPost2010Prop37
 90
       50
102
RTVSPost2010PropOp37
 70
     1
102
RTVSPost2010Prop38
140
0.0
102
RTVSPost2010PropOp38
 70
     1
102
RTVSPost2010Prop39
140
1.0
102
RTVSPost2010PropOp39
 70
     1
102
RTVSPost2010Prop40
 90
        0
102
RTVSPost2010PropOp40
 70
     1
102
RTVSPost2010Prop41ColorIndex
 90
       18
102
RTVSPost2010Prop41ColorRGB
 90
        0
102
RTVSPost2010PropOp41
 70
     1
102
RTVSPost2010Prop42
 90
       50
102
RTVSPost2010PropOp42
 70
     1
102
RTVSPost2010Prop43
 90
        3
102
RTVSPost2010PropOp43
 70
     1
102
RTVSPost2010Prop44ColorIndex
 90
        5
102
RTVSPost2010Prop44ColorRGB
 90
      255
102
RTVSPost2010PropOp44
 70
     1
102
RTVSPost2010Prop45
280
     0
102
RTVSPost2010PropOp45
 70
     1
102
RTVSPost2010Prop46
 90
       50
102
RTVSPost2010PropOp46
 70
     1
102
RTVSPost2010Prop47
 90
       50
102
RTVSPost2010PropOp47
 70
     1
102
RTVSPost2010Prop48
 90
       50
102
RTVSPost2010PropOp48
 70
     1
102
RTVSPost2010Prop49
280
     0
102
RTVSPost2010PropOp49
 70
     1
102
RTVSPost2010Prop50
 90
       50
102
RTVSPost2010PropOp50
 70
     1
102
RTVSPost2010Prop51ColorIndex
 90
      256
102
RTVSPost2010Prop51ColorRGB
 90
-16777216
102
RTVSPost2010PropOp51
 70
     0
102
RTVSPost2010Prop52
140
1.0
102
RTVSPost2010PropOp52
 70
     0
102
RTVSPost2010Prop53
 90
        2
102
RTVSPost2010PropOp53
 70
     1
102
RTVSPost2010Prop54
  1
strokes_ogs.tif
102
RTVSPost2010PropOp54
 70
     1
102
RTVSPost2010Prop55
280
     0
102
RTVSPost2010PropOp55
 70
     1
102
RTVSPost2010Prop56
140
1.0
102
RTVSPost2010PropOp56
 70
     1
102
RTVSPost2010Prop57
140
1.0
102
RTVSPost2010PropOp57
 70
     1
  0
XRECORD
  5
23DE
102
{ACAD_REACTORS
330
23DD
102
}
330
23DD
100
AcDbXrecord
280
     1
102
RTVSPost2010Prop28
280
     0
102
RTVSPost2010PropOp28
 70
     1
102
RTVSPost2010Prop29
280
     1
102
RTVSPost2010PropOp29
 70
     1
102
RTVSPost2010Prop30
280
     1
102
RTVSPost2010PropOp30
 70
     1
102
RTVSPost2010Prop31
280
     0
102
RTVSPost2010PropOp31
 70
     1
102
RTVSPost2010Prop32
280
     0
102
RTVSPost2010PropOp32
 70
     1
102
RTVSPost2010Prop33
280
     0
102
RTVSPost2010PropOp33
 70
     1
102
RTVSPost2010Prop34
280
     0
102
RTVSPost2010PropOp34
 70
     1
102
RTVSPost2010Prop35
280
     0
102
RTVSPost2010PropOp35
 70
     1
102
RTVSPost2010Prop36
280
     0
102
RTVSPost2010PropOp36
 70
     1
102
RTVSPost2010Prop37
 90
       50
102
RTVSPost2010PropOp37
 70
     1
102
RTVSPost2010Prop38
140
0.0
102
RTVSPost2010PropOp38
 70
     1
102
RTVSPost2010Prop39
140
1.0
102
RTVSPost2010PropOp39
 70
     1
102
RTVSPost2010Prop40
 90
        0
102
RTVSPost2010PropOp40
 70
     1
102
RTVSPost2010Prop41ColorIndex
 90
       18
102
RTVSPost2010Prop41ColorRGB
 90
        0
102
RTVSPost2010PropOp41
 70
     1
102
RTVSPost2010Prop42
 90
       50
102
RTVSPost2010PropOp42
 70
     1
102
RTVSPost2010Prop43
 90
        3
102
RTVSPost2010PropOp43
 70
     1
102
RTVSPost2010Prop44ColorIndex
 90
        5
102
RTVSPost2010Prop44ColorRGB
 90
      255
102
RTVSPost2010PropOp44
 70
     1
102
RTVSPost2010Prop45
280
     0
102
RTVSPost2010PropOp45
 70
     1
102
RTVSPost2010Prop46
 90
       50
102
RTVSPost2010PropOp46
 70
     1
102
RTVSPost2010Prop47
 90
       50
102
RTVSPost2010PropOp47
 70
     1
102
RTVSPost2010Prop48
 90
       50
102
RTVSPost2010PropOp48
 70
     1
102
RTVSPost2010Prop49
280
     0
102
RTVSPost2010PropOp49
 70
     1
102
RTVSPost2010Prop50
 90
       50
102
RTVSPost2010PropOp50
 70
     1
102
RTVSPost2010Prop51ColorIndex
 90
      256
102
RTVSPost2010Prop51ColorRGB
 90
-16777216
102
RTVSPost2010PropOp51
 70
     0
102
RTVSPost2010Prop52
140
1.0
102
RTVSPost2010PropOp52
 70
     0
102
RTVSPost2010Prop53
 90
        2
102
RTVSPost2010PropOp53
 70
     1
102
RTVSPost2010Prop54
  1
strokes_ogs.tif
102
RTVSPost2010PropOp54
 70
     1
102
RTVSPost2010Prop55
280
     0
102
RTVSPost2010PropOp55
 70
     1
102
RTVSPost2010Prop56
140
1.0
102
RTVSPost2010PropOp56
 70
     1
102
RTVSPost2010Prop57
140
1.0
102
RTVSPost2010PropOp57
 70
     1
  0
ENDSEC
  0
EOF
