  0
SECTION
  2
HEADER
  9
$ACADVER
  1
AC1024
  9
$ACADMAINTVER
 70
   226
  9
$DWGCODEPAGE
  3
ANSI_932
  9
$LASTSAVEDBY
  1
t-kanatani
  9
$INSBASE
 10
0.0
 20
0.0
 30
0.0
  9
$EXTMIN
 10
-329.1666666666666
 20
-72.1321728398566
 30
0.0
  9
$EXTMAX
 10
400.0000000000001
 20
709.1666666666667
 30
0.0
  9
$LIMMIN
 10
-584.0
 20
0.0
  9
$LIMMAX
 10
0.0
 20
588.9623999834062
  9
$ORTHOMODE
 70
     1
  9
$REGENMODE
 70
     1
  9
$FILLMODE
 70
     1
  9
$QTEXTMODE
 70
     0
  9
$MIRRTEXT
 70
     1
  9
$LTSCALE
 40
1.0
  9
$ATTMODE
 70
     1
  9
$TEXTSIZE
 40
2.5
  9
$TRACEWID
 40
1.0
  9
$TEXTSTYLE
  7
STANDARD
  9
$CLAYER
  8
0
  9
$CELTYPE
  6
ByLayer
  9
$CECOLOR
 62
   256
  9
$CELTSCALE
 40
1.0
  9
$DISPSILH
 70
     0
  9
$DIMSCALE
 40
1.0
  9
$DIMASZ
 40
3.0
  9
$DIMEXO
 40
0.0625
  9
$DIMDLI
 40
0.38
  9
$DIMRND
 40
0.0
  9
$DIMDLE
 40
0.0
  9
$DIMEXE
 40
0.18
  9
$DIMTP
 40
0.0
  9
$DIMTM
 40
0.0
  9
$DIMTXT
 40
3.0
  9
$DIMCEN
 40
0.0
  9
$DIMTSZ
 40
0.0
  9
$DIMTOL
 70
     0
  9
$DIMLIM
 70
     0
  9
$DIMTIH
 70
     1
  9
$DIMTOH
 70
     1
  9
$DIMSE1
 70
     0
  9
$DIMSE2
 70
     0
  9
$DIMTAD
 70
     0
  9
$DIMZIN
 70
     0
  9
$DIMBLK
  1

  9
$DIMASO
 70
     1
  9
$DIMSHO
 70
     1
  9
$DIMPOST
  1

  9
$DIMAPOST
  1

  9
$DIMALT
 70
     0
  9
$DIMALTD
 70
     2
  9
$DIMALTF
 40
25.4
  9
$DIMLFAC
 40
1.0
  9
$DIMTOFL
 70
     0
  9
$DIMTVP
 40
0.0
  9
$DIMTIX
 70
     0
  9
$DIMSOXD
 70
     0
  9
$DIMSAH
 70
     0
  9
$DIMBLK1
  1

  9
$DIMBLK2
  1

  9
$DIMSTYLE
  2
STANDARD
  9
$DIMCLRD
 70
     0
  9
$DIMCLRE
 70
     0
  9
$DIMCLRT
 70
     0
  9
$DIMTFAC
 40
1.0
  9
$DIMGAP
 40
1.0
  9
$DIMJUST
 70
     0
  9
$DIMSD1
 70
     0
  9
$DIMSD2
 70
     0
  9
$DIMTOLJ
 70
     1
  9
$DIMTZIN
 70
     8
  9
$DIMALTZ
 70
     8
  9
$DIMALTTZ
 70
     8
  9
$DIMUPT
 70
     0
  9
$DIMDEC
 70
     8
  9
$DIMTDEC
 70
     8
  9
$DIMALTU
 70
     2
  9
$DIMALTTD
 70
     2
  9
$DIMTXSTY
  7
STANDARD
  9
$DIMAUNIT
 70
     0
  9
$DIMADEC
 70
     0
  9
$DIMALTRND
 40
0.0
  9
$DIMAZIN
 70
     0
  9
$DIMDSEP
 70
    46
  9
$DIMATFIT
 70
     3
  9
$DIMFRAC
 70
     0
  9
$DIMLDRBLK
  1

  9
$DIMLUNIT
 70
     2
  9
$DIMLWD
 70
    -2
  9
$DIMLWE
 70
    -2
  9
$DIMTMOVE
 70
     2
  9
$DIMFXL
 40
1.0
  9
$DIMFXLON
 70
     0
  9
$DIMJOGANG
 40
0.7853981633974483
  9
$DIMTFILL
 70
     0
  9
$DIMTFILLCLR
 70
     0
  9
$DIMARCSYM
 70
     1
  9
$DIMLTYPE
  6
ByBlock
  9
$DIMLTEX1
  6
ByBlock
  9
$DIMLTEX2
  6
ByBlock
  9
$DIMTXTDIRECTION
 70
     0
  9
$LUNITS
 70
     2
  9
$LUPREC
 70
     8
  9
$SKETCHINC
 40
1.0
  9
$FILLETRAD
 40
0.0
  9
$AUNITS
 70
     0
  9
$AUPREC
 70
     0
  9
$MENU
  1
.
  9
$ELEVATION
 40
0.0
  9
$PELEVATION
 40
0.0
  9
$THICKNESS
 40
0.0
  9
$LIMCHECK
 70
     0
  9
$CHAMFERA
 40
0.0
  9
$CHAMFERB
 40
0.0
  9
$CHAMFERC
 40
0.0
  9
$CHAMFERD
 40
0.0
  9
$SKPOLY
 70
     0
  9
$TDCREATE
 40
2456136.563750000
  9
$TDUCREATE
 40
2456136.188759606
  9
$TDUPDATE
 40
2458905.473321759
  9
$TDUUPDATE
 40
2458905.098321759
  9
$TDINDWG
 40
0.0578442708
  9
$TDUSRTIMER
 40
0.0578441782
  9
$USRTIMER
 70
     1
  9
$ANGBASE
 50
0.0
  9
$ANGDIR
 70
     0
  9
$PDMODE
 70
     0
  9
$PDSIZE
 40
0.0
  9
$PLINEWID
 40
0.0
  9
$SPLFRAME
 70
     0
  9
$SPLINETYPE
 70
     6
  9
$SPLINESEGS
 70
     8
  9
$HANDSEED
  5
23F7
  9
$SURFTAB1
 70
     6
  9
$SURFTAB2
 70
     6
  9
$SURFTYPE
 70
     6
  9
$SURFU
 70
     6
  9
$SURFV
 70
     6
  9
$UCSBASE
  2

  9
$UCSNAME
  2

  9
$UCSORG
 10
0.0
 20
0.0
 30
0.0
  9
$UCSXDIR
 10
1.0
 20
0.0
 30
0.0
  9
$UCSYDIR
 10
0.0
 20
1.0
 30
0.0
  9
$UCSORTHOREF
  2

  9
$UCSORTHOVIEW
 70
     0
  9
$UCSORGTOP
 10
0.0
 20
0.0
 30
0.0
  9
$UCSORGBOTTOM
 10
0.0
 20
0.0
 30
0.0
  9
$UCSORGLEFT
 10
0.0
 20
0.0
 30
0.0
  9
$UCSORGRIGHT
 10
0.0
 20
0.0
 30
0.0
  9
$UCSORGFRONT
 10
0.0
 20
0.0
 30
0.0
  9
$UCSORGBACK
 10
0.0
 20
0.0
 30
0.0
  9
$PUCSBASE
  2

  9
$PUCSNAME
  2

  9
$PUCSORG
 10
0.0
 20
0.0
 30
0.0
  9
$PUCSXDIR
 10
1.0
 20
0.0
 30
0.0
  9
$PUCSYDIR
 10
0.0
 20
1.0
 30
0.0
  9
$PUCSORTHOREF
  2

  9
$PUCSORTHOVIEW
 70
     0
  9
$PUCSORGTOP
 10
0.0
 20
0.0
 30
0.0
  9
$PUCSORGBOTTOM
 10
0.0
 20
0.0
 30
0.0
  9
$PUCSORGLEFT
 10
0.0
 20
0.0
 30
0.0
  9
$PUCSORGRIGHT
 10
0.0
 20
0.0
 30
0.0
  9
$PUCSORGFRONT
 10
0.0
 20
0.0
 30
0.0
  9
$PUCSORGBACK
 10
0.0
 20
0.0
 30
0.0
  9
$USERI1
 70
     0
  9
$USERI2
 70
     0
  9
$USERI3
 70
     0
  9
$USERI4
 70
     0
  9
$USERI5
 70
     0
  9
$USERR1
 40
0.0
  9
$USERR2
 40
0.0
  9
$USERR3
 40
0.0
  9
$USERR4
 40
0.0
  9
$USERR5
 40
0.0
  9
$WORLDVIEW
 70
     1
  9
$SHADEDGE
 70
     3
  9
$SHADEDIF
 70
    70
  9
$TILEMODE
 70
     1
  9
$MAXACTVP
 70
    64
  9
$PINSBASE
 10
0.0
 20
0.0
 30
0.0
  9
$PLIMCHECK
 70
     0
  9
$PEXTMIN
 10
1.000000000000000E+20
 20
1.000000000000000E+20
 30
1.000000000000000E+20
  9
$PEXTMAX
 10
-1.000000000000000E+20
 20
-1.000000000000000E+20
 30
-1.000000000000000E+20
  9
$PLIMMIN
 10
-584.0
 20
0.0
  9
$PLIMMAX
 10
0.0
 20
588.9623999834062
  9
$UNITMODE
 70
     0
  9
$VISRETAIN
 70
     1
  9
$PLINEGEN
 70
     0
  9
$PSLTSCALE
 70
     1
  9
$TREEDEPTH
 70
  3020
  9
$CMLSTYLE
  2
Standard
  9
$CMLJUST
 70
     0
  9
$CMLSCALE
 40
1.0
  9
$PROXYGRAPHICS
 70
     1
  9
$MEASUREMENT
 70
     0
  9
$CELWEIGHT
370
    -1
  9
$ENDCAPS
280
     0
  9
$JOINSTYLE
280
     0
  9
$LWDISPLAY
290
     0
  9
$INSUNITS
 70
     0
  9
$HYPERLINKBASE
  1

  9
$STYLESHEET
  1

  9
$XEDIT
290
     1
  9
$CEPSNTYPE
380
     0
  9
$PSTYLEMODE
290
     1
  9
$FINGERPRINTGUID
  2
{F1AE29D1-B18A-408E-B2F4-8A08E115ADC0}
  9
$VERSIONGUID
  2
{31A61EE4-8A0B-7846-8B5C-EA1F63C7DF20}
  9
$EXTNAMES
290
     1
  9
$PSVPSCALE
 40
0.0
  9
$OLESTARTUP
290
     0
  9
$SORTENTS
280
   127
  9
$INDEXCTL
280
     0
  9
$HIDETEXT
280
     0
  9
$XCLIPFRAME
280
     2
  9
$HALOGAP
280
     0
  9
$OBSCOLOR
 70
   257
  9
$OBSLTYPE
280
     0
  9
$INTERSECTIONDISPLAY
280
     0
  9
$INTERSECTIONCOLOR
 70
   257
  9
$DIMASSOC
280
     1
  9
$PROJECTNAME
  1

  9
$CAMERADISPLAY
290
     0
  9
$LENSLENGTH
 40
50.0
  9
$CAMERAHEIGHT
 40
0.0
  9
$STEPSPERSEC
 40
2.0
  9
$STEPSIZE
 40
6.0
  9
$3DDWFPREC
 40
2.0
  9
$PSOLWIDTH
 40
0.25
  9
$PSOLHEIGHT
 40
4.0
  9
$LOFTANG1
 40
1.570796326794896
  9
$LOFTANG2
 40
1.570796326794896
  9
$LOFTMAG1
 40
0.0
  9
$LOFTMAG2
 40
0.0
  9
$LOFTPARAM
 70
     7
  9
$LOFTNORMALS
280
     1
  9
$LATITUDE
 40
37.795
  9
$LONGITUDE
 40
-122.394
  9
$NORTHDIRECTION
 40
0.0
  9
$TIMEZONE
 70
 -8000
  9
$LIGHTGLYPHDISPLAY
280
     1
  9
$TILEMODELIGHTSYNCH
280
     1
  9
$CMATERIAL
347
1002
  9
$SOLIDHIST
280
     1
  9
$SHOWHIST
280
     1
  9
$DWFFRAME
280
     2
  9
$DGNFRAME
280
     0
  9
$REALWORLDSCALE
290
     1
  9
$INTERFERECOLOR
 62
     1
  9
$INTERFEREOBJVS
345
1024
  9
$INTERFEREVPVS
346
1021
  9
$CSHADOW
280
     0
  9
$SHADOWPLANELOCATION
 40
0.0
  0
ENDSEC
  0
SECTION
  2
CLASSES
  0
CLASS
  1
ACDBDICTIONARYWDFLT
  2
AcDbDictionaryWithDefault
  3
ObjectDBX Classes
 90
        0
 91
        1
280
     0
281
     0
  0
CLASS
  1
MATERIAL
  2
AcDbMaterial
  3
ObjectDBX Classes
 90
     1153
 91
        3
280
     0
281
     0
  0
CLASS
  1
VISUALSTYLE
  2
AcDbVisualStyle
  3
ObjectDBX Classes
 90
     4095
 91
       26
280
     0
281
     0
  0
CLASS
  1
SCALE
  2
AcDbScale
  3
ObjectDBX Classes
 90
     1153
 91
       17
280
     0
281
     0
  0
CLASS
  1
TABLESTYLE
  2
AcDbTableStyle
  3
ObjectDBX Classes
 90
     4095
 91
        1
280
     0
281
     0
  0
CLASS
  1
MLEADERSTYLE
  2
AcDbMLeaderStyle
  3
ACDB_MLEADERSTYLE_CLASS
 90
     4095
 91
        1
280
     0
281
     0
  0
CLASS
  1
AMGSETTINGSOBJ
  2
AmgSettingsObj
  3
"AcadM|Product Description: AutoCAD Mechanical|Company: Autodesk, Inc."
 90
     1024
 91
        0
280
     0
281
     0
  0
CLASS
  1
ACME_DOCUMENT
  2
AcMeDbDoc
  3
AcMeServices
 90
     1024
 91
        0
280
     0
281
     0
  0
CLASS
  1
ACMESCOPE
  2
AcMeScope
  3
AcMeServices
 90
     1024
 91
        0
280
     0
281
     0
  0
CLASS
  1
ACMECOMMANDHISTORY
  2
AcMeCommandHistory
  3
AcMeServices
 90
     1024
 91
        0
280
     0
281
     0
  0
CLASS
  1
ACIMSYSVARMAN
  2
AcImSysVarManager
  3
AcMeServices
 90
     1024
 91
        0
280
     0
281
     0
  0
CLASS
  1
ACIMINTSYSVAR
  2
AcImIntSysVar
  3
AcMeServices
 90
     1024
 91
        0
280
     0
281
     0
  0
CLASS
  1
ACMESTATEMGR
  2
AcMeStateMgr
  3
AcMeServices
 90
     1024
 91
        0
280
     0
281
     0
  0
CLASS
  1
ACDBENTITYCACHE
  2
AcMeEntityCache
  3
AcMeServices
 90
     1024
 91
        0
280
     0
281
     0
  0
CLASS
  1
ACGREFMASTER
  2
AcGrefMaster
  3
AcAttribServices
 90
     1024
 91
        0
280
     0
281
     0
  0
CLASS
  1
ACME_DATABASE
  2
AcMeDbDatabase
  3
AcMeServices
 90
     1024
 91
        0
280
     0
281
     0
  0
CLASS
  1
ACRFINSADJUSTERMGR
  2
AcRfInsAdjusterMgr
  3
AcMeServices
 90
     1024
 91
        0
280
     0
281
     0
  0
CLASS
  1
ACGREFACADMASTER
  2
AcGrefacadMaster
  3
AcGrefServices
 90
     1024
 91
        0
280
     0
281
     0
  0
CLASS
  1
AMDTMENUSTATEMGR
  2
AmdtMenuStateMgr
  3
McadcomServices
 90
     1024
 91
        0
280
     0
281
     0
  0
CLASS
  1
AMDTMCOMMENUSTATE
  2
AmdtMcomMenuState
  3
McadcomServices
 90
     1024
 91
        0
280
     0
281
     0
  0
CLASS
  1
AMIMASTER
  2
AmiMaster
  3
AmiServices
 90
     1024
 91
        0
280
     0
281
     0
  0
CLASS
  1
MAPIAMMOUDLE
  2
MApiAmModule
  3
MApiAmServices
 90
     1024
 91
        0
280
     0
281
     0
  0
CLASS
  1
ACIMSTRSYSVAR
  2
AcImStrSysVar
  3
AcMeServices
 90
     1024
 91
        0
280
     0
281
     0
  0
CLASS
  1
AMDTAMMENUSTATE
  2
AmdtAmMenuState
  3
DesignerAssemblies
 90
     1024
 91
        0
280
     0
281
     0
  0
CLASS
  1
ACAMPROJECT
  2
AcAmProject
  3
DesignerAssemblies
 90
     1024
 91
        0
280
     0
281
     0
  0
CLASS
  1
ACAMGRCOMPDEF
  2
AcAmGrCompDef
  3
DesignerAssemblies
 90
     1024
 91
        0
280
     0
281
     0
  0
CLASS
  1
ACAMCOMPDEF
  2
AcAmCompDef
  3
DesignerAssemblies
 90
     1024
 91
        0
280
     0
281
     0
  0
CLASS
  1
ACAMCOMPDEFMGR
  2
AcAmCompDefMgr
  3
DesignerAssemblies
 90
     1024
 91
        0
280
     0
281
     0
  0
CLASS
  1
AMCONTEXTMGR
  2
AcAmContextMgr
  3
DesignerAssemblies
 90
     1024
 91
        0
280
     0
281
     0
  0
CLASS
  1
ACAMCONTEXTMODELER
  2
AcAmContextModeler
  3
DesignerAssemblies
 90
     1024
 91
        0
280
     0
281
     0
  0
CLASS
  1
ACMDATADICTIONARY
  2
AcmDataDictionary
  3
"AcmSymBB|Product Description: AutoCAD Mechanical|Company: Autodesk, Inc."
 90
     1024
 91
        0
280
     0
281
     0
  0
CLASS
  1
ACAMGRCOMPDEFSET
  2
AcAmGrCompDefSet
  3
DesignerAssemblies
 90
     1024
 91
        0
280
     0
281
     0
  0
CLASS
  1
AMDTBROWSERDBTAB
  2
AmdtBrowserDbTab
  3
McadcomServices
 90
     1024
 91
        0
280
     0
281
     0
  0
CLASS
  1
CBROWSERAPPOBJECT
  2
CBrowserAppObject
  3
McadcomServices
 90
     1024
 91
        0
280
     0
281
     0
  0
CLASS
  1
DM_PLACEHOLDER
  2
AcDmSelsetPlaceholder
  3
McadcomServices
 90
     1024
 91
        0
280
     0
281
     0
  0
CLASS
  1
EXACXREFPANELOBJECT
  2
ExAcXREFPanelObject
  3
EXAC_ESW
 90
     1025
 91
        0
280
     0
281
     0
  0
CLASS
  1
NPOCOLLECTION
  2
AcDbImpNonPersistentObjectsCollection
  3
ObjectDBX Classes
 90
     1153
 91
        0
280
     0
281
     0
  0
CLASS
  1
ACMSTANDARDANSI
  2
AcmStandardANSI
  3
"Amdt_StdImp|Product Description: AutoCAD Mechanical|Company: Autodesk, Inc."
 90
     1024
 91
        0
280
     0
281
     0
  0
CLASS
  1
ACMSURFSTANDARDANSI
  2
AcmSurfTextStdANSI
  3
"Amdt_StdImp|Product Description: AutoCAD Mechanical|Company: Autodesk, Inc."
 90
     1024
 91
        0
280
     0
281
     0
  0
CLASS
  1
ACMFCFSTANDARDANSI
  2
AcmFCFStdANSI
  3
"Amdt_StdImp|Product Description: AutoCAD Mechanical|Company: Autodesk, Inc."
 90
     1024
 91
        0
280
     0
281
     0
  0
CLASS
  1
ACMWELDSTANDARDANSI
  2
AcmWeldingStdANSI
  3
"Amdt_StdImp|Product Description: AutoCAD Mechanical|Company: Autodesk, Inc."
 90
     1024
 91
        0
280
     0
281
     0
  0
CLASS
  1
ACMIDSTANDARDANSI
  2
AcmIdStdANSI
  3
"Amdt_StdImp|Product Description: AutoCAD Mechanical|Company: Autodesk, Inc."
 90
     1024
 91
        0
280
     0
281
     0
  0
CLASS
  1
ACMDATUMSTANDARDANSI
  2
AcmDatumStdANSI
  3
"Amdt_StdImp|Product Description: AutoCAD Mechanical|Company: Autodesk, Inc."
 90
     1024
 91
        0
280
     0
281
     0
  0
CLASS
  1
ACMBOMSTANDARDANSI
  2
AcmBOMStdANSI
  3
"Amdt_StdImp|Product Description: AutoCAD Mechanical|Company: Autodesk, Inc."
 90
     1024
 91
        0
280
     0
281
     0
  0
CLASS
  1
ACMDETAILSTANDARDANSI
  2
AmdtDetailSymStdANSI
  3
"Amdt_StdImp|Product Description: AutoCAD Mechanical|Company: Autodesk, Inc."
 90
     1024
 91
        0
280
     0
281
     0
  0
CLASS
  1
ACMSECTIONSTANDARDANSI
  2
AmdtSectionSymStdANSI
  3
"Amdt_StdImp|Product Description: AutoCAD Mechanical|Company: Autodesk, Inc."
 90
     1024
 91
        0
280
     0
281
     0
  0
CLASS
  1
ACMCENTERLINESTANDARDANSI
  2
AmdtCenterLineStdANSI
  3
"Amdt_StdImp|Product Description: AutoCAD Mechanical|Company: Autodesk, Inc."
 90
     1024
 91
        0
280
     0
281
     0
  0
CLASS
  1
ACMTHREADLINESTANDARDANSI
  2
AmdtThreadLineStdANSI
  3
"Amdt_StdImp|Product Description: AutoCAD Mechanical|Company: Autodesk, Inc."
 90
     1024
 91
        0
280
     0
281
     0
  0
CLASS
  1
ACMNOTESTANDARDANSI
  2
AmdtNoteStdANSI
  3
"Amdt_StdImp|Product Description: AutoCAD Mechanical|Company: Autodesk, Inc."
 90
     1024
 91
        0
280
     0
281
     0
  0
CLASS
  1
ACMTAPERSTANDARDANSI
  2
AcmTaperStdANSI
  3
"Amdt_StdImp|Product Description: AutoCAD Mechanical|Company: Autodesk, Inc."
 90
     1024
 91
        0
280
     0
281
     0
  0
CLASS
  1
ACMANOOTATIONVIEWSTANDARDANSI
  2
AmdtAnViewStdANSI
  3
"Amdt_StdImp|Product Description: AutoCAD Mechanical|Company: Autodesk, Inc."
 90
     1024
 91
        0
280
     0
281
     0
  0
CLASS
  1
ACAMGLAYSTD
  2
AcAmgLayStd
  3
"AmgLay|Product Description: AutoCAD Mechanical|Company: Autodesk, Inc."
 90
     1024
 91
        0
280
     0
281
     0
  0
CLASS
  1
ACAMGDIMSTD
  2
AcAmgDimStd
  3
"AmgDim|Product Description: AutoCAD Mechanical|Company: Autodesk, Inc."
 90
     1024
 91
        0
280
     0
281
     0
  0
CLASS
  1
AMGOBJPROPCFG
  2
AmgObjPropCfg
  3
"AmgLay|Product Description: AutoCAD Mechanical|Company: Autodesk, Inc."
 90
     1025
 91
        0
280
     0
281
     0
  0
CLASS
  1
ACAMGHOLECHARTSTDANSI
  2
AcAmgHoleChartStdANSI
  3
AmgDim|Product Description: AutoCAD Mechanical|Company: Autodesk, Inc.
 90
     1024
 91
        0
280
     0
281
     0
  0
CLASS
  1
ACAMGTITLESTD
  2
AcAmgTitleStd
  3
"AmgTitle|Product Description: AutoCAD Mechanical|Company: Autodesk, Inc."
 90
     4095
 91
        0
280
     0
281
     0
  0
CLASS
  1
AMDTNOTETEMPLATEDB
  2
AmdtNoteTemplateDB
  3
AcmSymBB|Product Description: AutoCAD Mechanical|Company: Autodesk, Inc.
 90
     1024
 91
        0
280
     0
281
     0
  0
CLASS
  1
ACAMGFILTERDAT
  2
AcAmgFilterDat
  3
"AcadM|Product Description: AutoCAD Mechanical|Company: Autodesk, Inc."
 90
     1024
 91
        0
280
     0
281
     0
  0
CLASS
  1
CELLSTYLEMAP
  2
AcDbCellStyleMap
  3
ObjectDBX Classes
 90
     1152
 91
        2
280
     0
281
     0
  0
CLASS
  1
DICTIONARYVAR
  2
AcDbDictionaryVar
  3
ObjectDBX Classes
 90
        0
 91
       14
280
     0
281
     0
  0
CLASS
  1
ACDBPLACEHOLDER
  2
AcDbPlaceHolder
  3
ObjectDBX Classes
 90
        0
 91
        1
280
     0
281
     0
  0
CLASS
  1
LAYOUT
  2
AcDbLayout
  3
ObjectDBX Classes
 90
        0
 91
        2
280
     0
281
     0
  0
CLASS
  1
SORTENTSTABLE
  2
AcDbSortentsTable
  3
ObjectDBX Classes
 90
        0
 91
        1
280
     0
281
     0
  0
CLASS
  1
ACDBSECTIONVIEWSTYLE
  2
AcDbSectionViewStyle
  3
ObjectDBX Classes
 90
     1025
 91
        2
280
     0
281
     0
  0
CLASS
  1
ACDBDETAILVIEWSTYLE
  2
AcDbDetailViewStyle
  3
ObjectDBX Classes
 90
     1025
 91
        2
280
     0
281
     0
  0
ENDSEC
  0
SECTION
  2
TABLES
  0
TABLE
  2
VPORT
  5
FF9
102
{ACAD_XDICTIONARY
360
122E
102
}
330
0
100
AcDbSymbolTable
 70
     1
  0
VPORT
  5
1060
330
FF9
100
AcDbSymbolTableRecord
100
AcDbViewportTableRecord
  2
*ACTIVE
 70
     0
 10
0.0
 20
0.0
 11
1.0
 21
1.0
 12
551.1701938096462
 22
317.5558967680098
 13
0.0
 23
0.0
 14
10.0
 24
10.0
 15
10.0
 25
10.0
 16
0.0
 26
0.0
 36
1.0
 17
0.0
 27
0.0
 37
0.0
 40
969.7419694098142
 41
2.233748271092669
 42
50.0
 43
0.0
 44
0.0
 50
0.0
 51
0.0
 71
     0
 72
   100
 73
     1
 74
     3
 75
     0
 76
     0
 77
     0
 78
     0
281
     0
 65
     1
110
0.0
120
0.0
130
0.0
111
1.0
121
0.0
131
0.0
112
0.0
122
1.0
132
0.0
 79
     0
146
0.0
348
1020
 60
     3
 61
     5
292
     1
282
     1
141
0.0
142
0.0
 63
   250
421
  3355443
1001
ACAD_NAV_VCDISPLAY
1070
     3
  0
ENDTAB
  0
TABLE
  2
LTYPE
  5
FF6
330
0
100
AcDbSymbolTable
 70
     3
  0
LTYPE
  5
104B
330
FF6
100
AcDbSymbolTableRecord
100
AcDbLinetypeTableRecord
  2
ByBlock
 70
     0
  3

 72
    65
 73
     0
 40
0.0
  0
LTYPE
  5
104C
330
FF6
100
AcDbSymbolTableRecord
100
AcDbLinetypeTableRecord
  2
ByLayer
 70
     0
  3

 72
    65
 73
     0
 40
0.0
  0
LTYPE
  5
104D
330
FF6
100
AcDbSymbolTableRecord
100
AcDbLinetypeTableRecord
  2
CONTINUOUS
 70
     0
  3
Solid line
 72
    65
 73
     0
 40
0.0
  0
LTYPE
  5
1064
330
FF6
100
AcDbSymbolTableRecord
100
AcDbLinetypeTableRecord
  2
CENTER
 70
     0
  3
__ . __
 72
    65
 73
     4
 40
7.0
 49
4.0
 74
     0
 49
-1.0
 74
     0
 49
1.0
 74
     0
 49
-1.0
 74
     0
  0
ENDTAB
  0
TABLE
  2
LAYER
  5
FF3
102
{ACAD_XDICTIONARY
360
155F
102
}
330
0
100
AcDbSymbolTable
 70
     2
  0
LAYER
  5
1045
102
{ACAD_XDICTIONARY
360
1228
102
}
330
FF3
100
AcDbSymbolTableRecord
100
AcDbLayerTableRecord
  2
0
 70
     0
 62
     7
  6
CONTINUOUS
370
    -3
390
1000
347
1012
  0
LAYER
  5
1570
330
FF3
100
AcDbSymbolTableRecord
100
AcDbLayerTableRecord
  2
Defpoints
 70
     0
 62
     7
  6
CONTINUOUS
290
     0
370
    -3
390
1000
347
1012
  0
ENDTAB
  0
TABLE
  2
STYLE
  5
FF4
330
0
100
AcDbSymbolTable
 70
     1
  0
STYLE
  5
1046
330
FF4
100
AcDbSymbolTableRecord
100
AcDbTextStyleTableRecord
  2
STANDARD
 70
     0
 40
0.0
 41
1.0
 50
0.0
 71
     0
 42
2.5
  3
txt.shx
  4

  0
ENDTAB
  0
TABLE
  2
VIEW
  5
FF7
330
0
100
AcDbSymbolTable
 70
     0
  0
ENDTAB
  0
TABLE
  2
UCS
  5
FF8
330
0
100
AcDbSymbolTable
 70
     0
  0
ENDTAB
  0
TABLE
  2
APPID
  5
FFA
330
0
100
AcDbSymbolTable
 70
    87
  0
APPID
  5
1047
330
FFA
100
AcDbSymbolTableRecord
100
AcDbRegAppTableRecord
  2
ACAD
 70
     0
  0
APPID
  5
104E
330
FFA
100
AcDbSymbolTableRecord
100
AcDbRegAppTableRecord
  2
ACADANNOTATIVE
 70
     0
  0
APPID
  5
107C
330
FFA
100
AcDbSymbolTableRecord
100
AcDbRegAppTableRecord
  2
MCAD_NO_VIS
 70
     0
  0
APPID
  5
107D
330
FFA
100
AcDbSymbolTableRecord
100
AcDbRegAppTableRecord
  2
ACAD_TEMP_GRAPHIC
 70
     0
  0
APPID
  5
107E
330
FFA
100
AcDbSymbolTableRecord
100
AcDbRegAppTableRecord
  2
ACATTRIBSERVICES
 70
     0
  0
APPID
  5
107F
330
FFA
100
AcDbSymbolTableRecord
100
AcDbRegAppTableRecord
  2
AD_DRAW
 70
     0
  0
APPID
  5
1080
330
FFA
100
AcDbSymbolTableRecord
100
AcDbRegAppTableRecord
  2
DESIGNERASSEMBLIES
 70
     0
  0
APPID
  5
1081
330
FFA
100
AcDbSymbolTableRecord
100
AcDbRegAppTableRecord
  2
ASURF_PCURVE_APPNAME
 70
     0
  0
APPID
  5
1082
330
FFA
100
AcDbSymbolTableRecord
100
AcDbRegAppTableRecord
  2
ACADM_DIM_EDIT
 70
     0
  0
APPID
  5
1083
330
FFA
100
AcDbSymbolTableRecord
100
AcDbRegAppTableRecord
  2
GENIUS_GENDIM_13
 70
     0
  0
APPID
  5
1084
330
FFA
100
AcDbSymbolTableRecord
100
AcDbRegAppTableRecord
  2
GENIUS_GENDTOL_13
 70
     0
  0
APPID
  5
1085
330
FFA
100
AcDbSymbolTableRecord
100
AcDbRegAppTableRecord
  2
GENIUS_GE3DTOL_13
 70
     0
  0
APPID
  5
1086
330
FFA
100
AcDbSymbolTableRecord
100
AcDbRegAppTableRecord
  2
AMG_3D2D_5_0
 70
     0
  0
APPID
  5
1087
330
FFA
100
AcDbSymbolTableRecord
100
AcDbRegAppTableRecord
  2
AMDT_DM_ADJ
 70
     0
  0
APPID
  5
1088
330
FFA
100
AcDbSymbolTableRecord
100
AcDbRegAppTableRecord
  2
CK_MATE-SERIES
 70
     0
  0
APPID
  5
1089
330
FFA
100
AcDbSymbolTableRecord
100
AcDbRegAppTableRecord
  2
GEVID1042077799
 70
     0
  0
APPID
  5
108A
330
FFA
100
AcDbSymbolTableRecord
100
AcDbRegAppTableRecord
  2
GEVMK
 70
     0
  0
APPID
  5
108B
330
FFA
100
AcDbSymbolTableRecord
100
AcDbRegAppTableRecord
  2
GEVDC
 70
     0
  0
APPID
  5
108C
330
FFA
100
AcDbSymbolTableRecord
100
AcDbRegAppTableRecord
  2
GENIUS_GENBH_13
 70
     0
  0
APPID
  5
108D
330
FFA
100
AcDbSymbolTableRecord
100
AcDbRegAppTableRecord
  2
GENIUS_GENOLIS_13
 70
     0
  0
APPID
  5
108E
330
FFA
100
AcDbSymbolTableRecord
100
AcDbRegAppTableRecord
  2
GENIUS_GENOENT_13
 70
     0
  0
APPID
  5
108F
330
FFA
100
AcDbSymbolTableRecord
100
AcDbRegAppTableRecord
  2
GENIUS_GENODEF_13
 70
     0
  0
APPID
  5
1090
330
FFA
100
AcDbSymbolTableRecord
100
AcDbRegAppTableRecord
  2
GENIUS_GENOBJ-NBEHI-BHF_13
 70
     0
  0
APPID
  5
1091
330
FFA
100
AcDbSymbolTableRecord
100
AcDbRegAppTableRecord
  2
GENIUS_GENOREF_13
 70
     0
  0
APPID
  5
1092
330
FFA
100
AcDbSymbolTableRecord
100
AcDbRegAppTableRecord
  2
GENIUS_GENOBJ-NBEHI-BHB_13
 70
     0
  0
APPID
  5
1093
330
FFA
100
AcDbSymbolTableRecord
100
AcDbRegAppTableRecord
  2
GEVID1042183772
 70
     0
  0
APPID
  5
1094
330
FFA
100
AcDbSymbolTableRecord
100
AcDbRegAppTableRecord
  2
GEVID1042183773
 70
     0
  0
APPID
  5
1095
330
FFA
100
AcDbSymbolTableRecord
100
AcDbRegAppTableRecord
  2
GEVID1042183774
 70
     0
  0
APPID
  5
1096
330
FFA
100
AcDbSymbolTableRecord
100
AcDbRegAppTableRecord
  2
DCO15
 70
     0
  0
APPID
  5
1097
330
FFA
100
AcDbSymbolTableRecord
100
AcDbRegAppTableRecord
  2
ACAD_DSTYLE_DIMARC_LENGTH_
 70
     0
  0
APPID
  5
1098
330
FFA
100
AcDbSymbolTableRecord
100
AcDbRegAppTableRecord
  2
ACAD_DSTYLE_DIMJOGGED_JOGA
 70
     0
  0
APPID
  5
1099
330
FFA
100
AcDbSymbolTableRecord
100
AcDbRegAppTableRecord
  2
ACAD_MLEADERVER
 70
     0
  0
APPID
  5
109A
330
FFA
100
AcDbSymbolTableRecord
100
AcDbRegAppTableRecord
  2
GENIUS_GENOBJ-N-FIL_13
 70
     0
  0
APPID
  5
109B
330
FFA
100
AcDbSymbolTableRecord
100
AcDbRegAppTableRecord
  2
ACADANNOPO
 70
     0
  0
APPID
  5
109C
330
FFA
100
AcDbSymbolTableRecord
100
AcDbRegAppTableRecord
  2
GENIUS_GENOBJ-N-TIT_13
 70
     0
  0
APPID
  5
109D
330
FFA
100
AcDbSymbolTableRecord
100
AcDbRegAppTableRecord
  2
GENIUS_GENTITLE_13
 70
     0
  0
APPID
  5
109E
330
FFA
100
AcDbSymbolTableRecord
100
AcDbRegAppTableRecord
  2
GENIUS_GENSCREG_15
 70
     0
  0
APPID
  5
109F
330
FFA
100
AcDbSymbolTableRecord
100
AcDbRegAppTableRecord
  2
GENIUS_GENOBJ-N-SDF_13
 70
     0
  0
APPID
  5
10A0
330
FFA
100
AcDbSymbolTableRecord
100
AcDbRegAppTableRecord
  2
ACAD_PSEXT
 70
     0
  0
APPID
  5
10A1
330
FFA
100
AcDbSymbolTableRecord
100
AcDbRegAppTableRecord
  2
ACAECLAYERSTANDARD
 70
     0
  0
APPID
  5
10A2
330
FFA
100
AcDbSymbolTableRecord
100
AcDbRegAppTableRecord
  2
ACAD_EXEMPT_FROM_CAD_STANDARDS
 70
     0
  0
APPID
  5
10A3
330
FFA
100
AcDbSymbolTableRecord
100
AcDbRegAppTableRecord
  2
ACAD_DSTYLE_DIMINSPECT
 70
     0
  0
APPID
  5
10A4
330
FFA
100
AcDbSymbolTableRecord
100
AcDbRegAppTableRecord
  2
GENIUS_GENDIMSH_14
 70
     0
  0
APPID
  5
10A5
330
FFA
100
AcDbSymbolTableRecord
100
AcDbRegAppTableRecord
  2
GENIUS_GENOBJ-N-CEN_13
 70
     0
  0
APPID
  5
10A6
330
FFA
100
AcDbSymbolTableRecord
100
AcDbRegAppTableRecord
  2
GENIUS_GENCEN_19
 70
     0
  0
APPID
  5
10A7
330
FFA
100
AcDbSymbolTableRecord
100
AcDbRegAppTableRecord
  2
ACAD_DSTYLE_DIMJAG
 70
     0
  0
APPID
  5
10A8
330
FFA
100
AcDbSymbolTableRecord
100
AcDbRegAppTableRecord
  2
ACAD_DSTYLE_DIMTALN
 70
     0
  0
APPID
  5
10A9
330
FFA
100
AcDbSymbolTableRecord
100
AcDbRegAppTableRecord
  2
GENIUS_GENREC_14
 70
     0
  0
APPID
  5
10AA
330
FFA
100
AcDbSymbolTableRecord
100
AcDbRegAppTableRecord
  2
GENIUS_GENOBJ-N-REC_13
 70
     0
  0
APPID
  5
10AB
330
FFA
100
AcDbSymbolTableRecord
100
AcDbRegAppTableRecord
  2
ACAD_DIMASSOC_CALC_DIMLFAC
 70
     0
  0
APPID
  5
10AC
330
FFA
100
AcDbSymbolTableRecord
100
AcDbRegAppTableRecord
  2
ACAD_DIMASSOC_DIMLFAC
 70
     0
  0
APPID
  5
10AD
330
FFA
100
AcDbSymbolTableRecord
100
AcDbRegAppTableRecord
  2
ACAD_DIMASSOC_OVERRIDDEN_D
 70
     0
  0
APPID
  5
10AE
330
FFA
100
AcDbSymbolTableRecord
100
AcDbRegAppTableRecord
  2
ACAD_DSTYLE_DIMEXT_LENGTH
 70
     0
  0
APPID
  5
10AF
330
FFA
100
AcDbSymbolTableRecord
100
AcDbRegAppTableRecord
  2
ACAD_DSTYLE_DIMEXT_ENABLED
 70
     0
  0
APPID
  5
10B0
330
FFA
100
AcDbSymbolTableRecord
100
AcDbRegAppTableRecord
  2
ACAD_DSTYLE_DIMBREAK
 70
     0
  0
APPID
  5
10B1
330
FFA
100
AcDbSymbolTableRecord
100
AcDbRegAppTableRecord
  2
ACAD_DSTYLE_DIMANGULAR_EXT
 70
     0
  0
APPID
  5
10B2
330
FFA
100
AcDbSymbolTableRecord
100
AcDbRegAppTableRecord
  2
ACCMTRANSPARENCY
 70
     0
  0
APPID
  5
10B3
330
FFA
100
AcDbSymbolTableRecord
100
AcDbRegAppTableRecord
  2
GENIUS_GENBLLY_14
 70
     0
  0
APPID
  5
10B4
330
FFA
100
AcDbSymbolTableRecord
100
AcDbRegAppTableRecord
  2
GENIUS_GENTRA_14
 70
     0
  0
APPID
  5
10B5
330
FFA
100
AcDbSymbolTableRecord
100
AcDbRegAppTableRecord
  2
GENIUS_GENOBJ-N-REV_13
 70
     0
  0
APPID
  5
10B6
330
FFA
100
AcDbSymbolTableRecord
100
AcDbRegAppTableRecord
  2
GENIUS_GENOBJ-N-RSSYM_13
 70
     0
  0
APPID
  5
10B7
330
FFA
100
AcDbSymbolTableRecord
100
AcDbRegAppTableRecord
  2
GENIUS_GENSYMENT_13
 70
     0
  0
APPID
  5
10B8
330
FFA
100
AcDbSymbolTableRecord
100
AcDbRegAppTableRecord
  2
GENIUS_GENSCSYM_13
 70
     0
  0
APPID
  5
10B9
330
FFA
100
AcDbSymbolTableRecord
100
AcDbRegAppTableRecord
  2
ACDBBLOCKREPBTAG
 70
     0
  0
APPID
  5
10BA
330
FFA
100
AcDbSymbolTableRecord
100
AcDbRegAppTableRecord
  2
ACAUTHENVIRON
 70
     0
  0
APPID
  5
10BB
330
FFA
100
AcDbSymbolTableRecord
100
AcDbRegAppTableRecord
  2
ACDBDYNAMICBLOCKTRUENAME
 70
     0
  0
APPID
  5
10BC
330
FFA
100
AcDbSymbolTableRecord
100
AcDbRegAppTableRecord
  2
ACDBDYNAMICBLOCKGUID
 70
     0
  0
APPID
  5
10BD
330
FFA
100
AcDbSymbolTableRecord
100
AcDbRegAppTableRecord
  2
ACDBBLOCKREPETAG
 70
     0
  0
APPID
  5
10BE
330
FFA
100
AcDbSymbolTableRecord
100
AcDbRegAppTableRecord
  2
GENIUS_GENOBJ-N-HTC_13
 70
     0
  0
APPID
  5
10BF
330
FFA
100
AcDbSymbolTableRecord
100
AcDbRegAppTableRecord
  2
GENIUS_GENHATCH_13
 70
     0
  0
APPID
  5
10C0
330
FFA
100
AcDbSymbolTableRecord
100
AcDbRegAppTableRecord
  2
GRADIENTCOLOR1ACI
 70
     0
  0
APPID
  5
10C1
330
FFA
100
AcDbSymbolTableRecord
100
AcDbRegAppTableRecord
  2
GRADIENTCOLOR2ACI
 70
     0
  0
APPID
  5
10C2
330
FFA
100
AcDbSymbolTableRecord
100
AcDbRegAppTableRecord
  2
GENIUS_GENFIL_13
 70
     0
  0
APPID
  5
10C3
330
FFA
100
AcDbSymbolTableRecord
100
AcDbRegAppTableRecord
  2
GENIUS_GENOBJ-N-CHA_13
 70
     0
  0
APPID
  5
10C4
330
FFA
100
AcDbSymbolTableRecord
100
AcDbRegAppTableRecord
  2
ACAD_DSTYLE_DIM_LINETYPE
 70
     0
  0
APPID
  5
10C5
330
FFA
100
AcDbSymbolTableRecord
100
AcDbRegAppTableRecord
  2
ACAD_DSTYLE_DIM_EXT1_LINETYPE
 70
     0
  0
APPID
  5
10C6
330
FFA
100
AcDbSymbolTableRecord
100
AcDbRegAppTableRecord
  2
ACAD_DSTYLE_DIM_EXT2_LINETYPE
 70
     0
  0
APPID
  5
10C7
330
FFA
100
AcDbSymbolTableRecord
100
AcDbRegAppTableRecord
  2
ACDBATTR
 70
     0
  0
APPID
  5
10C8
330
FFA
100
AcDbSymbolTableRecord
100
AcDbRegAppTableRecord
  2
ACAD_DSTYLE_DIMRADIAL_EXTENSION
 70
     0
  0
APPID
  5
10C9
330
FFA
100
AcDbSymbolTableRecord
100
AcDbRegAppTableRecord
  2
ACADANNOAV
 70
     0
  0
APPID
  5
10CA
330
FFA
100
AcDbSymbolTableRecord
100
AcDbRegAppTableRecord
  2
ACAD_DSTYLE_DIMTEXT_FILL
 70
     0
  0
APPID
  5
10CB
330
FFA
100
AcDbSymbolTableRecord
100
AcDbRegAppTableRecord
  2
ACAD_DSTYLE_DIMFLIPARROW_W
 70
     0
  0
APPID
  5
10CC
330
FFA
100
AcDbSymbolTableRecord
100
AcDbRegAppTableRecord
  2
ACADBPTGRAPHNODEID
 70
     0
  0
APPID
  5
10CD
330
FFA
100
AcDbSymbolTableRecord
100
AcDbRegAppTableRecord
  2
PE_URL
 70
     0
  0
APPID
  5
10CE
330
FFA
100
AcDbSymbolTableRecord
100
AcDbRegAppTableRecord
  2
ACAD_NAV_VCDISPLAY
 70
     0
  0
APPID
  5
10CF
330
FFA
100
AcDbSymbolTableRecord
100
AcDbRegAppTableRecord
  2
CONTENTBLOCKICON
 70
     0
  0
APPID
  5
1268
330
FFA
100
AcDbSymbolTableRecord
100
AcDbRegAppTableRecord
  2
ACAD_DSTYLE_DIMARC_LENGTH_SYMBOL
 70
     0
  0
ENDTAB
  0
TABLE
  2
DIMSTYLE
  5
FFB
330
0
100
AcDbSymbolTable
 70
     1
100
AcDbDimStyleTable
 71
     1
340
1048
  0
DIMSTYLE
105
1048
330
FFB
100
AcDbSymbolTableRecord
100
AcDbDimStyleTableRecord
  2
STANDARD
 70
     0
271
     8
272
     8
274
     3
279
     2
284
     8
285
     8
286
     8
340
1046
  0
ENDTAB
  0
TABLE
  2
BLOCK_RECORD
  5
FF2
330
0
100
AcDbSymbolTable
 70
     0
  0
BLOCK_RECORD
  5
105C
102
{ACAD_XDICTIONARY
360
12F8
102
}
330
FF2
100
AcDbSymbolTableRecord
100
AcDbBlockTableRecord
  2
*Model_Space
340
105F
 70
     0
280
     1
281
     0
  0
BLOCK_RECORD
  5
1058
330
FF2
100
AcDbSymbolTableRecord
100
AcDbBlockTableRecord
  2
*Paper_Space
340
105B
 70
     0
280
     1
281
     0
  0
ENDTAB
  0
ENDSEC
  0
SECTION
  2
BLOCKS
  0
BLOCK
  5
105D
330
105C
100
AcDbEntity
  8
0
100
AcDbBlockBegin
  2
*Model_Space
 70
     0
 10
0.0
 20
0.0
 30
0.0
  3
*Model_Space
  1

  0
ENDBLK
  5
105E
330
105C
100
AcDbEntity
  8
0
100
AcDbBlockEnd
  0
BLOCK
  5
1059
330
1058
100
AcDbEntity
 67
     1
  8
0
100
AcDbBlockBegin
  2
*Paper_Space
 70
     0
 10
0.0
 20
0.0
 30
0.0
  3
*Paper_Space
  1

  0
ENDBLK
  5
105A
330
1058
100
AcDbEntity
 67
     1
  8
0
100
AcDbBlockEnd
  0
ENDSEC
  0
SECTION
  2
ENTITIES
  0
POINT
  5
1F83
330
105C
100
AcDbEntity
  8
0
  6
Continuous
100
AcDbPoint
 10
0.0000000000000568
 20
410.0
 30
0.0
  0
LINE
  5
1F84
330
105C
100
AcDbEntity
  8
0
  6
Continuous
100
AcDbLine
 10
-39.00003099999998
 20
412.8874891
 30
0.0
 11
-39.00003099999998
 21
494.5
 31
0.0
  0
LINE
  5
1F85
330
105C
100
AcDbEntity
  8
0
  6
Continuous
100
AcDbLine
 10
-15.80001799999985
 20
421.8774940000001
 30
0.0
 11
-15.80001799999985
 21
494.5
 31
0.0
  0
LINE
  5
1F86
330
105C
100
AcDbEntity
  8
0
  6
Continuous
100
AcDbLine
 10
17.80001799999996
 20
421.1024929999999
 30
0.0
 11
17.80001799999996
 21
494.5
 31
0.0
  0
LINE
  5
1F87
330
105C
100
AcDbEntity
  8
0
  6
Continuous
100
AcDbLine
 10
-17.80001799999985
 20
421.1024929999999
 30
0.0
 11
-17.80001799999985
 21
494.5
 31
0.0
  0
LINE
  5
1F88
330
105C
100
AcDbEntity
  8
0
  6
Continuous
100
AcDbLine
 10
30.80001799999997
 20
416.0649938999998
 30
0.0
 11
30.80001799999997
 21
494.5
 31
0.0
  0
LINE
  5
1F89
330
105C
100
AcDbEntity
  8
0
  6
Continuous
100
AcDbLine
 10
13.50000000000006
 20
509.275108
 30
0.0
 11
13.50000000000006
 21
504.4999999999998
 31
0.0
  0
LINE
  5
1F8A
330
105C
100
AcDbEntity
  8
0
  6
Continuous
100
AcDbLine
 10
26.50000000000006
 20
335.5
 30
0.0
 11
13.50000000000006
 21
335.5
 31
0.0
  0
LINE
  5
1F8B
330
105C
100
AcDbEntity
  8
0
  6
Continuous
100
AcDbLine
 10
23.25000000000006
 20
510.0
 30
0.0
 11
16.75000000000006
 21
510.0
 31
0.0
  0
LINE
  5
1F8C
330
105C
100
AcDbEntity
  8
0
  6
Continuous
100
AcDbLine
 10
20.00000000000006
 20
509.275108
 30
0.0
 11
20.00000000000006
 21
504.4999999999998
 31
0.0
  0
LINE
  5
1F8D
330
105C
100
AcDbEntity
  8
0
  6
Continuous
100
AcDbLine
 10
26.50000000000006
 20
504.4999999999998
 30
0.0
 11
13.50000000000006
 21
504.4999999999998
 31
0.0
  0
LINE
  5
1F8E
330
105C
100
AcDbEntity
  8
0
  6
Continuous
100
AcDbLine
 10
26.50000000000006
 20
509.275108
 30
0.0
 11
26.50000000000006
 21
504.4999999999998
 31
0.0
  0
LINE
  5
1F8F
330
105C
100
AcDbEntity
  8
0
  6
Continuous
100
AcDbLine
 10
20.00000000000006
 20
330.724892
 30
0.0
 11
20.00000000000006
 21
335.5
 31
0.0
  0
LINE
  5
1F90
330
105C
100
AcDbEntity
  8
0
  6
Continuous
100
AcDbLine
 10
26.50000000000006
 20
330.724892
 30
0.0
 11
26.50000000000006
 21
335.5
 31
0.0
  0
LINE
  5
1F91
330
105C
100
AcDbEntity
  8
0
  6
Continuous
100
AcDbLine
 10
16.00000000000006
 20
501.0631330000001
 30
0.0
 11
16.00000000000006
 21
504.4999999999998
 31
0.0
  0
LINE
  5
1F92
330
105C
100
AcDbEntity
  8
0
  6
Continuous
100
AcDbLine
 10
24.00000000000006
 20
501.5969009999998
 30
0.0
 11
24.00000000000006
 21
504.4999999999998
 31
0.0
  0
LINE
  5
1F93
330
105C
100
AcDbEntity
  8
0
  6
Continuous
100
AcDbLine
 10
11.50000000000005
 20
496.0999979999998
 30
0.0
 11
11.50000000000005
 21
494.5
 31
0.0
  0
LINE
  5
1F94
330
105C
100
AcDbEntity
  8
0
  6
Continuous
100
AcDbLine
 10
13.50000000000006
 20
500.3751069999999
 30
0.0
 11
13.50000000000006
 21
496.82489
 31
0.0
  0
LINE
  5
1F95
330
105C
100
AcDbEntity
  8
0
  6
Continuous
100
AcDbLine
 10
19.300049
 20
501.0999979999998
 30
0.0
 11
16.75000000000006
 21
501.0999979999998
 31
0.0
  0
LINE
  5
1F96
330
105C
100
AcDbEntity
  8
0
  6
Continuous
100
AcDbLine
 10
16.00000000000006
 20
338.9368669999999
 30
0.0
 11
16.00000000000006
 21
335.5
 31
0.0
  0
LINE
  5
1F97
330
105C
100
AcDbEntity
  8
0
  6
Continuous
100
AcDbLine
 10
24.00000000000006
 20
338.4030990000001
 30
0.0
 11
24.00000000000006
 21
335.5
 31
0.0
  0
LINE
  5
1F98
330
105C
100
AcDbEntity
  8
0
  6
Continuous
100
AcDbLine
 10
13.50000000000006
 20
330.724892
 30
0.0
 11
13.50000000000006
 21
335.5
 31
0.0
  0
LINE
  5
1F99
330
105C
100
AcDbEntity
  8
0
  6
Continuous
100
AcDbLine
 10
13.50000000000006
 20
339.6248929999999
 30
0.0
 11
13.50000000000006
 21
343.1751099999999
 31
0.0
  0
LINE
  5
1F9A
330
105C
100
AcDbEntity
  8
0
  6
Continuous
100
AcDbLine
 10
19.300049
 20
338.9000020000001
 30
0.0
 11
16.75000000000006
 21
338.9000020000001
 31
0.0
  0
LINE
  5
1F9B
330
105C
100
AcDbEntity
  8
0
  6
Continuous
100
AcDbLine
 10
23.25000000000006
 20
330.0
 30
0.0
 11
16.75000000000006
 21
330.0
 31
0.0
  0
LINE
  5
1F9C
330
105C
100
AcDbEntity
  8
0
  6
Continuous
100
AcDbLine
 10
11.50000000000005
 20
343.9000020000002
 30
0.0
 11
30.550049
 21
343.9000020000002
 31
0.0
  0
LINE
  5
1F9D
330
105C
100
AcDbEntity
  8
0
  6
Continuous
100
AcDbLine
 10
11.50000000000005
 20
496.0999979999998
 30
0.0
 11
30.550049
 21
496.0999979999998
 31
0.0
  0
LINE
  5
1F9E
330
105C
100
AcDbEntity
  8
0
  6
Continuous
100
AcDbLine
 10
11.50000000000005
 20
343.9000020000002
 30
0.0
 11
11.50000000000005
 21
345.5
 31
0.0
  0
LINE
  5
1F9F
330
105C
100
AcDbEntity
  8
0
  6
Continuous
100
AcDbLine
 10
19.300049
 20
338.9043200000001
 30
0.0
 11
19.300049
 21
342.4000020000002
 31
0.0
  0
LINE
  5
1FA0
330
105C
100
AcDbEntity
  8
0
  6
Continuous
100
AcDbLine
 10
24.300049
 20
338.9043200000001
 30
0.0
 11
24.300049
 21
342.4000020000002
 31
0.0
  0
LINE
  5
1FA1
330
105C
100
AcDbEntity
  8
0
  6
Continuous
100
AcDbLine
 10
29.300049
 20
338.9043200000001
 30
0.0
 11
29.300049
 21
342.4000020000002
 31
0.0
  0
LINE
  5
1FA2
330
105C
100
AcDbEntity
  8
0
  6
Continuous
100
AcDbLine
 10
26.800049
 20
338.4000020000001
 30
0.0
 11
21.800049
 21
338.4000020000001
 31
0.0
  0
LINE
  5
1FA3
330
105C
100
AcDbEntity
  8
0
  6
Continuous
100
AcDbLine
 10
-29.29998799999993
 20
338.9043200000001
 30
0.0
 11
-29.29998799999993
 21
342.4000020000002
 31
0.0
  0
LINE
  5
1FA4
330
105C
100
AcDbEntity
  8
0
  6
Continuous
100
AcDbLine
 10
-24.29998799999993
 20
338.9043200000001
 30
0.0
 11
-24.29998799999993
 21
342.4000020000002
 31
0.0
  0
LINE
  5
1FA5
330
105C
100
AcDbEntity
  8
0
  6
Continuous
100
AcDbLine
 10
-19.29998799999992
 20
338.9043200000001
 30
0.0
 11
-19.29998799999992
 21
342.4000020000002
 31
0.0
  0
LINE
  5
1FA6
330
105C
100
AcDbEntity
  8
0
  6
Continuous
100
AcDbLine
 10
-21.79998799999993
 20
338.4000020000001
 30
0.0
 11
-26.79998799999993
 21
338.4000020000001
 31
0.0
  0
LINE
  5
1FA7
330
105C
100
AcDbEntity
  8
0
  6
Continuous
100
AcDbLine
 10
29.300049
 20
501.0956799999998
 30
0.0
 11
29.300049
 21
497.5999979999998
 31
0.0
  0
LINE
  5
1FA8
330
105C
100
AcDbEntity
  8
0
  6
Continuous
100
AcDbLine
 10
24.300049
 20
501.0956799999998
 30
0.0
 11
24.300049
 21
497.5999979999998
 31
0.0
  0
LINE
  5
1FA9
330
105C
100
AcDbEntity
  8
0
  6
Continuous
100
AcDbLine
 10
19.300049
 20
501.0956799999998
 30
0.0
 11
19.300049
 21
497.5999979999998
 31
0.0
  0
LINE
  5
1FAA
330
105C
100
AcDbEntity
  8
0
  6
Continuous
100
AcDbLine
 10
21.800049
 20
501.5999979999998
 30
0.0
 11
26.800049
 21
501.5999979999998
 31
0.0
  0
LINE
  5
1FAB
330
105C
100
AcDbEntity
  8
0
  6
Continuous
100
AcDbLine
 10
-19.29998799999992
 20
501.0956799999998
 30
0.0
 11
-19.29998799999992
 21
497.5999979999998
 31
0.0
  0
LINE
  5
1FAC
330
105C
100
AcDbEntity
  8
0
  6
Continuous
100
AcDbLine
 10
-24.29998799999993
 20
501.0956799999998
 30
0.0
 11
-24.29998799999993
 21
497.5999979999998
 31
0.0
  0
LINE
  5
1FAD
330
105C
100
AcDbEntity
  8
0
  6
Continuous
100
AcDbLine
 10
-29.29998799999993
 20
501.0956799999998
 30
0.0
 11
-29.29998799999993
 21
497.5999979999998
 31
0.0
  0
LINE
  5
1FAE
330
105C
100
AcDbEntity
  8
0
  6
Continuous
100
AcDbLine
 10
-26.79998799999993
 20
501.5999979999998
 30
0.0
 11
-21.79998799999993
 21
501.5999979999998
 31
0.0
  0
LINE
  5
1FAF
330
105C
100
AcDbEntity
  8
0
  6
Continuous
100
AcDbLine
 10
-30.39998799999984
 20
497.5999979999998
 30
0.0
 11
-30.39998799999984
 21
496.0999979999998
 31
0.0
  0
LINE
  5
1FB0
330
105C
100
AcDbEntity
  8
0
  6
Continuous
100
AcDbLine
 10
-18.19998699999991
 20
497.5999979999998
 30
0.0
 11
-18.19998699999991
 21
496.0999979999998
 31
0.0
  0
LINE
  5
1FB1
330
105C
100
AcDbEntity
  8
0
  6
Continuous
100
AcDbLine
 10
-30.39998799999984
 20
497.5999979999998
 30
0.0
 11
-18.19998699999991
 21
497.5999979999998
 31
0.0
  0
LINE
  5
1FB2
330
105C
100
AcDbEntity
  8
0
  6
Continuous
100
AcDbLine
 10
-18.04998799999992
 20
496.0999979999998
 30
0.0
 11
-18.04998799999992
 21
494.5
 31
0.0
  0
LINE
  5
1FB3
330
105C
100
AcDbEntity
  8
0
  6
Continuous
100
AcDbLine
 10
-30.54998799999993
 20
496.0999979999998
 30
0.0
 11
-18.04998799999992
 21
496.0999979999998
 31
0.0
  0
LINE
  5
1FB4
330
105C
100
AcDbEntity
  8
0
  6
Continuous
100
AcDbLine
 10
-30.54998799999993
 20
496.0999979999998
 30
0.0
 11
-30.54998799999993
 21
494.5
 31
0.0
  0
LINE
  5
1FB5
330
105C
100
AcDbEntity
  8
0
  6
Continuous
100
AcDbLine
 10
18.20004799999998
 20
497.5999979999998
 30
0.0
 11
18.20004799999998
 21
496.0999979999998
 31
0.0
  0
LINE
  5
1FB6
330
105C
100
AcDbEntity
  8
0
  6
Continuous
100
AcDbLine
 10
30.40004900000014
 20
497.5999979999998
 30
0.0
 11
30.40004900000014
 21
496.0999979999998
 31
0.0
  0
LINE
  5
1FB7
330
105C
100
AcDbEntity
  8
0
  6
Continuous
100
AcDbLine
 10
18.20004799999998
 20
497.5999979999998
 30
0.0
 11
30.40004900000014
 21
497.5999979999998
 31
0.0
  0
LINE
  5
1FB8
330
105C
100
AcDbEntity
  8
0
  6
Continuous
100
AcDbLine
 10
30.550049
 20
496.0999979999998
 30
0.0
 11
30.550049
 21
494.5
 31
0.0
  0
LINE
  5
1FB9
330
105C
100
AcDbEntity
  8
0
  6
Continuous
100
AcDbLine
 10
18.050049
 20
496.0999979999998
 30
0.0
 11
18.050049
 21
494.5
 31
0.0
  0
LINE
  5
1FBA
330
105C
100
AcDbEntity
  8
0
  6
Continuous
100
AcDbLine
 10
30.40004900000014
 20
342.4000020000002
 30
0.0
 11
30.40004900000014
 21
343.9000020000002
 31
0.0
  0
LINE
  5
1FBB
330
105C
100
AcDbEntity
  8
0
  6
Continuous
100
AcDbLine
 10
18.20004799999998
 20
342.4000020000002
 30
0.0
 11
18.20004799999998
 21
343.9000020000002
 31
0.0
  0
LINE
  5
1FBC
330
105C
100
AcDbEntity
  8
0
  6
Continuous
100
AcDbLine
 10
30.40004900000014
 20
342.4000020000002
 30
0.0
 11
18.20004799999998
 21
342.4000020000002
 31
0.0
  0
LINE
  5
1FBD
330
105C
100
AcDbEntity
  8
0
  6
Continuous
100
AcDbLine
 10
18.050049
 20
343.9000020000002
 30
0.0
 11
18.050049
 21
345.5
 31
0.0
  0
LINE
  5
1FBE
330
105C
100
AcDbEntity
  8
0
  6
Continuous
100
AcDbLine
 10
30.550049
 20
343.9000020000002
 30
0.0
 11
30.550049
 21
345.5
 31
0.0
  0
LINE
  5
1FBF
330
105C
100
AcDbEntity
  8
0
  6
Continuous
100
AcDbLine
 10
-18.19998699999991
 20
342.4000020000002
 30
0.0
 11
-18.19998699999991
 21
343.9000020000002
 31
0.0
  0
LINE
  5
1FC0
330
105C
100
AcDbEntity
  8
0
  6
Continuous
100
AcDbLine
 10
-30.39998799999984
 20
342.4000020000002
 30
0.0
 11
-30.39998799999984
 21
343.9000020000002
 31
0.0
  0
LINE
  5
1FC1
330
105C
100
AcDbEntity
  8
0
  6
Continuous
100
AcDbLine
 10
-18.19998699999991
 20
342.4000020000002
 30
0.0
 11
-30.39998799999984
 21
342.4000020000002
 31
0.0
  0
LINE
  5
1FC2
330
105C
100
AcDbEntity
  8
0
  6
Continuous
100
AcDbLine
 10
-30.54998799999993
 20
343.9000020000002
 30
0.0
 11
-30.54998799999993
 21
345.5
 31
0.0
  0
LINE
  5
1FC3
330
105C
100
AcDbEntity
  8
0
  6
Continuous
100
AcDbLine
 10
-18.04998799999992
 20
343.9000020000002
 30
0.0
 11
-30.54998799999993
 21
343.9000020000002
 31
0.0
  0
LINE
  5
1FC4
330
105C
100
AcDbEntity
  8
0
  6
Continuous
100
AcDbLine
 10
-18.04998799999992
 20
343.9000020000002
 30
0.0
 11
-18.04998799999992
 21
345.5
 31
0.0
  0
LINE
  5
1FC5
330
105C
100
AcDbEntity
  8
0
  6
Continuous
100
AcDbLine
 10
30.80001799999997
 20
345.5
 30
0.0
 11
30.80001799999997
 21
403.9350061
 31
0.0
  0
LINE
  5
1FC6
330
105C
100
AcDbEntity
  8
0
  6
Continuous
100
AcDbLine
 10
-30.80001799999986
 20
345.5
 30
0.0
 11
-30.80001799999986
 21
403.9350061
 31
0.0
  0
LINE
  5
1FC7
330
105C
100
AcDbEntity
  8
0
  6
Continuous
100
AcDbLine
 10
-39.00003099999998
 20
345.5
 30
0.0
 11
-39.00003099999998
 21
407.1125108999998
 31
0.0
  0
LINE
  5
1FC8
330
105C
100
AcDbEntity
  8
0
  6
Continuous
100
AcDbLine
 10
-15.80001799999985
 20
345.5
 30
0.0
 11
-15.80001799999985
 21
398.1225059999999
 31
0.0
  0
LINE
  5
1FC9
330
105C
100
AcDbEntity
  8
0
  6
Continuous
100
AcDbLine
 10
15.80001799999996
 20
345.5
 30
0.0
 11
15.80001799999996
 21
398.1225059999999
 31
0.0
  0
LINE
  5
1FCA
330
105C
100
AcDbEntity
  8
0
  6
Continuous
100
AcDbLine
 10
17.80001799999996
 20
345.5
 30
0.0
 11
17.80001799999996
 21
398.8975069999998
 31
0.0
  0
LINE
  5
1FCB
330
105C
100
AcDbEntity
  8
0
  6
Continuous
100
AcDbLine
 10
15.80001799999996
 20
421.8774940000001
 30
0.0
 11
15.80001799999996
 21
494.5
 31
0.0
  0
LINE
  5
1FCC
330
105C
100
AcDbEntity
  8
0
  6
Continuous
100
AcDbLine
 10
-39.00003099999998
 20
350.4998780000001
 30
0.0
 11
38.99996900000002
 21
350.4998780000001
 31
0.0
  0
LINE
  5
1FCD
330
105C
100
AcDbEntity
  8
0
  6
Continuous
100
AcDbLine
 10
-39.00003099999998
 20
489.5
 30
0.0
 11
38.99996900000002
 21
489.5
 31
0.0
  0
LINE
  5
1FCE
330
105C
100
AcDbEntity
  8
0
  6
Continuous
100
AcDbLine
 10
-17.80001799999985
 20
345.5
 30
0.0
 11
-17.80001799999985
 21
398.8975069999998
 31
0.0
  0
LINE
  5
1FCF
330
105C
100
AcDbEntity
  8
0
  6
Continuous
100
AcDbLine
 10
-30.80001799999986
 20
416.0649938999998
 30
0.0
 11
-30.80001799999986
 21
494.5
 31
0.0
  0
LINE
  5
1FD0
330
105C
100
AcDbEntity
  8
0
  6
Continuous
100
AcDbLine
 10
38.99996900000002
 20
345.5
 30
0.0
 11
38.99996900000002
 21
407.1124870999998
 31
0.0
  0
LINE
  5
1FD1
330
105C
100
AcDbEntity
  8
0
  6
Continuous
100
AcDbLine
 10
-38.99999999999995
 20
494.5
 30
0.0
 11
38.99996900000002
 21
494.5
 31
0.0
  0
LINE
  5
1FD2
330
105C
100
AcDbEntity
  8
0
  6
Continuous
100
AcDbLine
 10
-38.99999999999995
 20
345.5
 30
0.0
 11
38.99996900000002
 21
345.5
 31
0.0
  0
LINE
  5
1FD3
330
105C
100
AcDbEntity
  8
0
  6
Continuous
100
AcDbLine
 10
-0.0000001055979624
 20
428.0
 30
0.0
 11
39.91984200000008
 21
412.5310630999998
 31
0.0
  0
LINE
  5
1FD4
330
105C
100
AcDbEntity
  8
0
  6
Continuous
100
AcDbLine
 10
-39.91984199999996
 20
412.5310630999998
 30
0.0
 11
0.0000001055980761
 21
428.0
 31
0.0
  0
LINE
  5
1FD5
330
105C
100
AcDbEntity
  8
0
  6
Continuous
100
AcDbLine
 10
-39.91984199999996
 20
407.4689369
 30
0.0
 11
0.0000001055980761
 21
392.0
 31
0.0
  0
LINE
  5
1FD6
330
105C
100
AcDbEntity
  8
0
  6
Continuous
100
AcDbLine
 10
39.91984200000008
 20
407.4689369
 30
0.0
 11
-0.0000001055979624
 21
392.0
 31
0.0
  0
LINE
  5
1FD7
330
105C
100
AcDbEntity
  8
0
  6
Continuous
100
AcDbLine
 10
38.99996900000002
 20
412.8875128999999
 30
0.0
 11
38.99996900000002
 21
494.5
 31
0.0
  0
LINE
  5
1FD8
330
105C
100
AcDbEntity
  8
0
  6
Continuous
100
AcDbLine
 10
-70.00003099999998
 20
442.0
 30
0.0
 11
-70.00003099999998
 21
378.0
 31
0.0
  0
LINE
  5
1FD9
330
105C
100
AcDbEntity
  8
0
  6
Continuous
100
AcDbLine
 10
-70.00003099999998
 20
442.0
 30
0.0
 11
-67.71018999999995
 21
442.0
 31
0.0
  0
LINE
  5
1FDA
330
105C
100
AcDbEntity
  8
0
  6
Continuous
100
AcDbLine
 10
-66.95845000000002
 20
441.4736099999998
 30
0.0
 11
-65.22680699999995
 21
436.715958
 31
0.0
  0
LINE
  5
1FDB
330
105C
100
AcDbEntity
  8
0
  6
Continuous
100
AcDbLine
 10
-63.34741200000002
 20
384.6000059999998
 30
0.0
 11
-45.10000599999982
 21
384.6000059999998
 31
0.0
  0
LINE
  5
1FDC
330
105C
100
AcDbEntity
  8
0
  6
Continuous
100
AcDbLine
 10
-70.00003099999998
 20
378.0
 30
0.0
 11
-67.71018999999995
 21
378.0
 31
0.0
  0
LINE
  5
1FDD
330
105C
100
AcDbEntity
  8
0
  6
Continuous
100
AcDbLine
 10
-66.95844299999993
 20
378.526388
 30
0.0
 11
-65.22679899999997
 21
383.284044
 31
0.0
  0
LINE
  5
1FDE
330
105C
100
AcDbEntity
  8
0
  6
Continuous
100
AcDbLine
 10
-64.74783299999984
 20
384.6000059999998
 30
0.0
 11
-64.74783299999984
 21
435.4000019999999
 31
0.0
  0
LINE
  5
1FDF
330
105C
100
AcDbEntity
  8
0
  6
Continuous
100
AcDbLine
 10
66.95839699999993
 20
441.473618
 30
0.0
 11
65.2267460000001
 21
436.71595
 31
0.0
  0
LINE
  5
1FE0
330
105C
100
AcDbEntity
  8
0
  6
Continuous
100
AcDbLine
 10
69.99996900000002
 20
442.0
 30
0.0
 11
69.99996900000002
 21
378.0
 31
0.0
  0
LINE
  5
1FE1
330
105C
100
AcDbEntity
  8
0
  6
Continuous
100
AcDbLine
 10
-45.10000599999982
 20
435.4000019999999
 30
0.0
 11
-63.34741200000002
 21
435.4000019999999
 31
0.0
  0
LINE
  5
1FE2
330
105C
100
AcDbEntity
  8
0
  6
Continuous
100
AcDbLine
 10
69.99996900000002
 20
378.0
 30
0.0
 11
67.71014399999995
 21
378.0
 31
0.0
  0
LINE
  5
1FE3
330
105C
100
AcDbEntity
  8
0
  6
Continuous
100
AcDbLine
 10
-43.10000599999983
 20
379.0
 30
0.0
 11
-43.10000599999983
 21
441.0000079999998
 31
0.0
  0
LINE
  5
1FE4
330
105C
100
AcDbEntity
  8
0
  6
Continuous
100
AcDbLine
 10
-67.15003999999993
 20
441.4736099999998
 30
0.0
 11
-67.15003999999993
 21
378.526388
 31
0.0
  0
LINE
  5
1FE5
330
105C
100
AcDbEntity
  8
0
  6
Continuous
100
AcDbLine
 10
69.99996900000002
 20
442.0
 30
0.0
 11
67.71014399999995
 21
442.0
 31
0.0
  0
LINE
  5
1FE6
330
105C
100
AcDbEntity
  8
0
  6
Continuous
100
AcDbLine
 10
66.95838899999995
 20
378.5263819999999
 30
0.0
 11
65.22673800000013
 21
383.28404
 31
0.0
  0
LINE
  5
1FE7
330
105C
100
AcDbEntity
  8
0
  6
Continuous
100
AcDbLine
 10
63.34735099999996
 20
435.3999940000001
 30
0.0
 11
44.02498999999993
 21
435.3999940000001
 31
0.0
  0
LINE
  5
1FE8
330
105C
100
AcDbEntity
  8
0
  6
Continuous
100
AcDbLine
 10
67.1499790000001
 20
441.473618
 30
0.0
 11
67.1499790000001
 21
379.4552229999999
 31
0.0
  0
LINE
  5
1FE9
330
105C
100
AcDbEntity
  8
0
  6
Continuous
100
AcDbLine
 10
63.34735099999996
 20
384.5999979999999
 30
0.0
 11
44.02498999999993
 21
384.5999979999999
 31
0.0
  0
LINE
  5
1FEA
330
105C
100
AcDbEntity
  8
0
  6
Continuous
100
AcDbLine
 10
64.747772
 20
384.5999979999999
 30
0.0
 11
64.747772
 21
435.3999940000001
 31
0.0
  0
LINE
  5
1FEB
330
105C
100
AcDbEntity
  8
0
  6
Continuous
100
AcDbLine
 10
44.77500500000002
 20
459.2193645028562
 30
0.0
 11
44.77500500000002
 21
467.9999959999998
 31
0.0
  0
LINE
  5
1FEC
330
105C
100
AcDbEntity
  8
0
  6
Continuous
100
AcDbLine
 10
39.52500500000002
 20
342.999992
 30
0.0
 11
44.77500500000002
 21
342.999992
 31
0.0
  0
LINE
  5
1FED
330
105C
100
AcDbEntity
  8
0
  6
Continuous
100
AcDbLine
 10
39.52500500000002
 20
342.999992
 30
0.0
 11
39.52500500000002
 21
354.999992
 31
0.0
  0
LINE
  5
1FEE
330
105C
100
AcDbEntity
  8
0
  6
Continuous
100
AcDbLine
 10
31.02502099999998
 20
344.0
 30
0.0
 11
31.02502099999998
 21
345.5
 31
0.0
  0
LINE
  5
1FEF
330
105C
100
AcDbEntity
  8
0
  6
Continuous
100
AcDbLine
 10
38.99996900000002
 20
467.9999959999998
 30
0.0
 11
44.77500500000002
 21
467.9999959999998
 31
0.0
  0
LINE
  5
1FF0
330
105C
100
AcDbEntity
  8
0
  6
Continuous
100
AcDbLine
 10
44.77500500000002
 20
342.999992
 30
0.0
 11
44.77500500000002
 21
358.6458399999998
 31
0.0
  0
LINE
  5
1FF1
330
105C
100
AcDbEntity
  8
0
  6
Continuous
100
AcDbLine
 10
44.02498999999993
 20
358.6458399999998
 30
0.0
 11
44.02498999999993
 21
462.3339389999999
 31
0.0
  0
LINE
  5
1FF2
330
105C
100
AcDbEntity
  8
0
  6
Continuous
100
AcDbLine
 10
38.99996900000002
 20
358.6458399999998
 30
0.0
 11
44.77500500000002
 21
358.6458399999998
 31
0.0
  0
LINE
  5
1FF3
330
105C
100
AcDbEntity
  8
0
  6
Continuous
100
AcDbLine
 10
38.99996900000002
 20
462.3339389999999
 30
0.0
 11
44.02498999999993
 21
462.3339389999999
 31
0.0
  0
LINE
  5
1FF4
330
105C
100
AcDbEntity
  8
0
  6
Continuous
100
AcDbLine
 10
39.27498999999995
 20
354.472137
 30
0.0
 11
39.27498999999995
 21
345.527863
 31
0.0
  0
LINE
  5
1FF5
330
105C
100
AcDbEntity
  8
0
  6
Continuous
100
AcDbLine
 10
32.42498400000005
 20
334.0
 30
0.0
 11
32.42498400000005
 21
342.79306
 31
0.0
  0
LINE
  5
1FF6
330
105C
100
AcDbEntity
  8
0
  6
Continuous
100
AcDbLine
 10
32.42498400000005
 20
334.0
 30
0.0
 11
38.12498099999999
 21
334.0
 31
0.0
  0
LINE
  5
1FF7
330
105C
100
AcDbEntity
  8
0
  6
Continuous
100
AcDbLine
 10
38.12498099999999
 20
334.0
 30
0.0
 11
38.12498099999999
 21
342.7930530000001
 31
0.0
  0
CIRCLE
  5
1FF8
330
105C
100
AcDbEntity
  8
0
  6
Continuous
100
AcDbCircle
 10
0.0000000000000568
 20
410.0
 30
0.0
 40
6.0999999
  0
ARC
  5
1FF9
330
105C
100
AcDbEntity
  8
0
  6
Continuous
100
AcDbCircle
 10
23.25000000000006
 20
502.352005
 30
0.0
 40
7.647994500000001
100
AcDbArc
 50
64.8526369999961
 51
115.1473599999984
  0
ARC
  5
1FFA
330
105C
100
AcDbEntity
  8
0
  6
Continuous
100
AcDbCircle
 10
16.75000000000006
 20
502.352005
 30
0.0
 40
7.647994500000001
100
AcDbArc
 50
64.8526369999961
 51
115.1473599999984
  0
ARC
  5
1FFB
330
105C
100
AcDbEntity
  8
0
  6
Continuous
100
AcDbCircle
 10
16.75000000000006
 20
337.647995
 30
0.0
 40
7.647994500000001
100
AcDbArc
 50
244.8526400000016
 51
295.1473599999983
  0
ARC
  5
1FFC
330
105C
100
AcDbEntity
  8
0
  6
Continuous
100
AcDbCircle
 10
16.75000000000006
 20
493.452003
 30
0.0
 40
7.647994999999998
100
AcDbArc
 50
70.52307400000104
 51
115.1473599999984
  0
ARC
  5
1FFD
330
105C
100
AcDbEntity
  8
0
  6
Continuous
100
AcDbCircle
 10
23.25000000000006
 20
337.647995
 30
0.0
 40
7.647994500000001
100
AcDbArc
 50
244.8526400000016
 51
295.1473599999983
  0
ARC
  5
1FFE
330
105C
100
AcDbEntity
  8
0
  6
Continuous
100
AcDbCircle
 10
16.75000000000006
 20
503.7479929999998
 30
0.0
 40
7.647994999999998
100
AcDbArc
 50
244.8526400000016
 51
280.9293599999961
  0
ARC
  5
1FFF
330
105C
100
AcDbEntity
  8
0
  6
Continuous
100
AcDbCircle
 10
16.75000000000006
 20
346.5479969999998
 30
0.0
 40
7.647994999999998
100
AcDbArc
 50
244.8526400000016
 51
289.4769299999937
  0
ARC
  5
2000
330
105C
100
AcDbEntity
  8
0
  6
Continuous
100
AcDbCircle
 10
16.75000000000006
 20
336.252007
 30
0.0
 40
7.647994999999998
100
AcDbArc
 50
79.07064000000396
 51
115.1473599999984
  0
ARC
  5
2001
330
105C
100
AcDbEntity
  8
0
  6
Continuous
100
AcDbCircle
 10
21.800049
 20
344.848663
 30
0.0
 40
6.4486594
100
AcDbArc
 50
247.1899399999982
 51
292.8100600000018
  0
ARC
  5
2002
330
105C
100
AcDbEntity
  8
0
  6
Continuous
100
AcDbCircle
 10
26.800049
 20
344.848663
 30
0.0
 40
6.4486594
100
AcDbArc
 50
247.1899399999982
 51
292.8100600000018
  0
ARC
  5
2003
330
105C
100
AcDbEntity
  8
0
  6
Continuous
100
AcDbCircle
 10
-26.79998799999993
 20
344.848663
 30
0.0
 40
6.4486594
100
AcDbArc
 50
247.1899399999982
 51
292.8100600000018
  0
ARC
  5
2004
330
105C
100
AcDbEntity
  8
0
  6
Continuous
100
AcDbCircle
 10
-21.79998799999993
 20
344.848663
 30
0.0
 40
6.4486594
100
AcDbArc
 50
247.1899399999982
 51
292.8100600000018
  0
ARC
  5
2005
330
105C
100
AcDbEntity
  8
0
  6
Continuous
100
AcDbCircle
 10
26.800049
 20
495.1513369999998
 30
0.0
 40
6.4486594
100
AcDbArc
 50
67.18994099999324
 51
112.8100600000017
  0
ARC
  5
2006
330
105C
100
AcDbEntity
  8
0
  6
Continuous
100
AcDbCircle
 10
21.800049
 20
495.1513369999998
 30
0.0
 40
6.4486594
100
AcDbArc
 50
67.18994099999324
 51
112.8100600000017
  0
ARC
  5
2007
330
105C
100
AcDbEntity
  8
0
  6
Continuous
100
AcDbCircle
 10
-21.79998799999993
 20
495.1513369999998
 30
0.0
 40
6.4486594
100
AcDbArc
 50
67.18994099999324
 51
112.8100600000017
  0
ARC
  5
2008
330
105C
100
AcDbEntity
  8
0
  6
Continuous
100
AcDbCircle
 10
-26.79998799999993
 20
495.1513369999998
 30
0.0
 40
6.4486594
100
AcDbArc
 50
67.18994099999324
 51
112.8100600000017
  0
CIRCLE
  5
2009
330
105C
100
AcDbEntity
  8
0
  6
Continuous
100
AcDbCircle
 10
23.79409800000013
 20
386.205811
 30
0.0
 40
3.5
  0
CIRCLE
  5
200A
330
105C
100
AcDbEntity
  8
0
  6
Continuous
100
AcDbCircle
 10
23.79409800000013
 20
386.205811
 30
0.0
 40
4.0
  0
CIRCLE
  5
200B
330
105C
100
AcDbEntity
  8
0
  6
Continuous
100
AcDbCircle
 10
23.79409800000013
 20
433.794067
 30
0.0
 40
3.5
  0
CIRCLE
  5
200C
330
105C
100
AcDbEntity
  8
0
  6
Continuous
100
AcDbCircle
 10
-23.79421999999994
 20
386.205811
 30
0.0
 40
3.5
  0
CIRCLE
  5
200D
330
105C
100
AcDbEntity
  8
0
  6
Continuous
100
AcDbCircle
 10
-23.79421999999994
 20
386.205811
 30
0.0
 40
4.0
  0
CIRCLE
  5
200E
330
105C
100
AcDbEntity
  8
0
  6
Continuous
100
AcDbCircle
 10
-23.79421999999994
 20
433.794067
 30
0.0
 40
3.5
  0
CIRCLE
  5
200F
330
105C
100
AcDbEntity
  8
0
  6
Continuous
100
AcDbCircle
 10
23.79409800000013
 20
433.794067
 30
0.0
 40
4.0
  0
CIRCLE
  5
2010
330
105C
100
AcDbEntity
  8
0
  6
Continuous
100
AcDbCircle
 10
-23.79421999999994
 20
433.794067
 30
0.0
 40
4.0
  0
CIRCLE
  5
2011
330
105C
100
AcDbEntity
  8
0
  6
Continuous
100
AcDbCircle
 10
0.0000000000000568
 20
410.0
 30
0.0
 40
5.25
  0
ARC
  5
2012
330
105C
100
AcDbEntity
  8
0
  6
Continuous
100
AcDbCircle
 10
0.0000000000000568
 20
410.0
 30
0.0
 40
40.0
100
AcDbArc
 50
176.3720999999972
 51
183.6279000000028
  0
ARC
  5
2013
330
105C
100
AcDbEntity
  8
0
  6
Continuous
100
AcDbCircle
 10
0.0000000000000568
 20
410.0
 30
0.0
 40
40.0
100
AcDbArc
 50
356.3720999999972
 51
3.627902400006008
  0
ARC
  5
2014
330
105C
100
AcDbEntity
  8
0
  6
Continuous
100
AcDbCircle
 10
67.71014399999995
 20
378.800003
 30
0.0
 40
0.8000000099999999
100
AcDbArc
 50
200.0000300000031
 51
270.0
  0
ARC
  5
2015
330
105C
100
AcDbEntity
  8
0
  6
Continuous
100
AcDbCircle
 10
-67.71018999999995
 20
441.1999969999998
 30
0.0
 40
0.8000000099999999
100
AcDbArc
 50
20.00002900000571
 51
90.0
  0
ARC
  5
2016
330
105C
100
AcDbEntity
  8
0
  6
Continuous
100
AcDbCircle
 10
-63.34741200000002
 20
437.4000020000001
 30
0.0
 40
2.0
100
AcDbArc
 50
199.9999799999974
 51
270.0
  0
ARC
  5
2017
330
105C
100
AcDbEntity
  8
0
  6
Continuous
100
AcDbCircle
 10
-67.71018999999995
 20
378.800003
 30
0.0
 40
0.8000000099999999
100
AcDbArc
 50
270.0
 51
339.9999699999969
  0
ARC
  5
2018
330
105C
100
AcDbEntity
  8
0
  6
Continuous
100
AcDbCircle
 10
-63.34741200000002
 20
382.6000059999998
 30
0.0
 40
2.0
100
AcDbArc
 50
90.0
 51
160.0000200000025
  0
ARC
  5
2019
330
105C
100
AcDbEntity
  8
0
  6
Continuous
100
AcDbCircle
 10
-45.10000599999982
 20
437.4000020000001
 30
0.0
 40
2.0
100
AcDbArc
 50
270.0
 51
0.0
  0
ARC
  5
201A
330
105C
100
AcDbEntity
  8
0
  6
Continuous
100
AcDbCircle
 10
-38.10000599999984
 20
441.0000079999998
 30
0.0
 40
5.0
100
AcDbArc
 50
100.3700499999943
 51
180.0
  0
ARC
  5
201B
330
105C
100
AcDbEntity
  8
0
  6
Continuous
100
AcDbCircle
 10
-45.10000599999982
 20
382.5999979999999
 30
0.0
 40
2.0
100
AcDbArc
 50
0.0
 51
90.0
  0
ARC
  5
201C
330
105C
100
AcDbEntity
  8
0
  6
Continuous
100
AcDbCircle
 10
-38.10000599999984
 20
379.0
 30
0.0
 40
5.0
100
AcDbArc
 50
180.0
 51
259.6299500000057
  0
ARC
  5
201D
330
105C
100
AcDbEntity
  8
0
  6
Continuous
100
AcDbCircle
 10
67.71014399999995
 20
441.1999969999998
 30
0.0
 40
0.8000000099999999
100
AcDbArc
 50
90.0
 51
159.9999699999968
  0
ARC
  5
201E
330
105C
100
AcDbEntity
  8
0
  6
Continuous
100
AcDbCircle
 10
63.34735099999996
 20
437.399994
 30
0.0
 40
2.0
100
AcDbArc
 50
270.0
 51
340.0000200000026
  0
ARC
  5
201F
330
105C
100
AcDbEntity
  8
0
  6
Continuous
100
AcDbCircle
 10
-27.99999999999994
 20
410.0
 30
0.0
 40
13.0
100
AcDbArc
 50
147.796019999999
 51
212.203980000001
  0
ARC
  5
2020
330
105C
100
AcDbEntity
  8
0
  6
Continuous
100
AcDbCircle
 10
63.34735099999996
 20
382.5999979999999
 30
0.0
 40
2.0
100
AcDbArc
 50
19.99997800000258
 51
90.0
  0
ARC
  5
2021
330
105C
100
AcDbEntity
  8
0
  6
Continuous
100
AcDbCircle
 10
37.52498999999995
 20
354.999992
 30
0.0
 40
2.0
100
AcDbArc
 50
0.0
 51
42.48196299999796
  0
ARC
  5
2022
330
105C
100
AcDbEntity
  8
0
  6
Continuous
100
AcDbCircle
 10
30.02498999999995
 20
344.0
 30
0.0
 40
1.0
100
AcDbArc
 50
292.0279399999941
 51
0.0
  0
ARC
  5
2023
330
105C
100
AcDbEntity
  8
0
  6
Continuous
100
AcDbCircle
 10
35.27498999999995
 20
350.0
 30
0.0
 40
6.0
100
AcDbArc
 50
228.1896899999999
 51
311.8103100000001
  0
ARC
  5
2024
330
105C
100
AcDbEntity
  8
0
  6
Continuous
100
AcDbCircle
 10
35.27498999999995
 20
350.0
 30
0.0
 40
7.75
100
AcDbArc
 50
235.9248100000066
 51
303.2565639000303
  0
ARC
  5
2025
330
105C
100
AcDbEntity
  8
0
  6
Continuous
100
AcDbCircle
 10
35.27498999999995
 20
350.0
 30
0.0
 40
6.0
100
AcDbArc
 50
48.18969500000163
 51
51.62322899999864
  0
POINT
  5
2026
330
105C
100
AcDbEntity
  8
0
  6
Continuous
100
AcDbPoint
 10
0.0
 20
0.0
 30
0.0
  0
LINE
  5
2027
330
105C
100
AcDbEntity
  8
0
  6
Continuous
100
AcDbLine
 10
11.5
 20
186.5001199999999
 30
0.0
 11
11.5
 21
186.0001199999999
 31
0.0
  0
LINE
  5
2028
330
105C
100
AcDbEntity
  8
0
  6
Continuous
100
AcDbLine
 10
-13.79992700000002
 20
186.0001199999999
 30
0.0
 11
13.80004899999994
 21
186.0001199999999
 31
0.0
  0
LINE
  5
2029
330
105C
100
AcDbEntity
  8
0
  6
Continuous
100
AcDbLine
 10
-13.79992700000002
 20
186.0001199999999
 30
0.0
 11
-13.79992700000002
 21
184.5001199999999
 31
0.0
  0
LINE
  5
202A
330
105C
100
AcDbEntity
  8
0
  6
Continuous
100
AcDbLine
 10
13.80004899999994
 20
186.0001199999999
 30
0.0
 11
13.80004899999994
 21
184.5001199999999
 31
0.0
  0
LINE
  5
202B
330
105C
100
AcDbEntity
  8
0
  6
Continuous
100
AcDbLine
 10
-11.5
 20
186.5001199999999
 30
0.0
 11
-11.5
 21
186.0001199999999
 31
0.0
  0
LINE
  5
202C
330
105C
100
AcDbEntity
  8
0
  6
Continuous
100
AcDbLine
 10
-24.29990599999996
 20
171.2264299999999
 30
0.0
 11
-19.29988299999991
 21
174.11319
 31
0.0
  0
LINE
  5
202D
330
105C
100
AcDbEntity
  8
0
  6
Continuous
100
AcDbLine
 10
-19.29992700000002
 20
174.11325
 30
0.0
 11
-19.29992700000002
 21
179.88669
 31
0.0
  0
LINE
  5
202E
330
105C
100
AcDbEntity
  8
0
  6
Continuous
100
AcDbLine
 10
-19.29991700000005
 20
179.8867299999999
 30
0.0
 11
-24.29991300000006
 21
182.77348
 31
0.0
  0
LINE
  5
202F
330
105C
100
AcDbEntity
  8
0
  6
Continuous
100
AcDbLine
 10
-24.29988299999991
 20
182.7734399999999
 30
0.0
 11
-29.29990599999996
 21
179.88667
 31
0.0
  0
LINE
  5
2030
330
105C
100
AcDbEntity
  8
0
  6
Continuous
100
AcDbLine
 10
-29.29992700000003
 20
174.11325
 30
0.0
 11
-29.29992700000003
 21
179.88669
 31
0.0
  0
LINE
  5
2031
330
105C
100
AcDbEntity
  8
0
  6
Continuous
100
AcDbLine
 10
-24.29991700000006
 20
171.22647
 30
0.0
 11
-29.29991300000006
 21
174.1132199999999
 31
0.0
  0
LINE
  5
2032
330
105C
100
AcDbEntity
  8
0
  6
Continuous
100
AcDbLine
 10
29.30008100000009
 20
107.88676
 30
0.0
 11
24.30008500000008
 21
110.77351
 31
0.0
  0
LINE
  5
2033
330
105C
100
AcDbEntity
  8
0
  6
Continuous
100
AcDbLine
 10
24.30008100000009
 20
99.22650899999997
 30
0.0
 11
19.30008500000008
 21
102.1132599999999
 31
0.0
  0
LINE
  5
2034
330
105C
100
AcDbEntity
  8
0
  6
Continuous
100
AcDbLine
 10
24.30005800000003
 20
171.22647
 30
0.0
 11
19.30006200000002
 21
174.1132199999999
 31
0.0
  0
LINE
  5
2035
330
105C
100
AcDbEntity
  8
0
  6
Continuous
100
AcDbLine
 10
19.30004899999994
 20
174.11325
 30
0.0
 11
19.30004899999994
 21
179.88669
 31
0.0
  0
LINE
  5
2036
330
105C
100
AcDbEntity
  8
0
  6
Continuous
100
AcDbLine
 10
29.30005800000003
 20
179.8867299999999
 30
0.0
 11
24.30006200000003
 21
182.77348
 31
0.0
  0
LINE
  5
2037
330
105C
100
AcDbEntity
  8
0
  6
Continuous
100
AcDbLine
 10
29.30004899999995
 20
174.11325
 30
0.0
 11
29.30004899999995
 21
179.88669
 31
0.0
  0
LINE
  5
2038
330
105C
100
AcDbEntity
  8
0
  6
Continuous
100
AcDbLine
 10
24.30007000000001
 20
171.2264299999999
 30
0.0
 11
29.30009300000006
 21
174.11319
 31
0.0
  0
LINE
  5
2039
330
105C
100
AcDbEntity
  8
0
  6
Continuous
100
AcDbLine
 10
-24.299894
 20
99.22651700000006
 30
0.0
 11
-29.29989099999989
 21
102.11327
 31
0.0
  0
LINE
  5
203A
330
105C
100
AcDbEntity
  8
0
  6
Continuous
100
AcDbLine
 10
-19.29989399999999
 20
107.8867699999999
 30
0.0
 11
-24.29989099999989
 21
110.7735199999999
 31
0.0
  0
LINE
  5
203B
330
105C
100
AcDbEntity
  8
0
  6
Continuous
100
AcDbLine
 10
29.30004899999995
 20
102.11329
 30
0.0
 11
29.30004899999995
 21
107.8867299999999
 31
0.0
  0
LINE
  5
203C
330
105C
100
AcDbEntity
  8
0
  6
Continuous
100
AcDbLine
 10
24.300072
 20
110.77351
 30
0.0
 11
19.30004899999994
 21
107.88675
 31
0.0
  0
LINE
  5
203D
330
105C
100
AcDbEntity
  8
0
  6
Continuous
100
AcDbLine
 10
24.30004899999995
 20
99.22649399999999
 30
0.0
 11
29.300072
 21
102.1132599999999
 31
0.0
  0
LINE
  5
203E
330
105C
100
AcDbEntity
  8
0
  6
Continuous
100
AcDbLine
 10
20.00005899999997
 20
148.5055199999999
 30
0.0
 11
13.50005800000008
 21
144.75275
 31
0.0
  0
LINE
  5
203F
330
105C
100
AcDbEntity
  8
0
  6
Continuous
100
AcDbLine
 10
-30.79992700000004
 20
116.75117
 30
0.0
 11
-30.79992700000004
 21
98.50000799999998
 31
0.0
  0
LINE
  5
2040
330
105C
100
AcDbEntity
  8
0
  6
Continuous
100
AcDbLine
 10
-30.79992700000004
 20
183.4999699999999
 30
0.0
 11
-30.79992700000004
 21
165.24878
 31
0.0
  0
LINE
  5
2041
330
105C
100
AcDbEntity
  8
0
  6
Continuous
100
AcDbLine
 10
30.80004899999995
 20
116.75135
 30
0.0
 11
30.80004899999995
 21
98.50000799999998
 31
0.0
  0
LINE
  5
2042
330
105C
100
AcDbEntity
  8
0
  6
Continuous
100
AcDbLine
 10
29.80004899999995
 20
184.4999699999999
 30
0.0
 11
17.80004899999994
 21
184.4999699999999
 31
0.0
  0
LINE
  5
2043
330
105C
100
AcDbEntity
  8
0
  6
Continuous
100
AcDbLine
 10
30.80004899999995
 20
183.4999699999999
 30
0.0
 11
30.80004899999995
 21
165.24863
 31
0.0
  0
LINE
  5
2044
330
105C
100
AcDbEntity
  8
0
  6
Continuous
100
AcDbLine
 10
15.80004899999994
 20
99.50000799999997
 30
0.0
 11
-15.79992700000002
 21
99.50000799999997
 31
0.0
  0
LINE
  5
2045
330
105C
100
AcDbEntity
  8
0
  6
Continuous
100
AcDbLine
 10
17.80002599999989
 20
97.50001499999996
 30
0.0
 11
15.8000669999999
 21
99.49997699999997
 31
0.0
  0
LINE
  5
2046
330
105C
100
AcDbEntity
  8
0
  6
Continuous
100
AcDbLine
 10
15.80004899999994
 20
182.4999699999999
 30
0.0
 11
-15.79992700000002
 21
182.4999699999999
 31
0.0
  0
LINE
  5
2047
330
105C
100
AcDbEntity
  8
0
  6
Continuous
100
AcDbLine
 10
-17.79997400000002
 20
184.5
 30
0.0
 11
-15.80001599999991
 21
182.5000499999999
 31
0.0
  0
LINE
  5
2048
330
105C
100
AcDbEntity
  8
0
  6
Continuous
100
AcDbLine
 10
-17.79992700000002
 20
184.4999699999999
 30
0.0
 11
-29.79992700000003
 21
184.4999699999999
 31
0.0
  0
LINE
  5
2049
330
105C
100
AcDbEntity
  8
0
  6
Continuous
100
AcDbLine
 10
-15.799935
 20
99.50002300000006
 30
0.0
 11
-17.79993599999989
 21
97.50001499999996
 31
0.0
  0
LINE
  5
204A
330
105C
100
AcDbEntity
  8
0
  6
Continuous
100
AcDbLine
 10
17.80006200000002
 20
184.50009
 30
0.0
 11
15.80005899999992
 21
182.50008
 31
0.0
  0
LINE
  5
204B
330
105C
100
AcDbEntity
  8
0
  6
Continuous
100
AcDbLine
 10
26.5
 20
144.75278
 30
0.0
 11
26.5
 21
137.24722
 31
0.0
  0
LINE
  5
204C
330
105C
100
AcDbEntity
  8
0
  6
Continuous
100
AcDbLine
 10
-14.79992700000002
 20
184.4999699999999
 30
0.0
 11
-14.79992700000002
 21
182.4999699999999
 31
0.0
  0
LINE
  5
204D
330
105C
100
AcDbEntity
  8
0
  6
Continuous
100
AcDbLine
 10
14.80004899999994
 20
97.50000799999998
 30
0.0
 11
14.80004899999994
 21
99.50000799999997
 31
0.0
  0
LINE
  5
204E
330
105C
100
AcDbEntity
  8
0
  6
Continuous
100
AcDbLine
 10
-14.79992700000002
 20
97.50000799999998
 30
0.0
 11
-14.79992700000002
 21
99.50000799999997
 31
0.0
  0
LINE
  5
204F
330
105C
100
AcDbEntity
  8
0
  6
Continuous
100
AcDbLine
 10
14.80004899999994
 20
184.4999699999999
 30
0.0
 11
14.80004899999994
 21
182.4999699999999
 31
0.0
  0
LINE
  5
2050
330
105C
100
AcDbEntity
  8
0
  6
Continuous
100
AcDbLine
 10
14.80004899999994
 20
184.4999699999999
 30
0.0
 11
-14.79992700000002
 21
184.4999699999999
 31
0.0
  0
LINE
  5
2051
330
105C
100
AcDbEntity
  8
0
  6
Continuous
100
AcDbLine
 10
13.50012199999992
 20
137.24722
 30
0.0
 11
20.00007099999994
 21
133.49448
 31
0.0
  0
LINE
  5
2052
330
105C
100
AcDbEntity
  8
0
  6
Continuous
100
AcDbLine
 10
20.00011799999993
 20
148.50554
 30
0.0
 11
26.50006699999995
 21
144.75279
 31
0.0
  0
LINE
  5
2053
330
105C
100
AcDbEntity
  8
0
  6
Continuous
100
AcDbLine
 10
20.00005899999997
 20
133.49442
 30
0.0
 11
26.50005899999996
 21
137.24719
 31
0.0
  0
LINE
  5
2054
330
105C
100
AcDbEntity
  8
0
  6
Continuous
100
AcDbLine
 10
13.5
 20
144.75278
 30
0.0
 11
13.5
 21
137.24722
 31
0.0
  0
LINE
  5
2055
330
105C
100
AcDbEntity
  8
0
  6
Continuous
100
AcDbLine
 10
24.30009300000006
 20
182.7734399999999
 30
0.0
 11
19.30007
 21
179.88667
 31
0.0
  0
LINE
  5
2056
330
105C
100
AcDbEntity
  8
0
  6
Continuous
100
AcDbLine
 10
19.30004899999994
 20
102.11329
 30
0.0
 11
19.30004899999994
 21
107.8867299999999
 31
0.0
  0
LINE
  5
2057
330
105C
100
AcDbEntity
  8
0
  6
Continuous
100
AcDbLine
 10
-24.29993100000002
 20
99.22650099999998
 30
0.0
 11
-19.29990799999996
 21
102.11327
 31
0.0
  0
LINE
  5
2058
330
105C
100
AcDbEntity
  8
0
  6
Continuous
100
AcDbLine
 10
-29.29992700000003
 20
102.11329
 30
0.0
 11
-29.29992700000003
 21
107.8867299999999
 31
0.0
  0
LINE
  5
2059
330
105C
100
AcDbEntity
  8
0
  6
Continuous
100
AcDbLine
 10
-24.29991100000008
 20
110.7735199999999
 30
0.0
 11
-29.2999339999999
 21
107.88676
 31
0.0
  0
LINE
  5
205A
330
105C
100
AcDbEntity
  8
0
  6
Continuous
100
AcDbLine
 10
-19.29992700000002
 20
102.11329
 30
0.0
 11
-19.29992700000002
 21
107.8867299999999
 31
0.0
  0
LINE
  5
205B
330
105C
100
AcDbEntity
  8
0
  6
Continuous
100
AcDbLine
 10
40.0
 20
211.5
 30
0.0
 11
40.0
 21
186.5001199999999
 31
0.0
  0
LINE
  5
205C
330
105C
100
AcDbEntity
  8
0
  6
Continuous
100
AcDbLine
 10
-40.0
 20
186.5001199999999
 30
0.0
 11
40.0
 21
186.5001199999999
 31
0.0
  0
LINE
  5
205D
330
105C
100
AcDbEntity
  8
0
  6
Continuous
100
AcDbLine
 10
-6.099999900000057
 20
213.0
 30
0.0
 11
6.099999900000057
 21
213.0
 31
0.0
  0
LINE
  5
205E
330
105C
100
AcDbEntity
  8
0
  6
Continuous
100
AcDbLine
 10
6.099999900000057
 20
213.0
 30
0.0
 11
6.099999900000057
 21
211.5
 31
0.0
  0
LINE
  5
205F
330
105C
100
AcDbEntity
  8
0
  6
Continuous
100
AcDbLine
 10
0.0
 20
211.5
 30
0.0
 11
0.0
 21
186.5001199999999
 31
0.0
  0
LINE
  5
2060
330
105C
100
AcDbEntity
  8
0
  6
Continuous
100
AcDbLine
 10
-6.099999900000057
 20
213.0
 30
0.0
 11
-6.099999900000057
 21
211.5
 31
0.0
  0
LINE
  5
2061
330
105C
100
AcDbEntity
  8
0
  6
Continuous
100
AcDbLine
 10
-40.0
 20
211.5
 30
0.0
 11
40.0
 21
211.5
 31
0.0
  0
LINE
  5
2062
330
105C
100
AcDbEntity
  8
0
  6
Continuous
100
AcDbLine
 10
-5.25
 20
214.5270299999999
 30
0.0
 11
-5.25
 21
213.0
 31
0.0
  0
LINE
  5
2063
330
105C
100
AcDbEntity
  8
0
  6
Continuous
100
AcDbLine
 10
5.25
 20
214.5270299999999
 30
0.0
 11
5.25
 21
213.0
 31
0.0
  0
LINE
  5
2064
330
105C
100
AcDbEntity
  8
0
  6
Continuous
100
AcDbLine
 10
44.02498999999989
 20
-53.5
 30
0.0
 11
44.02498999999989
 21
-14.96836499999995
 31
0.0
  0
LINE
  5
2065
330
105C
100
AcDbEntity
  8
0
  6
Continuous
100
AcDbLine
 10
26.52498999999989
 20
-53.5
 30
0.0
 11
26.52498999999989
 21
-14.96826699999997
 31
0.0
  0
LINE
  5
2066
330
105C
100
AcDbEntity
  8
0
  6
Continuous
100
AcDbLine
 10
-70.00003100000004
 20
32.0
 30
0.0
 11
-70.00003100000004
 21
-32.0
 31
0.0
  0
LINE
  5
2067
330
105C
100
AcDbEntity
  8
0
  6
Continuous
100
AcDbLine
 10
-70.00003100000004
 20
32.0
 30
0.0
 11
-67.71019000000001
 21
32.0
 31
0.0
  0
LINE
  5
2068
330
105C
100
AcDbEntity
  8
0
  6
Continuous
100
AcDbLine
 10
-66.9584500000001
 20
31.47361000000001
 30
0.0
 11
-65.22680700000001
 21
26.715958
 31
0.0
  0
LINE
  5
2069
330
105C
100
AcDbEntity
  8
0
  6
Continuous
100
AcDbLine
 10
-63.34741200000006
 20
-25.39999399999999
 30
0.0
 11
-45.10000599999989
 21
-25.39999399999999
 31
0.0
  0
LINE
  5
206A
330
105C
100
AcDbEntity
  8
0
  6
Continuous
100
AcDbLine
 10
-70.00003100000004
 20
-32.0
 30
0.0
 11
-67.71019000000001
 21
-32.0
 31
0.0
  0
LINE
  5
206B
330
105C
100
AcDbEntity
  8
0
  6
Continuous
100
AcDbLine
 10
-66.95844299999999
 20
-31.47361200000001
 30
0.0
 11
-65.22679900000003
 21
-26.71595600000001
 31
0.0
  0
LINE
  5
206C
330
105C
100
AcDbEntity
  8
0
  6
Continuous
100
AcDbLine
 10
-64.7478329999999
 20
-25.39999399999999
 30
0.0
 11
-64.7478329999999
 21
25.40000199999997
 31
0.0
  0
LINE
  5
206D
330
105C
100
AcDbEntity
  8
0
  6
Continuous
100
AcDbLine
 10
66.95839699999989
 20
31.47361799999999
 30
0.0
 11
65.22674600000005
 21
26.71595000000002
 31
0.0
  0
LINE
  5
206E
330
105C
100
AcDbEntity
  8
0
  6
Continuous
100
AcDbLine
 10
-17.40073400000006
 20
-50.99998500000004
 30
0.0
 11
-17.40073400000006
 21
-56.99998500000003
 31
0.0
  0
LINE
  5
206F
330
105C
100
AcDbEntity
  8
0
  6
Continuous
100
AcDbLine
 10
11.5
 20
-44.62193300000001
 30
0.0
 11
11.5
 21
-47.36525700000004
 31
0.0
  0
LINE
  5
2070
330
105C
100
AcDbEntity
  8
0
  6
Continuous
100
AcDbLine
 10
-7.088688900000078
 20
-50.99998500000004
 30
0.0
 11
-7.088688900000078
 21
-56.99998500000003
 31
0.0
  0
LINE
  5
2071
330
105C
100
AcDbEntity
  8
0
  6
Continuous
100
AcDbLine
 10
17.40080299999999
 20
-50.99998500000004
 30
0.0
 11
17.40080299999999
 21
-56.99998500000003
 31
0.0
  0
LINE
  5
2072
330
105C
100
AcDbEntity
  8
0
  6
Continuous
100
AcDbLine
 10
-11.5
 20
-44.62193300000001
 30
0.0
 11
-11.5
 21
-47.36525700000004
 31
0.0
  0
LINE
  5
2073
330
105C
100
AcDbEntity
  8
0
  6
Continuous
100
AcDbLine
 10
7.088758000000098
 20
-50.99998500000004
 30
0.0
 11
7.088758000000098
 21
-56.99998500000003
 31
0.0
  0
LINE
  5
2074
330
105C
100
AcDbEntity
  8
0
  6
Continuous
100
AcDbLine
 10
10.31207900000004
 20
-50.99998500000004
 30
0.0
 11
10.31207900000004
 21
-56.99998500000003
 31
0.0
  0
LINE
  5
2075
330
105C
100
AcDbEntity
  8
0
  6
Continuous
100
AcDbLine
 10
69.99996899999996
 20
32.0
 30
0.0
 11
69.99996899999996
 21
-32.0
 31
0.0
  0
LINE
  5
2076
330
105C
100
AcDbEntity
  8
0
  6
Continuous
100
AcDbLine
 10
19.0
 20
47.50000799999997
 30
0.0
 11
19.0
 21
43.60209699999995
 31
0.0
  0
LINE
  5
2077
330
105C
100
AcDbEntity
  8
0
  6
Continuous
100
AcDbLine
 10
-19.0
 20
47.50000799999997
 30
0.0
 11
-19.0
 21
43.60208899999998
 31
0.0
  0
LINE
  5
2078
330
105C
100
AcDbEntity
  8
0
  6
Continuous
100
AcDbLine
 10
26.52498999999989
 20
-40.49999999999999
 30
0.0
 11
22.35821499999997
 21
-40.49999999999999
 31
0.0
  0
LINE
  5
2079
330
105C
100
AcDbEntity
  8
0
  6
Continuous
100
AcDbLine
 10
-45.10000599999989
 20
25.40000199999997
 30
0.0
 11
-63.34741200000006
 21
25.40000199999997
 31
0.0
  0
LINE
  5
207A
330
105C
100
AcDbEntity
  8
0
  6
Continuous
100
AcDbLine
 10
-31.59999999999991
 20
36.00000799999997
 30
0.0
 11
-38.1000059999999
 21
36.00000799999997
 31
0.0
  0
LINE
  5
207B
330
105C
100
AcDbEntity
  8
0
  6
Continuous
100
AcDbLine
 10
69.99996899999996
 20
-32.0
 30
0.0
 11
67.7101439999999
 21
-32.0
 31
0.0
  0
LINE
  5
207C
330
105C
100
AcDbEntity
  8
0
  6
Continuous
100
AcDbLine
 10
-43.10000599999989
 20
-31.0
 30
0.0
 11
-43.10000599999989
 21
31.00000799999998
 31
0.0
  0
LINE
  5
207D
330
105C
100
AcDbEntity
  8
0
  6
Continuous
100
AcDbLine
 10
-31.19942500000002
 20
-36.0
 30
0.0
 11
-38.1000059999999
 21
-36.0
 31
0.0
  0
LINE
  5
207E
330
105C
100
AcDbEntity
  8
0
  6
Continuous
100
AcDbLine
 10
26.52498999999989
 20
40.50000799999997
 30
0.0
 11
22.35821499999997
 21
40.50000799999997
 31
0.0
  0
LINE
  5
207F
330
105C
100
AcDbEntity
  8
0
  6
Continuous
100
AcDbLine
 10
-67.15003999999999
 20
31.47361000000001
 30
0.0
 11
-67.15003999999999
 21
-31.47361200000001
 31
0.0
  0
LINE
  5
2080
330
105C
100
AcDbEntity
  8
0
  6
Continuous
100
AcDbLine
 10
-28.59999999999991
 20
36.00000799999997
 30
0.0
 11
-28.59999999999991
 21
-36.0
 31
0.0
  0
LINE
  5
2081
330
105C
100
AcDbEntity
  8
0
  6
Continuous
100
AcDbLine
 10
69.99996899999996
 20
32.0
 30
0.0
 11
67.7101439999999
 21
32.0
 31
0.0
  0
LINE
  5
2082
330
105C
100
AcDbEntity
  8
0
  6
Continuous
100
AcDbLine
 10
66.9583889999999
 20
-31.47361799999999
 30
0.0
 11
65.22673800000006
 21
-26.71596
 31
0.0
  0
LINE
  5
2083
330
105C
100
AcDbEntity
  8
0
  6
Continuous
100
AcDbLine
 10
-10.3120100000001
 20
-50.99998500000004
 30
0.0
 11
-10.3120100000001
 21
-56.99998500000003
 31
0.0
  0
LINE
  5
2084
330
105C
100
AcDbEntity
  8
0
  6
Continuous
100
AcDbLine
 10
63.34735099999988
 20
25.39999399999999
 30
0.0
 11
44.02498999999989
 21
25.39999399999999
 31
0.0
  0
LINE
  5
2085
330
105C
100
AcDbEntity
  8
0
  6
Continuous
100
AcDbLine
 10
67.14997900000003
 20
31.47361799999999
 30
0.0
 11
67.14997900000003
 21
-30.54477699999996
 31
0.0
  0
LINE
  5
2086
330
105C
100
AcDbEntity
  8
0
  6
Continuous
100
AcDbLine
 10
63.34735099999988
 20
-25.40000199999997
 30
0.0
 11
44.02498999999989
 21
-25.40000199999997
 31
0.0
  0
LINE
  5
2087
330
105C
100
AcDbEntity
  8
0
  6
Continuous
100
AcDbLine
 10
64.74777199999993
 20
-25.40000199999997
 30
0.0
 11
64.74777199999993
 21
25.39999399999999
 31
0.0
  0
LINE
  5
2088
330
105C
100
AcDbEntity
  8
0
  6
Continuous
100
AcDbLine
 10
31.02517699999999
 20
-12.85751900000002
 30
0.0
 11
39.52518099999998
 21
-12.85751900000002
 31
0.0
  0
LINE
  5
2089
330
105C
100
AcDbEntity
  8
0
  6
Continuous
100
AcDbLine
 10
39.52518099999998
 20
-14.99992899999995
 30
0.0
 11
39.52518099999998
 21
-3.999929700000052
 31
0.0
  0
LINE
  5
208A
330
105C
100
AcDbEntity
  8
0
  6
Continuous
100
AcDbLine
 10
31.02517699999999
 20
-14.99992899999995
 30
0.0
 11
31.02517699999999
 21
-3.999929700000052
 31
0.0
  0
LINE
  5
208B
330
105C
100
AcDbEntity
  8
0
  6
Continuous
100
AcDbLine
 10
31.27517699999998
 20
-30.24713299999997
 30
0.0
 11
31.27517699999998
 21
-39.42812300000003
 31
0.0
  0
LINE
  5
208C
330
105C
100
AcDbEntity
  8
0
  6
Continuous
100
AcDbLine
 10
39.27518099999998
 20
-30.24712799999998
 30
0.0
 11
39.27518099999998
 21
-39.42812300000003
 31
0.0
  0
LINE
  5
208D
330
105C
100
AcDbEntity
  8
0
  6
Continuous
100
AcDbLine
 10
36.07518000000005
 20
-52.85752100000002
 30
0.0
 11
37.12517200000002
 21
-52.85752100000002
 31
0.0
  0
LINE
  5
208E
330
105C
100
AcDbEntity
  8
0
  6
Continuous
100
AcDbLine
 10
38.12517200000002
 20
-32.05751799999996
 30
0.0
 11
38.12517200000002
 21
-51.85752100000001
 31
0.0
  0
LINE
  5
208F
330
105C
100
AcDbEntity
  8
0
  6
Continuous
100
AcDbLine
 10
36.07518000000005
 20
-52.85752100000002
 30
0.0
 11
36.07518000000005
 21
-53.05753300000002
 31
0.0
  0
LINE
  5
2090
330
105C
100
AcDbEntity
  8
0
  6
Continuous
100
AcDbLine
 10
34.47517399999993
 20
-52.85752100000002
 30
0.0
 11
34.47517399999993
 21
-53.05753300000002
 31
0.0
  0
LINE
  5
2091
330
105C
100
AcDbEntity
  8
0
  6
Continuous
100
AcDbLine
 10
34.47517399999993
 20
-53.05753300000002
 30
0.0
 11
36.07518000000005
 21
-53.05753300000002
 31
0.0
  0
LINE
  5
2092
330
105C
100
AcDbEntity
  8
0
  6
Continuous
100
AcDbLine
 10
33.42517100000009
 20
-52.85752100000002
 30
0.0
 11
34.47517399999993
 21
-52.85752100000002
 31
0.0
  0
LINE
  5
2093
330
105C
100
AcDbEntity
  8
0
  6
Continuous
100
AcDbLine
 10
31.27517699999998
 20
14.42827
 30
0.0
 11
31.27517699999998
 21
-12.85751900000002
 31
0.0
  0
LINE
  5
2094
330
105C
100
AcDbEntity
  8
0
  6
Continuous
100
AcDbLine
 10
31.02517699999999
 20
15.00007100000004
 30
0.0
 11
31.02517699999999
 21
4.000070599999958
 31
0.0
  0
LINE
  5
2095
330
105C
100
AcDbEntity
  8
0
  6
Continuous
100
AcDbLine
 10
39.27518099999998
 20
14.42827
 30
0.0
 11
39.27518099999998
 21
-12.85751900000002
 31
0.0
  0
LINE
  5
2096
330
105C
100
AcDbEntity
  8
0
  6
Continuous
100
AcDbLine
 10
25.775177
 20
15.00007100000004
 30
0.0
 11
25.775177
 21
4.000070599999958
 31
0.0
  0
LINE
  5
2097
330
105C
100
AcDbEntity
  8
0
  6
Continuous
100
AcDbLine
 10
44.77518099999996
 20
15.00007100000004
 30
0.0
 11
44.77518099999996
 21
4.000070599999958
 31
0.0
  0
LINE
  5
2098
330
105C
100
AcDbEntity
  8
0
  6
Continuous
100
AcDbLine
 10
44.77518099999996
 20
-3.999929700000052
 30
0.0
 11
44.77518099999996
 21
-14.99992899999995
 31
0.0
  0
LINE
  5
2099
330
105C
100
AcDbEntity
  8
0
  6
Continuous
100
AcDbLine
 10
25.775177
 20
-3.999929700000052
 30
0.0
 11
25.775177
 21
-14.99992899999995
 31
0.0
  0
LINE
  5
209A
330
105C
100
AcDbEntity
  8
0
  6
Continuous
100
AcDbLine
 10
27.52517699999998
 20
-18.77887499999997
 30
0.0
 11
27.52517699999998
 21
-30.05751599999996
 31
0.0
  0
LINE
  5
209B
330
105C
100
AcDbEntity
  8
0
  6
Continuous
100
AcDbLine
 10
44.77518099999996
 20
-14.99992899999995
 30
0.0
 11
39.52518099999998
 21
-14.99992899999995
 31
0.0
  0
LINE
  5
209C
330
105C
100
AcDbEntity
  8
0
  6
Continuous
100
AcDbLine
 10
27.52517699999998
 20
-30.05751599999996
 30
0.0
 11
43.02518099999996
 21
-30.05751599999996
 31
0.0
  0
LINE
  5
209D
330
105C
100
AcDbEntity
  8
0
  6
Continuous
100
AcDbLine
 10
39.52518099999998
 20
4.000070599999958
 30
0.0
 11
44.77518099999996
 21
4.000070599999958
 31
0.0
  0
LINE
  5
209E
330
105C
100
AcDbEntity
  8
0
  6
Continuous
100
AcDbLine
 10
25.775177
 20
15.00007100000004
 30
0.0
 11
31.02517699999999
 21
15.00007100000004
 31
0.0
  0
LINE
  5
209F
330
105C
100
AcDbEntity
  8
0
  6
Continuous
100
AcDbLine
 10
25.775177
 20
4.000070599999958
 30
0.0
 11
31.02517699999999
 21
4.000070599999958
 31
0.0
  0
LINE
  5
20A0
330
105C
100
AcDbEntity
  8
0
  6
Continuous
100
AcDbLine
 10
25.775177
 20
-3.999929700000052
 30
0.0
 11
31.02517699999999
 21
-3.999929700000052
 31
0.0
  0
LINE
  5
20A1
330
105C
100
AcDbEntity
  8
0
  6
Continuous
100
AcDbLine
 10
25.775177
 20
-14.99992899999995
 30
0.0
 11
31.02517699999999
 21
-14.99992899999995
 31
0.0
  0
LINE
  5
20A2
330
105C
100
AcDbEntity
  8
0
  6
Continuous
100
AcDbLine
 10
39.52518099999998
 20
15.00007100000004
 30
0.0
 11
39.52518099999998
 21
4.000070599999958
 31
0.0
  0
LINE
  5
20A3
330
105C
100
AcDbEntity
  8
0
  6
Continuous
100
AcDbLine
 10
43.02518099999996
 20
-18.77887499999997
 30
0.0
 11
43.02518099999996
 21
-30.05751599999996
 31
0.0
  0
LINE
  5
20A4
330
105C
100
AcDbEntity
  8
0
  6
Continuous
100
AcDbLine
 10
44.77518099999996
 20
-3.999929700000052
 30
0.0
 11
39.52518099999998
 21
-3.999929700000052
 31
0.0
  0
LINE
  5
20A5
330
105C
100
AcDbEntity
  8
0
  6
Continuous
100
AcDbLine
 10
32.42517100000009
 20
-32.05751799999996
 30
0.0
 11
32.42517100000009
 21
-51.85752100000001
 31
0.0
  0
LINE
  5
20A6
330
105C
100
AcDbEntity
  8
0
  6
Continuous
100
AcDbLine
 10
39.52518099999998
 20
15.00007100000004
 30
0.0
 11
44.77518099999996
 21
15.00007100000004
 31
0.0
  0
LINE
  5
20A7
330
105C
100
AcDbEntity
  8
0
  6
Continuous
100
AcDbLine
 10
44.02498999999989
 20
53.5
 30
0.0
 11
26.52498999999989
 21
53.5
 31
0.0
  0
LINE
  5
20A8
330
105C
100
AcDbEntity
  8
0
  6
Continuous
100
AcDbLine
 10
44.02498999999989
 20
-53.5
 30
0.0
 11
26.52498999999989
 21
-53.5
 31
0.0
  0
LINE
  5
20A9
330
105C
100
AcDbEntity
  8
0
  6
Continuous
100
AcDbLine
 10
44.02498999999989
 20
53.5
 30
0.0
 11
44.02498999999989
 21
14.96836499999995
 31
0.0
  0
LINE
  5
20AA
330
105C
100
AcDbEntity
  8
0
  6
Continuous
100
AcDbLine
 10
17.50009199999999
 20
-57.0
 30
0.0
 11
17.50009199999999
 21
-51.0
 31
0.0
  0
LINE
  5
20AB
330
105C
100
AcDbEntity
  8
0
  6
Continuous
100
AcDbLine
 10
9.500122099999996
 20
-64.99998500000002
 30
0.0
 11
-9.499877899999999
 21
-64.99998500000002
 31
0.0
  0
LINE
  5
20AC
330
105C
100
AcDbEntity
  8
0
  6
Continuous
100
AcDbLine
 10
-17.499908
 20
-57.0
 30
0.0
 11
-17.499908
 21
-51.0
 31
0.0
  0
LINE
  5
20AD
330
105C
100
AcDbEntity
  8
0
  6
Continuous
100
AcDbLine
 10
14.49792600000001
 20
-48.0
 30
0.0
 11
-14.49987800000008
 21
-48.0
 31
0.0
  0
LINE
  5
20AE
330
105C
100
AcDbEntity
  8
0
  6
Continuous
100
AcDbLine
 10
-15.0
 20
63.49959899999999
 30
0.0
 11
-15.0
 21
61.49959899999998
 31
0.0
  0
LINE
  5
20AF
330
105C
100
AcDbEntity
  8
0
  6
Continuous
100
AcDbLine
 10
17.5
 20
61.49959899999998
 30
0.0
 11
12.5
 21
61.49959899999998
 31
0.0
  0
LINE
  5
20B0
330
105C
100
AcDbEntity
  8
0
  6
Continuous
100
AcDbLine
 10
14.75
 20
91.50047300000004
 30
0.0
 11
14.75
 21
65.50047300000007
 31
0.0
  0
LINE
  5
20B1
330
105C
100
AcDbEntity
  8
0
  6
Continuous
100
AcDbLine
 10
-14.75
 20
91.50047300000004
 30
0.0
 11
-14.75
 21
65.50047300000007
 31
0.0
  0
LINE
  5
20B2
330
105C
100
AcDbEntity
  8
0
  6
Continuous
100
AcDbLine
 10
19.0
 20
47.49959899999999
 30
0.0
 11
-19.0
 21
47.49959899999999
 31
0.0
  0
LINE
  5
20B3
330
105C
100
AcDbEntity
  8
0
  6
Continuous
100
AcDbLine
 10
-12.5
 20
63.49959899999999
 30
0.0
 11
-15.0
 21
63.49959899999999
 31
0.0
  0
LINE
  5
20B4
330
105C
100
AcDbEntity
  8
0
  6
Continuous
100
AcDbLine
 10
15.0
 20
63.49959899999999
 30
0.0
 11
15.0
 21
61.49959899999998
 31
0.0
  0
LINE
  5
20B5
330
105C
100
AcDbEntity
  8
0
  6
Continuous
100
AcDbLine
 10
-31.4882090000001
 20
91.50000799999999
 30
0.0
 11
-31.4882090000001
 21
93.50000799999998
 31
0.0
  0
LINE
  5
20B6
330
105C
100
AcDbEntity
  8
0
  6
Continuous
100
AcDbLine
 10
16.08832899999993
 20
91.50000799999999
 30
0.0
 11
31.48832900000002
 21
91.50000799999999
 31
0.0
  0
LINE
  5
20B7
330
105C
100
AcDbEntity
  8
0
  6
Continuous
100
AcDbLine
 10
18.154356
 20
83.50000799999998
 30
0.0
 11
29.42230399999994
 21
83.50000799999998
 31
0.0
  0
LINE
  5
20B8
330
105C
100
AcDbEntity
  8
0
  6
Continuous
100
AcDbLine
 10
17.28833000000008
 20
84.00000799999999
 30
0.0
 11
17.28833000000008
 21
91.50000799999999
 31
0.0
  0
LINE
  5
20B9
330
105C
100
AcDbEntity
  8
0
  6
Continuous
100
AcDbLine
 10
30.28833000000009
 20
84.00000799999999
 30
0.0
 11
30.28833000000009
 21
91.50000799999999
 31
0.0
  0
LINE
  5
20BA
330
105C
100
AcDbEntity
  8
0
  6
Continuous
100
AcDbLine
 10
17.28833000000008
 20
90.25000799999999
 30
0.0
 11
30.28833000000009
 21
90.25000799999999
 31
0.0
  0
LINE
  5
20BB
330
105C
100
AcDbEntity
  8
0
  6
Continuous
100
AcDbLine
 10
17.28833000000008
 20
84.00000799999999
 30
0.0
 11
30.28833000000009
 21
84.00000799999999
 31
0.0
  0
LINE
  5
20BC
330
105C
100
AcDbEntity
  8
0
  6
Continuous
100
AcDbLine
 10
18.15435400000001
 20
83.50000799999998
 30
0.0
 11
17.28832800000009
 21
84.00000799999999
 31
0.0
  0
LINE
  5
20BD
330
105C
100
AcDbEntity
  8
0
  6
Continuous
100
AcDbLine
 10
29.42230599999994
 20
83.50000799999998
 30
0.0
 11
30.28833200000008
 21
84.00000799999999
 31
0.0
  0
LINE
  5
20BE
330
105C
100
AcDbEntity
  8
0
  6
Continuous
100
AcDbLine
 10
15.0
 20
63.49959899999999
 30
0.0
 11
12.5
 21
63.49959899999999
 31
0.0
  0
LINE
  5
20BF
330
105C
100
AcDbEntity
  8
0
  6
Continuous
100
AcDbLine
 10
32.5
 20
97.50000799999998
 30
0.0
 11
32.5
 21
93.50000799999998
 31
0.0
  0
LINE
  5
20C0
330
105C
100
AcDbEntity
  8
0
  6
Continuous
100
AcDbLine
 10
20.0
 20
58.50000799999998
 30
0.0
 11
20.0
 21
48.50000799999998
 31
0.0
  0
LINE
  5
20C1
330
105C
100
AcDbEntity
  8
0
  6
Continuous
100
AcDbLine
 10
-20.0
 20
58.50000799999998
 30
0.0
 11
-20.0
 21
48.50000799999998
 31
0.0
  0
LINE
  5
20C2
330
105C
100
AcDbEntity
  8
0
  6
Continuous
100
AcDbLine
 10
12.5
 20
89.50000799999996
 30
0.0
 11
12.5
 21
54.50000799999997
 31
0.0
  0
LINE
  5
20C3
330
105C
100
AcDbEntity
  8
0
  6
Continuous
100
AcDbLine
 10
-41.0
 20
59.50000799999997
 30
0.0
 11
-12.5
 21
59.50000799999997
 31
0.0
  0
LINE
  5
20C4
330
105C
100
AcDbEntity
  8
0
  6
Continuous
100
AcDbLine
 10
-12.5
 20
89.50000799999996
 30
0.0
 11
-12.5
 21
54.50000799999997
 31
0.0
  0
LINE
  5
20C5
330
105C
100
AcDbEntity
  8
0
  6
Continuous
100
AcDbLine
 10
-12.5
 20
61.49959899999998
 30
0.0
 11
-41.0
 21
61.49959899999998
 31
0.0
  0
LINE
  5
20C6
330
105C
100
AcDbEntity
  8
0
  6
Continuous
100
AcDbLine
 10
-32.5
 20
93.50000799999998
 30
0.0
 11
32.5
 21
93.50000799999998
 31
0.0
  0
LINE
  5
20C7
330
105C
100
AcDbEntity
  8
0
  6
Continuous
100
AcDbLine
 10
3.345299500000009
 20
58.20000800000002
 30
0.0
 11
5.654700300000056
 21
58.20000800000002
 31
0.0
  0
LINE
  5
20C8
330
105C
100
AcDbEntity
  8
0
  6
Continuous
100
AcDbLine
 10
-32.5
 20
97.50000799999998
 30
0.0
 11
-32.5
 21
93.50000799999998
 31
0.0
  0
LINE
  5
20C9
330
105C
100
AcDbEntity
  8
0
  6
Continuous
100
AcDbLine
 10
9.5
 20
56.20000800000003
 30
0.0
 11
9.5
 21
54.50000799999997
 31
0.0
  0
LINE
  5
20CA
330
105C
100
AcDbEntity
  8
0
  6
Continuous
100
AcDbLine
 10
3.345298100000036
 20
58.20000500000002
 30
0.0
 11
2.190598700000009
 21
56.20000800000003
 31
0.0
  0
LINE
  5
20CB
330
105C
100
AcDbEntity
  8
0
  6
Continuous
100
AcDbLine
 10
5.654702699999916
 20
58.20000800000002
 30
0.0
 11
6.809402000000089
 21
56.20000800000003
 31
0.0
  0
LINE
  5
20CC
330
105C
100
AcDbEntity
  8
0
  6
Continuous
100
AcDbLine
 10
6.809399600000006
 20
56.20000500000003
 30
0.0
 11
5.654700300000056
 21
54.20000800000003
 31
0.0
  0
LINE
  5
20CD
330
105C
100
AcDbEntity
  8
0
  6
Continuous
100
AcDbLine
 10
5.654700300000056
 20
54.20000800000003
 30
0.0
 11
3.345299500000009
 21
54.20000800000003
 31
0.0
  0
LINE
  5
20CE
330
105C
100
AcDbEntity
  8
0
  6
Continuous
100
AcDbLine
 10
2.19059940000011
 20
56.20000500000003
 30
0.0
 11
3.345298799999908
 21
54.20000800000003
 31
0.0
  0
LINE
  5
20CF
330
105C
100
AcDbEntity
  8
0
  6
Continuous
100
AcDbLine
 10
-20.000002
 20
48.50000799999998
 30
0.0
 11
-19.0
 21
47.50000799999997
 31
0.0
  0
LINE
  5
20D0
330
105C
100
AcDbEntity
  8
0
  6
Continuous
100
AcDbLine
 10
19.0
 20
47.50000799999997
 30
0.0
 11
20.000002
 21
48.50000799999998
 31
0.0
  0
LINE
  5
20D1
330
105C
100
AcDbEntity
  8
0
  6
Continuous
100
AcDbLine
 10
19.0
 20
59.50000799999997
 30
0.0
 11
20.000002
 21
58.50000799999998
 31
0.0
  0
LINE
  5
20D2
330
105C
100
AcDbEntity
  8
0
  6
Continuous
100
AcDbLine
 10
-19.0
 20
59.50000799999997
 30
0.0
 11
-20.000002
 21
58.50000799999998
 31
0.0
  0
LINE
  5
20D3
330
105C
100
AcDbEntity
  8
0
  6
Continuous
100
AcDbLine
 10
-32.5
 20
97.50000799999998
 30
0.0
 11
32.5
 21
97.50000799999998
 31
0.0
  0
LINE
  5
20D4
330
105C
100
AcDbEntity
  8
0
  6
Continuous
100
AcDbLine
 10
17.5
 20
61.50000799999998
 30
0.0
 11
17.5
 21
59.50000799999997
 31
0.0
  0
LINE
  5
20D5
330
105C
100
AcDbEntity
  8
0
  6
Continuous
100
AcDbLine
 10
31.48832900000002
 20
91.50000799999999
 30
0.0
 11
31.48832900000002
 21
93.50000799999998
 31
0.0
  0
LINE
  5
20D6
330
105C
100
AcDbEntity
  8
0
  6
Continuous
100
AcDbLine
 10
12.5
 20
59.50000799999997
 30
0.0
 11
19.0
 21
59.50000799999997
 31
0.0
  0
LINE
  5
20D7
330
105C
100
AcDbEntity
  8
0
  6
Continuous
100
AcDbLine
 10
16.08832899999993
 20
91.50000799999999
 30
0.0
 11
16.08832899999993
 21
93.50000799999998
 31
0.0
  0
LINE
  5
20D8
330
105C
100
AcDbEntity
  8
0
  6
Continuous
100
AcDbLine
 10
-16.088209
 20
91.50000799999999
 30
0.0
 11
-16.088209
 21
93.50000799999998
 31
0.0
  0
LINE
  5
20D9
330
105C
100
AcDbEntity
  8
0
  6
Continuous
100
AcDbLine
 10
-31.4882090000001
 20
91.50000799999999
 30
0.0
 11
-16.088209
 21
91.50000799999999
 31
0.0
  0
LINE
  5
20DA
330
105C
100
AcDbEntity
  8
0
  6
Continuous
100
AcDbLine
 10
-0.5
 20
56.20000800000003
 30
0.0
 11
-0.5
 21
54.50000799999997
 31
0.0
  0
LINE
  5
20DB
330
105C
100
AcDbEntity
  8
0
  6
Continuous
100
AcDbLine
 10
-29.42218200000002
 20
83.50000799999998
 30
0.0
 11
-18.15423400000009
 21
83.50000799999998
 31
0.0
  0
LINE
  5
20DC
330
105C
100
AcDbEntity
  8
0
  6
Continuous
100
AcDbLine
 10
-30.28820799999995
 20
84.00000799999999
 30
0.0
 11
-30.28820799999995
 21
91.50000799999999
 31
0.0
  0
LINE
  5
20DD
330
105C
100
AcDbEntity
  8
0
  6
Continuous
100
AcDbLine
 10
-17.28820799999994
 20
84.00000799999999
 30
0.0
 11
-17.28820799999994
 21
91.50000799999999
 31
0.0
  0
LINE
  5
20DE
330
105C
100
AcDbEntity
  8
0
  6
Continuous
100
AcDbLine
 10
-30.28820799999995
 20
90.25000799999999
 30
0.0
 11
-17.28820799999994
 21
90.25000799999999
 31
0.0
  0
LINE
  5
20DF
330
105C
100
AcDbEntity
  8
0
  6
Continuous
100
AcDbLine
 10
-18.15423400000009
 20
83.50000799999998
 30
0.0
 11
-17.28820799999994
 21
84.00000799999999
 31
0.0
  0
LINE
  5
20E0
330
105C
100
AcDbEntity
  8
0
  6
Continuous
100
AcDbLine
 10
-29.42218200000002
 20
83.50000799999998
 30
0.0
 11
-30.28820799999995
 21
84.00000799999999
 31
0.0
  0
LINE
  5
20E1
330
105C
100
AcDbEntity
  8
0
  6
Continuous
100
AcDbLine
 10
-41.0
 20
61.50000799999998
 30
0.0
 11
-41.0
 21
59.50000799999997
 31
0.0
  0
LINE
  5
20E2
330
105C
100
AcDbEntity
  8
0
  6
Continuous
100
AcDbLine
 10
-30.28820799999995
 20
84.00000799999999
 30
0.0
 11
-17.28820799999994
 21
84.00000799999999
 31
0.0
  0
LINE
  5
20E3
330
105C
100
AcDbEntity
  8
0
  6
Continuous
100
AcDbLine
 10
26.52498999999989
 20
53.5
 30
0.0
 11
26.52498999999989
 21
14.96826699999997
 31
0.0
  0
LINE
  5
20E4
330
105C
100
AcDbEntity
  8
0
  6
Continuous
100
AcDbLine
 10
-40.0
 20
211.5
 30
0.0
 11
-40.0
 21
186.5001199999999
 31
0.0
  0
CIRCLE
  5
20E5
330
105C
100
AcDbEntity
  8
0
  6
Continuous
100
AcDbCircle
 10
24.30004899999995
 20
105.0000099999999
 30
0.0
 40
5.0
  0
CIRCLE
  5
20E6
330
105C
100
AcDbEntity
  8
0
  6
Continuous
100
AcDbCircle
 10
24.30004899999995
 20
176.9999699999999
 30
0.0
 40
5.0
  0
ARC
  5
20E7
330
105C
100
AcDbEntity
  8
0
  6
Continuous
100
AcDbCircle
 10
0.0
 20
140.99997
 30
0.0
 40
39.200001
100
AcDbArc
 50
141.7866100000003
 51
218.2133799999927
  0
ARC
  5
20E8
330
105C
100
AcDbEntity
  8
0
  6
Continuous
100
AcDbCircle
 10
-29.79992700000003
 20
183.4999699999999
 30
0.0
 40
1.0
100
AcDbArc
 50
90.0
 51
180.0
  0
ARC
  5
20E9
330
105C
100
AcDbEntity
  8
0
  6
Continuous
100
AcDbCircle
 10
29.80004899999995
 20
183.4999699999999
 30
0.0
 40
1.0
100
AcDbArc
 50
0.0
 51
90.0
  0
ARC
  5
20EA
330
105C
100
AcDbEntity
  8
0
  6
Continuous
100
AcDbCircle
 10
-29.79992700000003
 20
98.50000799999998
 30
0.0
 40
1.0
100
AcDbArc
 50
180.0
 51
270.0
  0
ARC
  5
20EB
330
105C
100
AcDbEntity
  8
0
  6
Continuous
100
AcDbCircle
 10
29.80004899999995
 20
98.50000799999998
 30
0.0
 40
1.0
100
AcDbArc
 50
270.0
 51
0.0
  0
CIRCLE
  5
20EC
330
105C
100
AcDbEntity
  8
0
  6
Continuous
100
AcDbCircle
 10
-24.29992700000003
 20
105.0000099999999
 30
0.0
 40
6.0
  0
CIRCLE
  5
20ED
330
105C
100
AcDbEntity
  8
0
  6
Continuous
100
AcDbCircle
 10
-24.29992700000003
 20
176.9999699999999
 30
0.0
 40
6.0
  0
CIRCLE
  5
20EE
330
105C
100
AcDbEntity
  8
0
  6
Continuous
100
AcDbCircle
 10
20.0
 20
140.99997
 30
0.0
 40
7.5
  0
CIRCLE
  5
20EF
330
105C
100
AcDbEntity
  8
0
  6
Continuous
100
AcDbCircle
 10
-20.0
 20
140.99997
 30
0.0
 40
4.8639998
  0
CIRCLE
  5
20F0
330
105C
100
AcDbEntity
  8
0
  6
Continuous
100
AcDbCircle
 10
-20.0
 20
140.99997
 30
0.0
 40
4.283
  0
CIRCLE
  5
20F1
330
105C
100
AcDbEntity
  8
0
  6
Continuous
100
AcDbCircle
 10
24.30004899999995
 20
105.0000099999999
 30
0.0
 40
6.0
  0
CIRCLE
  5
20F2
330
105C
100
AcDbEntity
  8
0
  6
Continuous
100
AcDbCircle
 10
24.30004899999995
 20
176.9999699999999
 30
0.0
 40
6.0
  0
CIRCLE
  5
20F3
330
105C
100
AcDbEntity
  8
0
  6
Continuous
100
AcDbCircle
 10
-24.29992700000003
 20
105.0000099999999
 30
0.0
 40
5.0
  0
CIRCLE
  5
20F4
330
105C
100
AcDbEntity
  8
0
  6
Continuous
100
AcDbCircle
 10
20.0
 20
140.99997
 30
0.0
 40
6.5
  0
ARC
  5
20F5
330
105C
100
AcDbEntity
  8
0
  6
Continuous
100
AcDbCircle
 10
0.0
 20
140.99997
 30
0.0
 40
39.200001
100
AcDbArc
 50
321.7869000000054
 51
38.21310599999657
  0
CIRCLE
  5
20F6
330
105C
100
AcDbEntity
  8
0
  6
Continuous
100
AcDbCircle
 10
-24.29992700000003
 20
176.9999699999999
 30
0.0
 40
5.0
  0
ARC
  5
20F7
330
105C
100
AcDbEntity
  8
0
  6
Continuous
100
AcDbCircle
 10
3.349999900000056
 20
214.5270299999999
 30
0.0
 40
1.9
100
AcDbArc
 50
0.0
 51
73.92713400000578
  0
ARC
  5
20F8
330
105C
100
AcDbEntity
  8
0
  6
Continuous
100
AcDbCircle
 10
-3.349999900000056
 20
214.5270299999999
 30
0.0
 40
1.9
100
AcDbArc
 50
106.0728599999962
 51
180.0
  0
ARC
  5
20F9
330
105C
100
AcDbEntity
  8
0
  6
Continuous
100
AcDbCircle
 10
0.0
 20
202.90001
 30
0.0
 40
14.0
100
AcDbArc
 50
73.92713699999818
 51
106.0728599999962
  0
ARC
  5
20FA
330
105C
100
AcDbEntity
  8
0
  6
Continuous
100
AcDbCircle
 10
14.50012199999992
 20
-51.0
 30
0.0
 40
3.0
100
AcDbArc
 50
0.0
 51
89.9999820000008
  0
ARC
  5
20FB
330
105C
100
AcDbEntity
  8
0
  6
Continuous
100
AcDbCircle
 10
9.500122099999996
 20
-57.0
 30
0.0
 40
8.0
100
AcDbArc
 50
270.0
 51
0.0
  0
ARC
  5
20FC
330
105C
100
AcDbEntity
  8
0
  6
Continuous
100
AcDbCircle
 10
-9.499877899999999
 20
-57.0
 30
0.0
 40
8.0
100
AcDbArc
 50
180.0
 51
270.000010000001
  0
ARC
  5
20FD
330
105C
100
AcDbEntity
  8
0
  6
Continuous
100
AcDbCircle
 10
-14.49987800000008
 20
-51.0
 30
0.0
 40
3.0
100
AcDbArc
 50
90.0
 51
180.0
  0
ARC
  5
20FE
330
105C
100
AcDbEntity
  8
0
  6
Continuous
100
AcDbCircle
 10
33.42517100000009
 20
-51.85752100000001
 30
0.0
 40
1.0
100
AcDbArc
 50
180.0
 51
270.0
  0
ARC
  5
20FF
330
105C
100
AcDbEntity
  8
0
  6
Continuous
100
AcDbCircle
 10
35.27517699999999
 20
-32.49993099999995
 30
0.0
 40
8.0
100
AcDbArc
 50
239.9999999999999
 51
249.1299300000056
  0
ARC
  5
2100
330
105C
100
AcDbEntity
  8
0
  6
Continuous
100
AcDbCircle
 10
67.7101439999999
 20
-31.19999699999994
 30
0.0
 40
0.8000000099999999
100
AcDbArc
 50
200.0000300000031
 51
270.0
  0
ARC
  5
2101
330
105C
100
AcDbEntity
  8
0
  6
Continuous
100
AcDbCircle
 10
35.27517699999999
 20
-18.77887499999997
 30
0.0
 40
7.75
100
AcDbArc
 50
0.0000141010352856
 51
29.18335299999984
  0
ARC
  5
2102
330
105C
100
AcDbEntity
  8
0
  6
Continuous
100
AcDbCircle
 10
-31.59999999999991
 20
39.00000799999997
 30
0.0
 40
3.0
100
AcDbArc
 50
270.0
 51
338.0357200000004
  0
ARC
  5
2103
330
105C
100
AcDbEntity
  8
0
  6
Continuous
100
AcDbCircle
 10
0.0
 20
-90.09999800000001
 30
0.0
 40
132.5
100
AcDbArc
 50
80.28536999999506
 51
80.65600399999501
  0
ARC
  5
2104
330
105C
100
AcDbEntity
  8
0
  6
Continuous
100
AcDbCircle
 10
-26.03549799999996
 20
36.75583600000005
 30
0.0
 40
3.0
100
AcDbArc
 50
101.5981400000066
 51
158.0357200000011
  0
ARC
  5
2105
330
105C
100
AcDbEntity
  8
0
  6
Continuous
100
AcDbCircle
 10
-67.71019000000001
 20
31.19999699999994
 30
0.0
 40
0.8000000099999999
100
AcDbArc
 50
20.0000289999977
 51
90.0
  0
ARC
  5
2106
330
105C
100
AcDbEntity
  8
0
  6
Continuous
100
AcDbCircle
 10
-63.34741200000006
 20
27.40000199999997
 30
0.0
 40
2.0
100
AcDbArc
 50
199.9999799999974
 51
270.0
  0
ARC
  5
2107
330
105C
100
AcDbEntity
  8
0
  6
Continuous
100
AcDbCircle
 10
-67.71019000000001
 20
-31.19999699999994
 30
0.0
 40
0.8000000099999999
100
AcDbArc
 50
270.0
 51
339.9999699999969
  0
ARC
  5
2108
330
105C
100
AcDbEntity
  8
0
  6
Continuous
100
AcDbCircle
 10
-63.34741200000006
 20
-27.39999399999999
 30
0.0
 40
2.0
100
AcDbArc
 50
90.0
 51
160.0000200000025
  0
ARC
  5
2109
330
105C
100
AcDbEntity
  8
0
  6
Continuous
100
AcDbCircle
 10
35.27517699999999
 20
-18.77887499999997
 30
0.0
 40
7.75
100
AcDbArc
 50
150.8166499999999
 51
179.999989999999
  0
ARC
  5
210A
330
105C
100
AcDbEntity
  8
0
  6
Continuous
100
AcDbCircle
 10
-12.5
 20
-47.36525700000004
 30
0.0
 40
1.0
100
AcDbArc
 50
320.5990799999958
 51
0.0
  0
ARC
  5
210B
330
105C
100
AcDbEntity
  8
0
  6
Continuous
100
AcDbCircle
 10
12.5
 20
-47.36525700000004
 30
0.0
 40
1.0
100
AcDbArc
 50
180.0
 51
219.4009200000042
  0
ARC
  5
210C
330
105C
100
AcDbEntity
  8
0
  6
Continuous
100
AcDbCircle
 10
-45.10000599999989
 20
27.40000199999997
 30
0.0
 40
2.0
100
AcDbArc
 50
270.0
 51
0.0
  0
ARC
  5
210D
330
105C
100
AcDbEntity
  8
0
  6
Continuous
100
AcDbCircle
 10
-38.1000059999999
 20
31.00000799999998
 30
0.0
 40
5.0
100
AcDbArc
 50
90.0
 51
180.0
  0
ARC
  5
210E
330
105C
100
AcDbEntity
  8
0
  6
Continuous
100
AcDbCircle
 10
0.0
 20
-90.09999800000001
 30
0.0
 40
132.5
100
AcDbArc
 50
99.34128299999763
 51
101.5981499999959
  0
ARC
  5
210F
330
105C
100
AcDbEntity
  8
0
  6
Continuous
100
AcDbCircle
 10
-22.0
 20
43.60208899999998
 30
0.0
 40
3.0
100
AcDbArc
 50
279.3440100000002
 51
0.0
  0
ARC
  5
2110
330
105C
100
AcDbEntity
  8
0
  6
Continuous
100
AcDbCircle
 10
-45.10000599999989
 20
-27.40000199999997
 30
0.0
 40
2.0
100
AcDbArc
 50
0.0
 51
90.0
  0
ARC
  5
2111
330
105C
100
AcDbEntity
  8
0
  6
Continuous
100
AcDbCircle
 10
-38.1000059999999
 20
-31.0
 30
0.0
 40
5.0
100
AcDbArc
 50
180.0
 51
270.0
  0
ARC
  5
2112
330
105C
100
AcDbEntity
  8
0
  6
Continuous
100
AcDbCircle
 10
0.0
 20
90.09999800000001
 30
0.0
 40
132.5
100
AcDbArc
 50
258.5984800000059
 51
263.8591499999936
  0
ARC
  5
2113
330
105C
100
AcDbEntity
  8
0
  6
Continuous
100
AcDbCircle
 10
-14.5
 20
-44.62193300000001
 30
0.0
 40
3.0
100
AcDbArc
 50
0.0
 51
83.85694800000463
  0
ARC
  5
2114
330
105C
100
AcDbEntity
  8
0
  6
Continuous
100
AcDbCircle
 10
14.5
 20
-44.62193300000001
 30
0.0
 40
3.0
100
AcDbArc
 50
96.14303399999776
 51
180.0
  0
ARC
  5
2115
330
105C
100
AcDbEntity
  8
0
  6
Continuous
100
AcDbCircle
 10
0.0
 20
90.09999800000001
 30
0.0
 40
132.5
100
AcDbArc
 50
276.1430499999985
 51
279.7146399999945
  0
ARC
  5
2116
330
105C
100
AcDbEntity
  8
0
  6
Continuous
100
AcDbCircle
 10
-31.19942500000002
 20
-39.0
 30
0.0
 40
3.0
100
AcDbArc
 50
21.05478300000024
 51
90.0
  0
ARC
  5
2117
330
105C
100
AcDbEntity
  8
0
  6
Continuous
100
AcDbCircle
 10
30.42517100000009
 20
-32.05751799999996
 30
0.0
 40
2.0
100
AcDbArc
 50
0.0
 51
90.0
  0
ARC
  5
2118
330
105C
100
AcDbEntity
  8
0
  6
Continuous
100
AcDbCircle
 10
-25.59999999999991
 20
-36.84443699999996
 30
0.0
 40
3.0
100
AcDbArc
 50
201.0547999999984
 51
258.5984700000053
  0
ARC
  5
2119
330
105C
100
AcDbEntity
  8
0
  6
Continuous
100
AcDbCircle
 10
22.0
 20
43.60209699999995
 30
0.0
 40
3.0
100
AcDbArc
 50
180.0
 51
260.6559899999997
  0
ARC
  5
211A
330
105C
100
AcDbEntity
  8
0
  6
Continuous
100
AcDbCircle
 10
40.12517200000002
 20
-32.05751799999996
 30
0.0
 40
2.0
100
AcDbArc
 50
90.0
 51
180.0
  0
ARC
  5
211B
330
105C
100
AcDbEntity
  8
0
  6
Continuous
100
AcDbCircle
 10
37.12517200000002
 20
-51.85752100000001
 30
0.0
 40
1.0
100
AcDbArc
 50
270.0
 51
0.0
  0
ARC
  5
211C
330
105C
100
AcDbEntity
  8
0
  6
Continuous
100
AcDbCircle
 10
67.7101439999999
 20
31.19999699999994
 30
0.0
 40
0.8000000099999999
100
AcDbArc
 50
90.0
 51
159.9999699999968
  0
ARC
  5
211D
330
105C
100
AcDbEntity
  8
0
  6
Continuous
100
AcDbCircle
 10
63.34735099999988
 20
27.39999399999999
 30
0.0
 40
2.0
100
AcDbArc
 50
270.0
 51
340.0000200000026
  0
ARC
  5
211E
330
105C
100
AcDbEntity
  8
0
  6
Continuous
100
AcDbCircle
 10
63.34735099999988
 20
-27.40000199999997
 30
0.0
 40
2.0
100
AcDbArc
 50
19.99997800000258
 51
90.0
  0
ARC
  5
211F
330
105C
100
AcDbEntity
  8
0
  6
Continuous
100
AcDbCircle
 10
35.27517699999999
 20
-32.49993099999995
 30
0.0
 40
8.0
100
AcDbArc
 50
290.8700699999944
 51
300.0000000000001
  0
ARC
  5
2120
330
105C
100
AcDbEntity
  8
0
  6
Continuous
100
AcDbCircle
 10
35.27517699999999
 20
7.500070599999957
 30
0.0
 40
8.0
100
AcDbArc
 50
59.99999799999844
 51
120.0000000000001
  0
ARC
  5
2121
330
105C
100
AcDbEntity
  8
0
  6
Continuous
100
AcDbCircle
 10
-16.5
 20
89.50000799999996
 30
0.0
 40
4.0
100
AcDbArc
 50
0.0
 51
90.0
  0
ARC
  5
2122
330
105C
100
AcDbEntity
  8
0
  6
Continuous
100
AcDbCircle
 10
16.5
 20
89.50000799999996
 30
0.0
 40
4.0
100
AcDbArc
 50
90.0
 51
180.0
  0
CIRCLE
  5
2123
330
105C
100
AcDbEntity
  8
0
  6
Continuous
100
AcDbCircle
 10
4.5
 20
56.20000800000003
 30
0.0
 40
4.25
  0
ARC
  5
2124
330
105C
100
AcDbEntity
  8
0
  6
Continuous
100
AcDbCircle
 10
12.75
 20
91.50047300000004
 30
0.0
 40
2.0
100
AcDbArc
 50
0.0
 51
41.02380200000125
  0
CIRCLE
  5
2125
330
105C
100
AcDbEntity
  8
0
  6
Continuous
100
AcDbCircle
 10
4.5
 20
56.20000800000003
 30
0.0
 40
3.730384799999998
  0
ARC
  5
2126
330
105C
100
AcDbEntity
  8
0
  6
Continuous
100
AcDbCircle
 10
4.5
 20
56.20000800000003
 30
0.0
 40
5.0
100
AcDbArc
 50
0.0
 51
180.0
  0
ELLIPSE
  5
2127
330
105C
100
AcDbEntity
  8
0
  6
Continuous
100
AcDbEllipse
 10
13.8564409999999
 20
-56.99998500000003
 30
0.0
 11
-0.0000000000002256
 21
4.663689399999999
 31
0.0
210
0.0
220
0.0
230
1.0
 40
0.7599909700000002
 41
1.5707963
 42
4.712388999999999
  0
ELLIPSE
  5
2128
330
105C
100
AcDbEntity
  8
0
  6
Continuous
100
AcDbEllipse
 10
0.0000346432930201
 20
-56.99998500000003
 30
0.0
 11
7.088723599999998
 21
0.0
 31
0.0
210
0.0
220
0.0
230
1.0
 40
0.6579025600000001
 41
3.1415927
 42
6.283185299999998
  0
ELLIPSE
  5
2129
330
105C
100
AcDbEntity
  8
0
  6
Continuous
100
AcDbEllipse
 10
0.0000346432930201
 20
-50.99998500000004
 30
0.0
 11
-7.088723599999998
 21
0.0
 31
0.0
210
0.0
220
0.0
230
1.0
 40
0.36650832
 41
3.1415927
 42
6.283185299999998
  0
ELLIPSE
  5
212A
330
105C
100
AcDbEntity
  8
0
  6
Continuous
100
AcDbEllipse
 10
-13.85637199999996
 20
-56.99998500000003
 30
0.0
 11
0.0000000000002274
 21
4.663689399999999
 31
0.0
210
0.0
220
0.0
230
1.0
 40
0.7599909700000002
 41
1.5707963
 42
4.712388999999999
  0
ELLIPSE
  5
212B
330
105C
100
AcDbEntity
  8
0
  6
Continuous
100
AcDbEllipse
 10
13.8564409999999
 20
-50.99998500000004
 30
0.0
 11
3.544361799999999
 21
0.0
 31
0.0
210
0.0
220
0.0
230
1.0
 40
0.7330166500000001
 41
0.0
 42
3.1415927
  0
ELLIPSE
  5
212C
330
105C
100
AcDbEntity
  8
0
  6
Continuous
100
AcDbEllipse
 10
-13.85637199999996
 20
-50.99998500000004
 30
0.0
 11
-3.544361799999999
 21
0.0
 31
0.0
210
0.0
220
0.0
230
1.0
 40
0.7330166500000001
 41
3.1415927
 42
6.283185299999998
  0
POINT
  5
212D
330
105C
100
AcDbEntity
  8
0
  6
Continuous
100
AcDbPoint
 10
300.0
 20
0.0
 30
0.0
  0
LINE
  5
212E
330
105C
100
AcDbEntity
  8
0
  6
Continuous
100
AcDbLine
 10
384.5
 20
184.50044
 30
0.0
 11
384.5
 21
97.500473
 31
0.0
  0
LINE
  5
212F
330
105C
100
AcDbEntity
  8
0
  6
Continuous
100
AcDbLine
 10
235.5
 20
117.0764899999999
 30
0.0
 11
384.5
 21
117.0764899999999
 31
0.0
  0
LINE
  5
2130
330
105C
100
AcDbEntity
  8
0
  6
Continuous
100
AcDbLine
 10
235.5
 20
184.50044
 30
0.0
 11
384.5
 21
184.50044
 31
0.0
  0
LINE
  5
2131
330
105C
100
AcDbEntity
  8
0
  6
Continuous
100
AcDbLine
 10
235.5
 20
184.50044
 30
0.0
 11
235.5
 21
97.500473
 31
0.0
  0
LINE
  5
2132
330
105C
100
AcDbEntity
  8
0
  6
Continuous
100
AcDbLine
 10
235.5
 20
97.500473
 30
0.0
 11
384.5
 21
97.500473
 31
0.0
  0
LINE
  5
2133
330
105C
100
AcDbEntity
  8
0
  6
Continuous
100
AcDbLine
 10
235.5
 20
164.92445
 30
0.0
 11
384.5
 21
164.92445
 31
0.0
  0
LINE
  5
2134
330
105C
100
AcDbEntity
  8
0
  6
Continuous
100
AcDbLine
 10
240.5
 20
184.50044
 30
0.0
 11
240.5
 21
97.500473
 31
0.0
  0
LINE
  5
2135
330
105C
100
AcDbEntity
  8
0
  6
Continuous
100
AcDbLine
 10
313.799927
 20
186.0002899999999
 30
0.0
 11
313.799927
 21
184.5002899999999
 31
0.0
  0
LINE
  5
2136
330
105C
100
AcDbEntity
  8
0
  6
Continuous
100
AcDbLine
 10
313.799927
 20
186.0002899999999
 30
0.0
 11
286.199951
 21
186.0002899999999
 31
0.0
  0
LINE
  5
2137
330
105C
100
AcDbEntity
  8
0
  6
Continuous
100
AcDbLine
 10
286.199951
 20
186.0002899999999
 30
0.0
 11
286.199951
 21
184.5002899999999
 31
0.0
  0
LINE
  5
2138
330
105C
100
AcDbEntity
  8
0
  6
Continuous
100
AcDbLine
 10
379.5
 20
184.50044
 30
0.0
 11
379.5
 21
97.500473
 31
0.0
  0
LINE
  5
2139
330
105C
100
AcDbEntity
  8
0
  6
Continuous
100
AcDbLine
 10
311.5
 20
186.0002899999999
 30
0.0
 11
311.5
 21
186.5002899999999
 31
0.0
  0
LINE
  5
213A
330
105C
100
AcDbEntity
  8
0
  6
Continuous
100
AcDbLine
 10
288.5
 20
186.0002899999999
 30
0.0
 11
288.5
 21
186.5002899999999
 31
0.0
  0
LINE
  5
213B
330
105C
100
AcDbEntity
  8
0
  6
Continuous
100
AcDbLine
 10
386.0999979999998
 20
183.25038
 30
0.0
 11
384.5
 21
183.25038
 31
0.0
  0
LINE
  5
213C
330
105C
100
AcDbEntity
  8
0
  6
Continuous
100
AcDbLine
 10
386.0999979999998
 20
183.25038
 30
0.0
 11
386.0999979999998
 21
170.75038
 31
0.0
  0
LINE
  5
213D
330
105C
100
AcDbEntity
  8
0
  6
Continuous
100
AcDbLine
 10
386.0999979999998
 20
170.75038
 30
0.0
 11
384.5
 21
170.75038
 31
0.0
  0
LINE
  5
213E
330
105C
100
AcDbEntity
  8
0
  6
Continuous
100
AcDbLine
 10
387.5999979999999
 20
183.10037
 30
0.0
 11
387.5999979999999
 21
170.90039
 31
0.0
  0
LINE
  5
213F
330
105C
100
AcDbEntity
  8
0
  6
Continuous
100
AcDbLine
 10
387.5999979999999
 20
170.90039
 30
0.0
 11
386.0999979999998
 21
170.90039
 31
0.0
  0
LINE
  5
2140
330
105C
100
AcDbEntity
  8
0
  6
Continuous
100
AcDbLine
 10
387.5999979999999
 20
183.10037
 30
0.0
 11
386.0999979999998
 21
183.10037
 31
0.0
  0
LINE
  5
2141
330
105C
100
AcDbEntity
  8
0
  6
Continuous
100
AcDbLine
 10
391.0956799999998
 20
182.7739
 30
0.0
 11
387.5999979999999
 21
182.7739
 31
0.0
  0
LINE
  5
2142
330
105C
100
AcDbEntity
  8
0
  6
Continuous
100
AcDbLine
 10
391.5999979999999
 20
172.67026
 30
0.0
 11
391.5999979999999
 21
181.33051
 31
0.0
  0
LINE
  5
2143
330
105C
100
AcDbEntity
  8
0
  6
Continuous
100
AcDbLine
 10
391.0956799999998
 20
171.2268699999999
 30
0.0
 11
387.5999979999999
 21
171.2268699999999
 31
0.0
  0
LINE
  5
2144
330
105C
100
AcDbEntity
  8
0
  6
Continuous
100
AcDbLine
 10
391.0956799999998
 20
174.11363
 30
0.0
 11
387.5999979999999
 21
174.11363
 31
0.0
  0
LINE
  5
2145
330
105C
100
AcDbEntity
  8
0
  6
Continuous
100
AcDbLine
 10
391.0956799999998
 20
179.88713
 30
0.0
 11
387.5999979999999
 21
179.88713
 31
0.0
  0
LINE
  5
2146
330
105C
100
AcDbEntity
  8
0
  6
Continuous
100
AcDbLine
 10
386.0999979999998
 20
111.25041
 30
0.0
 11
384.5
 21
111.25041
 31
0.0
  0
LINE
  5
2147
330
105C
100
AcDbEntity
  8
0
  6
Continuous
100
AcDbLine
 10
386.0999979999998
 20
111.25041
 30
0.0
 11
386.0999979999998
 21
98.75041199999998
 31
0.0
  0
LINE
  5
2148
330
105C
100
AcDbEntity
  8
0
  6
Continuous
100
AcDbLine
 10
386.0999979999998
 20
98.75041199999998
 30
0.0
 11
384.5
 21
98.75041199999998
 31
0.0
  0
LINE
  5
2149
330
105C
100
AcDbEntity
  8
0
  6
Continuous
100
AcDbLine
 10
387.5999979999999
 20
111.10041
 30
0.0
 11
387.5999979999999
 21
98.90041400000001
 31
0.0
  0
LINE
  5
214A
330
105C
100
AcDbEntity
  8
0
  6
Continuous
100
AcDbLine
 10
387.5999979999999
 20
98.90041400000001
 30
0.0
 11
386.0999979999998
 21
98.90041400000001
 31
0.0
  0
LINE
  5
214B
330
105C
100
AcDbEntity
  8
0
  6
Continuous
100
AcDbLine
 10
387.5999979999999
 20
111.10041
 30
0.0
 11
386.0999979999998
 21
111.10041
 31
0.0
  0
LINE
  5
214C
330
105C
100
AcDbEntity
  8
0
  6
Continuous
100
AcDbLine
 10
391.0956799999998
 20
110.77391
 30
0.0
 11
387.5999979999999
 21
110.77391
 31
0.0
  0
LINE
  5
214D
330
105C
100
AcDbEntity
  8
0
  6
Continuous
100
AcDbLine
 10
391.5999979999999
 20
100.67029
 30
0.0
 11
391.5999979999999
 21
109.33054
 31
0.0
  0
LINE
  5
214E
330
105C
100
AcDbEntity
  8
0
  6
Continuous
100
AcDbLine
 10
391.0956799999998
 20
99.22690600000001
 30
0.0
 11
387.5999979999999
 21
99.22690600000001
 31
0.0
  0
LINE
  5
214F
330
105C
100
AcDbEntity
  8
0
  6
Continuous
100
AcDbLine
 10
391.0956799999998
 20
102.1136599999999
 30
0.0
 11
387.5999979999999
 21
102.1136599999999
 31
0.0
  0
LINE
  5
2150
330
105C
100
AcDbEntity
  8
0
  6
Continuous
100
AcDbLine
 10
391.0956799999998
 20
107.88716
 30
0.0
 11
387.5999979999999
 21
107.88716
 31
0.0
  0
LINE
  5
2151
330
105C
100
AcDbEntity
  8
0
  6
Continuous
100
AcDbLine
 10
233.9000020000001
 20
170.75038
 30
0.0
 11
235.5
 21
170.75038
 31
0.0
  0
LINE
  5
2152
330
105C
100
AcDbEntity
  8
0
  6
Continuous
100
AcDbLine
 10
233.9000020000001
 20
170.75038
 30
0.0
 11
233.9000020000001
 21
183.25038
 31
0.0
  0
LINE
  5
2153
330
105C
100
AcDbEntity
  8
0
  6
Continuous
100
AcDbLine
 10
233.9000020000001
 20
183.25038
 30
0.0
 11
235.5
 21
183.25038
 31
0.0
  0
LINE
  5
2154
330
105C
100
AcDbEntity
  8
0
  6
Continuous
100
AcDbLine
 10
232.4000020000001
 20
170.90039
 30
0.0
 11
232.4000020000001
 21
183.10037
 31
0.0
  0
LINE
  5
2155
330
105C
100
AcDbEntity
  8
0
  6
Continuous
100
AcDbLine
 10
232.4000020000001
 20
183.10037
 30
0.0
 11
233.9000020000001
 21
183.10037
 31
0.0
  0
LINE
  5
2156
330
105C
100
AcDbEntity
  8
0
  6
Continuous
100
AcDbLine
 10
232.4000020000001
 20
170.90039
 30
0.0
 11
233.9000020000001
 21
170.90039
 31
0.0
  0
LINE
  5
2157
330
105C
100
AcDbEntity
  8
0
  6
Continuous
100
AcDbLine
 10
228.9043200000001
 20
171.2268699999999
 30
0.0
 11
232.4000020000001
 21
171.2268699999999
 31
0.0
  0
LINE
  5
2158
330
105C
100
AcDbEntity
  8
0
  6
Continuous
100
AcDbLine
 10
228.4000020000001
 20
181.33051
 30
0.0
 11
228.4000020000001
 21
172.67026
 31
0.0
  0
LINE
  5
2159
330
105C
100
AcDbEntity
  8
0
  6
Continuous
100
AcDbLine
 10
228.9043200000001
 20
182.7739
 30
0.0
 11
232.4000020000001
 21
182.7739
 31
0.0
  0
LINE
  5
215A
330
105C
100
AcDbEntity
  8
0
  6
Continuous
100
AcDbLine
 10
228.9043200000001
 20
179.88713
 30
0.0
 11
232.4000020000001
 21
179.88713
 31
0.0
  0
LINE
  5
215B
330
105C
100
AcDbEntity
  8
0
  6
Continuous
100
AcDbLine
 10
228.9043200000001
 20
174.11363
 30
0.0
 11
232.4000020000001
 21
174.11363
 31
0.0
  0
LINE
  5
215C
330
105C
100
AcDbEntity
  8
0
  6
Continuous
100
AcDbLine
 10
233.9000020000001
 20
98.75041199999998
 30
0.0
 11
235.5
 21
98.75041199999998
 31
0.0
  0
LINE
  5
215D
330
105C
100
AcDbEntity
  8
0
  6
Continuous
100
AcDbLine
 10
233.9000020000001
 20
98.75041199999998
 30
0.0
 11
233.9000020000001
 21
111.25041
 31
0.0
  0
LINE
  5
215E
330
105C
100
AcDbEntity
  8
0
  6
Continuous
100
AcDbLine
 10
233.9000020000001
 20
111.25041
 30
0.0
 11
235.5
 21
111.25041
 31
0.0
  0
LINE
  5
215F
330
105C
100
AcDbEntity
  8
0
  6
Continuous
100
AcDbLine
 10
232.4000020000001
 20
98.90041400000001
 30
0.0
 11
232.4000020000001
 21
111.10041
 31
0.0
  0
LINE
  5
2160
330
105C
100
AcDbEntity
  8
0
  6
Continuous
100
AcDbLine
 10
232.4000020000001
 20
111.10041
 30
0.0
 11
233.9000020000001
 21
111.10041
 31
0.0
  0
LINE
  5
2161
330
105C
100
AcDbEntity
  8
0
  6
Continuous
100
AcDbLine
 10
232.4000020000001
 20
98.90041400000001
 30
0.0
 11
233.9000020000001
 21
98.90041400000001
 31
0.0
  0
LINE
  5
2162
330
105C
100
AcDbEntity
  8
0
  6
Continuous
100
AcDbLine
 10
228.9043200000001
 20
99.22690600000001
 30
0.0
 11
232.4000020000001
 21
99.22690600000001
 31
0.0
  0
LINE
  5
2163
330
105C
100
AcDbEntity
  8
0
  6
Continuous
100
AcDbLine
 10
228.4000020000001
 20
109.33054
 30
0.0
 11
228.4000020000001
 21
100.67029
 31
0.0
  0
LINE
  5
2164
330
105C
100
AcDbEntity
  8
0
  6
Continuous
100
AcDbLine
 10
228.9043200000001
 20
110.77391
 30
0.0
 11
232.4000020000001
 21
110.77391
 31
0.0
  0
LINE
  5
2165
330
105C
100
AcDbEntity
  8
0
  6
Continuous
100
AcDbLine
 10
228.9043200000001
 20
107.88716
 30
0.0
 11
232.4000020000001
 21
107.88716
 31
0.0
  0
LINE
  5
2166
330
105C
100
AcDbEntity
  8
0
  6
Continuous
100
AcDbLine
 10
228.9043200000001
 20
102.1136599999999
 30
0.0
 11
232.4000020000001
 21
102.1136599999999
 31
0.0
  0
LINE
  5
2167
330
105C
100
AcDbEntity
  8
0
  6
Continuous
100
AcDbLine
 10
220.0
 20
146.62955
 30
0.0
 11
220.0
 21
135.37122
 31
0.0
  0
LINE
  5
2168
330
105C
100
AcDbEntity
  8
0
  6
Continuous
100
AcDbLine
 10
220.724892
 20
148.50594
 30
0.0
 11
225.5
 21
148.50594
 31
0.0
  0
LINE
  5
2169
330
105C
100
AcDbEntity
  8
0
  6
Continuous
100
AcDbLine
 10
220.724892
 20
133.4948299999999
 30
0.0
 11
225.5
 21
133.4948299999999
 31
0.0
  0
LINE
  5
216A
330
105C
100
AcDbEntity
  8
0
  6
Continuous
100
AcDbLine
 10
220.724892
 20
144.75316
 30
0.0
 11
225.5
 21
144.75316
 31
0.0
  0
LINE
  5
216B
330
105C
100
AcDbEntity
  8
0
  6
Continuous
100
AcDbLine
 10
220.724892
 20
137.2476
 30
0.0
 11
225.5
 21
137.2476
 31
0.0
  0
LINE
  5
216C
330
105C
100
AcDbEntity
  8
0
  6
Continuous
100
AcDbLine
 10
225.5
 20
148.50594
 30
0.0
 11
225.5
 21
133.4948299999999
 31
0.0
  0
LINE
  5
216D
330
105C
100
AcDbEntity
  8
0
  6
Continuous
100
AcDbLine
 10
233.9000020000001
 20
132.50038
 30
0.0
 11
233.9000020000001
 21
149.50038
 31
0.0
  0
LINE
  5
216E
330
105C
100
AcDbEntity
  8
0
  6
Continuous
100
AcDbLine
 10
233.9000020000001
 20
132.50038
 30
0.0
 11
235.5
 21
132.50038
 31
0.0
  0
LINE
  5
216F
330
105C
100
AcDbEntity
  8
0
  6
Continuous
100
AcDbLine
 10
233.9000020000001
 20
149.50038
 30
0.0
 11
235.5
 21
149.50038
 31
0.0
  0
LINE
  5
2170
330
105C
100
AcDbEntity
  8
0
  6
Continuous
100
AcDbLine
 10
228.9000020000001
 20
146.62955
 30
0.0
 11
228.9000020000001
 21
135.37122
 31
0.0
  0
LINE
  5
2171
330
105C
100
AcDbEntity
  8
0
  6
Continuous
100
AcDbLine
 10
229.6248929999999
 20
148.50594
 30
0.0
 11
233.1751019999999
 21
148.50594
 31
0.0
  0
LINE
  5
2172
330
105C
100
AcDbEntity
  8
0
  6
Continuous
100
AcDbLine
 10
229.6248929999999
 20
133.4948299999999
 30
0.0
 11
233.1751019999999
 21
133.4948299999999
 31
0.0
  0
LINE
  5
2173
330
105C
100
AcDbEntity
  8
0
  6
Continuous
100
AcDbLine
 10
229.6248929999999
 20
144.75316
 30
0.0
 11
233.1751019999999
 21
144.75316
 31
0.0
  0
LINE
  5
2174
330
105C
100
AcDbEntity
  8
0
  6
Continuous
100
AcDbLine
 10
229.6248929999999
 20
137.2476
 30
0.0
 11
233.1751019999999
 21
137.2476
 31
0.0
  0
LINE
  5
2175
330
105C
100
AcDbEntity
  8
0
  6
Continuous
100
AcDbLine
 10
225.5
 20
137.00038
 30
0.0
 11
228.9000020000001
 21
137.00038
 31
0.0
  0
LINE
  5
2176
330
105C
100
AcDbEntity
  8
0
  6
Continuous
100
AcDbLine
 10
225.5
 20
145.00038
 30
0.0
 11
228.9000020000001
 21
145.00038
 31
0.0
  0
LINE
  5
2177
330
105C
100
AcDbEntity
  8
0
  6
Continuous
100
AcDbLine
 10
400.0
 20
135.37122
 30
0.0
 11
400.0
 21
146.62955
 31
0.0
  0
LINE
  5
2178
330
105C
100
AcDbEntity
  8
0
  6
Continuous
100
AcDbLine
 10
399.2751080000002
 20
133.4948299999999
 30
0.0
 11
394.5
 21
133.4948299999999
 31
0.0
  0
LINE
  5
2179
330
105C
100
AcDbEntity
  8
0
  6
Continuous
100
AcDbLine
 10
399.2751080000002
 20
148.50594
 30
0.0
 11
394.5
 21
148.50594
 31
0.0
  0
LINE
  5
217A
330
105C
100
AcDbEntity
  8
0
  6
Continuous
100
AcDbLine
 10
399.2751080000002
 20
137.2476
 30
0.0
 11
394.5
 21
137.2476
 31
0.0
  0
LINE
  5
217B
330
105C
100
AcDbEntity
  8
0
  6
Continuous
100
AcDbLine
 10
399.2751080000002
 20
144.75316
 30
0.0
 11
394.5
 21
144.75316
 31
0.0
  0
LINE
  5
217C
330
105C
100
AcDbEntity
  8
0
  6
Continuous
100
AcDbLine
 10
394.5
 20
133.4948299999999
 30
0.0
 11
394.5
 21
148.50594
 31
0.0
  0
LINE
  5
217D
330
105C
100
AcDbEntity
  8
0
  6
Continuous
100
AcDbLine
 10
389.5
 20
135.37122
 30
0.0
 11
389.5
 21
146.62955
 31
0.0
  0
LINE
  5
217E
330
105C
100
AcDbEntity
  8
0
  6
Continuous
100
AcDbLine
 10
388.7751080000001
 20
133.4948299999999
 30
0.0
 11
385.224892
 21
133.4948299999999
 31
0.0
  0
LINE
  5
217F
330
105C
100
AcDbEntity
  8
0
  6
Continuous
100
AcDbLine
 10
388.7751080000001
 20
148.50594
 30
0.0
 11
385.224892
 21
148.50594
 31
0.0
  0
LINE
  5
2180
330
105C
100
AcDbEntity
  8
0
  6
Continuous
100
AcDbLine
 10
388.7751080000001
 20
137.2476
 30
0.0
 11
385.224892
 21
137.2476
 31
0.0
  0
LINE
  5
2181
330
105C
100
AcDbEntity
  8
0
  6
Continuous
100
AcDbLine
 10
388.7751080000001
 20
144.75316
 30
0.0
 11
385.224892
 21
144.75316
 31
0.0
  0
LINE
  5
2182
330
105C
100
AcDbEntity
  8
0
  6
Continuous
100
AcDbLine
 10
394.5
 20
145.00038
 30
0.0
 11
389.5
 21
145.00038
 31
0.0
  0
LINE
  5
2183
330
105C
100
AcDbEntity
  8
0
  6
Continuous
100
AcDbLine
 10
394.5
 20
137.00038
 30
0.0
 11
389.5
 21
137.00038
 31
0.0
  0
LINE
  5
2184
330
105C
100
AcDbEntity
  8
0
  6
Continuous
100
AcDbLine
 10
318.0
 20
211.4999999999999
 30
0.0
 11
318.0
 21
186.5002899999999
 31
0.0
  0
LINE
  5
2185
330
105C
100
AcDbEntity
  8
0
  6
Continuous
100
AcDbLine
 10
282.0
 20
211.4999999999999
 30
0.0
 11
318.0
 21
211.4999999999999
 31
0.0
  0
LINE
  5
2186
330
105C
100
AcDbEntity
  8
0
  6
Continuous
100
AcDbLine
 10
282.0
 20
186.5002899999999
 30
0.0
 11
318.0
 21
186.5002899999999
 31
0.0
  0
LINE
  5
2187
330
105C
100
AcDbEntity
  8
0
  6
Continuous
100
AcDbLine
 10
294.75
 20
214.52702
 30
0.0
 11
294.75
 21
212.9999999999999
 31
0.0
  0
LINE
  5
2188
330
105C
100
AcDbEntity
  8
0
  6
Continuous
100
AcDbLine
 10
306.0999999000001
 20
212.9999999999999
 30
0.0
 11
306.0999999000001
 21
211.4999999999999
 31
0.0
  0
LINE
  5
2189
330
105C
100
AcDbEntity
  8
0
  6
Continuous
100
AcDbLine
 10
305.25
 20
214.52702
 30
0.0
 11
305.25
 21
212.9999999999999
 31
0.0
  0
LINE
  5
218A
330
105C
100
AcDbEntity
  8
0
  6
Continuous
100
AcDbLine
 10
293.9000001
 20
212.9999999999999
 30
0.0
 11
293.9000001
 21
211.4999999999999
 31
0.0
  0
LINE
  5
218B
330
105C
100
AcDbEntity
  8
0
  6
Continuous
100
AcDbLine
 10
302.5310631
 20
211.4999999999999
 30
0.0
 11
302.5310631
 21
186.5002899999999
 31
0.0
  0
LINE
  5
218C
330
105C
100
AcDbEntity
  8
0
  6
Continuous
100
AcDbLine
 10
293.9000001
 20
212.9999999999999
 30
0.0
 11
306.0999999000001
 21
212.9999999999999
 31
0.0
  0
LINE
  5
218D
330
105C
100
AcDbEntity
  8
0
  6
Continuous
100
AcDbLine
 10
297.4689369
 20
211.4999999999999
 30
0.0
 11
297.4689369
 21
186.5002899999999
 31
0.0
  0
LINE
  5
218E
330
105C
100
AcDbEntity
  8
0
  6
Continuous
100
AcDbLine
 10
282.0
 20
211.4999999999999
 30
0.0
 11
282.0
 21
186.5002899999999
 31
0.0
  0
LINE
  5
218F
330
105C
100
AcDbEntity
  8
0
  6
Continuous
100
AcDbLine
 10
254.0
 20
-52.85769699999999
 30
0.0
 11
226.0
 21
-52.85769699999999
 31
0.0
  0
LINE
  5
2190
330
105C
100
AcDbEntity
  8
0
  6
Continuous
100
AcDbLine
 10
234.0
 20
-3.999998099999998
 30
0.0
 11
255.0416259999999
 21
-3.999998299999986
 31
0.0
  0
LINE
  5
2191
330
105C
100
AcDbEntity
  8
0
  6
Continuous
100
AcDbLine
 10
256.0
 20
-48.85769699999999
 30
0.0
 11
256.0
 21
-50.857697
 31
0.0
  0
LINE
  5
2192
330
105C
100
AcDbEntity
  8
0
  6
Continuous
100
AcDbLine
 10
224.0
 20
-48.85769699999999
 30
0.0
 11
224.0
 21
-50.857697
 31
0.0
  0
LINE
  5
2193
330
105C
100
AcDbEntity
  8
0
  6
Continuous
100
AcDbLine
 10
243.0
 20
-30.05758499999999
 30
0.0
 11
237.0
 21
-30.05758499999999
 31
0.0
  0
LINE
  5
2194
330
105C
100
AcDbEntity
  8
0
  6
Continuous
100
AcDbLine
 10
245.0
 20
-32.05758700000001
 30
0.0
 11
245.0
 21
-43.85769699999999
 31
0.0
  0
LINE
  5
2195
330
105C
100
AcDbEntity
  8
0
  6
Continuous
100
AcDbLine
 10
235.0
 20
-32.05758700000001
 30
0.0
 11
235.0
 21
-43.85769699999999
 31
0.0
  0
LINE
  5
2196
330
105C
100
AcDbEntity
  8
0
  6
Continuous
100
AcDbLine
 10
232.25
 20
-18.757597
 30
0.0
 11
232.25
 21
-22.88769300000002
 31
0.0
  0
LINE
  5
2197
330
105C
100
AcDbEntity
  8
0
  6
Continuous
100
AcDbLine
 10
247.75
 20
-18.757597
 30
0.0
 11
247.75
 21
-22.88769300000002
 31
0.0
  0
LINE
  5
2198
330
105C
100
AcDbEntity
  8
0
  6
Continuous
100
AcDbLine
 10
234.0
 20
-14.999998
 30
0.0
 11
246.44397
 21
-14.999998
 31
0.0
  0
LINE
  5
2199
330
105C
100
AcDbEntity
  8
0
  6
Continuous
100
AcDbLine
 10
316.0
 20
-51.05139199999999
 30
0.0
 11
316.0
 21
-61.66369599999999
 31
0.0
  0
LINE
  5
219A
330
105C
100
AcDbEntity
  8
0
  6
Continuous
100
AcDbLine
 10
284.0
 20
-51.05139199999999
 30
0.0
 11
284.0
 21
-61.66369599999999
 31
0.0
  0
LINE
  5
219B
330
105C
100
AcDbEntity
  8
0
  6
Continuous
100
AcDbLine
 10
285.8609859999999
 20
-51.59785099999999
 30
0.0
 11
285.8609859999999
 21
-56.999538
 31
0.0
  0
LINE
  5
219C
330
105C
100
AcDbEntity
  8
0
  6
Continuous
100
AcDbLine
 10
298.1390145
 20
-53.46762100000001
 30
0.0
 11
298.1390145
 21
-56.999538
 31
0.0
  0
LINE
  5
219D
330
105C
100
AcDbEntity
  8
0
  6
Continuous
100
AcDbLine
 10
301.8609853999999
 20
-53.46762100000001
 30
0.0
 11
301.8609853999999
 21
-56.999538
 31
0.0
  0
LINE
  5
219E
330
105C
100
AcDbEntity
  8
0
  6
Continuous
100
AcDbLine
 10
314.1390140000001
 20
-51.59785099999999
 30
0.0
 11
314.1390140000001
 21
-56.999538
 31
0.0
  0
LINE
  5
219F
330
105C
100
AcDbEntity
  8
0
  6
Continuous
100
AcDbLine
 10
244.0
 20
-30.32559000000001
 30
0.0
 11
244.0
 21
-39.428192
 31
0.0
  0
LINE
  5
21A0
330
105C
100
AcDbEntity
  8
0
  6
Continuous
100
AcDbLine
 10
236.0
 20
-30.32559000000001
 30
0.0
 11
236.0
 21
-39.428192
 31
0.0
  0
LINE
  5
21A1
330
105C
100
AcDbEntity
  8
0
  6
Continuous
100
AcDbLine
 10
236.0
 20
3.843324700000009
 30
0.0
 11
236.0
 21
-3.999998099999998
 31
0.0
  0
LINE
  5
21A2
330
105C
100
AcDbEntity
  8
0
  6
Continuous
100
AcDbLine
 10
347.146168
 20
-2.138988699999997
 30
0.0
 11
351.2168079999999
 21
-3.229699600000003
 31
0.0
  0
LINE
  5
21A3
330
105C
100
AcDbEntity
  8
0
  6
Continuous
100
AcDbLine
 10
347.1462099999998
 20
2.139025900000006
 30
0.0
 11
351.2166669999999
 21
3.229714400000004
 31
0.0
  0
LINE
  5
21A4
330
105C
100
AcDbEntity
  8
0
  6
Continuous
100
AcDbLine
 10
233.0
 20
14.000124
 30
0.0
 11
233.0
 21
5.000123499999999
 31
0.0
  0
LINE
  5
21A5
330
105C
100
AcDbEntity
  8
0
  6
Continuous
100
AcDbLine
 10
233.0
 20
-4.999998599999996
 30
0.0
 11
233.0
 21
-13.999998
 31
0.0
  0
LINE
  5
21A6
330
105C
100
AcDbEntity
  8
0
  6
Continuous
100
AcDbLine
 10
234.0
 20
4.000001400000002
 30
0.0
 11
255.0416259999999
 21
4.000001400000002
 31
0.0
  0
LINE
  5
21A7
330
105C
100
AcDbEntity
  8
0
  6
Continuous
100
AcDbLine
 10
234.0
 20
15.00000199999999
 30
0.0
 11
246.44397
 21
15.00000199999999
 31
0.0
  0
LINE
  5
21A8
330
105C
100
AcDbEntity
  8
0
  6
Continuous
100
AcDbLine
 10
244.0
 20
3.843324700000009
 30
0.0
 11
244.0
 21
-3.999998099999998
 31
0.0
  0
LINE
  5
21A9
330
105C
100
AcDbEntity
  8
0
  6
Continuous
100
AcDbLine
 10
290.5
 20
-65.0
 30
0.0
 11
309.5
 21
-65.0
 31
0.0
  0
LINE
  5
21AA
330
105C
100
AcDbEntity
  8
0
  6
Continuous
100
AcDbLine
 10
268.5117929999999
 20
91.500473
 30
0.0
 11
268.5117929999999
 21
93.50047299999999
 31
0.0
  0
LINE
  5
21AB
330
105C
100
AcDbEntity
  8
0
  6
Continuous
100
AcDbLine
 10
316.0883309999999
 20
91.500473
 30
0.0
 11
331.488331
 21
91.500473
 31
0.0
  0
LINE
  5
21AC
330
105C
100
AcDbEntity
  8
0
  6
Continuous
100
AcDbLine
 10
318.154356
 20
83.50047299999998
 30
0.0
 11
329.4223039999999
 21
83.50047299999998
 31
0.0
  0
LINE
  5
21AD
330
105C
100
AcDbEntity
  8
0
  6
Continuous
100
AcDbLine
 10
317.2883300000001
 20
84.000473
 30
0.0
 11
317.2883300000001
 21
91.500473
 31
0.0
  0
LINE
  5
21AE
330
105C
100
AcDbEntity
  8
0
  6
Continuous
100
AcDbLine
 10
330.2883300000001
 20
84.000473
 30
0.0
 11
330.2883300000001
 21
91.500473
 31
0.0
  0
LINE
  5
21AF
330
105C
100
AcDbEntity
  8
0
  6
Continuous
100
AcDbLine
 10
317.2883300000001
 20
90.250473
 30
0.0
 11
330.2883300000001
 21
90.250473
 31
0.0
  0
LINE
  5
21B0
330
105C
100
AcDbEntity
  8
0
  6
Continuous
100
AcDbLine
 10
317.2883300000001
 20
84.000473
 30
0.0
 11
330.2883300000001
 21
84.000473
 31
0.0
  0
LINE
  5
21B1
330
105C
100
AcDbEntity
  8
0
  6
Continuous
100
AcDbLine
 10
318.154356
 20
83.50047299999998
 30
0.0
 11
317.2883320000001
 21
84.000473
 31
0.0
  0
LINE
  5
21B2
330
105C
100
AcDbEntity
  8
0
  6
Continuous
100
AcDbLine
 10
329.4223039999999
 20
83.50046500000003
 30
0.0
 11
330.2883300000001
 21
84.00046500000001
 31
0.0
  0
LINE
  5
21B3
330
105C
100
AcDbEntity
  8
0
  6
Continuous
100
AcDbLine
 10
281.8457639999999
 20
83.50047299999998
 30
0.0
 11
282.7117900000001
 21
84.000473
 31
0.0
  0
LINE
  5
21B4
330
105C
100
AcDbEntity
  8
0
  6
Continuous
100
AcDbLine
 10
270.5778200000001
 20
83.50046500000003
 30
0.0
 11
269.711794
 21
84.00046500000001
 31
0.0
  0
LINE
  5
21B5
330
105C
100
AcDbEntity
  8
0
  6
Continuous
100
AcDbLine
 10
269.7117920000001
 20
84.000473
 30
0.0
 11
282.711792
 21
84.000473
 31
0.0
  0
LINE
  5
21B6
330
105C
100
AcDbEntity
  8
0
  6
Continuous
100
AcDbLine
 10
269.7117920000001
 20
90.250473
 30
0.0
 11
282.711792
 21
90.250473
 31
0.0
  0
LINE
  5
21B7
330
105C
100
AcDbEntity
  8
0
  6
Continuous
100
AcDbLine
 10
282.711792
 20
84.000473
 30
0.0
 11
282.711792
 21
91.500473
 31
0.0
  0
LINE
  5
21B8
330
105C
100
AcDbEntity
  8
0
  6
Continuous
100
AcDbLine
 10
269.7117920000001
 20
84.000473
 30
0.0
 11
269.7117920000001
 21
91.500473
 31
0.0
  0
LINE
  5
21B9
330
105C
100
AcDbEntity
  8
0
  6
Continuous
100
AcDbLine
 10
270.577818
 20
83.50047299999998
 30
0.0
 11
281.8457659999999
 21
83.50047299999998
 31
0.0
  0
LINE
  5
21BA
330
105C
100
AcDbEntity
  8
0
  6
Continuous
100
AcDbLine
 10
318.708286
 20
83.50047299999998
 30
0.0
 11
318.708286
 21
59.90047099999998
 31
0.0
  0
LINE
  5
21BB
330
105C
100
AcDbEntity
  8
0
  6
Continuous
100
AcDbLine
 10
272.5
 20
83.50047299999998
 30
0.0
 11
272.5
 21
64.43712600000004
 31
0.0
  0
LINE
  5
21BC
330
105C
100
AcDbEntity
  8
0
  6
Continuous
100
AcDbLine
 10
273.1021399999999
 20
61.20046999999999
 30
0.0
 11
274.835644
 21
61.20046999999999
 31
0.0
  0
LINE
  5
21BD
330
105C
100
AcDbEntity
  8
0
  6
Continuous
100
AcDbLine
 10
278.328608
 20
57.06475799999998
 30
0.0
 11
279.999998
 21
55.99515200000002
 31
0.0
  0
LINE
  5
21BE
330
105C
100
AcDbEntity
  8
0
  6
Continuous
100
AcDbLine
 10
285.0
 20
63.50046900000001
 30
0.0
 11
315.0
 21
63.50046900000001
 31
0.0
  0
LINE
  5
21BF
330
105C
100
AcDbEntity
  8
0
  6
Continuous
100
AcDbLine
 10
315.5
 20
61.50046900000001
 30
0.0
 11
315.5
 21
59.50046900000001
 31
0.0
  0
LINE
  5
21C0
330
105C
100
AcDbEntity
  8
0
  6
Continuous
100
AcDbLine
 10
285.25
 20
93.50047299999999
 30
0.0
 11
285.25
 21
63.50046900000001
 31
0.0
  0
LINE
  5
21C1
330
105C
100
AcDbEntity
  8
0
  6
Continuous
100
AcDbLine
 10
314.75
 20
93.50047299999999
 30
0.0
 11
314.75
 21
63.50046900000001
 31
0.0
  0
LINE
  5
21C2
330
105C
100
AcDbEntity
  8
0
  6
Continuous
100
AcDbLine
 10
284.5
 20
61.50046900000001
 30
0.0
 11
284.5
 21
59.50046900000001
 31
0.0
  0
LINE
  5
21C3
330
105C
100
AcDbEntity
  8
0
  6
Continuous
100
AcDbLine
 10
274.0
 20
60.45047
 30
0.0
 11
275.1979269999999
 21
60.45047
 31
0.0
  0
LINE
  5
21C4
330
105C
100
AcDbEntity
  8
0
  6
Continuous
100
AcDbLine
 10
278.7000009999999
 20
56.827091
 30
0.0
 11
278.7000009999999
 21
51.60047099999997
 31
0.0
  0
LINE
  5
21C5
330
105C
100
AcDbEntity
  8
0
  6
Continuous
100
AcDbLine
 10
273.7000009999999
 20
59.93085500000001
 30
0.0
 11
273.7000009999999
 21
52.47008499999998
 31
0.0
  0
LINE
  5
21C6
330
105C
100
AcDbEntity
  8
0
  6
Continuous
100
AcDbLine
 10
274.0
 20
51.95046999999998
 30
0.0
 11
278.7000009999999
 21
51.95046999999998
 31
0.0
  0
LINE
  5
21C7
330
105C
100
AcDbEntity
  8
0
  6
Continuous
100
AcDbLine
 10
278.7000009999999
 20
51.60047099999997
 30
0.0
 11
280.0
 21
51.60047099999997
 31
0.0
  0
LINE
  5
21C8
330
105C
100
AcDbEntity
  8
0
  6
Continuous
100
AcDbLine
 10
278.0
 20
57.28465699999998
 30
0.0
 11
278.0
 21
51.95046999999998
 31
0.0
  0
LINE
  5
21C9
330
105C
100
AcDbEntity
  8
0
  6
Continuous
100
AcDbLine
 10
274.0
 20
60.45047
 30
0.0
 11
274.0
 21
51.95046999999998
 31
0.0
  0
LINE
  5
21CA
330
105C
100
AcDbEntity
  8
0
  6
Continuous
100
AcDbLine
 10
274.0
 20
51.95046999999998
 30
0.0
 11
273.6999989999999
 21
52.47008499999998
 31
0.0
  0
LINE
  5
21CB
330
105C
100
AcDbEntity
  8
0
  6
Continuous
100
AcDbLine
 10
273.7000009999999
 20
59.93085100000001
 30
0.0
 11
274.000002
 21
60.45047
 31
0.0
  0
LINE
  5
21CC
330
105C
100
AcDbEntity
  8
0
  6
Continuous
100
AcDbLine
 10
327.5
 20
83.50047299999998
 30
0.0
 11
327.5
 21
64.43712600000004
 31
0.0
  0
LINE
  5
21CD
330
105C
100
AcDbEntity
  8
0
  6
Continuous
100
AcDbLine
 10
332.5
 20
97.500473
 30
0.0
 11
332.5
 21
93.50047299999999
 31
0.0
  0
LINE
  5
21CE
330
105C
100
AcDbEntity
  8
0
  6
Continuous
100
AcDbLine
 10
267.5
 20
97.500473
 30
0.0
 11
267.5
 21
93.50047299999999
 31
0.0
  0
LINE
  5
21CF
330
105C
100
AcDbEntity
  8
0
  6
Continuous
100
AcDbLine
 10
280.0
 20
55.99515200000002
 30
0.0
 11
280.0
 21
49.62106699999998
 31
0.0
  0
LINE
  5
21D0
330
105C
100
AcDbEntity
  8
0
  6
Continuous
100
AcDbLine
 10
267.5
 20
93.50047299999999
 30
0.0
 11
332.5
 21
93.50047299999999
 31
0.0
  0
LINE
  5
21D1
330
105C
100
AcDbEntity
  8
0
  6
Continuous
100
AcDbLine
 10
316.0883309999999
 20
91.500473
 30
0.0
 11
316.0883309999999
 21
93.50047299999999
 31
0.0
  0
LINE
  5
21D2
330
105C
100
AcDbEntity
  8
0
  6
Continuous
100
AcDbLine
 10
331.488331
 20
91.500473
 30
0.0
 11
331.488331
 21
93.50047299999999
 31
0.0
  0
LINE
  5
21D3
330
105C
100
AcDbEntity
  8
0
  6
Continuous
100
AcDbLine
 10
285.0
 20
63.50046900000001
 30
0.0
 11
285.0
 21
61.50046900000001
 31
0.0
  0
LINE
  5
21D4
330
105C
100
AcDbEntity
  8
0
  6
Continuous
100
AcDbLine
 10
315.0
 20
63.50046900000001
 30
0.0
 11
315.0
 21
61.50046900000001
 31
0.0
  0
LINE
  5
21D5
330
105C
100
AcDbEntity
  8
0
  6
Continuous
100
AcDbLine
 10
268.5117929999999
 20
91.500473
 30
0.0
 11
283.911793
 21
91.500473
 31
0.0
  0
LINE
  5
21D6
330
105C
100
AcDbEntity
  8
0
  6
Continuous
100
AcDbLine
 10
283.911793
 20
91.500473
 30
0.0
 11
283.911793
 21
93.50047299999999
 31
0.0
  0
LINE
  5
21D7
330
105C
100
AcDbEntity
  8
0
  6
Continuous
100
AcDbLine
 10
281.291714
 20
83.50047299999998
 30
0.0
 11
281.291714
 21
59.90047099999998
 31
0.0
  0
LINE
  5
21D8
330
105C
100
AcDbEntity
  8
0
  6
Continuous
100
AcDbLine
 10
321.27927
 20
55.39622500000001
 30
0.0
 11
323.6621889999999
 21
57.06476199999997
 31
0.0
  0
LINE
  5
21D9
330
105C
100
AcDbEntity
  8
0
  6
Continuous
100
AcDbLine
 10
281.7747420000001
 20
59.50046900000001
 30
0.0
 11
318.225258
 21
59.50046900000001
 31
0.0
  0
LINE
  5
21DA
330
105C
100
AcDbEntity
  8
0
  6
Continuous
100
AcDbLine
 10
284.5
 20
61.50046900000001
 30
0.0
 11
315.5
 21
61.50046900000001
 31
0.0
  0
LINE
  5
21DB
330
105C
100
AcDbEntity
  8
0
  6
Continuous
100
AcDbLine
 10
320.0
 20
52.93876999999998
 30
0.0
 11
320.0
 21
49.62106699999998
 31
0.0
  0
ARC
  5
21DC
330
105C
100
AcDbEntity
  8
0
  6
Continuous
100
AcDbCircle
 10
389.2823410000001
 20
181.33051
 30
0.0
 40
2.317657899999999
100
AcDbArc
 50
321.4810499999922
 51
38.51895000000782
  0
ARC
  5
21DD
330
105C
100
AcDbEntity
  8
0
  6
Continuous
100
AcDbCircle
 10
383.0858459999998
 20
177.00038
 30
0.0
 40
8.514156300000001
100
AcDbArc
 50
340.1808199999976
 51
19.81917699999776
  0
ARC
  5
21DE
330
105C
100
AcDbEntity
  8
0
  6
Continuous
100
AcDbCircle
 10
389.2823410000001
 20
172.67026
 30
0.0
 40
2.317657899999999
100
AcDbArc
 50
321.4810499999922
 51
38.51895000000782
  0
ARC
  5
21DF
330
105C
100
AcDbEntity
  8
0
  6
Continuous
100
AcDbCircle
 10
389.2823410000001
 20
109.33054
 30
0.0
 40
2.317657899999999
100
AcDbArc
 50
321.4810499999922
 51
38.51895000000782
  0
ARC
  5
21E0
330
105C
100
AcDbEntity
  8
0
  6
Continuous
100
AcDbCircle
 10
383.0858459999998
 20
105.00041
 30
0.0
 40
8.514156300000001
100
AcDbArc
 50
340.1808199999976
 51
19.81917699999776
  0
ARC
  5
21E1
330
105C
100
AcDbEntity
  8
0
  6
Continuous
100
AcDbCircle
 10
389.2823410000001
 20
100.67029
 30
0.0
 40
2.317657899999999
100
AcDbArc
 50
321.4810499999922
 51
38.51895000000782
  0
ARC
  5
21E2
330
105C
100
AcDbEntity
  8
0
  6
Continuous
100
AcDbCircle
 10
230.7176589999999
 20
172.67026
 30
0.0
 40
2.317657899999999
100
AcDbArc
 50
141.4810499999921
 51
218.5189500000078
  0
ARC
  5
21E3
330
105C
100
AcDbEntity
  8
0
  6
Continuous
100
AcDbCircle
 10
236.9141540000001
 20
177.00038
 30
0.0
 40
8.514156300000001
100
AcDbArc
 50
160.1808199999977
 51
199.8191800000023
  0
ARC
  5
21E4
330
105C
100
AcDbEntity
  8
0
  6
Continuous
100
AcDbCircle
 10
230.7176589999999
 20
181.33051
 30
0.0
 40
2.317657899999999
100
AcDbArc
 50
141.4810499999921
 51
218.5189500000078
  0
ARC
  5
21E5
330
105C
100
AcDbEntity
  8
0
  6
Continuous
100
AcDbCircle
 10
230.7176589999999
 20
100.67029
 30
0.0
 40
2.317657899999999
100
AcDbArc
 50
141.4810499999921
 51
218.5189500000078
  0
ARC
  5
21E6
330
105C
100
AcDbEntity
  8
0
  6
Continuous
100
AcDbCircle
 10
236.9141540000001
 20
105.00041
 30
0.0
 40
8.514156300000001
100
AcDbArc
 50
160.1808199999977
 51
199.8191800000023
  0
ARC
  5
21E7
330
105C
100
AcDbEntity
  8
0
  6
Continuous
100
AcDbCircle
 10
230.7176589999999
 20
109.33054
 30
0.0
 40
2.317657899999999
100
AcDbArc
 50
141.4810499999921
 51
218.5189500000078
  0
ARC
  5
21E8
330
105C
100
AcDbEntity
  8
0
  6
Continuous
100
AcDbCircle
 10
222.7909620000001
 20
135.37122
 30
0.0
 40
2.790960799999998
100
AcDbArc
 50
137.7544199999944
 51
222.2455799999946
  0
ARC
  5
21E9
330
105C
100
AcDbEntity
  8
0
  6
Continuous
100
AcDbCircle
 10
230.0764999999999
 20
141.00038
 30
0.0
 40
10.0765
100
AcDbArc
 50
158.134530000004
 51
201.8654699999959
  0
ARC
  5
21EA
330
105C
100
AcDbEntity
  8
0
  6
Continuous
100
AcDbCircle
 10
222.7909620000001
 20
146.62955
 30
0.0
 40
2.790960799999998
100
AcDbArc
 50
137.7544199999944
 51
222.2455799999946
  0
ARC
  5
21EB
330
105C
100
AcDbEntity
  8
0
  6
Continuous
100
AcDbCircle
 10
238.9765090000001
 20
141.00038
 30
0.0
 40
10.076511
100
AcDbArc
 50
158.134550000005
 51
201.865449999995
  0
ARC
  5
21EC
330
105C
100
AcDbEntity
  8
0
  6
Continuous
100
AcDbCircle
 10
231.6909639999999
 20
135.37122
 30
0.0
 40
2.7909629
100
AcDbArc
 50
137.7545300000052
 51
222.2454699999948
  0
ARC
  5
21ED
330
105C
100
AcDbEntity
  8
0
  6
Continuous
100
AcDbCircle
 10
231.6909639999999
 20
146.62955
 30
0.0
 40
2.7909629
100
AcDbArc
 50
137.7545300000052
 51
222.2454699999948
  0
ARC
  5
21EE
330
105C
100
AcDbEntity
  8
0
  6
Continuous
100
AcDbCircle
 10
231.1090389999999
 20
146.62955
 30
0.0
 40
2.7909629
100
AcDbArc
 50
317.7545300000052
 51
42.24547400000203
  0
ARC
  5
21EF
330
105C
100
AcDbEntity
  8
0
  6
Continuous
100
AcDbCircle
 10
231.1090389999999
 20
135.37122
 30
0.0
 40
2.7909629
100
AcDbArc
 50
317.7545300000052
 51
42.24547400000203
  0
ARC
  5
21F0
330
105C
100
AcDbEntity
  8
0
  6
Continuous
100
AcDbCircle
 10
223.823486
 20
141.00038
 30
0.0
 40
10.076511
100
AcDbArc
 50
338.1345500000051
 51
21.86545199999976
  0
ARC
  5
21F1
330
105C
100
AcDbEntity
  8
0
  6
Continuous
100
AcDbCircle
 10
397.209038
 20
146.62955
 30
0.0
 40
2.790960799999998
100
AcDbArc
 50
317.7544200000054
 51
42.24557999999459
  0
ARC
  5
21F2
330
105C
100
AcDbEntity
  8
0
  6
Continuous
100
AcDbCircle
 10
389.9235000000002
 20
141.00038
 30
0.0
 40
10.0765
100
AcDbArc
 50
338.1345300000041
 51
21.86546900000255
  0
ARC
  5
21F3
330
105C
100
AcDbEntity
  8
0
  6
Continuous
100
AcDbCircle
 10
397.209038
 20
135.37122
 30
0.0
 40
2.790960799999998
100
AcDbArc
 50
317.7544200000054
 51
42.24557999999459
  0
ARC
  5
21F4
330
105C
100
AcDbEntity
  8
0
  6
Continuous
100
AcDbCircle
 10
379.4234919999998
 20
141.00038
 30
0.0
 40
10.076511
100
AcDbArc
 50
338.1345500000051
 51
21.86545199999976
  0
ARC
  5
21F5
330
105C
100
AcDbEntity
  8
0
  6
Continuous
100
AcDbCircle
 10
386.709038
 20
146.62955
 30
0.0
 40
2.7909629
100
AcDbArc
 50
317.7545300000052
 51
42.24547400000203
  0
ARC
  5
21F6
330
105C
100
AcDbEntity
  8
0
  6
Continuous
100
AcDbCircle
 10
386.709038
 20
135.37122
 30
0.0
 40
2.7909629
100
AcDbArc
 50
317.7545300000052
 51
42.24547400000203
  0
ARC
  5
21F7
330
105C
100
AcDbEntity
  8
0
  6
Continuous
100
AcDbCircle
 10
387.2909620000001
 20
135.37122
 30
0.0
 40
2.7909629
100
AcDbArc
 50
137.7545300000052
 51
222.2454699999948
  0
ARC
  5
21F8
330
105C
100
AcDbEntity
  8
0
  6
Continuous
100
AcDbCircle
 10
387.2909620000001
 20
146.62955
 30
0.0
 40
2.7909629
100
AcDbArc
 50
137.7545300000052
 51
222.2454699999948
  0
ARC
  5
21F9
330
105C
100
AcDbEntity
  8
0
  6
Continuous
100
AcDbCircle
 10
394.5765080000001
 20
141.00038
 30
0.0
 40
10.076511
100
AcDbArc
 50
158.134550000005
 51
201.865449999995
  0
ARC
  5
21FA
330
105C
100
AcDbEntity
  8
0
  6
Continuous
100
AcDbCircle
 10
300.0000001136825
 20
202.90001
 30
0.0
 40
14.0
100
AcDbArc
 50
73.92713800000004
 51
106.0728599999962
  0
ARC
  5
21FB
330
105C
100
AcDbEntity
  8
0
  6
Continuous
100
AcDbCircle
 10
303.3499999
 20
214.52702
 30
0.0
 40
1.9
100
AcDbArc
 50
0.0
 51
73.92713400000578
  0
ARC
  5
21FC
330
105C
100
AcDbEntity
  8
0
  6
Continuous
100
AcDbCircle
 10
296.6500000999999
 20
214.52702
 30
0.0
 40
1.9
100
AcDbArc
 50
106.0728599999962
 51
180.0
  0
CIRCLE
  5
21FD
330
105C
100
AcDbEntity
  8
0
  6
Continuous
100
AcDbCircle
 10
299.9999996927943
 20
0.0000015614050142
 30
0.0
 40
32.0
  0
CIRCLE
  5
21FE
330
105C
100
AcDbEntity
  8
0
  6
Continuous
100
AcDbCircle
 10
299.9999996927943
 20
0.0000015614050142
 30
0.0
 40
23.9
  0
ARC
  5
21FF
330
105C
100
AcDbEntity
  8
0
  6
Continuous
100
AcDbCircle
 10
290.5
 20
-57.0
 30
0.0
 40
8.0
100
AcDbArc
 50
215.6591199999962
 51
270.0
  0
ARC
  5
2200
330
105C
100
AcDbEntity
  8
0
  6
Continuous
100
AcDbCircle
 10
309.5
 20
-57.0
 30
0.0
 40
8.0
100
AcDbArc
 50
270.0
 51
324.3408800000038
  0
ARC
  5
2201
330
105C
100
AcDbEntity
  8
0
  6
Continuous
100
AcDbCircle
 10
300.0000003072059
 20
0.0000015614050142
 30
0.0
 40
45.49999999999999
100
AcDbArc
 50
357.4086800000002
 51
2.591464199999499
  0
ARC
  5
2202
330
105C
100
AcDbEntity
  8
0
  6
Continuous
100
AcDbCircle
 10
300.0000003072059
 20
0.0000015614050142
 30
0.0
 40
45.49999999999999
100
AcDbArc
 50
174.9564999999988
 51
185.0435000000011
  0
CIRCLE
  5
2203
330
105C
100
AcDbEntity
  8
0
  6
Continuous
100
AcDbCircle
 10
353.5
 20
8.5000019
 30
0.0
 40
2.599999899999998
  0
ARC
  5
2204
330
105C
100
AcDbEntity
  8
0
  6
Continuous
100
AcDbCircle
 10
234.0
 20
14.000124
 30
0.0
 40
1.0
100
AcDbArc
 50
90.0
 51
180.0
  0
ARC
  5
2205
330
105C
100
AcDbEntity
  8
0
  6
Continuous
100
AcDbCircle
 10
234.0
 20
5.000123999999998
 30
0.0
 40
1.0
100
AcDbArc
 50
180.0
 51
270.0
  0
ARC
  5
2206
330
105C
100
AcDbEntity
  8
0
  6
Continuous
100
AcDbCircle
 10
234.0
 20
-4.999998099999999
 30
0.0
 40
1.0
100
AcDbArc
 50
90.0
 51
180.0
  0
ARC
  5
2207
330
105C
100
AcDbEntity
  8
0
  6
Continuous
100
AcDbCircle
 10
234.0
 20
-13.999998
 30
0.0
 40
1.0
100
AcDbArc
 50
180.0
 51
270.0
  0
ARC
  5
2208
330
105C
100
AcDbEntity
  8
0
  6
Continuous
100
AcDbCircle
 10
300.0000003072059
 20
0.0000015614050142
 30
0.0
 40
42.5
100
AcDbArc
 50
188.8498700000025
 51
352.5828200000002
  0
ARC
  5
2209
330
105C
100
AcDbEntity
  8
0
  6
Continuous
100
AcDbCircle
 10
300.0000003072059
 20
0.0000015614050142
 30
0.0
 40
53.5
100
AcDbArc
 50
17.6426329999989
 51
161.4227500000004
  0
ARC
  5
220A
330
105C
100
AcDbEntity
  8
0
  6
Continuous
100
AcDbCircle
 10
346.1110229999999
 20
-6.002806200000008
 30
0.0
 40
4.0
100
AcDbArc
 50
74.99974300000286
 51
172.5830599999986
  0
ARC
  5
220B
330
105C
100
AcDbEntity
  8
0
  6
Continuous
100
AcDbCircle
 10
300.0000003072059
 20
0.0000015614050142
 30
0.0
 40
42.5
100
AcDbArc
 50
7.41718379999927
 51
171.1501299999974
  0
ARC
  5
220C
330
105C
100
AcDbEntity
  8
0
  6
Continuous
100
AcDbCircle
 10
346.1110229999999
 20
6.002809000000013
 30
0.0
 40
4.0
100
AcDbArc
 50
187.4169200000013
 51
285.0002599999937
  0
ARC
  5
220D
330
105C
100
AcDbEntity
  8
0
  6
Continuous
100
AcDbCircle
 10
255.0416259999999
 20
7.000001400000002
 30
0.0
 40
3.0
100
AcDbArc
 50
270.0
 51
351.1497899999997
  0
ARC
  5
220E
330
105C
100
AcDbEntity
  8
0
  6
Continuous
100
AcDbCircle
 10
255.0416259999999
 20
-6.999998599999997
 30
0.0
 40
3.0
100
AcDbArc
 50
8.850208500002418
 51
90.0
  0
ARC
  5
220F
330
105C
100
AcDbEntity
  8
0
  6
Continuous
100
AcDbCircle
 10
246.44397
 20
18.00000199999999
 30
0.0
 40
3.0
100
AcDbArc
 50
270.0
 51
341.4212899999995
  0
ARC
  5
2210
330
105C
100
AcDbEntity
  8
0
  6
Continuous
100
AcDbCircle
 10
246.44397
 20
-17.999998
 30
0.0
 40
3.0
100
AcDbArc
 50
18.57871199999989
 51
90.0
  0
ARC
  5
2211
330
105C
100
AcDbEntity
  8
0
  6
Continuous
100
AcDbCircle
 10
355.748474
 20
17.73010400000001
 30
0.0
 40
5.0
100
AcDbArc
 50
197.6426599999993
 51
256.2147900000056
  0
ARC
  5
2212
330
105C
100
AcDbEntity
  8
0
  6
Continuous
100
AcDbCircle
 10
300.0000003072059
 20
0.0000015614050142
 30
0.0
 40
53.5
100
AcDbArc
 50
198.5773700000029
 51
342.3573699999982
  0
ARC
  5
2213
330
105C
100
AcDbEntity
  8
0
  6
Continuous
100
AcDbCircle
 10
355.748474
 20
-17.729994
 30
0.0
 40
5.0
100
AcDbArc
 50
103.6915600000055
 51
162.3573400000006
  0
ARC
  5
2214
330
105C
100
AcDbEntity
  8
0
  6
Continuous
100
AcDbCircle
 10
341.7526860000001
 20
0.0000014640405084
 30
0.0
 40
10.0
100
AcDbArc
 50
324.1360399999979
 51
35.88842900000053
  0
ARC
  5
2215
330
105C
100
AcDbEntity
  8
0
  6
Continuous
100
AcDbCircle
 10
341.7526860000001
 20
0.0000014640405084
 30
0.0
 40
19.0
100
AcDbArc
 50
324.1116799999943
 51
35.88831899999954
  0
ARC
  5
2216
330
105C
100
AcDbEntity
  8
0
  6
Continuous
100
AcDbCircle
 10
240.0
 20
-32.5
 30
0.0
 40
8.0
100
AcDbArc
 50
240.000059999997
 51
299.9999400000031
  0
ARC
  5
2217
330
105C
100
AcDbEntity
  8
0
  6
Continuous
100
AcDbCircle
 10
233.0
 20
3.843324399999999
 30
0.0
 40
3.0
100
AcDbArc
 50
0.0
 51
2.997229699999901
  0
ARC
  5
2218
330
105C
100
AcDbEntity
  8
0
  6
Continuous
100
AcDbCircle
 10
240.0
 20
9.500123999999999
 30
0.0
 40
6.0
100
AcDbArc
 50
66.44322900000057
 51
113.5567700000067
  0
ARC
  5
2219
330
105C
100
AcDbEntity
  8
0
  6
Continuous
100
AcDbCircle
 10
247.0
 20
3.843324399999999
 30
0.0
 40
3.0
100
AcDbArc
 50
177.0027699999998
 51
180.0
  0
ARC
  5
221A
330
105C
100
AcDbEntity
  8
0
  6
Continuous
100
AcDbCircle
 10
240.0
 20
-43.85769699999999
 30
0.0
 40
5.0
100
AcDbArc
 50
180.0
 51
359.9893826806962
  0
ARC
  5
221B
330
105C
100
AcDbEntity
  8
0
  6
Continuous
100
AcDbCircle
 10
243.0
 20
-32.05758700000001
 30
0.0
 40
2.0
100
AcDbArc
 50
0.0
 51
90.0
  0
ARC
  5
221C
330
105C
100
AcDbEntity
  8
0
  6
Continuous
100
AcDbCircle
 10
237.0
 20
-32.05758700000001
 30
0.0
 40
2.0
100
AcDbArc
 50
90.0
 51
180.0
  0
ARC
  5
221D
330
105C
100
AcDbEntity
  8
0
  6
Continuous
100
AcDbCircle
 10
254.0
 20
-50.857697
 30
0.0
 40
2.0
100
AcDbArc
 50
270.0
 51
0.0
  0
ARC
  5
221E
330
105C
100
AcDbEntity
  8
0
  6
Continuous
100
AcDbCircle
 10
226.0
 20
-50.857697
 30
0.0
 40
2.0
100
AcDbArc
 50
180.0
 51
270.0
  0
ARC
  5
221F
330
105C
100
AcDbEntity
  8
0
  6
Continuous
100
AcDbCircle
 10
240.0
 20
-18.77888300000001
 30
0.0
 40
7.75
100
AcDbArc
 50
148.875579999996
 51
180.0
  0
ARC
  5
2220
330
105C
100
AcDbEntity
  8
0
  6
Continuous
100
AcDbCircle
 10
240.0
 20
-18.77888300000001
 30
0.0
 40
7.75
100
AcDbArc
 50
0.0
 51
29.18326999999587
  0
ARC
  5
2221
330
105C
100
AcDbEntity
  8
0
  6
Continuous
100
AcDbCircle
 10
259.0
 20
-48.85769699999999
 30
0.0
 40
35.0
100
AcDbArc
 50
144.7525199999958
 51
180.0000099999994
  0
ARC
  5
2222
330
105C
100
AcDbEntity
  8
0
  6
Continuous
100
AcDbCircle
 10
222.25
 20
-22.88769300000002
 30
0.0
 40
10.0
100
AcDbArc
 50
324.7522499999972
 51
0.0
  0
ARC
  5
2223
330
105C
100
AcDbEntity
  8
0
  6
Continuous
100
AcDbCircle
 10
221.0
 20
-48.85769699999999
 30
0.0
 40
35.0
100
AcDbArc
 50
359.9999900000006
 51
35.24748700000108
  0
ARC
  5
2224
330
105C
100
AcDbEntity
  8
0
  6
Continuous
100
AcDbCircle
 10
257.75
 20
-22.88769300000002
 30
0.0
 40
10.0
100
AcDbArc
 50
180.0000099999994
 51
215.2477500000028
  0
ARC
  5
2225
330
105C
100
AcDbEntity
  8
0
  6
Continuous
100
AcDbCircle
 10
353.5
 20
-8.499998099999999
 30
0.0
 40
4.5
100
AcDbArc
 50
144.111789999995
 51
324.1118300000033
  0
CIRCLE
  5
2226
330
105C
100
AcDbEntity
  8
0
  6
Continuous
100
AcDbCircle
 10
353.5
 20
-8.499998099999999
 30
0.0
 40
2.599999899999998
  0
ARC
  5
2227
330
105C
100
AcDbEntity
  8
0
  6
Continuous
100
AcDbCircle
 10
353.5
 20
8.5000019
 30
0.0
 40
4.5
100
AcDbArc
 50
35.88817700000151
 51
215.888210000005
  0
CIRCLE
  5
2228
330
105C
100
AcDbEntity
  8
0
  6
Continuous
100
AcDbCircle
 10
300.0000003072059
 20
0.0000015614050142
 30
0.0
 40
38.080002
  0
ARC
  5
2229
330
105C
100
AcDbEntity
  8
0
  6
Continuous
100
AcDbCircle
 10
281.5
 20
64.43712600000004
 30
0.0
 40
9.0
100
AcDbArc
 50
180.0
 51
201.0773999999957
  0
ARC
  5
222A
330
105C
100
AcDbEntity
  8
0
  6
Continuous
100
AcDbCircle
 10
318.5
 20
64.43712600000004
 30
0.0
 40
9.0
100
AcDbArc
 50
304.9999999999974
 51
0.0
  0
ARC
  5
222B
330
105C
100
AcDbEntity
  8
0
  6
Continuous
100
AcDbCircle
 10
323.0
 20
52.93876999999998
 30
0.0
 40
3.0
100
AcDbArc
 50
125.000020000005
 51
180.0
  0
CIRCLE
  5
222C
330
105C
100
AcDbEntity
  8
0
  6
Continuous
100
AcDbCircle
 10
240.0
 20
9.500123999999999
 30
0.0
 40
3.5
  0
ELLIPSE
  5
222D
330
105C
100
AcDbEntity
  8
0
  6
Continuous
100
AcDbEllipse
 10
308.0
 20
-56.999538
 30
0.0
 11
-6.1390149
 21
0.0
 31
0.0
210
0.0
220
0.0
230
1.0
 40
0.7596803100000002
 41
0.0
 42
3.1415927
  0
ELLIPSE
  5
222E
330
105C
100
AcDbEntity
  8
0
  6
Continuous
100
AcDbEllipse
 10
292.0
 20
-56.999538
 30
0.0
 11
6.1390149
 21
0.0
 31
0.0
210
0.0
220
0.0
230
1.0
 40
0.7596803100000002
 41
3.1415927
 42
6.283185299999998
  0
SPLINE
  5
222F
330
105C
100
AcDbEntity
  8
0
  6
Continuous
100
AcDbSpline
210
0.0
220
0.0
230
1.0
 70
  1064
 71
     3
 72
    13
 73
     9
 74
     7
 42
0.000000001
 43
0.0000000001
 44
0.00001
 12
0.3961836001156706
 22
-0.918171310268071
 32
0.0
 13
0.8422435502752508
 23
-0.5390972101761805
 33
0.0
 40
0.0
 40
0.0
 40
0.0
 40
0.0
 40
0.9157014034699045
 40
1.831686993340849
 40
2.747947647068409
 40
3.664038512617012
 40
4.580436627166442
 40
5.493991885367537
 40
5.493991885367537
 40
5.493991885367537
 40
5.493991885367537
 10
274.835644
 20
61.20046999999999
 30
0.0
 10
274.9565726262192
 20
60.92021308085389
 30
0.0
 10
275.224858122653
 20
60.37057485288639
 30
0.0
 10
275.7031674926779
 20
59.58784008640073
 30
0.0
 10
276.2555143129735
 20
58.85503135143657
 30
0.0
 10
276.8808760704747
 20
58.18298143535802
 30
0.0
 10
277.5734237618274
 20
57.58204670390991
 30
0.0
 10
278.07213032532
 20
57.22892703034597
 30
0.0
 10
278.3286089999999
 20
57.06476199999997
 30
0.0
 11
274.835644
 21
61.20046999999999
 31
0.0
 11
275.237439
 21
60.37762600000002
 31
0.0
 11
275.7154359999999
 21
59.59624999999999
 31
0.0
 11
276.267697
 21
58.86512600000003
 31
0.0
 11
276.892106
 21
58.19479999999998
 31
0.0
 11
277.5834609999999
 21
57.59329000000001
 31
0.0
 11
278.3286089999999
 21
57.06476199999997
 31
0.0
  0
ELLIPSE
  5
2230
330
105C
100
AcDbEntity
  8
0
  6
Continuous
100
AcDbEllipse
 10
281.7747420000001
 20
59.90046699999999
 30
0.0
 11
0.48302973
 21
0.0
 31
0.0
210
0.0
220
0.0
230
0.9999999999999998
 40
0.82810641
 41
3.1415879
 42
4.712388999999999
  0
ELLIPSE
  5
2231
330
105C
100
AcDbEntity
  8
0
  6
Continuous
100
AcDbEllipse
 10
318.225258
 20
59.90046699999999
 30
0.0
 11
-0.48302973
 21
0.0
 31
0.0
210
0.0
220
0.0
230
0.9999999999999998
 40
0.82810641
 41
1.5707963
 42
3.141597399999998
  0
LINE
  5
2232
330
105C
100
AcDbEntity
  8
0
  6
CENTER
100
AcDbLine
 10
300.0
 20
-72.09127456049464
 30
0.0
 11
300.0
 21
218.7729551408349
 31
0.0
  0
LINE
  5
2233
330
105C
100
AcDbEntity
  8
0
  6
CENTER
100
AcDbLine
 10
226.9759322685804
 20
0.0
 30
0.0
 11
367.6103254233094
 21
0.0
 31
0.0
  0
LINE
  5
2234
330
105C
100
AcDbEntity
  8
0
  6
CENTER
100
AcDbLine
 10
0.0
 20
-72.1321728398566
 30
0.0
 11
0.0
 21
218.4276294283165
 31
0.0
  0
LINE
  5
2235
330
105C
100
AcDbEntity
  8
0
  6
CENTER
100
AcDbLine
 10
-86.12564670917164
 20
0.0
 30
0.0
 11
84.44107015615555
 21
0.0
 31
0.0
  0
LINE
  5
2236
330
105C
100
AcDbEntity
  8
0
  6
CENTER
100
AcDbLine
 10
0.0000000000000568
 20
336.4186810379852
 30
0.0
 11
0.0000000000000568
 21
499.1459442037212
 31
0.0
  0
LINE
  5
2237
330
105C
100
AcDbEntity
  8
0
  6
CENTER
100
AcDbLine
 10
-86.12564670917164
 20
410.0
 30
0.0
 11
84.44107015615555
 21
410.0
 31
0.0
  0
TEXT
  5
2238
330
105C
100
AcDbEntity
  8
0
100
AcDbText
 10
-329.1666666666666
 20
559.1666666666666
 30
0.0
 40
50.0
  1
2MA__T35000 2S
 72
     4
 11
0.0
 21
580.0
 31
0.0
100
AcDbText
  0
LINE
  5
2239
330
105C
100
AcDbEntity
  8
0
  6
Continuous
100
AcDbLine
 10
44.02498999999993
 20
459.2193645028562
 30
0.0
 11
44.77500500000002
 21
459.2193645028562
 31
0.0
  0
LINE
  5
223A
330
105C
100
AcDbEntity
  8
0
100
AcDbLine
 10
314.3090844999999
 20
59.50046900000001
 30
0.0
 11
315.6124904999999
 21
58.50046900000001
 31
0.0
  0
LINE
  5
223B
330
105C
100
AcDbEntity
  8
0
100
AcDbLine
 10
315.6124955
 20
58.50046900000001
 30
0.0
 11
315.6124955
 21
51.17128250936431
 31
0.0
  0
LINE
  5
223C
330
105C
100
AcDbEntity
  8
0
100
AcDbLine
 10
284.3875055000001
 20
58.50046900000001
 30
0.0
 11
284.3875055
 21
51.17128262700829
 31
0.0
  0
LINE
  5
223D
330
105C
100
AcDbEntity
  8
0
100
AcDbLine
 10
285.6909175000001
 20
59.50046900000001
 30
0.0
 11
284.3875085
 21
58.50046900000001
 31
0.0
  0
TEXT
  5
23BA
330
105C
100
AcDbEntity
  8
0
100
AcDbText
 10
-329.1666666666666
 20
659.1666666666666
 30
0.0
 40
50.0
  1
2BA__T35000 2S
 72
     4
 11
0.0
 21
680.0
 31
0.0
100
AcDbText
  0
ENDSEC
  0
SECTION
  2
OBJECTS
  0
DICTIONARY
  5
FFD
330
0
100
AcDbDictionary
281
     1
  3
ACAD_CIP_PREVIOUS_PRODUCT_INFO
350
11C9
  3
ACAD_COLOR
350
1053
  3
ACAD_DETAILVIEWSTYLE
350
2391
  3
ACAD_GROUP
350
FFE
  3
ACAD_LAYOUT
350
1052
  3
ACAD_MATERIAL
350
1001
  3
ACAD_MLEADERSTYLE
350
1056
  3
ACAD_MLINESTYLE
350
104F
  3
ACAD_PLOTSETTINGS
350
1051
  3
ACAD_PLOTSTYLENAME
350
FFF
  3
ACAD_SCALELIST
350
1033
  3
ACAD_SECTIONVIEWSTYLE
350
238F
  3
ACAD_TABLESTYLE
350
1054
  3
ACAD_VISUALSTYLE
350
101A
  3
ACDB_RECOMPOSE_DATA
350
23BC
  3
AcDbVariableDictionary
350
1269
  3
AcmDictionary
350
11EF
  3
AEC_PROPERTY_SET_DEFS
350
1413
  3
AMG
350
11CA
  3
AMGSNAPSETTINGS
350
1221
  0
DICTIONARY
  5
122E
330
FF9
100
AcDbDictionary
280
     1
281
     1
  0
DICTIONARY
  5
155F
330
FF3
100
AcDbDictionary
280
     1
281
     1
  3
ACAD_LAYERSTATES
360
1560
  0
DICTIONARY
  5
1228
330
1045
100
AcDbDictionary
280
     1
281
     1
  3
ADSK_XREC_LAYER_RECONCILED
360
1229
  0
DICTIONARY
  5
12F8
330
105C
100
AcDbDictionary
280
     1
281
     1
  3
ACAD_SORTENTS
360
12F9
  0
XRECORD
  5
11C9
102
{ACAD_REACTORS
330
FFD
102
}
330
FFD
100
AcDbXrecord
280
     1
300
ACDLT
300
2019
300
ACDLT_F_S
  0
DICTIONARY
  5
1053
102
{ACAD_REACTORS
330
FFD
102
}
330
FFD
100
AcDbDictionary
281
     1
  0
DICTIONARY
  5
2391
102
{ACAD_REACTORS
330
FFD
102
}
330
FFD
100
AcDbDictionary
281
     1
  3
Imperial24
350
2392
  0
DICTIONARY
  5
FFE
102
{ACAD_REACTORS
330
FFD
102
}
330
FFD
100
AcDbDictionary
281
     1
  0
DICTIONARY
  5
1052
102
{ACAD_REACTORS
330
FFD
102
}
330
FFD
100
AcDbDictionary
281
     1
  3
Model
350
105F
  3
レイアウト1
350
105B
  0
DICTIONARY
  5
1001
102
{ACAD_REACTORS
330
FFD
102
}
330
FFD
100
AcDbDictionary
281
     1
  3
ByBlock
350
100A
  3
ByLayer
350
1002
  3
Global
350
1012
  0
DICTIONARY
  5
1056
102
{ACAD_REACTORS
330
FFD
102
}
330
FFD
100
AcDbDictionary
281
     1
  3
Standard
350
1057
  0
DICTIONARY
  5
104F
102
{ACAD_REACTORS
330
FFD
102
}
330
FFD
100
AcDbDictionary
281
     1
  3
Standard
350
1050
  0
DICTIONARY
  5
1051
102
{ACAD_REACTORS
330
FFD
102
}
330
FFD
100
AcDbDictionary
281
     1
  0
ACDBDICTIONARYWDFLT
  5
FFF
102
{ACAD_REACTORS
330
FFD
102
}
330
FFD
100
AcDbDictionary
281
     1
  3
Normal
350
1000
100
AcDbDictionaryWithDefault
340
1000
  0
DICTIONARY
  5
1033
102
{ACAD_REACTORS
330
FFD
102
}
330
FFD
100
AcDbDictionary
281
     1
  3
A0
350
1034
  3
A1
350
1035
  3
A2
350
1036
  3
A3
350
1037
  3
A4
350
1038
  3
A5
350
1039
  3
A6
350
103A
  3
A7
350
103B
  3
A8
350
103C
  3
A9
350
103D
  3
B0
350
103E
  3
B1
350
103F
  3
B2
350
1040
  3
B3
350
1041
  3
B4
350
1042
  3
B5
350
1043
  3
B6
350
1044
  0
DICTIONARY
  5
238F
102
{ACAD_REACTORS
330
FFD
102
}
330
FFD
100
AcDbDictionary
281
     1
  3
Imperial24
350
2390
  0
DICTIONARY
  5
1054
102
{ACAD_REACTORS
330
FFD
102
}
330
FFD
100
AcDbDictionary
281
     1
  3
Standard
350
1055
  0
DICTIONARY
  5
101A
102
{ACAD_REACTORS
330
FFD
102
}
330
FFD
100
AcDbDictionary
281
     1
  3
2dWireframe
350
1020
  3
3D Hidden
350
1558
  3
3dWireframe
350
1557
  3
Basic
350
101F
  3
Brighten
350
1026
  3
ColorChange
350
102A
  3
Conceptual
350
1023
  3
Dim
350
1025
  3
EdgeColorOff
350
1032
  3
Facepattern
350
1029
  3
Flat
350
101B
  3
FlatWithEdges
350
101C
  3
Gouraud
350
101D
  3
GouraudWithEdges
350
101E
  3
Hidden
350
1022
  3
JitterOff
350
1030
  3
Linepattern
350
1028
  3
OverhangOff
350
1031
  3
Realistic
350
1024
  3
Shaded
350
102F
  3
Shaded with edges
350
102E
  3
Shades of Gray
350
102B
  3
Sketchy
350
102C
  3
Thicken
350
1027
  3
Wireframe
350
1021
  3
X-Ray
350
102D
  0
XRECORD
  5
23BC
102
{ACAD_REACTORS
330
FFD
102
}
330
FFD
100
AcDbXrecord
280
     1
 90
        1
330
1055
  0
DICTIONARY
  5
1269
102
{ACAD_REACTORS
330
FFD
102
}
330
FFD
100
AcDbDictionary
281
     1
  3
CANNOSCALE
350
126C
  3
CMLEADERSTYLE
350
126B
  3
CTABLESTYLE
350
126A
  3
CVIEWDETAILSTYLE
350
23A2
  3
CVIEWSECTIONSTYLE
350
23A3
  3
DIMASSOC
350
126F
  3
INDEXCTL
350
126E
  3
LAYEREVAL
350
1569
  3
LAYERNOTIFY
350
156A
  3
LIGHTINGUNITS
350
1568
  3
MSLTSCALE
350
1567
  3
SOLIDHIST
350
15E4
  3
SORTENTS
350
126D
  0
DICTIONARY
  5
11EF
102
{ACAD_REACTORS
330
FFD
102
}
330
FFD
100
AcDbDictionary
281
     1
  3
AcmStdDictionary
350
11F8
  0
DICTIONARY
  5
1413
102
{ACAD_REACTORS
330
FFD
102
}
330
FFD
100
AcDbDictionary
281
     1
  0
DICTIONARY
  5
11CA
102
{ACAD_REACTORS
330
FFD
102
}
330
FFD
100
AcDbDictionary
281
     1
  0
DICTIONARY
  5
1221
102
{ACAD_REACTORS
330
FFD
102
}
330
FFD
100
AcDbDictionary
281
     1
  0
DICTIONARY
  5
1560
102
{ACAD_REACTORS
330
155F
102
}
330
155F
100
AcDbDictionary
281
     1
  0
XRECORD
  5
1229
102
{ACAD_REACTORS
330
1228
102
}
330
1228
100
AcDbXrecord
280
     1
290
     1
  0
SORTENTSTABLE
  5
12F9
102
{ACAD_REACTORS
330
12F8
102
}
330
12F8
100
AcDbSortentsTable
330
105C
  0
ACDBDETAILVIEWSTYLE
  5
2392
102
{ACAD_XDICTIONARY
360
23F5
102
}
102
{ACAD_REACTORS
330
2391
102
}
330
2391
100
AcDbModelDocViewStyle
 70
     0
  3
Imperial24
290
     0
100
AcDbDetailViewStyle
 70
     0
 71
     0
 90
        3
 71
     1
340
1046
 62
   256
 40
0.24
340
0
 62
   256
 40
0.24
300

 40
0.36
280
     3
 71
     2
340
104D
 90
       25
 62
   256
 71
     3
340
1046
 62
   256
 40
0.24
 90
        1
 40
0.75
 90
        1
300
%<\AcVar ViewType \f "%tc1">% %<\AcVar ViewDetailId>%\PSCALE %<\AcVar ViewScale \f "%sn">%
 71
     4
340
104D
 90
       25
 62
   256
340
104D
 90
       25
 62
   256
280
     0
  0
LAYOUT
  5
105F
102
{ACAD_XDICTIONARY
360
1565
102
}
102
{ACAD_REACTORS
330
1052
102
}
330
1052
100
AcDbPlotSettings
  1

  2
iR C4580
  4

  6

 40
0.0
 41
0.0
 42
0.0
 43
0.0
 44
0.0
 45
0.0
 46
0.0
 47
0.0
 48
0.0
 49
0.0
140
0.0
141
0.0
142
1.0
143
1.0
 70
  1712
 72
     0
 73
     0
 74
     0
  7

 75
     0
147
1.0
 76
     0
 77
     2
 78
   300
148
0.0
149
0.0
100
AcDbLayout
  1
Model
 70
     1
 71
     0
 10
0.0
 20
0.0
 11
12.0
 21
9.0
 12
0.0
 22
0.0
 32
0.0
 14
0.0
 24
0.0
 34
0.0
 15
0.0
 25
0.0
 35
0.0
146
0.0
 13
0.0
 23
0.0
 33
0.0
 16
1.0
 26
0.0
 36
0.0
 17
0.0
 27
1.0
 37
0.0
 76
     0
330
105C
331
1060
  0
LAYOUT
  5
105B
102
{ACAD_REACTORS
330
1052
102
}
330
1052
100
AcDbPlotSettings
  1

  2
iR C4580
  4

  6

 40
0.0
 41
0.0
 42
0.0
 43
0.0
 44
0.0
 45
0.0
 46
0.0
 47
0.0
 48
0.0
 49
0.0
140
0.0
141
0.0
142
1.0
143
1.0
 70
   688
 72
     0
 73
     0
 74
     5
  7

 75
    16
147
1.0
 76
     0
 77
     2
 78
   300
148
0.0
149
0.0
100
AcDbLayout
  1
レイアウト1
 70
     1
 71
     1
 10
-584.0
 20
0.0
 11
0.0
 21
588.9623999834062
 12
0.0
 22
0.0
 32
0.0
 14
1.000000000000000E+20
 24
1.000000000000000E+20
 34
1.000000000000000E+20
 15
-1.000000000000000E+20
 25
-1.000000000000000E+20
 35
-1.000000000000000E+20
146
0.0
 13
0.0
 23
0.0
 33
0.0
 16
1.0
 26
0.0
 36
0.0
 17
0.0
 27
1.0
 37
0.0
 76
     0
330
1058
  0
MATERIAL
  5
100A
102
{ACAD_XDICTIONARY
360
100B
102
}
102
{ACAD_REACTORS
330
1001
102
}
330
1001
100
AcDbMaterial
  1
ByBlock
 72
     0
 43
0.0208333333333333
 43
0.0
 43
0.0
 43
0.0
 43
0.0
 43
0.0208333333333333
 43
0.0
 43
0.0
 43
0.0
 43
0.0
 43
1.0
 43
0.0
 43
0.0
 43
0.0
 43
0.0
 43
1.0
 77
     0
 47
0.0208333333333333
 47
0.0
 47
0.0
 47
0.0
 47
0.0
 47
0.0208333333333333
 47
0.0
 47
0.0
 47
0.0
 47
0.0
 47
1.0
 47
0.0
 47
0.0
 47
0.0
 47
0.0
 47
1.0
171
     0
 49
0.0208333333333333
 49
0.0
 49
0.0
 49
0.0
 49
0.0
 49
0.0208333333333333
 49
0.0
 49
0.0
 49
0.0
 49
0.0
 49
1.0
 49
0.0
 49
0.0
 49
0.0
 49
0.0
 49
1.0
175
     0
142
0.0208333333333333
142
0.0
142
0.0
142
0.0
142
0.0
142
0.0208333333333333
142
0.0
142
0.0
142
0.0
142
0.0
142
1.0
142
0.0
142
0.0
142
0.0
142
0.0
142
1.0
179
     0
144
0.0208333333333333
144
0.0
144
0.0
144
0.0
144
0.0
144
0.0208333333333333
144
0.0
144
0.0
144
0.0
144
0.0
144
1.0
144
0.0
144
0.0
144
0.0
144
0.0
144
1.0
147
0.0208333333333333
147
0.0
147
0.0
147
0.0
147
0.0
147
0.0208333333333333
147
0.0
147
0.0
147
0.0
147
0.0
147
1.0
147
0.0
147
0.0
147
0.0
147
0.0
147
1.0
  0
MATERIAL
  5
1002
102
{ACAD_XDICTIONARY
360
1003
102
}
102
{ACAD_REACTORS
330
1001
102
}
330
1001
100
AcDbMaterial
  1
ByLayer
 72
     0
 43
0.0208333333333333
 43
0.0
 43
0.0
 43
0.0
 43
0.0
 43
0.0208333333333333
 43
0.0
 43
0.0
 43
0.0
 43
0.0
 43
1.0
 43
0.0
 43
0.0
 43
0.0
 43
0.0
 43
1.0
 77
     0
 47
0.0208333333333333
 47
0.0
 47
0.0
 47
0.0
 47
0.0
 47
0.0208333333333333
 47
0.0
 47
0.0
 47
0.0
 47
0.0
 47
1.0
 47
0.0
 47
0.0
 47
0.0
 47
0.0
 47
1.0
171
     0
 49
0.0208333333333333
 49
0.0
 49
0.0
 49
0.0
 49
0.0
 49
0.0208333333333333
 49
0.0
 49
0.0
 49
0.0
 49
0.0
 49
1.0
 49
0.0
 49
0.0
 49
0.0
 49
0.0
 49
1.0
175
     0
142
0.0208333333333333
142
0.0
142
0.0
142
0.0
142
0.0
142
0.0208333333333333
142
0.0
142
0.0
142
0.0
142
0.0
142
1.0
142
0.0
142
0.0
142
0.0
142
0.0
142
1.0
179
     0
144
0.0208333333333333
144
0.0
144
0.0
144
0.0
144
0.0
144
0.0208333333333333
144
0.0
144
0.0
144
0.0
144
0.0
144
1.0
144
0.0
144
0.0
144
0.0
144
0.0
144
1.0
147
0.0208333333333333
147
0.0
147
0.0
147
0.0
147
0.0
147
0.0208333333333333
147
0.0
147
0.0
147
0.0
147
0.0
147
1.0
147
0.0
147
0.0
147
0.0
147
0.0
147
1.0
  0
MATERIAL
  5
1012
102
{ACAD_XDICTIONARY
360
1013
102
}
102
{ACAD_REACTORS
330
1001
102
}
330
1001
100
AcDbMaterial
  1
Global
 72
     0
 43
0.0208333333333333
 43
0.0
 43
0.0
 43
0.0
 43
0.0
 43
0.0208333333333333
 43
0.0
 43
0.0
 43
0.0
 43
0.0
 43
1.0
 43
0.0
 43
0.0
 43
0.0
 43
0.0
 43
1.0
 77
     0
 47
0.0208333333333333
 47
0.0
 47
0.0
 47
0.0
 47
0.0
 47
0.0208333333333333
 47
0.0
 47
0.0
 47
0.0
 47
0.0
 47
1.0
 47
0.0
 47
0.0
 47
0.0
 47
0.0
 47
1.0
171
     0
 49
0.0208333333333333
 49
0.0
 49
0.0
 49
0.0
 49
0.0
 49
0.0208333333333333
 49
0.0
 49
0.0
 49
0.0
 49
0.0
 49
1.0
 49
0.0
 49
0.0
 49
0.0
 49
0.0
 49
1.0
175
     0
142
0.0208333333333333
142
0.0
142
0.0
142
0.0
142
0.0
142
0.0208333333333333
142
0.0
142
0.0
142
0.0
142
0.0
142
1.0
142
0.0
142
0.0
142
0.0
142
0.0
142
1.0
179
     0
144
0.0208333333333333
144
0.0
144
0.0
144
0.0
144
0.0
144
0.0208333333333333
144
0.0
144
0.0
144
0.0
144
0.0
144
1.0
144
0.0
144
0.0
144
0.0
144
0.0
144
1.0
147
0.0208333333333333
147
0.0
147
0.0
147
0.0
147
0.0
147
0.0208333333333333
147
0.0
147
0.0
147
0.0
147
0.0
147
1.0
147
0.0
147
0.0
147
0.0
147
0.0
147
1.0
  0
MLEADERSTYLE
  5
1057
102
{ACAD_XDICTIONARY
360
23ED
102
}
102
{ACAD_REACTORS
330
1056
102
}
330
1056
100
AcDbMLeaderStyle
179
     2
170
     2
171
     1
172
     0
 90
        2
 40
0.0
 41
0.0
173
     1
 91
-1056964608
340
104B
 92
       -2
290
     1
 42
0.09
291
     1
 43
0.36
  3
Standard
 44
0.18
300

342
1046
174
     1
178
     6
175
     1
176
     0
 93
-1056964608
 45
0.18
292
     0
297
     0
 46
0.18
 94
-1056964608
 47
1.0
 49
1.0
140
1.0
293
     1
141
0.0
294
     1
177
     0
142
1.0
295
     0
296
     0
143
0.125
271
     0
272
     9
273
     9
1001
ACAD_MLEADERVER
1070
     2
  0
MLINESTYLE
  5
1050
102
{ACAD_REACTORS
330
104F
102
}
330
104F
100
AcDbMlineStyle
  2
STANDARD
 70
     0
  3

 62
   256
 51
90.0
 52
90.0
 71
     2
 49
0.5
 62
   256
  6
BYLAYER
 49
-0.5
 62
   256
  6
BYLAYER
  0
ACDBPLACEHOLDER
  5
1000
102
{ACAD_REACTORS
330
FFF
102
}
330
FFF
  0
SCALE
  5
1034
102
{ACAD_REACTORS
330
1033
102
}
330
1033
100
AcDbScale
 70
     0
300
1:1
140
1.0
141
1.0
290
     1
  0
SCALE
  5
1035
102
{ACAD_REACTORS
330
1033
102
}
330
1033
100
AcDbScale
 70
     0
300
1/128" = 1'-0"
140
0.0078125
141
12.0
290
     0
  0
SCALE
  5
1036
102
{ACAD_REACTORS
330
1033
102
}
330
1033
100
AcDbScale
 70
     0
300
1/64" = 1'-0"
140
0.015625
141
12.0
290
     0
  0
SCALE
  5
1037
102
{ACAD_REACTORS
330
1033
102
}
330
1033
100
AcDbScale
 70
     0
300
1/32" = 1'-0"
140
0.03125
141
12.0
290
     0
  0
SCALE
  5
1038
102
{ACAD_REACTORS
330
1033
102
}
330
1033
100
AcDbScale
 70
     0
300
1/16" = 1'-0"
140
0.0625
141
12.0
290
     0
  0
SCALE
  5
1039
102
{ACAD_REACTORS
330
1033
102
}
330
1033
100
AcDbScale
 70
     0
300
3/32" = 1'-0"
140
0.09375
141
12.0
290
     0
  0
SCALE
  5
103A
102
{ACAD_REACTORS
330
1033
102
}
330
1033
100
AcDbScale
 70
     0
300
1/8" = 1'-0"
140
0.125
141
12.0
290
     0
  0
SCALE
  5
103B
102
{ACAD_REACTORS
330
1033
102
}
330
1033
100
AcDbScale
 70
     0
300
3/16" = 1'-0"
140
0.1875
141
12.0
290
     0
  0
SCALE
  5
103C
102
{ACAD_REACTORS
330
1033
102
}
330
1033
100
AcDbScale
 70
     0
300
1/4" = 1'-0"
140
0.25
141
12.0
290
     0
  0
SCALE
  5
103D
102
{ACAD_REACTORS
330
1033
102
}
330
1033
100
AcDbScale
 70
     0
300
3/8" = 1'-0"
140
0.375
141
12.0
290
     0
  0
SCALE
  5
103E
102
{ACAD_REACTORS
330
1033
102
}
330
1033
100
AcDbScale
 70
     0
300
1/2" = 1'-0"
140
0.5
141
12.0
290
     0
  0
SCALE
  5
103F
102
{ACAD_REACTORS
330
1033
102
}
330
1033
100
AcDbScale
 70
     0
300
3/4" = 1'-0"
140
0.75
141
12.0
290
     0
  0
SCALE
  5
1040
102
{ACAD_REACTORS
330
1033
102
}
330
1033
100
AcDbScale
 70
     0
300
1" = 1'-0"
140
1.0
141
12.0
290
     0
  0
SCALE
  5
1041
102
{ACAD_REACTORS
330
1033
102
}
330
1033
100
AcDbScale
 70
     0
300
1-1/2" = 1'-0"
140
1.5
141
12.0
290
     0
  0
SCALE
  5
1042
102
{ACAD_REACTORS
330
1033
102
}
330
1033
100
AcDbScale
 70
     0
300
3" = 1'-0"
140
3.0
141
12.0
290
     0
  0
SCALE
  5
1043
102
{ACAD_REACTORS
330
1033
102
}
330
1033
100
AcDbScale
 70
     0
300
6" = 1'-0"
140
6.0
141
12.0
290
     0
  0
SCALE
  5
1044
102
{ACAD_REACTORS
330
1033
102
}
330
1033
100
AcDbScale
 70
     0
300
1'-0" = 1'-0"
140
12.0
141
12.0
290
     0
  0
ACDBSECTIONVIEWSTYLE
  5
2390
102
{ACAD_XDICTIONARY
360
23F3
102
}
102
{ACAD_REACTORS
330
238F
102
}
330
238F
100
AcDbModelDocViewStyle
 70
     0
  3
Imperial24
290
     0
100
AcDbSectionViewStyle
 70
     0
 71
     0
 90
      102
 71
     1
340
1046
 62
   256
 40
5.0
340
0
340
0
 62
   256
 40
5.0
300
I, O, Q, S, X, Z
 40
10.0
 90
        0
 40
2.5
 90
        0
 71
     2
340
104D
 90
       25
 62
   256
340
104D
 90
       50
 62
   256
 40
5.0
 40
2.5
 40
5.0
 71
     3
340
1046
 62
   256
 40
5.0
 90
        0
 40
15.0
 90
        1
300
%<\AcVar ViewSectionStartId>%-%<\AcVar ViewSectionEndId>% (%<\AcVar ViewScale \f "%sn">%)
 71
     4
 62
   256
 62
   257
300
ANSI31
 40
1.0
 90
        0
290
     0
290
     0
 90
        6
 40
0.0
 40
1.570796326794896
 40
0.2617993877991494
 40
1.308996938995747
 40
-0.2617993877991494
 40
1.832595714594046
  0
TABLESTYLE
  5
1055
102
{ACAD_XDICTIONARY
360
122A
102
}
102
{ACAD_REACTORS
330
1054
102
}
330
1054
100
AcDbTableStyle
280
     0
  3
Standard
 70
     0
 71
     0
 40
0.06
 41
0.06
280
     0
281
     0
  7
STANDARD
140
0.18
170
     2
 62
     0
 63
     7
283
     0
 90
      512
 91
        0
  1

274
    -2
284
     1
 64
     0
275
    -2
285
     1
 65
     0
276
    -2
286
     1
 66
     0
277
    -2
287
     1
 67
     0
278
    -2
288
     1
 68
     0
279
    -2
289
     1
 69
     0
  7
STANDARD
140
0.25
170
     5
 62
     0
 63
     7
283
     0
 90
      512
 91
        0
  1

274
    -2
284
     1
 64
     0
275
    -2
285
     1
 65
     0
276
    -2
286
     1
 66
     0
277
    -2
287
     1
 67
     0
278
    -2
288
     1
 68
     0
279
    -2
289
     1
 69
     0
  7
STANDARD
140
0.18
170
     5
 62
     0
 63
     7
283
     0
 90
      512
 91
        0
  1

274
    -2
284
     1
 64
     0
275
    -2
285
     1
 65
     0
276
    -2
286
     1
 66
     0
277
    -2
287
     1
 67
     0
278
    -2
288
     1
 68
     0
279
    -2
289
     1
 69
     0
  0
VISUALSTYLE
  5
1020
102
{ACAD_XDICTIONARY
360
23C7
102
}
102
{ACAD_REACTORS
330
101A
102
}
330
101A
100
AcDbVisualStyle
  2

 70
     4
177
     2
291
     0
 71
     0
176
     1
 72
     2
176
     1
 73
     0
176
     1
 90
        0
176
     1
 40
0.6
176
     1
 41
30.0
176
     1
 63
     7
176
     1
 74
     1
176
     1
 91
        4
176
     1
 64
     7
176
     1
 65
   257
176
     1
 75
     1
176
     1
175
     1
176
     1
 42
1.0
176
     1
 92
        0
176
     1
 66
   257
176
     1
 43
1.0
176
     1
 76
     1
176
     1
 77
     6
176
     1
 78
     2
176
     1
 67
     7
176
     1
 79
     5
176
     1
170
     0
176
     1
171
     0
176
     1
290
     0
176
     1
 93
        1
176
     1
 44
0.0
176
     1
173
     0
176
     1
1001
ACAD
1000
AcDbSavedByObjectVersion
1070
     0
  0
VISUALSTYLE
  5
1558
102
{ACAD_XDICTIONARY
360
23F1
102
}
102
{ACAD_REACTORS
330
101A
102
}
330
101A
100
AcDbVisualStyle
  2

 70
     6
177
     2
291
     0
 71
     1
176
     1
 72
     2
176
     1
 73
     2
176
     1
 90
        0
176
     1
 40
0.6
176
     1
 41
30.0
176
     1
 63
     7
176
     1
 74
     2
176
     1
 91
        2
176
     1
 64
     7
176
     1
 65
   257
176
     1
 75
     2
176
     1
175
     1
176
     1
 42
179.0
176
     1
 92
        0
176
     1
 66
   257
176
     1
 43
1.0
176
     1
 76
     1
176
     1
 77
     6
176
     1
 78
     2
176
     1
 67
     7
176
     1
 79
     3
176
     1
170
     0
176
     1
171
     0
176
     1
290
     0
176
     1
 93
        1
176
     1
 44
0.0
176
     1
173
     0
176
     1
1001
ACAD
1000
AcDbSavedByObjectVersion
1070
     0
  0
VISUALSTYLE
  5
1557
102
{ACAD_XDICTIONARY
360
23EF
102
}
102
{ACAD_REACTORS
330
101A
102
}
330
101A
100
AcDbVisualStyle
  2

 70
     5
177
     2
291
     0
 71
     0
176
     1
 72
     2
176
     1
 73
     0
176
     1
 90
        0
176
     1
 40
0.6
176
     1
 41
30.0
176
     1
 63
     7
176
     1
 74
     1
176
     1
 91
        4
176
     1
 64
     7
176
     1
 65
   257
176
     1
 75
     1
176
     1
175
     1
176
     1
 42
1.0
176
     1
 92
        0
176
     1
 66
   257
176
     1
 43
1.0
176
     1
 76
     1
176
     1
 77
     6
176
     1
 78
     2
176
     1
 67
     7
176
     1
 79
     5
176
     1
170
     0
176
     1
171
     0
176
     1
290
     0
176
     1
 93
        1
176
     1
 44
0.0
176
     1
173
     0
176
     1
1001
ACAD
1000
AcDbSavedByObjectVersion
1070
     0
  0
VISUALSTYLE
  5
101F
102
{ACAD_XDICTIONARY
360
23C5
102
}
102
{ACAD_REACTORS
330
101A
102
}
330
101A
100
AcDbVisualStyle
  2

 70
     7
177
     2
291
     1
 71
     1
176
     1
 72
     0
176
     1
 73
     1
176
     1
 90
        0
176
     1
 40
0.6
176
     1
 41
30.0
176
     1
 63
     7
176
     1
 74
     0
176
     1
 91
        4
176
     1
 64
     7
176
     1
 65
   257
176
     1
 75
     1
176
     1
175
     1
176
     1
 42
1.0
176
     1
 92
        8
176
     1
 66
     7
176
     1
 43
1.0
176
     1
 76
     1
176
     1
 77
     6
176
     1
 78
     2
176
     1
 67
     7
176
     1
 79
     5
176
     1
170
     0
176
     1
171
     0
176
     1
290
     0
176
     1
 93
        1
176
     1
 44
0.0
176
     1
173
     0
176
     1
1001
ACAD
1000
AcDbSavedByObjectVersion
1070
     0
  0
VISUALSTYLE
  5
1026
102
{ACAD_XDICTIONARY
360
23D3
102
}
102
{ACAD_REACTORS
330
101A
102
}
330
101A
100
AcDbVisualStyle
  2

 70
    12
177
     2
291
     1
 71
     2
176
     1
 72
     2
176
     1
 73
     0
176
     1
 90
        0
176
     1
 40
0.6
176
     1
 41
30.0
176
     1
 63
     7
176
     1
 74
     1
176
     1
 91
        4
176
     1
 64
     7
176
     1
 65
   257
176
     1
 75
     1
176
     1
175
     1
176
     1
 42
1.0
176
     1
 92
        8
176
     1
 66
     7
176
     1
 43
1.0
176
     1
 76
     1
176
     1
 77
     6
176
     1
 78
     2
176
     1
 67
     7
176
     1
 79
     5
176
     1
170
     0
176
     1
171
     0
176
     1
290
     0
176
     1
 93
        1
176
     1
 44
50.0
176
     1
173
     0
176
     1
1001
ACAD
1000
AcDbSavedByObjectVersion
1070
     0
  0
VISUALSTYLE
  5
102A
102
{ACAD_XDICTIONARY
360
23DB
102
}
102
{ACAD_REACTORS
330
101A
102
}
330
101A
100
AcDbVisualStyle
  2

 70
    16
177
     2
291
     1
 71
     2
176
     1
 72
     2
176
     1
 73
     3
176
     1
 90
        0
176
     1
 40
0.6
176
     1
 41
30.0
176
     1
 63
     8
176
     1
 74
     1
176
     1
 91
        4
176
     1
 64
     7
176
     1
 65
   257
176
     1
 75
     1
176
     1
175
     1
176
     1
 42
1.0
176
     1
 92
        8
176
     1
 66
     8
176
     1
 43
1.0
176
     1
 76
     1
176
     1
 77
     6
176
     1
 78
     2
176
     1
 67
     7
176
     1
 79
     5
176
     1
170
     0
176
     1
171
     0
176
     1
290
     0
176
     1
 93
        1
176
     1
 44
0.0
176
     1
173
     0
176
     1
1001
ACAD
1000
AcDbSavedByObjectVersion
1070
     0
  0
VISUALSTYLE
  5
1023
102
{ACAD_XDICTIONARY
360
23CD
102
}
102
{ACAD_REACTORS
330
101A
102
}
330
101A
100
AcDbVisualStyle
  2

 70
     9
177
     2
291
     0
 71
     3
176
     1
 72
     2
176
     1
 73
     0
176
     1
 90
        0
176
     1
 40
0.6
176
     1
 41
30.0
176
     1
 63
     7
176
     1
 74
     2
176
     1
 91
        2
176
     1
 64
     7
176
     1
 65
   257
176
     1
 75
     1
176
     1
175
     1
176
     1
 42
179.0
176
     1
 92
        8
176
     1
 66
     7
176
     1
 43
1.0
176
     1
 76
     1
176
     1
 77
     6
176
     1
 78
     2
176
     1
 67
     7
176
     1
 79
     3
176
     1
170
     0
176
     1
171
     0
176
     1
290
     0
176
     1
 93
        1
176
     1
 44
0.0
176
     1
173
     0
176
     1
1001
ACAD
1000
AcDbSavedByObjectVersion
1070
     0
  0
VISUALSTYLE
  5
1025
102
{ACAD_XDICTIONARY
360
23D1
102
}
102
{ACAD_REACTORS
330
101A
102
}
330
101A
100
AcDbVisualStyle
  2

 70
    11
177
     2
291
     1
 71
     2
176
     1
 72
     2
176
     1
 73
     0
176
     1
 90
        0
176
     1
 40
0.6
176
     1
 41
30.0
176
     1
 63
     7
176
     1
 74
     1
176
     1
 91
        4
176
     1
 64
     7
176
     1
 65
   257
176
     1
 75
     1
176
     1
175
     1
176
     1
 42
1.0
176
     1
 92
        8
176
     1
 66
     7
176
     1
 43
1.0
176
     1
 76
     1
176
     1
 77
     6
176
     1
 78
     2
176
     1
 67
     7
176
     1
 79
     5
176
     1
170
     0
176
     1
171
     0
176
     1
290
     0
176
     1
 93
        1
176
     1
 44
-50.0
176
     1
173
     0
176
     1
1001
ACAD
1000
AcDbSavedByObjectVersion
1070
     0
  0
VISUALSTYLE
  5
1032
102
{ACAD_XDICTIONARY
360
23EB
102
}
102
{ACAD_REACTORS
330
101A
102
}
330
101A
100
AcDbVisualStyle
  2

 70
    22
177
     2
291
     1
 71
     2
176
     0
 72
     2
176
     0
 73
     0
176
     0
 90
        0
176
     0
 40
0.6
176
     0
 41
30.0
176
     0
 63
     7
176
     0
 74
     1
176
     0
 91
        4
176
     0
 64
     7
176
     0
 65
   257
176
     0
 75
     1
176
     0
175
     1
176
     0
 42
1.0
176
     0
 92
        8
176
     2
 66
     7
176
     0
 43
1.0
176
     0
 76
     1
176
     0
 77
     6
176
     0
 78
     2
176
     0
 67
     7
176
     0
 79
     5
176
     0
170
     0
176
     0
171
     0
176
     0
290
     0
176
     0
 93
        1
176
     0
 44
0.0
176
     0
173
     0
176
     0
1001
ACAD
1000
AcDbSavedByObjectVersion
1070
     0
  0
VISUALSTYLE
  5
1029
102
{ACAD_XDICTIONARY
360
23D9
102
}
102
{ACAD_REACTORS
330
101A
102
}
330
101A
100
AcDbVisualStyle
  2

 70
    15
177
     2
291
     1
 71
     2
176
     1
 72
     2
176
     1
 73
     0
176
     1
 90
        0
176
     1
 40
0.6
176
     1
 41
30.0
176
     1
 63
     7
176
     1
 74
     1
176
     1
 91
        4
176
     1
 64
     7
176
     1
 65
   257
176
     1
 75
     1
176
     1
175
     1
176
     1
 42
1.0
176
     1
 92
        8
176
     1
 66
     7
176
     1
 43
1.0
176
     1
 76
     1
176
     1
 77
     6
176
     1
 78
     2
176
     1
 67
     7
176
     1
 79
     5
176
     1
170
     0
176
     1
171
     0
176
     1
290
     0
176
     1
 93
        1
176
     1
 44
0.0
176
     1
173
     0
176
     1
1001
ACAD
1000
AcDbSavedByObjectVersion
1070
     0
  0
VISUALSTYLE
  5
101B
102
{ACAD_XDICTIONARY
360
23BD
102
}
102
{ACAD_REACTORS
330
101A
102
}
330
101A
100
AcDbVisualStyle
  2

 70
     0
177
     2
291
     1
 71
     2
176
     1
 72
     1
176
     1
 73
     1
176
     1
 90
        2
176
     1
 40
0.6
176
     1
 41
30.0
176
     1
 63
     7
176
     1
 74
     0
176
     1
 91
        0
176
     1
 64
     7
176
     1
 65
   257
176
     1
 75
     1
176
     1
175
     1
176
     1
 42
1.0
176
     1
 92
        8
176
     1
 66
     7
176
     1
 43
1.0
176
     1
 76
     1
176
     1
 77
     6
176
     1
 78
     2
176
     1
 67
     7
176
     1
 79
     5
176
     1
170
     0
176
     1
171
     0
176
     1
290
     0
176
     1
 93
       13
176
     1
 44
0.0
176
     1
173
     0
176
     1
1001
ACAD
1000
AcDbSavedByObjectVersion
1070
     0
  0
VISUALSTYLE
  5
101C
102
{ACAD_XDICTIONARY
360
23BF
102
}
102
{ACAD_REACTORS
330
101A
102
}
330
101A
100
AcDbVisualStyle
  2

 70
     1
177
     2
291
     1
 71
     2
176
     1
 72
     1
176
     1
 73
     1
176
     1
 90
        2
176
     1
 40
0.6
176
     1
 41
30.0
176
     1
 63
     7
176
     1
 74
     1
176
     1
 91
        0
176
     1
 64
     7
176
     1
 65
   257
176
     1
 75
     1
176
     1
175
     1
176
     1
 42
1.0
176
     1
 92
        0
176
     1
 66
   257
176
     1
 43
1.0
176
     1
 76
     1
176
     1
 77
     6
176
     1
 78
     2
176
     1
 67
     7
176
     1
 79
     5
176
     1
170
     0
176
     1
171
     0
176
     1
290
     0
176
     1
 93
       13
176
     1
 44
0.0
176
     1
173
     0
176
     1
1001
ACAD
1000
AcDbSavedByObjectVersion
1070
     0
  0
VISUALSTYLE
  5
101D
102
{ACAD_XDICTIONARY
360
23C1
102
}
102
{ACAD_REACTORS
330
101A
102
}
330
101A
100
AcDbVisualStyle
  2

 70
     2
177
     2
291
     1
 71
     2
176
     1
 72
     2
176
     1
 73
     1
176
     1
 90
        2
176
     1
 40
0.6
176
     1
 41
30.0
176
     1
 63
     7
176
     1
 74
     0
176
     1
 91
        0
176
     1
 64
     7
176
     1
 65
   257
176
     1
 75
     1
176
     1
175
     1
176
     1
 42
1.0
176
     1
 92
        0
176
     1
 66
     7
176
     1
 43
1.0
176
     1
 76
     1
176
     1
 77
     6
176
     1
 78
     2
176
     1
 67
     7
176
     1
 79
     5
176
     1
170
     0
176
     1
171
     0
176
     1
290
     0
176
     1
 93
       13
176
     1
 44
0.0
176
     1
173
     0
176
     1
1001
ACAD
1000
AcDbSavedByObjectVersion
1070
     0
  0
VISUALSTYLE
  5
101E
102
{ACAD_XDICTIONARY
360
23C3
102
}
102
{ACAD_REACTORS
330
101A
102
}
330
101A
100
AcDbVisualStyle
  2

 70
     3
177
     2
291
     1
 71
     2
176
     1
 72
     2
176
     1
 73
     1
176
     1
 90
        2
176
     1
 40
0.6
176
     1
 41
30.0
176
     1
 63
     7
176
     1
 74
     1
176
     1
 91
        0
176
     1
 64
     7
176
     1
 65
   257
176
     1
 75
     1
176
     1
175
     1
176
     1
 42
1.0
176
     1
 92
        0
176
     1
 66
   257
176
     1
 43
1.0
176
     1
 76
     1
176
     1
 77
     6
176
     1
 78
     2
176
     1
 67
     7
176
     1
 79
     5
176
     1
170
     0
176
     1
171
     0
176
     1
290
     0
176
     1
 93
       13
176
     1
 44
0.0
176
     1
173
     0
176
     1
1001
ACAD
1000
AcDbSavedByObjectVersion
1070
     0
  0
VISUALSTYLE
  5
1022
102
{ACAD_XDICTIONARY
360
23CB
102
}
102
{ACAD_REACTORS
330
101A
102
}
330
101A
100
AcDbVisualStyle
  2

 70
     6
177
     2
291
     0
 71
     1
176
     1
 72
     2
176
     1
 73
     2
176
     1
 90
        0
176
     1
 40
0.6
176
     1
 41
30.0
176
     1
 63
     7
176
     1
 74
     2
176
     1
 91
        2
176
     1
 64
     7
176
     1
 65
   257
176
     1
 75
     2
176
     1
175
     1
176
     1
 42
40.0
176
     1
 92
        0
176
     1
 66
   257
176
     1
 43
1.0
176
     1
 76
     1
176
     1
 77
     6
176
     1
 78
     2
176
     1
 67
     7
176
     1
 79
     3
176
     1
170
     0
176
     1
171
     0
176
     1
290
     0
176
     1
 93
        1
176
     1
 44
0.0
176
     1
173
     0
176
     1
1001
ACAD
1000
AcDbSavedByObjectVersion
1070
     0
  0
VISUALSTYLE
  5
1030
102
{ACAD_XDICTIONARY
360
23E7
102
}
102
{ACAD_REACTORS
330
101A
102
}
330
101A
100
AcDbVisualStyle
  2

 70
    20
177
     2
291
     1
 71
     2
176
     0
 72
     2
176
     0
 73
     0
176
     0
 90
        0
176
     0
 40
0.6
176
     0
 41
30.0
176
     0
 63
     7
176
     0
 74
     1
176
     0
 91
        4
176
     0
 64
     7
176
     0
 65
   257
176
     0
 75
     1
176
     0
175
     1
176
     0
 42
1.0
176
     0
 92
       10
176
     2
 66
     7
176
     0
 43
1.0
176
     0
 76
     1
176
     0
 77
     6
176
     0
 78
     2
176
     0
 67
     7
176
     0
 79
     5
176
     0
170
     0
176
     0
171
     0
176
     0
290
     0
176
     0
 93
        1
176
     0
 44
0.0
176
     0
173
     0
176
     0
1001
ACAD
1000
AcDbSavedByObjectVersion
1070
     0
  0
VISUALSTYLE
  5
1028
102
{ACAD_XDICTIONARY
360
23D7
102
}
102
{ACAD_REACTORS
330
101A
102
}
330
101A
100
AcDbVisualStyle
  2

 70
    14
177
     2
291
     1
 71
     2
176
     1
 72
     2
176
     1
 73
     0
176
     1
 90
        0
176
     1
 40
0.6
176
     1
 41
30.0
176
     1
 63
     7
176
     1
 74
     1
176
     1
 91
        4
176
     1
 64
     7
176
     1
 65
   257
176
     1
 75
     7
176
     1
175
     7
176
     1
 42
1.0
176
     1
 92
        8
176
     1
 66
     7
176
     1
 43
1.0
176
     1
 76
     1
176
     1
 77
     6
176
     1
 78
     2
176
     1
 67
     7
176
     1
 79
     5
176
     1
170
     0
176
     1
171
     0
176
     1
290
     0
176
     1
 93
        1
176
     1
 44
0.0
176
     1
173
     0
176
     1
1001
ACAD
1000
AcDbSavedByObjectVersion
1070
     0
  0
VISUALSTYLE
  5
1031
102
{ACAD_XDICTIONARY
360
23E9
102
}
102
{ACAD_REACTORS
330
101A
102
}
330
101A
100
AcDbVisualStyle
  2

 70
    21
177
     2
291
     1
 71
     2
176
     0
 72
     2
176
     0
 73
     0
176
     0
 90
        0
176
     0
 40
0.6
176
     0
 41
30.0
176
     0
 63
     7
176
     0
 74
     1
176
     0
 91
        4
176
     0
 64
     7
176
     0
 65
   257
176
     0
 75
     1
176
     0
175
     1
176
     0
 42
1.0
176
     0
 92
        9
176
     2
 66
     7
176
     0
 43
1.0
176
     0
 76
     1
176
     0
 77
     6
176
     0
 78
     2
176
     0
 67
     7
176
     0
 79
     5
176
     0
170
     0
176
     0
171
     0
176
     0
290
     0
176
     0
 93
        1
176
     0
 44
0.0
176
     0
173
     0
176
     0
1001
ACAD
1000
AcDbSavedByObjectVersion
1070
     0
  0
VISUALSTYLE
  5
1024
102
{ACAD_XDICTIONARY
360
23CF
102
}
102
{ACAD_REACTORS
330
101A
102
}
330
101A
100
AcDbVisualStyle
  2

 70
     8
177
     2
291
     0
 71
     2
176
     1
 72
     2
176
     1
 73
     0
176
     1
 90
        2
176
     1
 40
0.6
176
     1
 41
30.0
176
     1
 63
     7
176
     1
 74
     0
176
     1
 91
        0
176
     1
 64
     7
176
     1
 65
   257
176
     1
 75
     1
176
     1
175
     1
176
     1
 42
1.0
176
     1
 92
        8
176
     1
 66
   257
176
     1
 43
1.0
176
     1
 76
     1
176
     1
 77
     6
176
     1
 78
     2
176
     1
 67
     7
176
     1
 79
     3
176
     1
170
     0
176
     1
171
     0
176
     1
290
     0
176
     1
 93
       13
176
     1
 44
0.0
176
     1
173
     0
176
     1
1001
ACAD
1000
AcDbSavedByObjectVersion
1070
     0
  0
VISUALSTYLE
  5
102F
102
{ACAD_XDICTIONARY
360
23E5
102
}
102
{ACAD_REACTORS
330
101A
102
}
330
101A
100
AcDbVisualStyle
  2

 70
    27
177
     2
291
     0
 71
     2
176
     1
 72
     2
176
     1
 73
     1
176
     1
 90
        2
176
     1
 40
0.6
176
     1
 41
30.0
176
     1
 63
     7
176
     1
 74
     0
176
     1
 91
        4
176
     1
 64
     7
176
     1
 65
   257
176
     1
 75
     1
176
     1
175
     1
176
     1
 42
1.0
176
     1
 92
        8
176
     1
 66
   257
176
     1
 43
1.0
176
     1
 76
     1
176
     1
 77
     6
176
     1
 78
     2
176
     1
 67
     8
176
     1
 79
     3
176
     1
170
     0
176
     1
171
     0
176
     1
290
     0
176
     1
 93
        5
176
     1
 44
0.0
176
     1
173
     0
176
     1
1001
ACAD
1000
AcDbSavedByObjectVersion
1070
     0
  0
VISUALSTYLE
  5
102E
102
{ACAD_XDICTIONARY
360
23E3
102
}
102
{ACAD_REACTORS
330
101A
102
}
330
101A
100
AcDbVisualStyle
  2

 70
    26
177
     2
291
     0
 71
     2
176
     1
 72
     2
176
     1
 73
     1
176
     1
 90
        2
176
     1
 40
0.6
176
     1
 41
30.0
176
     1
 63
     7
176
     1
 74
     1
176
     1
 91
       10
176
     1
 64
     7
176
     1
 65
   257
176
     1
 75
     2
176
     1
175
     1
176
     1
 42
1.0
176
     1
 92
        8
176
     1
 66
   257
176
     1
 43
1.0
176
     1
 76
     1
176
     1
 77
     6
176
     1
 78
     2
176
     1
 67
     7
176
     1
 79
     3
176
     1
170
     0
176
     1
171
     0
176
     1
290
     0
176
     1
 93
        5
176
     1
 44
0.0
176
     1
173
     0
176
     1
1001
ACAD
1000
AcDbSavedByObjectVersion
1070
     0
  0
VISUALSTYLE
  5
102B
102
{ACAD_XDICTIONARY
360
23DD
102
}
102
{ACAD_REACTORS
330
101A
102
}
330
101A
100
AcDbVisualStyle
  2

 70
    23
177
     2
291
     0
 71
     2
176
     1
 72
     2
176
     1
 73
     3
176
     1
 90
        0
176
     1
 40
0.6
176
     1
 41
30.0
176
     1
 63
     7
176
     1
 74
     2
176
     1
 91
        2
176
     1
 64
     7
176
     1
 65
     7
176
     1
 75
     1
176
     1
175
     1
176
     1
 42
40.0
176
     1
 92
        8
176
     1
 66
     7
176
     1
 43
1.0
176
     1
 76
     1
176
     1
 77
     6
176
     1
 78
     2
176
     1
 67
     7
176
     1
 79
     3
176
     1
170
     0
176
     1
171
     0
176
     1
290
     0
176
     1
 93
        1
176
     1
 44
0.0
176
     1
173
     0
176
     1
1001
ACAD
1000
AcDbSavedByObjectVersion
1070
     0
  0
VISUALSTYLE
  5
102C
102
{ACAD_XDICTIONARY
360
23DF
102
}
102
{ACAD_REACTORS
330
101A
102
}
330
101A
100
AcDbVisualStyle
  2

 70
    24
177
     2
291
     0
 71
     1
176
     1
 72
     2
176
     1
 73
     2
176
     1
 90
        0
176
     1
 40
0.6
176
     1
 41
30.0
176
     1
 63
     7
176
     1
 74
     2
176
     1
 91
        2
176
     1
 64
     7
176
     1
 65
     7
176
     1
 75
     1
176
     1
175
     1
176
     1
 42
40.0
176
     1
 92
       11
176
     1
 66
     7
176
     1
 43
1.0
176
     1
 76
     1
176
     1
 77
     6
176
     1
 78
     2
176
     1
 67
     7
176
     1
 79
     6
176
     1
170
     0
176
     1
171
     0
176
     1
290
     0
176
     1
 93
        1
176
     1
 44
0.0
176
     1
173
     0
176
     1
1001
ACAD
1000
AcDbSavedByObjectVersion
1070
     0
  0
VISUALSTYLE
  5
1027
102
{ACAD_XDICTIONARY
360
23D5
102
}
102
{ACAD_REACTORS
330
101A
102
}
330
101A
100
AcDbVisualStyle
  2

 70
    13
177
     2
291
     1
 71
     2
176
     1
 72
     2
176
     1
 73
     0
176
     1
 90
        0
176
     1
 40
0.6
176
     1
 41
30.0
176
     1
 63
     7
176
     1
 74
     1
176
     1
 91
        4
176
     1
 64
     7
176
     1
 65
   257
176
     1
 75
     1
176
     1
175
     1
176
     1
 42
1.0
176
     1
 92
       12
176
     1
 66
     7
176
     1
 43
1.0
176
     1
 76
     1
176
     1
 77
     6
176
     1
 78
     2
176
     1
 67
     7
176
     1
 79
     5
176
     1
170
     0
176
     1
171
     0
176
     1
290
     0
176
     1
 93
        1
176
     1
 44
0.0
176
     1
173
     0
176
     1
1001
ACAD
1000
AcDbSavedByObjectVersion
1070
     0
  0
VISUALSTYLE
  5
1021
102
{ACAD_XDICTIONARY
360
23C9
102
}
102
{ACAD_REACTORS
330
101A
102
}
330
101A
100
AcDbVisualStyle
  2

 70
     5
177
     2
291
     0
 71
     0
176
     1
 72
     2
176
     1
 73
     0
176
     1
 90
        0
176
     1
 40
0.6
176
     1
 41
30.0
176
     1
 63
     7
176
     1
 74
     1
176
     1
 91
        4
176
     1
 64
     7
176
     1
 65
   257
176
     1
 75
     1
176
     1
175
     1
176
     1
 42
1.0
176
     1
 92
        0
176
     1
 66
   257
176
     1
 43
1.0
176
     1
 76
     1
176
     1
 77
     6
176
     1
 78
     2
176
     1
 67
     7
176
     1
 79
     3
176
     1
170
     0
176
     1
171
     0
176
     1
290
     0
176
     1
 93
        1
176
     1
 44
0.0
176
     1
173
     0
176
     1
1001
ACAD
1000
AcDbSavedByObjectVersion
1070
     0
  0
VISUALSTYLE
  5
102D
102
{ACAD_XDICTIONARY
360
23E1
102
}
102
{ACAD_REACTORS
330
101A
102
}
330
101A
100
AcDbVisualStyle
  2

 70
    25
177
     2
291
     0
 71
     2
176
     1
 72
     2
176
     1
 73
     1
176
     1
 90
        1
176
     1
 40
0.5
176
     1
 41
30.0
176
     1
 63
     7
176
     1
 74
     1
176
     1
 91
        0
176
     1
 64
     7
176
     1
 65
   257
176
     1
 75
     1
176
     1
175
     1
176
     1
 42
1.0
176
     1
 92
        8
176
     1
 66
     7
176
     1
 43
1.0
176
     1
 76
     1
176
     1
 77
     6
176
     1
 78
     2
176
     1
 67
     7
176
     1
 79
     3
176
     1
170
     0
176
     1
171
     0
176
     1
290
     0
176
     1
 93
       13
176
     1
 44
0.0
176
     1
173
     0
176
     1
1001
ACAD
1000
AcDbSavedByObjectVersion
1070
     0
  0
DICTIONARYVAR
  5
126C
102
{ACAD_REACTORS
330
1269
102
}
330
1269
100
DictionaryVariables
280
     0
  1
1:1
  0
DICTIONARYVAR
  5
126B
102
{ACAD_REACTORS
330
1269
102
}
330
1269
100
DictionaryVariables
280
     0
  1
STANDARD
  0
DICTIONARYVAR
  5
126A
102
{ACAD_REACTORS
330
1269
102
}
330
1269
100
DictionaryVariables
280
     0
  1
STANDARD
  0
DICTIONARYVAR
  5
23A2
102
{ACAD_REACTORS
330
1269
102
}
330
1269
100
DictionaryVariables
280
     0
  1
Imperial24
  0
DICTIONARYVAR
  5
23A3
102
{ACAD_REACTORS
330
1269
102
}
330
1269
100
DictionaryVariables
280
     0
  1
Imperial24
  0
DICTIONARYVAR
  5
126F
102
{ACAD_REACTORS
330
1269
102
}
330
1269
100
DictionaryVariables
280
     0
  1
1
  0
DICTIONARYVAR
  5
126E
102
{ACAD_REACTORS
330
1269
102
}
330
1269
100
DictionaryVariables
280
     0
  1
0
  0
DICTIONARYVAR
  5
1569
102
{ACAD_REACTORS
330
1269
102
}
330
1269
100
DictionaryVariables
280
     0
  1
1
  0
DICTIONARYVAR
  5
156A
102
{ACAD_REACTORS
330
1269
102
}
330
1269
100
DictionaryVariables
280
     0
  1
15
  0
DICTIONARYVAR
  5
1568
102
{ACAD_REACTORS
330
1269
102
}
330
1269
100
DictionaryVariables
280
     0
  1
0
  0
DICTIONARYVAR
  5
1567
102
{ACAD_REACTORS
330
1269
102
}
330
1269
100
DictionaryVariables
280
     0
  1
0
  0
DICTIONARYVAR
  5
15E4
102
{ACAD_REACTORS
330
1269
102
}
330
1269
100
DictionaryVariables
280
     0
  1
1
  0
DICTIONARYVAR
  5
126D
102
{ACAD_REACTORS
330
1269
102
}
330
1269
100
DictionaryVariables
280
     0
  1
127
  0
DICTIONARY
  5
11F8
102
{ACAD_REACTORS
330
11EF
102
}
330
11EF
100
AcDbDictionary
281
     1
  0
DICTIONARY
  5
23F5
330
2392
100
AcDbDictionary
280
     1
281
     1
  3
ACAD_XREC_ROUNDTRIP
360
23F6
  0
DICTIONARY
  5
1565
330
105F
100
AcDbDictionary
280
     1
281
     1
  3
ADSK_XREC_LAYOUTTHUMBNAIL
360
1566
  0
DICTIONARY
  5
100B
330
100A
100
AcDbDictionary
280
     1
281
     1
  3
ACAD_XREC_ROUNDTRIP
360
23B2
  3
BUMPTILE
360
100D
  3
DIFFUSETILE
360
100C
  3
OPACITYTILE
360
1010
  3
REFLECTIONTILE
360
100F
  3
REFRACTIONTILE
360
1011
  3
SPECULARTILE
360
100E
  0
DICTIONARY
  5
1003
330
1002
100
AcDbDictionary
280
     1
281
     1
  3
ACAD_XREC_ROUNDTRIP
360
23B1
  3
BUMPTILE
360
1005
  3
DIFFUSETILE
360
1004
  3
OPACITYTILE
360
1008
  3
REFLECTIONTILE
360
1007
  3
REFRACTIONTILE
360
1009
  3
SPECULARTILE
360
1006
  0
DICTIONARY
  5
1013
330
1012
100
AcDbDictionary
280
     1
281
     1
  3
ACAD_XREC_ROUNDTRIP
360
23B3
  3
BUMPTILE
360
1015
  3
DIFFUSETILE
360
1014
  3
OPACITYTILE
360
1018
  3
REFLECTIONTILE
360
1017
  3
REFRACTIONTILE
360
1019
  3
SPECULARTILE
360
1016
  0
DICTIONARY
  5
23ED
330
1057
100
AcDbDictionary
280
     1
281
     1
  3
ACAD_XREC_ROUNDTRIP
360
23EE
  0
DICTIONARY
  5
23F3
330
2390
100
AcDbDictionary
280
     1
281
     1
  3
ACAD_XREC_ROUNDTRIP
360
23F4
  0
DICTIONARY
  5
122A
330
1055
100
AcDbDictionary
280
     1
281
     1
  3
ACAD_ROUNDTRIP_2008_TABLESTYLE_CELLSTYLEMAP
360
23BB
  0
DICTIONARY
  5
23C7
330
1020
100
AcDbDictionary
280
     1
281
     1
  3
ACAD_XREC_ROUNDTRIP
360
23C8
  0
DICTIONARY
  5
23F1
330
1558
100
AcDbDictionary
280
     1
281
     1
  3
ACAD_XREC_ROUNDTRIP
360
23F2
  0
DICTIONARY
  5
23EF
330
1557
100
AcDbDictionary
280
     1
281
     1
  3
ACAD_XREC_ROUNDTRIP
360
23F0
  0
DICTIONARY
  5
23C5
330
101F
100
AcDbDictionary
280
     1
281
     1
  3
ACAD_XREC_ROUNDTRIP
360
23C6
  0
DICTIONARY
  5
23D3
330
1026
100
AcDbDictionary
280
     1
281
     1
  3
ACAD_XREC_ROUNDTRIP
360
23D4
  0
DICTIONARY
  5
23DB
330
102A
100
AcDbDictionary
280
     1
281
     1
  3
ACAD_XREC_ROUNDTRIP
360
23DC
  0
DICTIONARY
  5
23CD
330
1023
100
AcDbDictionary
280
     1
281
     1
  3
ACAD_XREC_ROUNDTRIP
360
23CE
  0
DICTIONARY
  5
23D1
330
1025
100
AcDbDictionary
280
     1
281
     1
  3
ACAD_XREC_ROUNDTRIP
360
23D2
  0
DICTIONARY
  5
23EB
330
1032
100
AcDbDictionary
280
     1
281
     1
  3
ACAD_XREC_ROUNDTRIP
360
23EC
  0
DICTIONARY
  5
23D9
330
1029
100
AcDbDictionary
280
     1
281
     1
  3
ACAD_XREC_ROUNDTRIP
360
23DA
  0
DICTIONARY
  5
23BD
330
101B
100
AcDbDictionary
280
     1
281
     1
  3
ACAD_XREC_ROUNDTRIP
360
23BE
  0
DICTIONARY
  5
23BF
330
101C
100
AcDbDictionary
280
     1
281
     1
  3
ACAD_XREC_ROUNDTRIP
360
23C0
  0
DICTIONARY
  5
23C1
330
101D
100
AcDbDictionary
280
     1
281
     1
  3
ACAD_XREC_ROUNDTRIP
360
23C2
  0
DICTIONARY
  5
23C3
330
101E
100
AcDbDictionary
280
     1
281
     1
  3
ACAD_XREC_ROUNDTRIP
360
23C4
  0
DICTIONARY
  5
23CB
330
1022
100
AcDbDictionary
280
     1
281
     1
  3
ACAD_XREC_ROUNDTRIP
360
23CC
  0
DICTIONARY
  5
23E7
330
1030
100
AcDbDictionary
280
     1
281
     1
  3
ACAD_XREC_ROUNDTRIP
360
23E8
  0
DICTIONARY
  5
23D7
330
1028
100
AcDbDictionary
280
     1
281
     1
  3
ACAD_XREC_ROUNDTRIP
360
23D8
  0
DICTIONARY
  5
23E9
330
1031
100
AcDbDictionary
280
     1
281
     1
  3
ACAD_XREC_ROUNDTRIP
360
23EA
  0
DICTIONARY
  5
23CF
330
1024
100
AcDbDictionary
280
     1
281
     1
  3
ACAD_XREC_ROUNDTRIP
360
23D0
  0
DICTIONARY
  5
23E5
330
102F
100
AcDbDictionary
280
     1
281
     1
  3
ACAD_XREC_ROUNDTRIP
360
23E6
  0
DICTIONARY
  5
23E3
330
102E
100
AcDbDictionary
280
     1
281
     1
  3
ACAD_XREC_ROUNDTRIP
360
23E4
  0
DICTIONARY
  5
23DD
330
102B
100
AcDbDictionary
280
     1
281
     1
  3
ACAD_XREC_ROUNDTRIP
360
23DE
  0
DICTIONARY
  5
23DF
330
102C
100
AcDbDictionary
280
     1
281
     1
  3
ACAD_XREC_ROUNDTRIP
360
23E0
  0
DICTIONARY
  5
23D5
330
1027
100
AcDbDictionary
280
     1
281
     1
  3
ACAD_XREC_ROUNDTRIP
360
23D6
  0
DICTIONARY
  5
23C9
330
1021
100
AcDbDictionary
280
     1
281
     1
  3
ACAD_XREC_ROUNDTRIP
360
23CA
  0
DICTIONARY
  5
23E1
330
102D
100
AcDbDictionary
280
     1
281
     1
  3
ACAD_XREC_ROUNDTRIP
360
23E2
  0
XRECORD
  5
23F6
102
{ACAD_REACTORS
330
23F5
102
}
330
23F5
100
AcDbXrecord
280
     1
102
DISPLAYNAME
  1
Imperial24
102
FLAGS
 90
        0
  0
XRECORD
  5
1566
102
{ACAD_REACTORS
330
1565
102
}
330
1565
100
AcDbXrecord
280
     1
310
28000000000100009B0000000100080000000000009B0000000000000000000000010000000000000000000000000000FFFFFF000000000000000000000000000000000000000000000000000000000000000000330000006600000099000000CC000000FF00000000330000333300006633000099330000CC330000FF3300
310
0000660000336600006666000099660000CC660000FF66000000990000339900006699000099990000CC990000FF99000000CC000033CC000066CC000099CC0000CCCC0000FFCC000000FF000033FF000066FF000099FF0000CCFF0000FFFF000000003300330033006600330099003300CC003300FF003300003333003333
310
33006633330099333300CC333300FF33330000663300336633006666330099663300CC663300FF66330000993300339933006699330099993300CC993300FF99330000CC330033CC330066CC330099CC3300CCCC3300FFCC330000FF330033FF330066FF330099FF3300CCFF3300FFFF330000006600330066006600660099
310
006600CC006600FF00660000336600333366006633660099336600CC336600FF33660000666600336666006666660099666600CC666600FF66660000996600339966006699660099996600CC996600FF99660000CC660033CC660066CC660099CC6600CCCC6600FFCC660000FF660033FF660066FF660099FF6600CCFF6600
310
FFFF660000009900330099006600990099009900CC009900FF00990000339900333399006633990099339900CC339900FF33990000669900336699006666990099669900CC669900FF66990000999900339999006699990099999900CC999900FF99990000CC990033CC990066CC990099CC9900CCCC9900FFCC990000FF99
310
0033FF990066FF990099FF9900CCFF9900FFFF99000000CC003300CC006600CC009900CC00CC00CC00FF00CC000033CC003333CC006633CC009933CC00CC33CC00FF33CC000066CC003366CC006666CC009966CC00CC66CC00FF66CC000099CC003399CC006699CC009999CC00CC99CC00FF99CC0000CCCC0033CCCC0066CC
310
CC0099CCCC00CCCCCC00FFCCCC0000FFCC0033FFCC0066FFCC0099FFCC00CCFFCC00FFFFCC000000FF003300FF006600FF009900FF00CC00FF00FF00FF000033FF003333FF006633FF009933FF00CC33FF00FF33FF000066FF003366FF006666FF009966FF00CC66FF00FF66FF000099FF003399FF006699FF009999FF00CC
310
99FF00FF99FF0000CCFF0033CCFF0066CCFF0099CCFF00CCCCFF00FFCCFF0000FFFF0033FFFF0066FFFF0099FFFF00CCFFFF00FFFFFF00000000000D0D0D001A1A1A00282828003535350043434300505050005D5D5D006B6B6B00787878008686860093939300A1A1A100AEAEAE00BBBBBB00C9C9C900D6D6D600E4E4E400
310
F1F1F100FFFFFF0000000000000000000000000000000000000000000000000000000000000000000000000000000000E2E2E2E2E2E2E2E2E2E2E2E2E2E2E2E2E2E2E2E2E2E2E2E2E2E2E2E2E2E2E2E2E2E2E2E2E2E2E2E2E2E2E2E2E2E2E2E2E2E2E2E2E2E2E2E2E2E2E2E2E2E2E2E2E2E2E2E2E2E2E2E2E2E2E2E2E2E2E2
310
E2E2E2E2E2E2E2E2E2E2E2E2E2E2E2E2E2E2E2E2E2E2E2E2E2E2E2E2E2E2E2E2E2E2E2E2E2E2E2E2E2E2E2E2E2E2E2E2E2E2E2E2E2E2E2E2E2E2E2E2E2E2E2E2E2E2E2E2E2E2E2E2E2E2E2E2E2E2E2E2E2E2E2E2E2E2E2E2E2E2E2E2E2E2E2E2E2E2E2E2E2E2E2E2E2E2E2E2E2E2E2E2E2E2E2E2E2E2E2E2E2E2E2E2E2E2E2
310
E2E2E2E2E2E2E2E2E2E2E2E2E2E2E2E2E2E2E2E2E2E2E2E2E2E2E2E2E2E2E2E2E2E2E2E2E2E2E2E2E2E2E2E2E2E2E2E2E2E2E2E2E2E2E2E2E2E2E2E2E2E2E2E2E2E2E2E2E2E2E2E2E2E2E2E2E2E2E2E2E2E2E2E2E2E2E2E2E2E2E2E2E2E2E2E2E2E2E2E2E2E2E2E2E2E2E2E2E2E2E2E2E2E2E2E2E2E2E2E2E2E2E2E2E2E2E2
310
E2E2E2E2E2E2E2E2E2E2E2E2E2E2E2E2E2E2E2E2E2E2E2E2E2E2E2E2E2E2E2E2E2E2E2E2E2E2E2E2E2E2E2E2E2E2E2E2E2E2E2E2E2E2E2E2E2E2E2E2E2E2E2E2E2E2E2E2E2E2E2E2E2E2E2E2E2E2E2E2E2E2E2E2E2E2E2E2E2E2E2E2E2E2E2E2E2E2E2E2E2E2E2E2E2E2E2E2E2E2E2E2E2E2E2E2E2E2E2E2E2E2E2E2E2E2E2
310
E2E2E2E2E2E2E2E2E2E2E2E2E2E2E2E2E2E2E2E2E2E2E2E2E2E2E2E2E2E2E2E2E2E2E2E2E2E2E2E2E2E2E2E2E2E2E2E2E2E2E2E2E2E2E2E2E2E2E2E2E2E2E2E2E2E2E2E2E2E2E2E2E2E2E2E2E2E2E2E2E2E2E2E2E2E2E2E2E2E2E2E2E2E2E2E2E2E2E2E2E2E2E2E2E2E2E2E2E2E2E2E2E2E2E2E2E2E2E2E2E2E2E2E2E2E2E2
310
E2E2E2E2E2E2E2E2E2E2E2E2E2E2E2E2E2E2E2E2E2E2E2E2E2E2E2E2E2E2E2E2E2E2E2E2E2E2E2E2E2E2E2E2E2E2E2E2E2E2E2E2E2E2E2E2E2E2E2E2E2E2E2E2E2E2E2E2E2E2E2E2E2E2E2E2E2E2E2E2E2E2E2E2E2E2E2E2E2E2E2E2E2E2E2E2E2E2E2E2E2E2E2E2E2E2E2E2E2E2E2E2E2E2E2E2E2E2E2E2E2E2E2E2E2E2E2
310
E2E2E2E2E2E2E2E2E2E2E2E2E2E2E2E2E2E2E2E2E2E2E2E2E2E2E2E2E2E2E2E2E2E2E2E2E2E2E2E2E2E2E2E2E2E2E2E2E2E2E2E2E2E2E2E2E2E2E2E2E2E2E2E2E2E2E2E2E2E2E2E2E2E2E2E2E2E2E2E2E2E2E2E2E2E2E2E2E2E2E2E2E2E2E2E2E2E2E2E2E2E2E2E2E2E2E2E2E2E2E2E2E2E2E2E2E2E2E2E2E2E2E2E2E2E2E2
310
E2E2E2E2E2E2E2E2E2E2E2E2E2E2E2E2E2E2E2E2E2E2E2E2E2E2E2E2E2E2E2E2E2E2E2E2E2E2E2E2E2E2E2E2E2E2E2E2E2E2E2E2E2E2E2E2E2E2E2E2E2E2E2E2E2E2E2E2E2E2E2E2E2E2E2E2E2E2E2E2E2E2E2E2E2E2E2E2E2E2E2E2E2E2E2E2E2E2E2E2E2E2E2E2E2E2E2E2E2E2E2E2E2E2E2E2E2E2E2E2E2E2E2E2E2E2E2
310
E2E2E2E2E2E2E2E2E2E2E2E2E2E2E2E2E2E2E2E2E2E2E2E2E2E2E2E2E2E2E2E2E2E2E2E2E2E2E2E2E2E2E2E2E2E2E2E2E2E2E2E2E2E2E2E2E2E2E2E2E2E2E2E2E2E2E2E2E2E2E2E2E2E2E2E2E2E2E2E2E2E2E2E2E2E2E2E2E2E2E2E2E2E2E2E2E2E2E2E2E2E2E2E2E2E2E2E2E2E2E2E2E2E2E2E2E2E2E2E2E2E2E2E2E2E2E2
310
E2E2E2E2E2E2E2E2E2E2E2E2E2E2E2E2E2E2E2E2E2E2E2E2E2E2E2E2E2E2E2E2E2E2E2E2E2E2E2E2E2E2E2E2E2E2E2E2E2E2E2E2E2E2E2E2E2E2E2E2E2E2E2E2E2E2E2E2E2E2E2E2E2E2E2E2E2E2E2E2E2E2E2E2E2E2E2E2E2E2E2E2E2E2E2E2E2E2E2E2E2E2E2E2E2E2E2E2E2E2E2E2E2E2E2E2E2E2E2E2E2E2E2E2E2E2E2
310
E2E2E2E2E2E2E2E2E2E2E2E2E2E2E2E2E2E2E2E2E2E2E2E2E2E2E2E2E2E2E2E2E2E2E2E2E2E2E2E2E2E2E2E2E2E2E2E2E2E2E2E2E2E2E2E2E2E2E2E2E2E2E2E2E2E2E2E2E2E2E2E2E2E2E2E2E2E2E2E2E2E2E2E2E2E2E2E2E2E2E2E2E2E2E2E2E2E2E2E2E2E2E2E2E2E2E2E2E2E2E2E2E2E2E2E2E2E2E2E2E2E2E2E2E2E2E2
310
E2E2E2E2E2E2E2E2E2E2E2E2E2E2E2E2E2E2E2E2E2E2E2E2E2E2E2E2E2E2E2E2E2E2E2E2E2E2E2E2E2E2E2E2E2E2E2E2E2E2E2E2E2E2E2E2E2E2E2E2E2E2E2E2E2E2E2E2E2E2E2E2E2E2E2E2E2E2E2E2E2E2E2E2E2E2E2E2E2E2E2E2E2E2E2E2E2E2E2E2E2E2E2E2E2E2E2E2E2E2E2E2E2E2E2E2E2E2E2E2E2E2E2E2E2E2E2
310
E2E2E2E2E2E2E2E2E2E2E2E2E2E2E2E2E2E2E2E2E2E2E2E2E2E2E2E2E2E2E2E2E2E2E2E2E2E2E2E2E2E2E2E2E2E2E2E2E2E2E2E2E2E2E2E2E2E2E2E2E2E2E2E2E2E2E2E2E2E2E2E2E2E2E2E2E2E2E2E2E2E2E2E2E2E2E2E2E2E2E2E2E2E2E2E2E2E2E2E2E2E2E2E2E2E2E2E2E2E2E2E2E2E2E2E2E2E2E2E2E2E2E2E2E2E2E2
310
E2E2E2E2E2E2E2E2E2E2E2E2E2E2E2E2E2E2E2E2E2E2E2E2E2E2E2E2E2E2E2E2E2E2E2E2E2E2E2F5E2E2E2E2E2E2E2E2E2E2E2E2E2E2E2E2E2E2E2E2E2E2E2E2E2E2E2E2E2E2E2E2E2E2E2E2E2E2E2E2E2E2E2E2E2E2E2E2E2E2E2E2E2E2E2E2E2E2E2E2F5E2E2E2E2E2E2E2E2E2E2E2E2E2E2E2E2E2E2E2E2E2E2E2E2E2E2
310
E2E2E2E2E2E2E2E2E2E2E2E2E2E2E2E2E2E2E2E2E2E2E2E2E2E2E2E2E2E2E2E2E2E2E2E2E2E2E2E2E2E2E2E2E2E2E2E2E2E2E2E2E2E2E2E2E2E2E2E2E2E2E2E2E2E2E2E2E2E2E2E2E2E2E2E2E2E2E2E2E2E2E2E2E2E2E2E2E2E2E2E2E2E2E2E2E2E2E2E2E2E2E2E2E2E2E2E2E2E2E2E2E2E2E2E2E2E2E2E2E2E2E2E2E2E2E2
310
E2E2E2E2E2E2E2E2E2E2E2E2E2E2E2E2E2E2E2E2E2E2E2E2E2E2E2E2E2E2E2E2E2E2E2E2E2E2E2E2E2F5E2E2E2E2E2E2E2E2E2E2E2E2E2E2E2E2E2E2E2E2E2E2E2E2E2E2E2E2E2E2E2E2E2E2E2E2E2E2E2E2E2E2E2E2E2E2E2E2E2E2E2E2E2E2E2E2E2E2E2E2F5E2E2E2E2E2E2E2E2E2E2E2E2E2E2E2E2E2E2E2E2E2E2E2E2
310
E2E2E2E2E2E2E2E2E2E2E2E2E2E2E2E2E2E2E2E2E2E2E2E2E2E2E2E2E2E2E2E2E2E2E2E2E2E2E2E2E2E2E2E2E2E2E2E2E2E2E2E2E2E2E2E2E2E2E2E2E2E2E2E2E2E2E2E2E2E2E2E2E2E2E2E2E2E2E2E2E2E2E2E2E2E2E2E2E2E2E2E2E2E2E2E2E2E2E2E2E2E2E2E2E2E2E2E2E2E2E2E2E2E2E2E2E2E2E2E2E2E2E2E2E2E2E2
310
E2E2E2E2E2E2E2E2E2E2E2E2E2E2E2E2E2E2E2E2E2E2E2E2E2E2E2E2E2E2E2E2E2E2E2E2E2E2E2E2F5F5F5F5F5F5F5E2E2E2E2E2E2E2E2E2E2E2E2E2E2E2E2E2E2E2E2E2E2E2E2E2E2E2E2E2E2E2E2E2E2E2E2E2E2E2E2E2E2E2E2E2E2E2E2E2E2E2E2E2E2F5F5F5F5F5F5F5E2E2E2E2E2E2E2E2E2E2E2E2E2E2E2E2E2E2E2
310
E2E2E2E2E2E2E2E2E2E2E2E2E2E2E2E2E2E2E2E2E2E2E2E2E2E2E2E2E2E2E2E2E2E2E2E2E2E2E2E2E2E2E2E2E2E2E2E2E2E2E2E2E2E2E2E2E2E2E2E2E2E2E2E2E2E2E2E2E2E2E2E2E2E2E2E2E2E2E2E2E2E2E2E2E2E2E2E2E2E2E2E2E2E2E2E2E2E2E2E2E2E2E2E2E2E2E2E2E2E2E2E2E2E2E2E2E2E2E2E2E2E2E2E2E2E2E2
310
E2E2E2E2E2E2E2E2E2E2E2E2E2E2E2E2E2E2E2E2E2E2E2E2E2E2E2E2E2E2E2E2E2E2E2E2E2E2E2E2E2F5F5F5F5F5F5F5F5F5E2E2E2E2E2E2E2E2E2E2E2E2E2E2E2E2E2E2E2E2E2E2E2E2E2E2E2E2E2E2E2E2E2E2E2E2E2E2E2E2E2E2E2E2E2E2E2E2E2E2E2E2E2F5E2F5F5F5F5F5E2E2E2E2E2E2E2E2E2E2E2E2E2E2E2E2E2
310
E2E2E2E2E2E2E2E2E2E2E2E2E2E2E2E2E2E2E2E2E2E2E2E2E2E2E2E2E2E2E2E2E2E2E2E2E2E2E2E2E2E2E2E2E2E2E2E2E2E2E2E2E2E2E2E2E2E2E2E2E2E2E2E2E2E2E2E2E2E2E2E2E2E2E2E2E2E2E2E2E2E2E2E2E2E2E2E2E2E2E2E2E2E2E2E2E2E2E2E2E2E2E2E2E2E2E2E2E2E2E2E2E2E2E2E2E2E2E2E2E2E2E2E2E2E2E2
310
E2E2E2E2E2E2E2E2E2E2E2E2E2E2E2E2E2E2E2E2E2E2E2E2E2E2E2E2E2E2E2E2E2E2E2E2E2E2E2E2E2E2E2F5E2F5F5F5F5F5E2F5F5F5F5F5F5E2E2E2E2E2E2E2E2E2E2E2E2E2E2E2E2E2E2E2E2E2E2E2E2E2E2E2E2E2E2E2E2E2E2E2E2F5F5F5F5F5F5F5E2E2E2E2E2F5F5F5F5F5E2F5E2E2E2E2E2E2E2E2E2E2E2E2E2E2E2
310
E2E2E2E2E2E2E2E2E2E2E2E2E2E2E2E2E2E2E2E2E2E2E2E2E2E2E2E2E2E2E2E2E2E2E2E2E2E2E2E2E2E2E2E2E2E2E2E2E2E2E2E2E2E2E2E2E2E2E2E2E2E2E2E2E2E2E2E2E2E2E2E2E2E2E2E2E2E2E2E2E2E2E2E2E2E2E2E2E2E2E2E2E2E2E2E2E2E2E2E2E2E2E2E2E2E2E2E2E2E2E2E2E2E2E2E2E2E2E2E2E2E2E2E2E2E2E2
310
E2E2E2E2E2E2E2E2E2E2E2E2E2E2E2E2E2E2E2E2E2E2E2E2E2E2E2E2E2E2E2E2E2E2E2E2E2E2E2E2E2E2E2E2E2F5F5F5F5F5F5F5F5F5F5E2F5F5F5E2E2E2E2E2E2E2E2E2E2E2E2E2E2E2E2E2E2E2E2E2E2E2E2E2E2E2E2E2E2E2E2E2E2E2F5E2E2F5F5E2E2F5E2E2E2F5F5E2E2E2F5E2F5F5F5E2E2E2E2E2E2E2E2E2E2E2E2
310
E2E2E2E2E2E2E2E2E2E2E2E2E2E2E2E2E2E2E2E2E2E2E2E2E2E2E2E2E2E2E2E2E2E2E2E2E2E2E2E2E2E2E2E2E2E2E2E2E2E2E2E2E2E2E2E2E2E2E2E2E2E2E2E2E2E2E2E2E2E2E2E2E2E2E2E2E2E2E2E2E2E2E2E2E2E2E2E2E2E2E2E2E2E2E2E2E2E2E2E2E2E2E2E2E2E2E2E2E2E2E2E2E2E2E2E2E2E2E2E2E2E2E2E2E2E2E2
310
E2E2E2E2E2E2E2E2E2E2E2E2E2E2E2E2E2E2E2E2E2E2E2E2E2E2E2E2E2E2E2E2E2E2E2E2E2E2E2E2E2E2E2E2E2E2E2E2F5F5E2F5E2F5F5E2F5E2F5F5F5E2E2E2E2E2E2E2E2E2E2E2E2E2E2E2E2E2E2E2E2E2E2E2E2E2E2E2E2E2E2E2E2E2E2E2E2F5E2F5E2F5E2F5E2E2F5E2E2E2F5F5F5F5F5E2E2F5F5E2E2E2E2E2E2E2E2
310
E2E2E2E2E2E2E2E2E2E2E2E2E2E2E2E2E2E2E2E2E2E2E2E2E2E2E2E2E2E2E2E2E2E2E2E2E2E2E2E2E2E2E2E2E2E2E2E2E2E2E2E2E2E2E2E2E2E2E2E2E2E2E2E2E2E2E2E2E2E2E2E2E2E2E2E2E2E2E2E2E2E2E2E2E2E2E2E2E2E2E2E2E2E2E2E2E2E2E2E2E2E2E2E2E2E2E2E2E2E2E2E2E2E2E2E2E2E2E2E2E2E2E2E2E2E2E2
310
E2E2E2E2E2E2E2E2E2E2E2E2E2E2E2E2E2E2E2E2E2E2E2E2E2E2E2E2E2E2E2E2E2E2E2E2E2E2E2E2E2E2E2E2E2E2E2F5F5F5E2E2E2F5E2E2E2F5F5F5F5F5F5E2E2E2E2E2E2E2E2E2E2E2E2E2E2E2E2E2E2E2E2E2E2E2E2E2E2E2E2E2E2E2E2E2E2E2E2F5E2F5F5F5E2F5F5F5E2E2F5F5E2F5F5F5E2F5F5E2E2F5F5E2E2E2E2
310
E2E2E2E2E2E2E2E2E2E2E2E2E2E2E2E2E2E2E2E2E2E2E2E2E2E2E2E2E2E2E2E2E2E2E2E2E2E2E2E2E2E2E2E2E2E2E2E2E2E2E2E2E2E2E2E2E2E2E2E2E2E2E2E2E2E2E2E2E2E2E2E2E2E2E2E2E2E2E2E2E2E2E2E2E2E2E2E2E2E2E2E2E2E2E2E2E2E2E2E2E2E2E2E2E2E2E2E2E2E2E2E2E2E2E2E2E2E2E2E2E2E2E2E2E2E2E2
310
E2E2E2E2E2E2E2E2E2E2E2E2E2E2E2E2E2E2E2E2E2E2E2E2E2E2E2E2E2E2E2E2E2E2E2E2E2E2E2E2E2F5E2E2E2E2E2F5F5F5E2E2E2E2E2F5E2E2E2E2F5F5F5F5F5E2E2E2E2F5E2E2E2E2E2E2E2E2E2E2E2E2E2E2E2E2E2E2E2E2E2E2E2E2E2E2E2E2E2E2E2E2F5F5E2F5E2F5E2E2E2F5F5F5F5F5F5E2F5F5E2F5E2E2E2F5E2
310
E2E2E2E2E2E2E2E2E2E2E2E2E2E2E2E2E2E2E2E2E2E2E2E2E2E2E2E2E2E2E2E2E2E2E2E2E2E2E2E2E2E2E2E2E2E2E2E2E2E2E2E2E2E2E2E2E2E2E2E2E2E2E2E2E2E2E2E2E2E2E2E2E2E2E2E2E2E2E2E2E2E2E2E2E2E2E2E2E2E2E2E2E2E2E2E2E2E2E2E2E2E2E2E2E2E2E2E2E2E2E2E2E2E2E2E2E2E2E2E2E2E2E2E2E2E2E2
310
E2E2E2E2E2E2E2E2E2E2E2E2E2E2E2E2E2E2E2E2E2E2E2E2E2E2E2E2E2E2E2E2E2E2E2E2E2E2E2E2E2E2E2F5F5E2E2E2F5E2E2F5E2E2E2E2E2F5E2E2E2E2F5F5F5F5F5E2E2E2F5F5E2E2E2E2E2E2E2E2E2E2E2E2E2E2E2E2E2E2E2E2E2E2E2E2E2E2E2E2E2E2E2E2F5F5F5F5F5F5E2E2F5F5E2F5F5E2F5F5F5E2F5F5F5E2E2
310
F5E2E2E2E2E2E2E2E2E2E2E2E2E2E2E2E2E2E2E2E2E2E2E2E2E2E2E2E2E2E2E2E2E2E2E2E2E2E2E2E2E2E2E2E2E2E2E2E2E2E2E2E2E2E2E2E2E2E2E2E2E2E2E2E2E2E2E2E2E2E2E2E2E2E2E2E2E2E2E2E2E2E2E2E2E2E2E2E2E2E2E2E2E2E2E2E2E2E2E2E2E2E2E2E2E2E2E2E2E2E2E2E2E2E2E2E2E2E2E2E2E2E2E2E2E2E2
310
E2E2E2E2E2E2E2E2E2E2E2E2E2E2E2E2E2E2E2E2E2E2E2E2E2E2E2E2E2E2E2E2E2E2E2E2E2E2E2E2E2E2E2E2E2F5F5F5F5F5F5E2E2F5E2E2E2E2E2F5E2E2E2E2F5F5E2E2F5F5F5F5F5F5E2E2E2E2E2E2E2E2E2E2E2E2E2E2E2E2E2E2E2E2E2E2E2E2E2E2E2E2E2E2E2E2F5E2E2F5F5E2E2F5F5F5F5E2E2F5F5E2E2F5F5E2F5
310
F5E2E2F5E2E2E2E2E2E2E2E2E2E2E2E2E2E2E2E2E2E2E2E2E2E2E2E2E2E2E2E2E2E2E2E2E2E2E2E2E2E2E2E2E2E2E2E2E2E2E2E2E2E2E2E2E2E2E2E2E2E2E2E2E2E2E2E2E2E2E2E2E2E2E2E2E2E2E2E2E2E2E2E2E2E2E2E2E2E2E2E2E2E2E2E2E2E2E2E2E2E2E2E2E2E2E2E2E2E2E2E2E2E2E2E2E2E2E2E2E2E2E2E2E2E2E2
310
E2E2E2E2E2E2E2E2E2E2E2E2E2E2E2E2E2E2E2E2E2E2E2E2E2E2E2E2E2E2E2E2E2E2E2E2E2E2E2E2E2E2E2E2E2E2E2F5F5E2E2E2F5E2E2F5E2E2E2E2E2F5E2E2E2E2F5F5E2E2F5E2E2E2F5F5E2E2E2E2E2E2E2E2E2E2E2E2E2E2E2E2E2E2E2E2E2E2E2E2E2E2E2E2E2E2E2E2F5E2E2F5F5E2F5F5E2F5E2F5F5E2F5F5F5E2E2
310
F5F5F5E2E2F5E2E2E2E2E2E2E2E2E2E2E2E2E2E2E2E2E2E2E2E2E2E2E2E2E2E2E2E2E2E2E2E2E2E2E2E2E2E2E2E2E2E2E2E2E2E2E2E2E2E2E2E2E2E2E2E2E2E2E2E2E2E2E2E2E2E2E2E2E2E2E2E2E2E2E2E2E2E2E2E2E2E2E2E2E2E2E2E2E2E2E2E2E2E2E2E2E2E2E2E2E2E2E2E2E2E2E2E2E2E2E2E2E2E2E2E2E2E2E2E2E2
310
E2E2E2E2E2E2E2E2E2E2E2E2E2E2E2E2E2E2E2E2E2E2E2E2E2E2E2E2E2E2E2E2E2E2E2E2E2E2E2E2E2E2E2E2E2E2E2E2E2F5F5E2E2E2F5E2E2F5E2E2E2E2E2F5E2E2E2E2F5F5F5F5F5E2E2E2F5F5E2E2E2E2E2E2E2E2E2E2E2E2E2E2E2E2E2E2E2E2E2E2E2E2E2E2E2E2E2E2E2E2F5F5F5F5E2E2F5F5F5E2F5E2E2E2F5E2E2
310
F5F5E2F5F5F5E2F5F5E2E2E2E2E2E2E2E2E2E2E2E2E2E2E2E2E2E2E2E2E2E2E2E2E2E2E2E2E2E2E2E2E2E2E2E2E2E2E2E2E2E2E2E2E2E2E2E2E2E2E2E2E2E2E2E2E2E2E2E2E2E2E2E2E2E2E2E2E2E2E2E2E2E2E2E2E2E2E2E2E2E2E2E2E2E2E2E2E2E2E2E2E2E2E2E2E2E2E2E2E2E2E2E2E2E2E2E2E2E2E2E2E2E2E2E2E2E2
310
E2E2E2E2E2E2E2E2E2E2E2E2E2E2E2E2E2E2E2E2E2E2E2E2E2E2E2E2E2E2E2E2E2E2E2E2E2E2E2E2E2E2E2E2E2E2E2E2E2E2E2F5F5E2E2E2F5E2E2F5E2E2E2E2E2F5E2E2E2E2F5F5E2F5F5E2E2E2F5F5E2E2E2E2E2E2E2E2E2E2E2E2E2E2E2E2E2E2E2E2E2E2E2E2E2E2E2E2E2E2E2E2F5E2E2E2E2F5E2F5F5E2F5E2E2E2F5
310
E2E2E2F5E2F5F5F5E2F5F5E2E2E2E2E2E2E2E2E2E2E2E2E2E2E2E2E2E2E2E2E2E2E2E2E2E2E2E2E2E2E2E2E2E2E2E2E2E2E2E2E2E2E2E2E2E2E2E2E2E2E2E2E2E2E2E2E2E2E2E2E2E2E2E2E2E2E2E2E2E2E2E2E2E2E2E2E2E2E2E2E2E2E2E2E2E2E2E2E2E2E2E2E2E2E2E2E2E2E2E2E2E2E2E2E2E2E2E2E2E2E2E2E2E2E2E2
310
E2E2E2E2E2E2E2E2E2E2E2E2E2E2E2E2E2E2E2E2E2E2E2E2E2E2E2E2E2E2E2E2E2E2E2E2E2E2E2E2E2E2E2E2E2E2E2E2E2E2E2E2E2F5F5E2E2E2F5E2E2F5E2E2E2E2E2F5E2E2E2E2F5F5E2F5F5E2E2E2F5F5E2E2E2E2E2E2E2E2E2E2E2E2E2E2E2E2E2E2E2E2E2E2E2E2E2E2E2E2E2E2E2E2F5F5F5F5F5F5F5F5E2F5E2E2E2
310
E2F5E2E2E2E2F5F5E2F5F5F5F5F5E2E2E2E2E2E2E2E2E2E2E2E2E2E2E2E2E2E2E2E2E2E2E2E2E2E2E2E2E2E2E2E2E2E2E2E2E2E2E2E2E2E2E2E2E2E2E2E2E2E2E2E2E2E2E2E2E2E2E2E2E2E2E2E2E2E2E2E2E2E2E2E2E2E2E2E2E2E2E2E2E2E2E2E2E2E2E2E2E2E2E2E2E2E2E2E2E2E2E2E2E2E2E2E2E2E2E2E2E2E2E2E2E2
310
E2E2E2E2E2E2E2E2E2E2E2E2E2E2E2E2E2E2E2E2E2E2E2E2E2E2E2E2E2E2E2E2E2E2E2E2E2E2E2E2E2E2E2E2E2E2E2E2E2E2E2E2F5F5F5F5F5F5F5F5F5F5F5F5F5F5F5F5F5F5F5F5F5F5F5F5F5F5F5F5F5F5F5F5F5F5F5E2E2E2E2E2E2E2E2E2E2E2E2E2E2E2E2E2E2E2E2E2E2E2E2E2E2E2E2F5F5F5F5F5F5F5F5F5F5F5F5
310
F5F5F5F5F5F5F5F5F5F5F5F5F5F5F5F5F5F5E2E2E2E2E2E2E2E2E2E2E2E2E2E2E2E2E2E2E2E2E2E2E2E2E2E2E2E2E2E2E2E2E2E2E2E2E2E2E2E2E2E2E2E2E2E2E2E2E2E2E2E2E2E2E2E2E2E2E2E2E2E2E2E2E2E2E2E2E2E2E2E2E2E2E2E2E2E2E2E2E2E2E2E2E2E2E2E2E2E2E2E2E2E2E2E2E2E2E2E2E2E2E2E2E2E2E2E2E2
310
E2E2E2E2E2E2E2E2E2E2E2E2E2E2E2E2E2E2E2E2E2E2E2E2E2E2E2E2E2E2E2E2E2E2E2E2E2E2E2E2E2E2E2E2E2E2E2E2E2E2E2E2E2E2E2E2E2F5F5E2E2E2F5E2E2F5E2E2E2E2E2F5E2E2E2E2F5F5E2F5F5E2E2E2F5F5E2E2E2E2E2E2E2E2E2E2E2E2E2E2E2E2E2E2E2E2E2E2E2E2E2E2E2E2E2E2E2E2F5F5F5F5F5F5F5E2F5
310
E2F5E2E2E2F5E2E2E2E2F5F5E2F5E2F5F5F5E2E2E2E2E2E2E2E2E2E2E2E2E2E2E2E2E2E2E2E2E2E2E2E2E2E2E2E2E2E2E2E2E2E2E2E2E2E2E2E2E2E2E2E2E2E2E2E2E2E2E2E2E2E2E2E2E2E2E2E2E2E2E2E2E2E2E2E2E2E2E2E2E2E2E2E2E2E2E2E2E2E2E2E2E2E2E2E2E2E2E2E2E2E2E2E2E2E2E2E2E2E2E2E2E2E2E2E2E2
310
E2E2E2E2E2E2E2E2E2E2E2E2E2E2E2E2E2E2E2E2E2E2E2E2E2E2E2E2E2E2E2E2E2E2E2E2E2E2E2E2E2E2E2E2E2E2E2E2E2E2E2E2E2E2E2E2E2E2E2F5F5E2E2E2F5E2E2F5E2E2E2E2E2F5E2E2E2E2F5F5E2F5F5E2E2E2F5F5E2E2E2E2E2E2E2E2E2E2E2E2E2E2E2E2E2E2E2E2E2E2E2E2E2E2E2E2E2E2E2E2F5F5F5E2E2E2F5
310
F5F5E2F5E2E2E2F5E2E2E2F5E2F5F5F5E2F5F5E2E2E2E2E2E2E2E2E2E2E2E2E2E2E2E2E2E2E2E2E2E2E2E2E2E2E2E2E2E2E2E2E2E2E2E2E2E2E2E2E2E2E2E2E2E2E2E2E2E2E2E2E2E2E2E2E2E2E2E2E2E2E2E2E2E2E2E2E2E2E2E2E2E2E2E2E2E2E2E2E2E2E2E2E2E2E2E2E2E2E2E2E2E2E2E2E2E2E2E2E2E2E2E2E2E2E2E2
310
E2E2E2E2E2E2E2E2E2E2E2E2E2E2E2E2E2E2E2E2E2E2E2E2E2E2E2E2E2E2E2E2E2E2E2E2E2E2E2E2E2E2E2E2E2E2E2E2E2E2E2E2E2E2E2E2E2E2E2E2E2F5F5E2E2E2F5E2E2F5E2E2E2E2E2F5E2E2E2E2F5F5F5F5F5E2E2E2F5F5E2E2E2E2E2E2E2E2E2E2E2E2E2E2E2E2E2E2E2E2E2E2E2E2E2E2E2E2E2E2E2E2F5F5F5F5F5
310
E2F5F5E2F5E2F5E2E2F5E2E2F5E2F5E2F5E2E2F5E2E2E2E2E2E2E2E2E2E2E2E2E2E2E2E2E2E2E2E2E2E2E2E2E2E2E2E2E2E2E2E2E2E2E2E2E2E2E2E2E2E2E2E2E2E2E2E2E2E2E2E2E2E2E2E2E2E2E2E2E2E2E2E2E2E2E2E2E2E2E2E2E2E2E2E2E2E2E2E2E2E2E2E2E2E2E2E2E2E2E2E2E2E2E2E2E2E2E2E2E2E2E2E2E2E2E2
310
E2E2E2E2E2E2E2E2E2E2E2E2E2E2E2E2E2E2E2E2E2E2E2E2E2E2E2E2E2E2E2E2E2E2E2E2E2E2E2E2E2E2E2E2E2E2E2E2E2E2E2E2E2E2E2E2E2E2E2E2E2E2E2F5F5E2E2E2F5E2E2F5E2E2E2E2E2F5E2E2E2E2F5E2E2E2F5E2E2E2F5F5E2E2E2E2E2E2E2E2E2E2E2E2E2E2E2E2E2E2E2E2E2E2E2E2E2E2E2E2E2E2E2E2E2E2E2
310
E2F5E2E2F5F5F5E2F5F5E2F5E2F5E2F5E2F5F5E2E2F5E2E2E2E2E2E2E2E2E2E2E2E2E2E2E2E2E2E2E2E2E2E2E2E2E2E2E2E2E2E2E2E2E2E2E2E2E2E2E2E2E2E2E2E2E2E2E2E2E2E2E2E2E2E2E2E2E2E2E2E2E2E2E2E2E2E2E2E2E2E2E2E2E2E2E2E2E2E2E2E2E2E2E2E2E2E2E2E2E2E2E2E2E2E2E2E2E2E2E2E2E2E2E2E2E2
310
E2E2E2E2E2E2E2E2E2E2E2E2E2E2E2E2E2E2E2E2E2E2E2E2E2E2E2E2E2E2E2E2E2E2E2E2E2E2E2E2E2E2E2E2E2E2E2E2E2E2E2E2E2E2E2E2E2E2E2E2E2E2E2E2E2F5F5F5F5F5F5E2E2F5E2E2E2E2E2F5E2E2E2E2F5E2E2E2F5F5F5F5F5F5E2E2E2E2E2E2E2E2E2E2E2E2E2E2E2E2E2E2E2E2E2E2E2E2E2E2E2E2E2E2E2E2E2
310
E2E2E2E2F5E2E2F5E2F5E2E2F5F5F5E2F5E2F5F5E2E2F5E2E2E2E2E2E2E2E2E2E2E2E2E2E2E2E2E2E2E2E2E2E2E2E2E2E2E2E2E2E2E2E2E2E2E2E2E2E2E2E2E2E2E2E2E2E2E2E2E2E2E2E2E2E2E2E2E2E2E2E2E2E2E2E2E2E2E2E2E2E2E2E2E2E2E2E2E2E2E2E2E2E2E2E2E2E2E2E2E2E2E2E2E2E2E2E2E2E2E2E2E2E2E2E2
310
E2E2E2E2E2E2E2E2E2E2E2E2E2E2E2E2E2E2E2E2E2E2E2E2E2E2E2E2E2E2E2E2E2E2E2E2E2E2E2E2E2E2E2E2E2E2E2E2E2E2E2E2E2E2E2E2E2E2E2E2E2E2E2E2E2E2E2F5E2E2E2E2F5E2E2F5E2E2E2E2E2F5E2E2E2E2F5E2E2E2F5E2E2E2E2F5E2E2E2E2E2E2E2E2E2E2E2E2E2E2E2E2E2E2E2E2E2E2E2E2E2E2E2E2E2E2E2
310
E2E2E2E2E2E2F5E2E2F5F5F5F5F5F5F5F5F5E2F5E2F5E2E2F5E2E2E2E2E2E2E2E2E2E2E2E2E2E2E2E2E2E2E2E2E2E2E2E2E2E2E2E2E2E2E2E2E2E2E2E2E2E2E2E2E2E2E2E2E2E2E2E2E2E2E2E2E2E2E2E2E2E2E2E2E2E2E2E2E2E2E2E2E2E2E2E2E2E2E2E2E2E2E2E2E2E2E2E2E2E2E2E2E2E2E2E2E2E2E2E2E2E2E2E2E2E2
310
E2E2E2E2E2E2E2E2E2E2E2E2E2E2E2E2E2E2E2E2E2E2E2E2E2E2E2E2E2E2E2E2E2E2E2E2E2E2E2E2E2E2E2E2E2E2E2E2E2E2E2E2E2E2E2E2E2E2E2E2E2E2E2E2E2E2E2E2E2E2E2E2E2E2E2F5F5F5E2E2E2E2E2F5E2E2E2E2F5E2E2E2F5E2E2E2E2E2E2E2E2E2E2E2E2E2E2E2E2E2E2E2E2E2E2E2E2E2E2E2E2E2E2E2E2E2E2
310
E2E2E2E2E2E2E2E2E2F5E2E2F5F5F5F5F5F5F5F5F5F5F5E2F5F5E2E2E2E2E2E2E2E2E2E2E2E2E2E2E2E2E2E2E2E2E2E2E2E2E2E2E2E2E2E2E2E2E2E2E2E2E2E2E2E2E2E2E2E2E2E2E2E2E2E2E2E2E2E2E2E2E2E2E2E2E2E2E2E2E2E2E2E2E2E2E2E2E2E2E2E2E2E2E2E2E2E2E2E2E2E2E2E2E2E2E2E2E2E2E2E2E2E2E2E2E2
310
E2E2E2E2E2E2E2E2E2E2E2E2E2E2E2E2E2E2E2E2E2E2E2E2E2E2E2E2E2E2E2E2E2E2E2E2E2E2E2E2E2E2E2E2E2E2E2E2E2E2E2E2E2E2E2E2E2E2E2E2E2E2E2E2E2E2E2E2E2E2E2E2E2E2E2E2E2E2E2E2F5F5E2E2E2F5E2E2E2F5F5E2E2E2F5E2E2E2E2E2E2E2E2E2E2E2E2E2E2E2E2E2E2E2E2E2E2E2E2E2E2E2E2E2E2E2E2
310
E2E2E2E2E2E2E2E2E2E2E2E2F5E2E2E2F5F5F5F5F5F5F5E2E2F5E2E2E2E2E2E2E2E2E2E2E2E2E2E2E2E2E2E2E2E2E2E2E2E2E2E2E2E2E2E2E2E2E2E2E2E2E2E2E2E2E2E2E2E2E2E2E2E2E2E2E2E2E2E2E2E2E2E2E2E2E2E2E2E2E2E2E2E2E2E2E2E2E2E2E2E2E2E2E2E2E2E2E2E2E2E2E2E2E2E2E2E2E2E2E2E2E2E2E2E2E2
310
E2E2E2E2E2E2E2E2E2E2E2E2E2E2E2E2E2E2E2E2E2E2E2E2E2E2E2E2E2E2E2E2E2E2E2E2E2E2E2E2E2E2E2E2E2E2E2E2E2E2E2E2E2E2E2E2E2E2E2E2E2E2E2E2E2E2E2E2E2E2E2E2E2E2E2E2E2E2E2E2E2E2E2F5F5F5F5F5F5F5F5F5F5E2E2E2F5E2E2E2E2E2E2E2E2E2E2E2E2E2E2E2E2E2E2E2E2E2E2E2E2E2E2E2E2E2E2
310
E2E2E2E2E2E2E2E2E2E2E2E2E2E2E2F5F5E2E2E2E2F5E2E2E2F5F5E2E2E2E2E2E2E2E2E2E2E2E2E2E2E2E2E2E2E2E2E2E2E2E2E2E2E2E2E2E2E2E2E2E2E2E2E2E2E2E2E2E2E2E2E2E2E2E2E2E2E2E2E2E2E2E2E2E2E2E2E2E2E2E2E2E2E2E2E2E2E2E2E2E2E2E2E2E2E2E2E2E2E2E2E2E2E2E2E2E2E2E2E2E2E2E2E2E2E2E2
310
E2E2E2E2E2E2E2E2E2E2E2E2E2E2E2E2E2E2E2E2E2E2E2E2E2E2E2E2E2E2E2E2E2E2E2E2E2E2E2E2E2E2E2E2E2E2E2E2E2E2E2E2E2E2E2E2E2E2E2E2E2E2E2E2E2E2E2E2E2E2E2E2E2E2E2E2E2E2E2E2E2E2E2E2E2F5E2E2E2F5F5E2E2F5F5E2E2E2F5E2E2E2E2E2E2E2E2E2E2E2E2E2E2E2E2E2E2E2E2E2E2E2E2E2E2E2E2
310
E2E2E2E2E2E2E2E2E2E2E2E2E2E2E2E2E2E2F5F5F5F5E2F5E2F5F5F5E2E2E2E2E2E2E2E2E2E2E2E2E2E2E2E2E2E2E2E2E2E2E2E2E2E2E2E2E2E2E2E2E2E2E2E2E2E2E2E2E2E2E2E2E2E2E2E2E2E2E2E2E2E2E2E2E2E2E2E2E2E2E2E2E2E2E2E2E2E2E2E2E2E2E2E2E2E2E2E2E2E2E2E2E2E2E2E2E2E2E2E2E2E2E2E2E2E2E2
310
E2E2E2E2E2E2E2E2E2E2E2E2E2E2E2E2E2E2E2E2E2E2E2E2E2E2E2E2E2E2E2E2E2E2E2E2E2E2E2E2E2E2E2E2E2E2E2E2E2E2E2E2E2E2E2E2E2E2E2E2E2E2E2E2E2E2E2E2E2E2E2E2E2E2E2E2E2E2E2E2E2E2E2E2E2E2E2F5F5E2E2F5F5F5F5F5F5F5F5F5F5E2E2E2E2E2E2E2E2E2E2E2E2E2E2E2E2E2E2E2E2E2E2E2E2E2E2
310
E2E2E2E2E2E2E2E2E2E2E2E2E2E2E2E2E2E2E2E2F5F5F5E2F5F5F5E2F5F5F5E2E2E2E2E2E2E2E2E2E2E2E2E2E2E2E2E2E2E2E2E2E2E2E2E2E2E2E2E2E2E2E2E2E2E2E2E2E2E2E2E2E2E2E2E2E2E2E2E2E2E2E2E2E2E2E2E2E2E2E2E2E2E2E2E2E2E2E2E2E2E2E2E2E2E2E2E2E2E2E2E2E2E2E2E2E2E2E2E2E2E2E2E2E2E2E2
310
E2E2E2E2E2E2E2E2E2E2E2E2E2E2E2E2E2E2E2E2E2E2E2E2E2E2E2E2E2E2E2E2E2E2E2E2E2E2E2E2E2E2E2E2E2E2E2E2E2E2E2E2E2E2E2E2E2E2E2E2E2E2E2E2E2E2E2E2E2E2E2E2E2E2E2E2E2E2E2E2E2E2E2E2E2F5F5F5F5F5F5E2E2F5F5F5F5F5E2E2E2E2E2E2E2E2E2E2E2E2E2E2E2E2E2E2E2E2E2E2E2E2E2E2E2E2E2
310
E2E2E2E2E2E2E2E2E2E2E2E2E2E2E2E2E2E2E2E2E2F5F5F5F5F5F5F5F5F5F5F5F5E2E2E2E2E2E2E2E2E2E2E2E2E2E2E2E2E2E2E2E2E2E2E2E2E2E2E2E2E2E2E2E2E2E2E2E2E2E2E2E2E2E2E2E2E2E2E2E2E2E2E2E2E2E2E2E2E2E2E2E2E2E2E2E2E2E2E2E2E2E2E2E2E2E2E2E2E2E2E2E2E2E2E2E2E2E2E2E2E2E2E2E2E2E2
310
E2E2E2E2E2E2E2E2E2E2E2E2E2E2E2E2E2E2E2E2E2E2E2E2E2E2E2E2E2E2E2E2E2E2E2E2E2E2E2E2E2E2E2E2E2E2E2E2E2E2E2E2E2E2E2E2E2E2E2E2E2E2E2E2E2E2E2E2E2E2E2E2E2E2E2E2E2E2E2E2E2E2E2E2E2E2E2E2E2E2E2E2F5E2E2F5E2E2F5E2E2E2E2E2E2E2E2E2E2E2E2E2E2E2E2E2E2E2E2E2E2E2E2E2E2E2E2
310
E2E2E2E2E2E2E2E2E2E2E2E2E2E2E2E2E2E2E2E2E2E2E2F5E2F5F5F5F5F5F5F5F5F5F5E2E2E2E2E2E2E2E2E2E2E2E2E2E2E2E2E2E2E2E2E2E2E2E2E2E2E2E2E2E2E2E2E2E2E2E2E2E2E2E2E2E2E2E2E2E2E2E2E2E2E2E2E2E2E2E2E2E2E2E2E2E2E2E2E2E2E2E2E2E2E2E2E2E2E2E2E2E2E2E2E2E2E2E2E2E2E2E2E2E2E2E2
310
E2E2E2E2E2E2E2E2E2E2E2E2E2E2E2E2E2E2E2E2E2E2E2E2E2E2E2E2E2E2E2E2E2E2E2E2E2E2E2E2E2E2E2E2E2E2E2E2E2E2E2E2E2E2E2E2E2E2E2E2E2E2E2E2E2E2E2E2E2E2E2E2E2E2E2E2E2E2E2E2E2E2E2E2E2E2E2E2E2E2E2E2E2E2F5E2E2F5E2E2F5E2E2E2E2E2E2E2E2E2E2E2E2E2E2E2E2E2E2E2E2E2E2E2E2E2E2
310
E2E2E2E2E2E2E2E2E2E2E2E2E2E2E2E2E2E2E2E2E2E2E2E2E2F5E2F5F5E2E2F5E2E2F5F5F5E2E2E2E2E2E2E2E2E2E2E2E2E2E2E2E2E2E2E2E2E2E2E2E2E2E2E2E2E2E2E2E2E2E2E2E2E2E2E2E2E2E2E2E2E2E2E2E2E2E2E2E2E2E2E2E2E2E2E2E2E2E2E2E2E2E2E2E2E2E2E2E2E2E2E2E2E2E2E2E2E2E2E2E2E2E2E2E2E2E2
310
E2E2E2E2E2E2E2E2E2E2E2E2E2E2E2E2E2E2E2E2E2E2E2E2E2E2E2E2E2E2E2E2E2E2E2E2E2E2E2E2E2E2E2E2E2E2E2E2E2E2E2E2E2E2E2E2E2E2E2E2E2E2E2E2E2E2E2E2E2E2E2E2E2E2E2E2E2E2E2E2E2E2E2E2E2E2E2E2E2E2E2E2E2E2E2E2F5E2E2F5E2E2F5E2E2E2E2E2E2E2E2E2E2E2E2E2E2E2E2E2E2E2E2E2E2E2E2
310
E2E2E2E2E2E2E2E2E2E2E2E2E2E2E2E2E2E2E2E2E2E2E2E2E2E2E2F5E2F5F5E2E2F5E2E2F5F5F5E2E2E2E2E2E2E2E2E2E2E2E2E2E2E2E2E2E2E2E2E2E2E2E2E2E2E2E2E2E2E2E2E2E2E2E2E2E2E2E2E2E2E2E2E2E2E2E2E2E2E2E2E2E2E2E2E2E2E2E2E2E2E2E2E2E2E2E2E2E2E2E2E2E2E2E2E2E2E2E2E2E2E2E2E2E2E2E2
310
E2E2E2E2E2E2E2E2E2E2E2E2E2E2E2E2E2E2E2E2E2E2E2E2E2E2E2E2E2E2E2E2E2E2E2E2E2E2E2E2E2E2E2E2E2E2E2E2E2E2E2E2E2E2E2E2E2E2E2E2E2E2E2E2E2E2E2E2E2E2E2E2E2E2E2E2E2E2E2E2E2E2E2E2E2E2E2E2E2E2E2E2E2E2E2E2E2E2F5E2E2F5E2E2F5E2E2E2E2E2E2E2E2E2E2E2E2E2E2E2E2E2E2E2E2E2E2
310
E2E2E2E2E2E2E2E2E2E2E2E2E2E2E2E2E2E2E2E2E2E2E2E2E2E2E2E2E2F5E2F5F5E2E2F5E2E2F5F5F5E2E2E2E2E2E2E2E2E2E2E2E2E2E2E2E2E2E2E2E2E2E2E2E2E2E2E2E2E2E2E2E2E2E2E2E2E2E2E2E2E2E2E2E2E2E2E2E2E2E2E2E2E2E2E2E2E2E2E2E2E2E2E2E2E2E2E2E2E2E2E2E2E2E2E2E2E2E2E2E2E2E2E2E2E2E2
310
E2E2E2E2E2E2E2E2E2E2E2E2E2E2E2E2E2E2E2E2E2E2E2E2E2E2E2E2E2E2E2E2E2E2E2E2E2E2E2E2E2E2E2E2E2E2E2E2E2E2E2E2E2E2E2E2E2E2E2E2E2E2E2E2E2E2E2E2E2E2E2E2E2E2E2E2E2E2E2E2E2E2E2E2E2E2E2E2E2E2E2E2E2E2E2E2E2F5F5F5F5E2E2F5E2E2F5F5F5F5E2E2E2E2E2E2E2E2E2E2E2E2E2E2E2E2E2
310
E2E2E2E2E2E2E2E2E2E2E2E2E2E2E2E2E2E2E2E2E2E2E2E2E2E2E2E2E2E2E2F5F5F5F5E2E2F5E2E2F5F5F5F5E2E2E2E2E2E2E2E2E2E2E2E2E2E2E2E2E2E2E2E2E2E2E2E2E2E2E2E2E2E2E2E2E2E2E2E2E2E2E2E2E2E2E2E2E2E2E2E2E2E2E2E2E2E2E2E2E2E2E2E2E2E2E2E2E2E2E2E2E2E2E2E2E2E2E2E2E2E2E2E2E2E2E2
310
E2E2E2E2E2E2E2E2E2E2E2E2E2E2E2E2E2E2E2E2E2E2E2E2E2E2E2E2E2E2E2E2E2E2E2E2E2E2E2E2E2E2E2E2E2E2E2E2E2E2E2E2E2E2E2E2E2E2E2E2E2E2E2E2E2E2E2E2E2E2E2E2E2E2E2E2E2E2E2E2E2E2E2E2E2E2E2E2E2E2E2E2E2E2E2E2E2E2E2F5F5F5F5E2E2F5E2E2F5F5F5F5E2E2E2E2E2E2E2E2E2E2E2E2E2E2E2
310
E2E2E2E2E2E2E2E2E2E2E2E2E2E2E2E2E2E2E2E2E2E2E2E2E2E2E2E2E2E2E2E2F5F5F5F5F5E2E2F5E2E2F5F5F5F5E2E2E2E2E2E2E2E2E2E2E2E2E2E2E2E2E2E2E2E2E2E2E2E2E2E2E2E2E2E2E2E2E2E2E2E2E2E2E2E2E2E2E2E2E2E2E2E2E2E2E2E2E2E2E2E2E2E2E2E2E2E2E2E2E2E2E2E2E2E2E2E2E2E2E2E2E2E2E2E2E2
310
E2E2E2E2E2E2E2E2E2E2E2E2E2E2E2E2E2E2E2E2E2E2E2E2E2E2E2E2E2E2E2E2E2E2E2E2E2E2E2E2E2E2E2E2E2E2E2E2E2E2E2E2E2E2E2E2E2E2E2E2E2E2E2E2E2E2E2E2E2E2E2E2E2E2E2E2E2E2E2E2E2E2E2E2E2E2E2E2E2E2E2E2E2E2E2E2E2E2E2E2F5F5F5F5F5F5F5F5F5F5F5F5F5F5F5E2E2E2E2E2E2E2E2E2E2E2E2
310
E2E2E2E2E2E2E2E2E2E2E2E2E2E2E2E2E2E2E2E2E2E2E2E2E2E2E2E2F5F5F5F5F5F5F5F5F5F5F5F5F5F5F5F5F5F5F5F5F5F5F5F5F5F5F5F5F5F5F5E2E2E2E2E2E2E2E2E2E2E2E2E2E2E2E2E2E2E2E2E2E2E2E2E2E2E2E2E2E2E2E2E2E2E2E2E2E2E2E2E2E2E2E2E2E2E2E2E2E2E2E2E2E2E2E2E2E2E2E2E2E2E2E2E2E2E2E2
310
E2E2E2E2E2E2E2E2E2E2E2E2E2E2E2E2E2E2E2E2E2E2E2E2E2E2E2E2E2E2E2E2E2E2E2E2E2E2E2E2E2E2E2E2E2E2E2E2E2E2E2E2E2E2E2E2E2E2E2E2E2E2E2E2E2E2E2E2E2E2E2E2E2E2E2E2E2E2E2E2E2E2E2E2E2E2E2E2E2E2E2E2E2E2E2E2E2E2E2E2E2E2E2F5F5F5F5F5F5F5F5F5F5F5F5F5E2E2E2E2E2E2E2E2E2E2E2
310
E2E2E2E2E2E2E2E2E2E2E2E2E2E2E2E2E2E2E2E2E2E2E2E2E2E2E2E2F5F5F5F5E2E2E2E2E2E2E2E2E2E2E2F5E2E2E2E2E2E2E2E2E2E2E2E2E2E2E2F5F5F5E2E2E2E2E2E2E2E2E2E2E2E2E2E2E2E2E2E2E2E2E2E2E2E2E2E2E2E2E2E2E2E2E2E2E2E2E2E2E2E2E2E2E2E2E2E2E2E2E2E2E2E2E2E2E2E2E2E2E2E2E2E2E2E2E2
310
E2E2E2E2E2E2E2E2E2E2E2E2E2E2E2E2E2E2E2E2E2E2E2E2E2E2E2E2E2E2E2E2E2E2E2E2E2E2E2E2E2E2E2E2E2E2E2E2E2E2E2E2E2E2E2E2E2E2E2E2E2E2E2E2E2E2E2E2E2E2E2E2E2E2E2E2E2E2E2E2E2E2E2E2E2E2E2E2E2E2E2E2E2E2E2E2E2E2E2E2E2E2E2E2E2F5E2F5E2E2E2F5E2E2E2F5E2F5E2E2E2E2E2E2E2E2E2
310
E2E2E2E2E2E2E2E2E2E2E2E2E2E2E2E2E2E2E2E2E2E2E2E2E2E2E2E2E2E2F5F5F5F5E2E2E2E2E2E2E2E2E2E2E2F5E2E2E2E2E2E2E2E2E2E2E2E2E2E2E2F5F5F5E2E2E2E2E2E2E2E2E2E2E2E2E2E2E2E2E2E2E2E2E2E2E2E2E2E2E2E2E2E2E2E2E2E2E2E2E2E2E2E2E2E2E2E2E2E2E2E2E2E2E2E2E2E2E2E2E2E2E2E2E2E2E2
310
E2E2E2E2E2E2E2E2E2E2E2E2E2E2E2E2E2E2E2E2E2E2E2E2E2E2E2E2E2E2E2E2E2E2E2E2E2E2E2E2E2E2E2E2E2E2E2E2E2E2E2E2E2E2E2E2E2E2E2E2E2E2E2E2E2E2E2E2E2E2E2E2E2E2E2E2E2E2E2E2E2E2E2E2E2E2E2E2E2E2E2E2E2E2E2E2E2E2E2E2E2E2E2E2E2E2E2F5F5F5E2E2E2F5E2E2E2F5F5F5E2E2E2E2E2E2E2
310
E2E2E2E2E2E2E2E2E2E2E2E2E2E2E2E2E2E2E2E2E2E2E2E2E2E2E2E2E2E2E2E2F5F5F5F5E2E2E2E2E2E2E2E2E2E2E2F5E2E2E2E2E2E2E2E2E2E2E2E2E2E2E2F5F5F5E2E2E2E2E2E2E2E2E2E2E2E2E2E2E2E2E2E2E2E2E2E2E2E2E2E2E2E2E2E2E2E2E2E2E2E2E2E2E2E2E2E2E2E2E2E2E2E2E2E2E2E2E2E2E2E2E2E2E2E2E2
310
E2E2E2E2E2E2E2E2E2E2E2E2E2E2E2E2E2E2E2E2E2E2E2E2E2E2E2E2E2E2E2E2E2E2E2E2E2E2E2E2E2E2E2E2E2E2E2E2E2E2E2E2E2E2E2E2E2E2E2E2E2E2E2E2E2E2E2E2E2E2E2E2E2E2E2E2E2E2E2E2E2E2E2E2E2E2E2E2E2E2E2E2E2E2E2E2E2E2E2E2E2E2E2E2E2E2E2E2E2F5E2E2E2E2E2F5E2E2E2E2E2F5E2E2E2E2E2
310
E2E2E2E2E2E2E2E2E2E2E2E2E2E2E2E2E2E2E2E2E2E2E2E2E2E2E2E2E2E2E2E2E2E2E2E2F5F5F5F5F5F5F5F5F5F5F5F5F5F5F5F5F5F5F5F5F5F5F5F5F5F5F5F5F5F5F5E2E2E2E2E2E2E2E2E2E2E2E2E2E2E2E2E2E2E2E2E2E2E2E2E2E2E2E2E2E2E2E2E2E2E2E2E2E2E2E2E2E2E2E2E2E2E2E2E2E2E2E2E2E2E2E2E2E2E2E2
310
E2E2E2E2E2E2E2E2E2E2E2E2E2E2E2E2E2E2E2E2E2E2E2E2E2E2E2E2E2E2E2E2E2E2E2E2E2E2E2E2E2E2E2E2E2E2E2E2E2E2E2E2E2E2E2E2E2E2E2E2E2E2E2E2E2E2E2E2E2E2E2E2E2E2E2E2E2E2E2E2E2E2E2E2E2E2E2E2E2E2E2E2E2E2E2E2E2E2E2E2E2E2E2E2E2E2E2E2E2E2F5E2E2E2E2E2E2F5E2E2E2E2E2E2F5E2E2
310
E2E2E2E2E2E2E2E2E2E2E2E2E2E2E2E2E2E2E2E2E2E2E2E2E2E2E2E2E2E2E2E2E2E2E2E2E2E2F5F5E2E2E2E2E2E2E2E2E2E2E2F5E2E2E2E2E2E2E2E2E2E2E2E2E2E2E2F5F5E2E2E2E2E2E2E2E2E2E2E2E2E2E2E2E2E2E2E2E2E2E2E2E2E2E2E2E2E2E2E2E2E2E2E2E2E2E2E2E2E2E2E2E2E2E2E2E2E2E2E2E2E2E2E2E2E2E2
310
E2E2E2E2E2E2E2E2E2E2E2E2E2E2E2E2E2E2E2E2E2E2E2E2E2E2E2E2E2E2E2E2E2E2E2E2E2E2E2E2E2E2E2E2E2E2E2E2E2E2E2E2E2E2E2E2E2E2E2E2E2E2E2E2E2E2E2E2E2E2E2E2E2E2E2E2E2E2E2E2E2E2E2E2E2E2E2E2E2E2E2E2E2E2E2E2E2E2E2E2E2E2E2E2E2E2E2E2E2E2E2E2F5E2E2E2E2E2E2F5E2E2E2E2E2E2F5
310
E2E2E2E2E2E2E2E2E2E2E2E2E2E2E2E2E2E2E2E2E2E2E2E2E2E2E2E2E2E2E2E2E2E2E2E2E2E2E2E2F5F5E2E2E2E2E2E2E2E2E2E2E2F5E2E2E2E2E2E2E2E2E2E2E2E2E2E2E2F5F5E2E2E2E2E2E2E2E2E2E2E2E2E2E2E2E2E2E2E2E2E2E2E2E2E2E2E2E2E2E2E2E2E2E2E2E2E2E2E2E2E2E2E2E2E2E2E2E2E2E2E2E2E2E2E2E2
310
E2E2E2E2E2E2E2E2E2E2E2E2E2E2E2E2E2E2E2E2E2E2E2E2E2E2E2E2E2E2E2E2E2E2E2E2E2E2E2E2E2E2E2E2E2E2E2E2E2E2E2E2E2E2E2E2E2E2E2E2E2E2E2E2E2E2E2E2E2E2E2E2E2E2E2E2E2E2E2E2E2E2E2E2E2E2E2E2E2E2E2E2E2E2E2E2E2E2E2E2E2E2E2E2E2E2E2E2E2E2E2E2E2F5E2E2E2E2E2E2E2F5E2E2E2E2E2
310
E2E2F5E2E2E2E2E2E2E2E2E2E2E2E2E2E2E2E2E2E2E2E2E2E2E2E2E2E2E2E2E2E2E2E2E2E2E2E2E2E2E2F5F5E2E2E2E2E2E2E2E2E2E2E2F5E2E2E2E2E2E2E2E2E2E2E2E2E2E2E2F5F5E2E2E2E2E2E2E2E2E2E2E2E2E2E2E2E2E2E2E2E2E2E2E2E2E2E2E2E2E2E2E2E2E2E2E2E2E2E2E2E2E2E2E2E2E2E2E2E2E2E2E2E2E2E2
310
E2E2E2E2E2E2E2E2E2E2E2E2E2E2E2E2E2E2E2E2E2E2E2E2E2E2E2E2E2E2E2E2E2E2E2E2E2E2E2E2E2E2E2E2E2E2E2E2E2E2E2E2E2E2E2E2E2E2E2E2E2E2E2E2E2E2E2E2E2E2E2E2E2E2E2E2E2E2E2E2E2E2E2E2E2E2E2E2E2E2E2E2E2E2E2E2E2E2E2E2E2E2E2E2E2E2E2E2E2E2E2E2E2E2E2F5E2E2E2F5E2E2E2F5E2E2F5
310
F5F5E2E2F5E2E2E2E2E2E2E2E2E2E2E2E2E2E2E2E2E2E2E2E2E2E2E2E2E2E2E2E2E2E2E2E2E2E2E2E2F5F5F5F5F5E2E2E2E2E2E2E2E2E2E2E2F5E2E2E2E2E2E2E2E2E2E2E2E2E2E2E2F5F5F5F5F5E2E2E2E2E2E2E2E2E2E2E2E2E2E2E2E2E2E2E2E2E2E2E2E2E2E2E2E2E2E2E2E2E2E2E2E2E2E2E2E2E2E2E2E2E2E2E2E2E2
310
E2E2E2E2E2E2E2E2E2E2E2E2E2E2E2E2E2E2E2E2E2E2E2E2E2E2E2E2E2E2E2E2E2E2E2E2E2E2E2E2E2E2E2E2E2E2E2E2E2E2E2E2E2E2E2E2E2E2E2E2E2E2E2E2E2E2E2E2E2E2E2E2E2E2E2E2E2E2E2E2E2E2E2E2E2E2E2E2E2E2E2E2E2E2E2E2E2E2E2E2E2E2E2E2E2E2E2E2E2E2E2E2E2E2E2E2E2F5E2E2F5E2F5E2E2F5E2
310
E2F5E2F5F5E2F5E2E2E2E2E2E2E2E2E2E2E2E2E2E2E2E2E2E2E2E2E2E2E2E2E2E2E2E2E2E2E2E2E2E2E2E2F5F5F5F5F5E2E2E2E2E2E2E2E2E2E2E2F5E2E2E2E2E2E2E2E2E2E2E2E2E2E2E2F5F5F5F5F5E2E2E2E2E2E2E2E2E2E2E2E2E2E2E2E2E2E2E2E2E2E2E2E2E2E2E2E2E2E2E2E2E2E2E2E2E2E2E2E2E2E2E2E2E2E2E2
310
E2E2E2E2E2E2E2E2E2E2E2E2E2E2E2E2E2E2E2E2E2E2E2E2E2E2E2E2E2E2E2E2E2E2E2E2E2E2E2E2E2E2E2E2E2E2E2E2E2E2E2E2E2E2E2E2E2E2E2E2E2E2E2E2E2E2E2E2E2E2E2E2E2E2E2E2E2E2E2E2E2E2E2E2E2E2E2E2E2E2E2E2E2E2E2E2E2E2E2E2E2E2E2E2E2E2E2E2E2E2E2E2E2E2E2E2E2E2E2F5E2E2F5F5F5E2E2
310
F5E2E2F5E2F5E2E2F5E2E2E2E2E2E2E2E2E2E2E2E2E2E2E2E2E2E2E2E2E2E2E2E2E2E2E2E2E2E2E2E2E2E2E2E2F5F5F5F5F5E2E2E2E2E2E2E2E2E2E2E2F5E2E2E2E2E2E2E2E2E2E2E2E2E2E2E2F5F5F5F5F5E2E2E2E2E2E2E2E2E2E2E2E2E2E2E2E2E2E2E2E2E2E2E2E2E2E2E2E2E2E2E2E2E2E2E2E2E2E2E2E2E2E2E2E2E2
310
E2E2E2E2E2E2E2E2E2E2E2E2E2E2E2E2E2E2E2E2E2E2E2E2E2E2E2E2E2E2E2E2E2E2E2E2E2E2E2E2E2E2E2E2E2E2E2E2E2E2E2E2E2E2E2E2E2E2E2E2E2E2E2E2E2E2E2E2E2E2E2E2E2E2E2E2E2E2E2E2E2E2E2E2E2E2E2E2E2E2E2E2E2E2E2E2E2E2E2E2E2E2E2E2E2E2E2E2E2E2E2E2E2E2E2E2E2E2E2E2E2F5E2E2E2E2E2
310
E2E2F5E2E2E2F5E2E2E2F5E2E2E2E2E2E2E2E2E2E2E2E2E2E2E2E2E2E2E2E2E2E2E2E2E2E2E2E2E2E2E2E2E2E2E2E2F5F5F5F5F5E2E2E2E2E2E2E2E2E2E2E2F5E2E2E2E2E2E2E2E2E2E2E2E2E2E2E2F5F5F5F5F5E2E2E2E2E2E2E2E2E2E2E2E2E2E2E2E2E2E2E2E2E2E2E2E2E2E2E2E2E2E2E2E2E2E2E2E2E2E2E2E2E2E2E2
310
E2E2E2E2E2E2E2E2E2E2E2E2E2E2E2E2E2E2E2E2E2E2E2E2E2E2E2E2E2E2E2E2E2E2E2E2E2E2E2E2E2E2E2E2E2E2E2E2E2E2E2E2E2E2E2E2E2E2E2E2E2E2E2E2E2E2E2E2E2E2E2E2E2E2E2E2E2E2E2E2E2E2E2E2E2E2E2E2E2E2E2E2E2E2E2E2E2E2E2E2E2E2E2E2E2E2E2E2E2E2E2E2E2E2E2E2E2E2E2E2E2E2E2E2F5E2E2
310
E2E2E2E2F5E2E2E2E2E2E2F5E2E2E2E2E2E2E2E2E2E2E2E2E2E2E2E2E2E2E2E2E2E2E2E2E2E2E2E2E2E2E2E2E2E2E2E2E2E2E2E2F5F5E2E2E2E2E2E2E2E2E2E2E2F5E2E2E2E2E2E2E2E2E2E2E2E2E2E2E2F5F5E2E2E2E2E2E2E2E2E2E2E2E2E2E2E2E2E2E2E2E2E2E2E2E2E2E2E2E2E2E2E2E2E2E2E2E2E2E2E2E2E2E2E2E2
310
E2E2E2E2E2E2E2E2E2E2E2E2E2E2E2E2E2E2E2E2E2E2E2E2E2E2E2E2E2E2E2E2E2E2E2E2E2E2E2E2E2E2E2E2E2E2E2E2E2E2E2E2E2E2E2E2E2E2E2E2E2E2E2E2E2E2E2E2E2E2E2E2E2E2E2E2E2E2E2E2E2E2E2E2E2E2E2E2E2E2E2E2E2E2E2E2E2E2E2E2E2E2E2E2E2E2E2E2E2E2E2E2E2E2E2E2E2E2E2E2E2E2E2E2E2E2F5
310
E2E2E2E2E2E2F5E2E2E2E2E2E2F5E2E2E2E2E2E2E2E2E2E2E2E2E2E2E2E2E2E2E2E2E2E2E2E2E2E2E2E2E2E2E2E2E2E2E2E2E2E2E2E2F5F5E2E2E2E2E2E2E2E2E2E2E2F5E2E2E2E2E2E2E2E2E2E2E2E2E2E2E2F5F5E2E2E2E2E2E2E2E2E2E2E2E2E2E2E2E2E2E2E2E2E2E2E2E2E2E2E2E2E2E2E2E2E2E2E2E2E2E2E2E2E2E2
310
E2E2E2E2E2E2E2E2E2E2E2E2E2E2E2E2E2E2E2E2E2E2E2E2E2E2E2E2E2E2E2E2E2E2E2E2E2E2E2E2E2E2E2E2E2E2E2E2E2E2E2E2E2E2E2E2E2E2E2E2E2E2E2E2E2E2E2E2E2E2E2E2E2E2E2E2E2E2E2E2E2E2E2E2E2E2E2E2E2E2E2E2E2E2E2E2E2E2E2E2E2E2E2E2E2E2E2E2E2E2E2E2E2E2E2E2E2E2E2E2E2E2E2E2E2E2E2
310
E2E2F5E2E2E2E2E2F5E2E2E2E2E2F5E2E2E2E2E2E2E2E2E2E2E2E2E2E2E2E2E2E2E2E2E2E2E2E2E2E2E2E2E2E2E2E2E2E2E2E2E2E2E2E2E2F5F5F5F5F5F5F5F5F5F5F5F5F5F5F5F5F5F5F5F5F5F5F5F5F5F5F5F5F5F5F5E2E2E2E2E2E2E2E2E2E2E2E2E2E2E2E2E2E2E2E2E2E2E2E2E2E2E2E2E2E2E2E2E2E2E2E2E2E2E2E2
310
E2E2E2E2E2E2E2E2E2E2E2E2E2E2E2E2E2E2E2E2E2E2E2E2E2E2E2E2E2E2E2E2E2E2E2E2E2E2E2E2E2E2E2E2E2E2E2E2E2E2E2E2E2E2E2E2E2E2E2E2E2E2E2E2E2E2E2E2E2E2E2E2E2E2E2E2E2E2E2E2E2E2E2E2E2E2E2E2E2E2E2E2E2E2E2E2E2E2E2E2E2E2E2E2E2E2E2E2E2E2E2E2E2E2E2E2E2E2E2E2E2E2E2E2E2E2E2
310
E2E2E2E2F5F5E2E2E2E2F5E2E2E2E2F5F5E2E2E2E2E2E2E2E2E2E2E2E2E2E2E2E2E2E2E2E2E2E2E2E2E2E2E2E2E2E2E2E2E2E2E2E2E2E2E2F5F5F5F5E2E2E2E2E2E2E2E2E2E2E2F5E2E2E2E2E2E2E2E2E2E2E2E2E2E2E2F5F5F5E2E2E2E2E2E2E2E2E2E2E2E2E2E2E2E2E2E2E2E2E2E2E2E2E2E2E2E2E2E2E2E2E2E2E2E2E2
310
E2E2E2E2E2E2E2E2E2E2E2E2E2E2E2E2E2E2E2E2E2E2E2E2E2E2E2E2E2E2E2E2E2E2E2E2E2E2E2E2E2E2E2E2E2E2E2E2E2E2E2E2E2E2E2E2E2E2E2E2E2E2E2E2E2E2E2E2E2E2E2E2E2E2E2E2E2E2E2E2E2E2E2E2E2E2E2E2E2E2E2E2E2E2E2E2E2E2E2E2E2E2E2E2E2E2E2E2E2E2E2E2E2E2E2E2E2E2E2E2E2E2E2E2E2E2E2
310
E2E2E2E2E2E2F5E2F5E2E2E2F5E2E2E2F5E2F5E2E2E2E2E2E2E2E2E2E2E2E2E2E2E2E2E2E2E2E2E2E2E2E2E2E2E2E2E2E2E2E2E2E2E2E2E2E2E2F5F5F5F5E2E2E2E2E2E2E2E2E2E2E2F5E2E2E2E2E2E2E2E2E2E2E2E2E2E2E2F5F5F5E2E2E2E2E2E2E2E2E2E2E2E2E2E2E2E2E2E2E2E2E2E2E2E2E2E2E2E2E2E2E2E2E2E2E2
310
E2E2E2E2E2E2E2E2E2E2E2E2E2E2E2E2E2E2E2E2E2E2E2E2E2E2E2E2E2E2E2E2E2E2E2E2E2E2E2E2E2E2E2E2E2E2E2E2E2E2E2E2E2E2E2E2E2E2E2E2E2E2E2E2E2E2E2E2E2E2E2E2E2E2E2E2E2E2E2E2E2E2E2E2E2E2E2E2E2E2E2E2E2E2E2E2E2E2E2E2E2E2E2E2E2E2E2E2E2E2E2E2E2E2E2E2E2E2E2E2E2E2E2E2E2E2E2
310
E2E2E2E2E2E2E2E2F5E2F5E2E2E2F5E2E2E2F5E2F5E2E2E2E2E2E2E2E2E2E2E2E2E2E2E2E2E2E2E2E2E2E2E2E2E2E2E2E2E2E2E2E2E2E2E2E2E2E2E2F5F5F5F5E2E2E2E2E2E2E2E2E2E2E2F5E2E2E2E2E2E2E2E2E2E2E2E2E2E2E2F5F5F5E2E2E2E2E2E2E2E2E2E2E2E2E2E2E2E2E2E2E2E2E2E2E2E2E2E2E2E2E2E2E2E2E2
310
E2E2E2E2E2E2E2E2E2E2E2E2E2E2E2E2E2E2E2E2E2E2E2E2E2E2E2E2E2E2E2E2E2E2E2E2E2E2E2E2E2E2E2E2E2E2E2E2E2E2E2E2E2E2E2E2E2E2E2E2E2E2E2E2E2E2E2E2E2E2E2E2E2E2E2E2E2E2E2E2E2E2E2E2E2E2E2E2E2E2E2E2E2E2E2E2E2E2E2E2E2E2E2E2E2E2E2E2E2E2E2E2E2E2E2E2E2E2E2E2E2E2E2E2E2E2E2
310
E2E2E2E2E2E2E2E2F5F5F5F5F5F5F5F5F5F5F5F5F5F5F5F5F5E2E2E2E2E2E2E2E2E2E2E2E2E2E2E2E2E2E2E2E2E2E2E2E2E2E2E2E2E2E2E2E2E2E2E2E2E2F5F5F5F5F5F5F5F5F5F5F5F5F5F5F5F5F5F5F5F5F5F5F5F5F5F5F5F5F5F5F5F5F5F5E2E2E2E2E2E2E2E2E2E2E2E2E2E2E2E2E2E2E2E2E2E2E2E2E2E2E2E2E2E2E2
310
E2E2E2E2E2E2E2E2E2E2E2E2E2E2E2E2E2E2E2E2E2E2E2E2E2E2E2E2E2E2E2E2E2E2E2E2E2E2E2E2E2E2E2E2E2E2E2E2E2E2E2E2E2E2E2E2E2E2E2E2E2E2E2E2E2E2E2E2E2E2E2E2E2E2E2E2E2E2E2E2E2E2E2E2E2E2E2E2E2E2E2E2E2E2E2E2E2E2E2E2E2E2E2E2E2E2E2E2E2E2E2E2E2E2E2E2E2E2E2E2E2E2E2E2E2E2E2
310
E2E2E2E2E2E2E2E2E2E2F5E2E2E2E2E2E2E2F5E2E2E2E2E2E2E2F5E2E2E2E2E2E2E2E2E2E2E2E2E2E2E2E2E2E2E2E2E2E2E2E2E2E2E2E2E2E2E2E2E2E2E2E2E2E2E2E2E2E2E2E2E2E2E2E2F5E2E2F5F5E2E2E2F5E2E2E2E2E2E2E2E2E2E2E2E2E2E2E2E2E2E2E2E2E2E2E2E2E2E2E2E2E2E2E2E2E2E2E2E2E2E2E2E2E2E2E2
310
E2E2E2E2E2E2E2E2E2E2E2E2E2E2E2E2E2E2E2E2E2E2E2E2E2E2E2E2E2E2E2E2E2E2E2E2E2E2E2E2E2E2E2E2E2E2E2E2E2E2E2E2E2E2E2E2E2E2E2E2E2E2E2E2E2E2E2E2E2E2E2E2E2E2E2E2E2E2E2E2E2E2E2E2E2E2E2E2E2E2E2E2E2E2E2E2E2E2E2E2E2E2E2E2E2E2E2E2E2E2E2E2E2E2E2E2E2E2E2E2E2E2E2E2E2E2E2
310
E2E2E2E2E2E2E2E2E2E2E2E2F5E2E2E2E2E2E2E2F5E2E2E2E2E2E2E2F5E2E2E2E2E2E2E2E2E2E2E2E2E2E2E2E2E2E2E2E2E2E2E2E2E2E2E2E2E2E2E2E2E2E2E2E2E2E2E2E2E2E2E2E2E2E2E2E2F5E2E2F5F5E2E2E2F5E2E2E2E2E2E2E2E2E2E2E2E2E2E2E2E2E2E2E2E2E2E2E2E2E2E2E2E2E2E2E2E2E2E2E2E2E2E2E2E2E2
310
E2E2E2E2E2E2E2E2E2E2E2E2E2E2E2E2E2E2E2E2E2E2E2E2E2E2E2E2E2E2E2E2E2E2E2E2E2E2E2E2E2E2E2E2E2E2E2E2E2E2E2E2E2E2E2E2E2E2E2E2E2E2E2E2E2E2E2E2E2E2E2E2E2E2E2E2E2E2E2E2E2E2E2E2E2E2E2E2E2E2E2E2E2E2E2E2E2E2E2E2E2E2E2E2E2E2E2E2E2E2E2E2E2E2E2E2E2E2E2E2E2E2E2E2E2E2E2
310
E2E2E2E2E2E2E2E2E2E2E2E2E2E2F5E2E2E2E2E2E2E2F5E2E2E2E2E2E2E2F5E2E2E2E2E2E2E2E2E2E2E2E2E2E2E2E2E2E2E2E2E2E2E2E2E2E2E2E2E2E2E2E2E2E2E2E2E2E2E2E2E2E2E2E2E2E2E2E2F5E2E2F5F5E2E2E2F5E2E2E2E2E2E2E2E2E2E2E2E2E2E2E2E2E2E2E2E2E2E2E2E2E2E2E2E2E2E2E2E2E2E2E2E2E2E2E2
310
E2E2E2E2E2E2E2E2E2E2E2E2E2E2E2E2E2E2E2E2E2E2E2E2E2E2E2E2E2E2E2E2E2E2E2E2E2E2E2E2E2E2E2E2E2E2E2E2E2E2E2E2E2E2E2E2E2E2E2E2E2E2E2E2E2E2E2E2E2E2E2E2E2E2E2E2E2E2E2E2E2E2E2E2E2E2E2E2E2E2E2E2E2E2E2E2E2E2E2E2E2E2E2E2E2E2E2E2E2E2E2E2E2E2E2E2E2E2E2E2E2E2E2E2E2E2E2
310
E2E2E2E2E2E2E2E2E2E2E2E2E2E2E2E2F5E2E2E2E2E2E2E2F5E2E2E2E2E2E2E2F5E2E2E2E2E2E2E2E2E2E2E2E2E2E2E2E2E2E2E2E2E2E2E2E2E2E2E2E2E2E2E2E2E2E2E2E2E2E2E2E2E2E2E2E2E2E2E2E2F5E2E2F5F5E2E2E2F5E2E2E2E2E2E2E2E2E2E2E2E2E2E2E2E2E2E2E2E2E2E2E2E2E2E2E2E2E2E2E2E2E2E2E2E2E2
310
E2E2E2E2E2E2E2E2E2E2E2E2E2E2E2E2E2E2E2E2E2E2E2E2E2E2E2E2E2E2E2E2E2E2E2E2E2E2E2E2E2E2E2E2E2E2E2E2E2E2E2E2E2E2E2E2E2E2E2E2E2E2E2E2E2E2E2E2E2E2E2E2E2E2E2E2E2E2E2E2E2E2E2E2E2E2E2E2E2E2E2E2E2E2E2E2E2E2E2E2E2E2E2E2E2E2E2E2E2E2E2E2E2E2E2E2E2E2E2E2E2E2E2E2E2E2E2
310
E2E2E2E2E2E2E2E2E2E2E2E2E2E2E2E2E2E2F5F5F5F5F5F5F5F5F5F5F5F5F5F5F5F5F5E2E2E2E2E2E2E2E2E2E2E2E2E2E2E2E2E2E2E2E2E2E2E2E2E2E2E2E2E2E2E2E2E2E2E2E2E2E2E2E2E2E2E2E2E2E2E2E2F5F5F5F5F5F5F5F5F5E2E2E2E2E2E2E2E2E2E2E2E2E2E2E2E2E2E2E2E2E2E2E2E2E2E2E2E2E2E2E2E2E2E2E2
310
E2E2E2E2E2E2E2E2E2E2E2E2E2E2E2E2E2E2E2E2E2E2E2E2E2E2E2E2E2E2E2E2E2E2E2E2E2E2E2E2E2E2E2E2E2E2E2E2E2E2E2E2E2E2E2E2E2E2E2E2E2E2E2E2E2E2E2E2E2E2E2E2E2E2E2E2E2E2E2E2E2E2E2E2E2E2E2E2E2E2E2E2E2E2E2E2E2E2E2E2E2E2E2E2E2E2E2E2E2E2E2E2E2E2E2E2E2E2E2E2E2E2E2E2E2E2E2
310
E2E2E2E2E2E2E2E2E2E2E2E2E2E2E2E2E2E2E2E2E2E2E2E2E2E2E2F5F5F5E2E2E2E2E2E2E2E2E2E2E2E2E2E2E2E2E2E2E2E2E2E2E2E2E2E2E2E2E2E2E2E2E2E2E2E2E2E2E2E2E2E2E2E2E2E2E2E2E2E2E2E2E2E2E2E2E2E2F5F5F5E2E2E2E2E2E2E2E2E2E2E2E2E2E2E2E2E2E2E2E2E2E2E2E2E2E2E2E2E2E2E2E2E2E2E2E2
310
E2E2E2E2E2E2E2E2E2E2E2E2E2E2E2E2E2E2E2E2E2E2E2E2E2E2E2E2E2E2E2E2E2E2E2E2E2E2E2E2E2E2E2E2E2E2E2E2E2E2E2E2E2E2E2E2E2E2E2E2E2E2E2E2E2E2E2E2E2E2E2E2E2E2E2E2E2E2E2E2E2E2E2E2E2E2E2E2E2E2E2E2E2E2E2E2E2E2E2E2E2E2E2E2E2E2E2E2E2E2E2E2E2E2E2E2E2E2E2E2E2E2E2E2E2E2E2
310
E2E2E2E2E2E2E2E2E2E2E2E2E2E2E2E2E2E2E2E2E2E2E2E2E2E2E2E2E2E2F5E2E2E2E2E2E2E2E2E2E2E2E2E2E2E2E2E2E2E2E2E2E2E2E2E2E2E2E2E2E2E2E2E2E2E2E2E2E2E2E2E2E2E2E2E2E2E2E2E2E2E2E2E2E2E2E2E2E2E2E2F5E2E2E2E2E2E2E2E2E2E2E2E2E2E2E2E2E2E2E2E2E2E2E2E2E2E2E2E2E2E2E2E2E2E2E2
310
E2E2E2E2E2E2E2E2E2E2E2E2E2E2E2E2E2E2E2E2E2E2E2E2E2E2E2E2E2E2E2E2E2E2E2E2E2E2E2E2E2E2E2E2E2E2E2E2E2E2E2E2E2E2E2E2E2E2E2E2E2E2E2E2E2E2E2E2E2E2E2E2E2E2E2E2E2E2E2E2E2E2E2E2E2E2E2E2E2E2E2E2E2E2E2E2E2E2E2E2E2E2E2E2E2E2E2E2E2E2E2E2E2E2E2E2E2E2E2E2E2E2E2E2E2E2E2
310
E2E2E2E2E2E2E2E2E2E2E2E2E2E2E2E2E2E2E2E2E2E2E2E2E2E2E2E2E2E2E2E2E2E2E2E2E2E2E2E2E2E2E2E2E2E2E2E2E2E2E2E2E2E2E2E2E2E2E2E2E2E2E2E2E2E2E2E2E2E2E2E2E2E2E2E2E2E2E2E2E2E2E2E2E2E2E2E2E2E2E2E2E2E2E2E2E2E2E2E2E2E2E2E2E2E2E2E2E2E2E2E2E2E2E2E2E2E2E2E2E2E2E2E2E2E2E2
310
E2E2E2E2E2E2E2E2E2E2E2E2E2E2E2E2E2E2E2E2E2E2E2E2E2E2E2E2E2E2E2E2E2E2E2E2E2E2E2E2E2E2E2E2E2E2E2E2E2E2E2E2E2E2E2E2E2E2E2E2E2E2E2E2E2E2E2E2E2E2E2E2E2E2E2E2E2E2E2E2E2E2E2E2E2E2E2E2E2E2E2E2E2E2E2E2E2E2E2E2E2E2E2E2E2E2E2E2E2E2E2E2E2E2E2E2E2E2E2E2E2E2E2E2E2E2E2
310
E2E2E2E2E2E2E2E2E2E2E2E2E2E2E2E2E2E2E2E2E2E2E2E2E2E2E2E2E2E2E2E2E2E2E2E2E2E2E2E2E2E2E2E2E2E2E2E2E2E2E2E2E2E2E2E2E2E2E2E2E2E2E2E2E2E2E2E2E2E2E2E2E2E2E2E2E2E2E2E2E2E2E2E2E2E2E2E2E2E2E2E2E2E2E2E2E2E2E2E2E2E2E2E2E2E2E2E2E2E2E2E2E2E2E2E2E2E2E2E2E2E2E2E2E2E2E2
310
E2E2E2E2E2E2E2E2E2E2E2E2E2E2E2E2E2E2E2E2E2E2E2E2E2E2E2E2E2E2E2E2E2E2E2E2E2E2E2E2E2E2E2E2E2E2E2E2E2E2E2E2E2E2E2E2E2E2E2E2E2E2E2E2E2E2E2E2E2E2E2E2E2E2E2E2E2E2E2E2E2E2E2E2E2E2E2E2E2E2E2E2E2E2E2E2E2E2E2E2E2E2E2E2E2E2E2E2E2E2E2E2E2E2E2E2E2E2E2E2E2E2E2E2E2E2E2
310
E2E2E2E2E2E2E2E2E2E2E2E2E2E2E2E2E2E2E2E2E2E2E2E2E2E2E2E2E2E2E2E2E2E2E2E2E2E2E2E2E2E2E2E2E2E2E2E2E2E2E2E2E2E2E2E2E2E2E2E2E2E2E2E2E2E2E2E2E2E2E2E2E2E2E2E2E2E2E2E2E2E2E2E2E2E2E2E2E2E2E2E2E2E2E2E2E2E2E2E2E2E2E2E2E2E2E2E2E2E2E2E2E2E2E2E2E2E2E2E2E2E2E2E2E2E2E2
310
E2E2E2E2E2E2E2E2E2E2E2E2E2E2E2E2E2E2E2E2E2E2E2E2E2E2E2E2E2E2E2E2E2E2E2E2E2E2E2E2E2E2E2E2E2E2E2E2E2E2E2E2E2E2E2E2E2E2E2E2E2E2E2E2E2E2E2E2E2E2E2E2E2E2E2E2E2E2E2E2E2E2E2E2E2E2E2E2E2E2E2E2E2E2E2E2E2E2E2E2E2E2E2E2E2E2E2E2E2E2E2E2E2E2E2E2E2E2E2E2E2E2E2E2E2E2E2
310
E2E2E2E2E2E2E2E2E2E2E2E2E2E2E2E2E2E2E2E2E2E2E2E2E2E2E2E2E2E2E2E2E2E2E2E2E2E2E2E2E2E2E2E2E2E2E2E2E2E2E2E2E2E2E2E2E2E2E2E2E2E2E2E2E2E2E2E2E2E2E2E2E2E2E2E2E2E2E2E2E2E2E2E2E2E2E2E2E2E2E2E2E2E2E2E2E2E2E2E2E2E2E2E2E2E2E2E2E2E2E2E2E2E2E2E2E2E2E2E2E2E2E2E2E2E2E2
310
E2E2E2E2E2E2E2E2E2E2E2E2E2E2E2E2E2E2E2E2E2E2E2E2E2E2E2E2E2E2E2E2E2E2E2E2E2E2E2E2E2E2E2E2E2E2E2E2E2E2E2E2E2E2E2E2E2E2E2E2E2E2E2E2E2E2E2E2E2E2E2E2E2E2E2E2E2E2E2E2E2E2E2E2E2E2E2E2E2E2E2E2E2E2E2E2E2E2E2E2E2E2E2E2E2E2E2E2E2E2E2E2E2E2E2E2E2E2E2E2E2E2E2E2E2E2E2
310
E2E2E2E2E2E2E2E2E2E2E2E2E2E2E2E2E2E2E2E2E2E2E2E2E2E2E2E2E2E2E2E2E2E2E2E2E2E2E2E2E2E2E2E2E2E2E2E2E2E2E2E2E2E2E2E2E2E2E2E2E2E2E2E2E2E2E2E2E2E2E2E2E2E2E2E2E2E2E2E2E2E2E2E2E2E2E2E2E2E2E2E2E2E2E2E2E2E2E2E2E2E2E2E2E2E2E2E2E2E2E2E2E2E2E2E2E2E2E2E2E2E2E2E2E2E2E2
310
E2E2E2E2E2E2E2E2E2E2E2E2E2E2E2E2E2E2E2E2E2E2E2E2E2E2E2E2E2E2E2E2E2E2E2E2E2E2E2E2E2E2E2E2E2E2E2E2E2E2E2E2E2E2E2E2E2E2E2E2E2E2E2E2E2E2E2E2E2E2E2E2E2E2E2E2E2E2E2E2E2E2E2E2E2E2E2E2E2E2E2E2E2E2E2E2E2E2E2E2E2E2E2E2E2E2E2E2E2E2E2E2E2E2E2E2E2E2E2E2E2E2E2E2E2E2E2
310
E2E2E2E2E2E2E2E2E2E2E2E2E2E2E2E2E2E2E2E2E2E2E2E2E2E2E2E2E2E2E2E2E2E2E2E2E2E2E2E2E2E2E2E2E2E2E2E2E2E2E2E2E2E2E2E2E2E2E2E2E2E2E2E2E2E2E2E2E2E2E2E2E2E2E2E2E2E2E2E2E2E2E2E2E2E2E2E2E2E2E2E2E2E2E2E2E2E2E2E2E2E2E2E2E2E2E2E2E2E2E2E2E2E2E2E2E2E2E2E2E2E2E2E2E2E2E2
310
E2E2E2E2E2E2E2E2E2E2E2E2E2E2E2E2E2E2E2E2E2E2E2E2E2E2E2E2E2E2E2E2E2E2E2E2E2E2E2E2E2E2E2E2E2E2E2E2E2E2E2E2E2E2E2E2E2E2E2E2E2E2E2E2E2E2E2E2E2E2E2E2E2E2E2E2E2E2E2E2E2E2E2E2E2E2E2E2E2E2E2E2E2E2E2E2E2E2E2E2E2E2E2E2E2E2E2E2E2E2E2E2E2E2E2E2E2E2E2E2E2E2E2E2E2E2E2
310
E2E2E2E2E2E2E2E2E2E2E2E2E2E2E2E2E2E2E2E2E2E2E2E2E2E2E2E2E2E2E2E2E2E2E2E2E2E2E2E2E2E2E2E2E2E2E2E2E2E2E2E2E2E2E2E2E2E2E2E2E2E2E2E2E2E2E2E2E2E2E2E2E2E2E2E2E2E2E2E2E2E2E2E2E2E2E2E2E2E2E2E2E2E2E2E2E2E2E2E2E2E2E2E2E2E2E2E2E2E2E2E2E2E2E2E2E2E2E2E2E2E2E2E2E2E2E2
310
E2E2E2E2E2E2E2E2E2E2E2E2E2E2E2E2E2E2E2E2E2E2E2E2E2E2E2E2E2E2E2E2E2E2E2E2E2E2E2E2E2E2E2E2E2E2E2E2E2E2E2E2E2E2E2E2E2E2E2E2E2E2E2E2E2E2E2E2E2E2E2E2E2E2E2E2E2E2E2E2E2E2E2E2E2E2E2E2E2E2E2E2E2E2E2E2E2E2E2E2E2E2E2E2E2E2E2E2E2E2E2E2E2E2E2E2E2E2E2E2E2E2E2E2E2E2E2
310
E2E2E2E2E2E2E2E2E2E2E2E2E2E2E2E2E2E2E2E2E2E2E2E2E2E2E2E2E2E2E2E2E2E2E2E2E2E2E2E2E2E2E2E2E2E2E2E2E2E2E2E2E2E2E2E2E2E2E2E2E2E2E2E2E2E2E2E2E2E2E2E2E2E2E2E2E2E2E2E2E2E2E2E2E2E2E2E2E2E2E2E2E2E2E2E2E2E2E2E2E2E2E2E2E2E2E2E2E2E2E2E2E2E2E2E2E2E2E2E2E2E2E2E2E2E2E2
310
E2E2E2E2E2E2E2E2E2E2E2E2E2E2E2E2E2E2E2E2E2E2E2E2E2E2E2E2E2E2E2E2E2E2E2E2E2E2E2E2E2E2E2E2E2E2E2E2E2E2E2E2E2E2E2E2E2E2E2E2E2E2E2E2E2E2E2E2E2E2E2E2E2E2E2E2E2E2E2E2E2E2E2E2E2E2E2E2E2E2E2E2E2E2E2E2E2E2E2E2E2E2E2E2E2E2E2E2E2E2E2E2E2E2E2E2E2E2E2E2E2E2E2E2E2E2E2
310
E2E2E2E2E2E2E2E2E2E2E2E2E2E2E2E2E2E2E2E2E2E2E2E2E2E2E2E2E2E2E2E2E2E2E2E2E2E2E2E2E2E2E2E2E2E2E2E2E2E2E2E2E2E2E2E2E2E2E2E2E2E2E2E2E2E2E2E2E2E2E2E2E2E2E2E2E2E2E2E2E2E2E2E2E2E2E2E2E2E2E2E2E2E2E2E2E2E2E2E2E2E2E2E2E2E2E2E2E2E2E2E2E2E2E2E2E2E2E2E2E2E2E2E2E2E2E2
310
E2E2E2E2E2E2E2E2E2E2E2E2E2E2E2E2E2E2E2E2E2E2E2E2E2E2E2E2E2E2E2E2E2E2E2E2E2E2E2E2E2E2E2E2E2E2E2E2E2E2E2E2E2E2E2E2E2E2E2E2E2E2E2E2E2E2E2E2E2E2E2E2E2E2E2E2E2E2E2E2E2E2E2E2E2E2E2E2E2E2E2E2E2E2E2E2E2E2E2E2E2E2E2E2E2E2E2E2E2E2E2E2E2E2E2E2E2E2E2E2E2E2E2E2E2E2E2
310
E2E2E2E2E2E2E2E2E2E2E2E2E2E2E2E2E2E2E2E2E2E2E2E2E2E2E2E2E2E2E2E2E2E2E2E2E2E2E2E2E2E2E2E2E2E2E2E2E2E2E2E2E2E2E2E2E2E2E2E2E2E2E2E2E2E2E2E2E2E2E2E2E2E2E2E2E2E2E2E2E2E2E2E2E2E2E2E2E2E2E2E2E2E2E2E2E2E2E2E2E2E2E2E2E2E2E2E2E2E2E2E2E2E2E2E2E2E2E2E2E2E2E2E2E2E2E2
310
E2E2E2E2E2E2E2E2E2E2E2E2E2E2E2E2E2E2E2E2E2E2E2E2E2E2E2E2E2E2E2E2E2E2E2E2E2E2E2E2E2E2E2E2E2E2E2E2E2E2E2E2E2E2E2E2E2E2E2E2E2E2E2E2E2E2E2E2E2E2E2E2E2E2E2E2E2E2E2E2E2E2E2E2E2E2E2E2E2E2E2E2E2E2E2E2E2E2E2E2E2E2E2E2E2E2E2E2E2E2E2E2E2E2E2E2E2E2E2E2E2E2E2E2E2E2E2
310
E2E2E2E2E2E2E2E2E2E2E2E2E2E2E2E2E2E2E2E2E2E2E2E2E2E2E2E2E2E2E2E2E2E2E2E2E2E2E2E2E2E2E2E2E2E2E2E2E2E2E2E2E2E2E2E2E2E2E2E2E2E2E2E2E2E2E2E2E2E2E2E2E2E2E2E2E2E2E2E2E2E2E2E2E2E2E2E2E2E2E2E2E2E2E2E2E2E2E2E2E2E2E2E2E2E2E2E2E2E2E2E2E2E2E2E2E2E2E2E2E2E2E2E2E2E2E2
310
E2E2E2E2E2E2E2E2E2E2E2E2E2E2E2E2E2E2E2E2E2E2E2E2E2E2E2E2E2E2E2E2E2E2E2E2E2E2E2E2E2E2E2E2E2E2E2E2E2E2E2E2E2E2E2E2E2E2E2E2E2E2E2E2E2E2E2E2E2E2E2E2E2E2E2E2E2E2E2E2E2E2E2E2E2E2E2E2E2E2E2E2E2E2E2E2E2E2E2E2E2E2E2E2E2E2E2E2E2E2E2E2E2E2E2E2E2E2E2E2E2E2E2E2E2E2E2
310
E2E2E2E2E2E2E2E2E2E2E2E2E2E2E2E2E2E2E2E2E2E2E2E2E2E2E2E2E2E2E2E2E2E2E2E2E2E2E2E2E2E2E2E2E2E2E2E2E2E2E2E2E2E2E2E2E2E2E2E2E2E2E2E2E2E2E2E2E2E2E2E2E2E2E2E2E2E2E2E2E2E2E2E2E2E2E2E2E2E2E2E2E2E2E2E2E2E2E2E2E2E2E2E2E2E2E2E2E2E2E2E2E2E2E2E2E2E2E2E2E2E2E2E2E2E2E2
310
E2E2E2E2E2E2E2E2E2E2E2E2E2E2E2E2E2E2E2E2E2E2E2E2E2E2E2E2E2E2E2E2E2E2E2E2E2E2E2E2E2E2E2E2E2E2E2E2E2E2E2E2E2E2E2E2E2E2E2E2E2E2E2E2E2E2E2E2E2E2E2E2E2E2E2E2E2E2E2E2E2E2E2E2E2E2E2E2E2E2E2E2E2E2E2E2E2E2E2E2E2E2E2E2E2E2E2E2E2E2E2E2E2E2E2E2E2E2E2E2E2E2E2E2E2E2E2
310
E2E2E2E2E2E2E2E2E2E2E2E2E2E2E2E2E2E2E2E2E2E2E2E2E2E2E2E2E2E2E2E2E2E2E2E2E2E2E2E2E2E2E2E2E2E2E2E2E2E2E2E2E2E2E2E2E2E2E2E2E2E2E2E2E2E2E2E2E2E2E2E2E2E2E2E2E2E2E2E2E2E2E2E2E2E2E2E2E2E2E2E2E2E2E2E2E2E2E2E2E2E2E2E2E2E2E2E2E2E2E2E2E2E2E2E2E2E2E2E2E2E2E2E2E2E2E2
310
E2E2E2E2E2E2E2E2E2E2E2E2E2E2E2E2E2E2E2E2E2E2E2E2E2E2E2E2E2E2E2E2E2E2E2E2E2E2E2E2E2E2E2E2E2E2E2E2E2E2E2E2E2E2E2E2E2E2E2E2E2E2E2E2E2E2E2E2E2E2E2E2E2E2E2E2E2E2E2E2E2E2E2E2E2E2E2E2E2E2E2E2E2E2E2E2E2E2E2E2E2E2E2E2E2E2E2E2E2E2E2E2E2E2E2E2E2E2E2E2E2E2E2E2E2E2E2
310
E2E2E2E2E2E2E2E2E2E2E2E2E2E2E2E2E2E2E2E2E2E2E2E2E2E2E2E2E2E2E2E2E2E2E2E2E2E2E2E2E2E2E2E2E2E2E2E2E2E2E2E2E2E2E2E2E2E2E2E2E2E2E2E2E2E2E2E2E2E2E2E2E2E2E2E2E2E2E2E2E2E2E2E2E2E2E2E2E2E2E2E2E2E2E2E2E2E2E2E2E2E2E2E2E2E2E2E2E2E2E2E2E2E2E2E2E2E2E2E2E2E2E2E2E2E2E2
310
E2E2E2E2E2E2E2E2E2E2E2E2E2E2E2E2E2E2E2E2E2E2E2E2E2E2E2E2E2E2E2E2E2E2E2E2E2E2E2E2E2E2E2E2E2E2E2E2E2E2E2E2E2E2E2E2E2E2E2E2E2E2E2E2E2E2E2E2E2E2E2E2E2E2E2E2E2E2E2E2E2E2E2E2E2E2E2E2E2E2E2E2E2E2E2E2E2E2E2E2E2E2E2E2E2E2E2E2E2E2E2E2E2E2E2E2E2E2E2E2E2E2E2E2E2E2E2
310
E2E2E2E2E2E2E2E2E2E2E2E2E2E2E2E2E2E2E2E2E2E2E2E2E2E2E2E2E2E2E2E2E2E2E2E2E2E2E2E2E2E2E2E2E2E2E2E2E2E2E2E2E2E2E2E2E2E2E2E2E2E2E2E2E2E2E2E2E2E2E2E2E2E2E2E2E2E2E2E2E2E2E2E2E2E2E2E2E2E2E2E2E2E2E2E2E2E2E2E2E2E2E2E2E2E2E2E2E2E2E2E2E2E2E2E2E2E2E2E2E2E2E2E2E2E2E2
310
E2E2E2E2E2E2E2E2E2E2E2E2E2E2E2E2E2E2E2E2E2E2E2E2E2E2E2E2E2E2E2E2E2E2E2E2E2E2E2E2E2E2E2E2E2E2E2E2E2E2E2E2E2E2E2E2E2E2E2E2E2E2E2E2E2E2E2E2E2E2E2E2E2E2E2E2E2E2E2E2E2E2E2E2E2E2E2E2E2E2E2E2E2E2E2E2E2E2E2E2E2E2E2E2E2E2E2E2E2E2E2E2E2E2E2E2E2E2E2E2E2E2E2E2E2E2E2
310
E2E2E2E2E2E2E2E2E2E2E2E2E2E2E2E2E2E2E2E2E2E2E2E2E2E2E2E2E2E2E2E2E2E2E2E2E2E2E2E2E2E2E2E2E2E2E2E2E2E2E2E2E2E2E2E2E2E2E2E2E2E2E2E2E2E2E2E2E2E2E2E2E2E2E2E2E2E2E2E2E2E2E2E2E2E2E2E2E2E2E2E2E2E2E2E2E2E2E2E2E2E2E2E2E2E2E2E2E2E2E2E2E2E2E2E2E2E2E2E2E2E2E2E2E2E2E2
310
E2E2E2E2E2E2E2E2E2E2E2E2E2E2E2E2E2E2E2E2E2E2E2E2E2E2E2E2E2E2E2E2E2E2E2E2E2E2E2E2E2E2E2E2E2E2E2E2E2E2E2E2E2E2E2E2E2E2E2E2E2E2E2E2E2E2E2E2E2E2E2E2E2E2E2E2E2E2E2E2E2E2E2E2E2E2E2E2E2E2E2E2E2E2E2E2E2E2E2E2E2E2E2E2E2E2E2E2E2E2E2E2E2E2E2E2E2E2E2E2E2E2E2E2E2E2E2
310
E2E2E2E2E2E2E2E2E2E2E2E2E2E2E2E2E2E2E2E2E2E2E2E2E2E2E2E2E2E2E2E2E2E2E2E2E2E2E2E2E2E2E2E2E2E2E2E2E2E2E2E2E2E2E2E2E2E2E2E2E2E2E2E2E2E2E2E2E2E2E2E2E2E2E2E2E2E2E2E2E2E2E2E2E2E2E2E2E2E2E2E2E2E2E2E2E2E2E2E2E2E2E2E2E2E2E2E2E2E2E2E2E2E2E2E2E2E2E2E2E2E2E2E2E2E2E2
310
E2E2E2E2E2E2E2E2E2E2E2E2E2E2E2E2E2E2E2E2E2E2E2E2E2E2E2E2E2E2E2E2E2E2E2E2E2E2E2E2E2E2E2E2E2E2E2E2E2E2E2E2E2E2E2E2E2E2E2E2E2E2E2E2E2E2E2E2E2E2E2E2E2E2E2E2E2E2E2E2E2E2E2E2E2E2E2E2E2E2E2E2E2E2E2E2E2E2E2E2E2E2E2E2E2E2E2E2E2E2E2E2E2E2E2E2E2E2E2E2E2E2E2E2E2E2E2
310
E2E2E2E2E2E2E2E2E2E2E2E2E2E2E2E2E2E2E2E2E2E2E2E2E2E2E2E2E2E2E2E2E2E2E2E2E2E2E2E2E2E2E2E2E2E2E2E2E2E2E2E2E2E2E2E2E2E2E2E2E2E2E2E2E2E2E2E2E2E2E2E2E2E2E2E2E2E2E2E2E2E2E2E2E2E2E2E2E2E2E2E2E2E2E2E2E2E2E2E2E2E2E2E2E2E2E2E2E2E2E2E2E2E2E2E2E2E2E2E2E2E2E2E2E2E2E2
310
E2E2E2E2E2E2E2E2E2E2E2E2E2E2E2E2E2E2E2E2E2E2E2E2E2E2E2E2E2E2E2E2E2E2E2E2E2E2E2E2E2E2E2E2E2E2E2E2E2E2E2E2E2E2E2E2E2E2E2E2E2E2E2E2E2E2E2E2E2E2E2E2E2E2E2E2E2E2E2E2E2E2E2E2E2E2E2E2E2E2E2E2E2E2E2E2E2E2E2E2E2E2E2E2E2E2E2E2E2E2E2E2E2E2E2E2E2E2E2E2E2E2E2E2E2E2E2
310
E2E2E2E2E2E2E2E2E2E2E2E2E2E2E2E2E2E2E2E2E2E2E2E2E2E2E2E2E2E2E2E2E2E2E2E2E2E2E2E2E2E2E2E2E2E2E2E2E2E2E2E2E2E2E2E2E2E2E2E2E2E2E2E2E2E2E2E2E2E2E2E2E2E2E2E2E2E2E2E2E2E2E2E2E2E2E2E2E2E2E2E2E2E2E2E2E2E2E2E2E2E2E2E2E2E2E2E2E2E2E2E2E2E2E2E2E2E2E2E2E2E2E2E2E2E2E2
310
E2E2E2E2E2E2E2E2E2E2E2E2E2E2E2E2E2E2E2E2E2E2E2E2E2E2E2E2E2E2E2E2E2E2E2E2E2E2E2E2E2E2E2E2E2E2E2E2E2E2E2E2E2E2E2E2E2E2E2E2E2E2E2E2E2E2E2E2E2E2E2E2E2E2E2E2E2E2E2E2E2E2E2E2E2E2E2E2E2E2E2E2E2E2E2E2E2E2E2E2E2E2E2E2E2E2E2E2E2E2E2E2E2E2E2E2E2E2E2E2E2E2E2E2E2E2E2
310
E2E2E2E2E2E2E2E2E2E2E2E2E2E2E2E2E2E2E2E2E2E2E2E2E2E2E2E2E2E2E2E2E2E2E2E2E2E2E2E2E2E2E2E2E2E2E2E2E2E2E2E2E2E2E2E2E2E2E2E2E2E2E2E2E2E2E2E2E2E2E2E2E2E2E2E2E2E2E2E2E2E2E2E2E2E2E2E2E2E2E2E2E2E2E2E2E2E2E2E2E2E2E2E2E2E2E2E2E2E2E2E2E2E2E2E2E2E2E2E2E2E2E2E2E2E2E2
310
E2E2E2E2E2E2E2E2E2E2E2E2E2E2E2E2E2E2E2E2E2E2E2E2E2E2E2E2E2E2E2E2E2E2E2E2E2E2E2E2E2E2E2E2E2E2E2E2E2E2E2E2E2E2E2E2E2E2E2E2E2E2E2E2E2E2E2E2E2E2E2E2E2E2E2E2E2E2E2E2E2E2E2E2E2E2E2E2E2E2E2E2E2E2E2E2E2E2E2E2E2E2E2E2E2E2E2E2E2E2E2E2E2E2E2E2E2E2E2E2E2E2E2E2E2E2E2
310
E2E2E2E2E2E2E2E2E2E2E2E2E2E2E2E2E2E2E2E2E2E2E2E2E2E2E2E2E2E2E2E2E2E2E2E2E2E2E2E2E2E2E2E2E2E2E2E2E2E2E2E2E2E2E2E2E2E2E2E2E2E2E2E2E2E2E2E2E2E2E2E2E2E2E2E2E2E2E2E2E2E2E2E2E2E2E2E2E2E2E2E2E2E2E2E2E2E2E2E2E2E2E2E2E2E2E2E2E2E2E2E2E2E2E2E2E2E2E2E2E2E2E2E2E2E2E2
310
E2E2E2E2E2E2E2E2E2E2E2E2E2E2E2E2E2E2E2E2E2E2E2E2E2E2E2E2E2E2E2E2E2E2E2E2E2E2E2E2E2E2E2E2E2E2E2E2E2E2E2E2E2E2E2E2E2E2E2E2E2E2E2E2E2E2E2E2E2E2E2E2E2E2E2E2E2E2E2E2E2E2E2E2E2E2E2E2E2E2E2E2E2E2E2E2E2E2E2E2E2E2E2E2E2E2E2E2E2E2E2E2E2E2E2E2E2E2E2E2E2E2E2E2E2E2E2
310
E2E2E2E2E2E2E2E2E2E2E2E2E2E2E2E2E2E2E2E2E2E2E2E2E2E2E2E2E2E2E2E2E2E2E2E2E2E2E2E2E2E2E2E2E2E2E2E2E2E2E2E2E2E2E2E2E2E2E2E2E2E2E2E2E2E2E2E2E2E2E2E2E2E2E2E2E2F5F5F5E2E2E2E2E2E2E2E2E2E2E2E2E2E2E2E2E2E2E2E2E2E2E2E2E2E2E2E2E2E2E2E2E2E2E2E2E2E2E2E2E2E2E2E2E2E2E2
310
E2E2E2E2E2E2E2E2E2E2E2E2E2E2E2E2E2E2E2E2E2E2E2E2E2E2E2E2E2E2E2E2E2E2E2E2E2E2E2E2E2E2E2E2E2E2E2E2E2E2E2E2E2E2E2E2E2E2E2E2E2E2E2E2E2E2E2E2E2E2E2E2E2E2E2E2E2E2E2E2E2E2E2E2E2E2E2E2E2E2E2E2E2E2E2E2E2E2E2E2E2E2E2E2E2E2E2E2E2E2E2E2E2E2E2E2E2E2E2E2E2E2E2E2E2E2E2
310
E2E2E2E2E2E2E2E2E2E2E2E2E2E2E2E2E2E2E2E2E2E2E2E2E2E2E2E2E2E2E2E2E2E2E2E2E2E2E2E2E2E2E2E2E2E2E2E2E2E2E2E2E2E2E2E2E2E2E2E2E2E2E2E2E2E2E2E2E2E2E2E2E2E2E2E2E2E2E2F5F5F5E2F5F5E2E2E2E2E2E2E2E2E2E2E2E2E2E2E2E2E2E2E2E2E2E2E2E2E2E2E2E2E2E2E2E2E2E2E2E2E2E2E2E2E2E2
310
E2E2E2E2E2E2E2E2E2E2E2E2E2E2E2E2E2E2E2E2E2E2E2E2E2E2E2E2E2E2E2E2E2E2E2E2E2E2E2E2E2E2E2E2E2E2E2E2E2E2E2E2E2E2E2E2E2E2E2E2E2E2E2E2E2E2E2E2E2E2E2E2E2E2E2E2E2E2E2E2E2E2E2E2E2E2E2E2E2E2E2E2E2E2E2E2E2E2E2E2E2E2E2E2E2E2E2E2E2E2E2E2E2E2E2E2E2E2E2E2E2E2E2E2E2E2E2
310
E2E2E2E2E2E2E2E2E2E2E2E2E2E2E2E2E2E2E2E2E2E2E2E2E2E2E2E2E2E2E2E2E2E2E2E2E2E2E2E2E2E2E2E2E2E2E2E2E2E2E2E2E2E2E2E2E2E2E2E2E2E2E2E2E2E2E2E2E2E2E2E2F5F5F5E2E2E2F5E2E2F5F5F5F5F5F5E2E2E2E2E2E2E2E2E2E2E2E2E2E2E2E2E2E2E2E2E2E2E2E2E2E2E2E2E2E2E2E2E2E2E2E2E2E2E2E2
310
E2E2E2E2E2E2E2E2E2E2E2E2E2E2E2E2E2E2E2E2E2E2E2E2E2E2E2E2E2E2E2E2E2E2E2E2E2E2E2E2E2E2E2E2E2E2E2E2E2E2E2E2E2E2E2E2E2E2E2E2E2E2E2E2E2E2E2E2E2E2E2E2E2E2E2E2E2E2E2E2E2E2E2E2E2E2E2E2E2E2E2E2E2E2E2E2E2E2E2E2E2E2E2E2E2E2E2E2E2E2E2E2E2E2E2E2E2E2E2E2E2E2E2E2E2E2E2
310
E2E2E2E2E2E2E2E2E2E2E2E2E2E2E2E2E2E2E2E2E2E2E2E2E2E2E2E2E2E2E2E2E2E2E2E2E2E2E2E2E2E2E2E2E2E2E2E2E2E2E2E2E2E2E2E2E2E2E2E2E2E2E2E2E2E2E2E2E2E2E2E2E2E2F5F5F5E2E2E2F5E2F5F5F5F5F5F5F5F5E2E2E2E2E2E2E2E2E2E2E2E2E2E2E2E2E2E2E2E2E2E2E2E2E2E2E2E2E2E2E2E2E2E2E2E2E2
310
E2E2E2E2E2E2E2E2E2E2E2E2E2E2E2E2E2E2E2E2E2E2E2E2E2E2E2E2E2E2E2E2E2E2E2E2E2E2E2E2E2E2E2E2E2E2E2E2E2E2E2E2E2E2E2E2E2E2E2E2E2E2E2E2E2E2E2E2E2E2E2E2E2E2E2E2E2E2E2E2E2E2E2E2E2E2E2E2E2E2E2E2E2E2E2E2E2E2E2E2E2E2E2E2E2E2E2E2E2E2E2E2E2E2E2E2E2E2E2E2E2E2E2E2E2E2E2
310
E2E2E2E2E2E2E2E2E2E2E2E2E2E2E2E2E2E2E2E2E2E2E2E2E2E2E2E2E2E2E2E2E2E2E2E2E2E2E2E2E2E2E2E2E2E2E2E2E2E2E2E2E2E2E2E2E2E2E2E2E2E2E2E2E2E2E2E2E2E2E2E2E2E2F5F5F5F5F5F5F5F5F5F5F5F5F5F5F5F5F5F5E2E2E2E2E2E2E2E2E2E2E2E2E2E2E2E2E2E2E2E2E2E2E2E2E2E2E2E2E2E2E2E2E2E2E2
310
E2E2E2E2E2E2E2E2E2E2E2E2E2E2E2E2E2E2E2E2E2E2E2E2E2E2E2E2E2E2E2E2E2E2E2E2E2E2E2E2E2E2E2E2E2E2E2E2E2E2E2E2E2E2E2E2E2E2E2E2E2E2E2E2E2E2E2E2E2E2E2E2E2E2E2E2E2E2E2E2E2E2E2E2E2E2E2E2E2E2E2E2E2E2E2E2E2E2E2E2E2E2E2E2E2E2E2E2E2E2E2E2E2E2E2E2E2E2E2E2E2E2E2E2E2E2E2
310
E2E2E2E2E2E2E2E2E2E2E2E2E2E2E2E2E2E2E2E2E2E2E2E2E2E2E2E2E2E2E2E2E2E2E2E2E2E2E2E2E2E2E2E2E2E2E2E2E2E2E2E2E2E2E2E2E2E2E2E2E2E2E2E2E2E2E2E2E2E2E2E2E2E2E2E2F5F5F5F5F5F5F5F5F5F5F5F5F5F5F5F5F5F5E2E2E2E2E2E2E2E2E2E2E2E2E2E2E2E2E2E2E2E2E2E2E2E2E2E2E2E2E2E2E2E2E2
310
E2E2E2E2E2E2E2E2E2E2E2E2E2E2E2E2E2E2E2E2E2E2E2E2E2E2E2E2E2E2E2E2E2E2E2E2E2E2E2E2E2E2E2E2E2E2E2E2E2E2E2E2E2E2E2E2E2E2E2E2E2E2E2E2E2E2E2E2E2E2E2E2E2E2E2E2E2E2E2E2E2E2E2E2E2E2E2E2E2E2E2E2E2E2E2E2E2E2E2E2E2E2E2E2E2E2E2E2E2E2E2E2E2E2E2E2E2E2E2E2E2E2E2E2E2E2E2
310
E2E2E2E2E2E2E2E2E2E2E2E2E2E2E2E2E2E2E2E2E2E2E2E2E2E2E2E2E2E2E2E2E2E2E2E2E2E2E2E2E2E2E2E2E2E2E2E2E2E2E2E2E2E2E2E2E2E2E2E2E2E2E2E2E2E2E2E2E2E2E2E2E2E2E2E2E2E2F5E2F5E2F5F5E2E2F5E2E2F5F5E2F5E2F5F5E2E2E2E2E2E2E2E2E2E2E2E2E2E2E2E2E2E2E2E2E2E2E2E2E2E2E2E2E2E2E2
310
E2E2E2E2E2E2E2E2E2E2E2E2E2E2E2E2E2E2E2E2E2E2E2E2E2E2E2E2E2E2E2E2E2E2E2E2E2E2E2E2E2E2E2E2E2E2E2E2E2E2E2E2E2E2E2E2E2E2E2E2E2E2E2E2E2E2E2E2E2E2E2E2E2E2E2E2E2E2E2E2E2E2E2E2E2E2E2E2E2E2E2E2E2E2E2E2E2E2E2E2E2E2E2E2E2E2E2E2E2E2E2E2E2E2E2E2E2E2E2E2E2E2E2E2E2E2E2
310
E2E2E2E2E2E2E2E2E2E2E2E2E2E2E2E2E2E2E2E2E2E2E2E2E2E2E2E2E2E2E2E2E2E2E2E2E2E2E2E2E2E2E2E2E2E2E2E2E2E2E2E2E2E2E2E2E2E2E2E2E2E2E2E2E2E2E2E2E2E2E2E2E2E2E2E2E2E2E2E2F5E2F5E2F5F5E2E2F5E2E2F5F5E2F5E2F5F5E2E2E2E2E2E2E2E2E2E2E2E2E2E2E2E2E2E2E2E2E2E2E2E2E2E2E2E2E2
310
E2E2E2E2E2E2E2E2E2E2E2E2E2E2E2E2E2E2E2E2E2E2E2E2E2E2E2E2E2E2E2E2E2E2E2E2E2E2E2E2E2E2E2E2E2E2E2E2E2E2E2E2E2E2E2E2E2E2E2E2E2E2E2E2E2E2E2E2E2E2E2E2E2E2E2E2E2E2E2E2E2E2E2E2E2E2E2E2E2E2E2E2E2E2E2E2E2E2E2E2E2E2E2E2E2E2E2E2E2E2E2E2E2E2E2E2E2E2E2E2E2E2E2E2E2E2E2
310
E2E2E2E2E2E2E2E2E2E2E2E2E2E2E2E2E2E2E2E2E2E2E2E2E2E2E2E2E2E2E2E2E2E2E2E2E2E2E2E2E2E2E2E2E2E2E2E2E2E2E2E2E2E2E2E2E2E2E2E2E2E2E2E2E2E2E2E2E2E2E2E2E2E2E2E2E2E2E2E2E2E2F5E2F5E2F5F5E2E2F5E2E2F5F5E2F5E2F5F5E2E2E2E2E2E2E2E2E2E2E2E2E2E2E2E2E2E2E2E2E2E2E2E2E2E2E2
310
E2E2E2E2E2E2E2E2E2E2E2E2E2E2E2E2E2E2E2E2E2E2E2E2E2E2E2E2E2E2E2E2E2E2E2E2E2E2E2E2E2E2E2E2E2E2E2E2E2E2E2E2E2E2E2E2E2E2E2E2E2E2E2E2E2E2E2E2E2E2E2E2E2E2E2E2E2E2E2E2E2E2E2E2E2E2E2E2E2E2E2E2E2E2E2E2E2E2E2E2E2E2E2E2E2E2E2E2E2E2E2E2E2E2E2E2E2E2E2E2E2E2E2E2E2E2E2
310
E2E2E2E2E2E2E2E2E2E2E2E2E2E2E2E2E2E2E2E2E2E2E2E2E2E2E2E2E2E2E2E2E2E2E2E2E2E2E2E2E2E2E2E2E2E2E2E2E2E2E2E2E2E2E2E2E2E2E2E2E2E2E2E2E2E2E2E2E2E2E2E2E2E2E2E2E2E2E2E2E2E2E2E2F5E2F5E2F5F5E2E2F5E2E2F5F5E2F5E2F5F5E2E2E2E2E2E2E2E2E2E2E2E2E2E2E2E2E2E2E2E2E2E2E2E2E2
310
E2E2E2E2E2E2E2E2E2E2E2E2E2E2E2E2E2E2E2E2E2E2E2E2E2E2E2E2E2E2E2E2E2E2E2E2E2E2E2E2E2E2E2E2E2E2E2E2E2E2E2E2E2E2E2E2E2E2E2E2E2E2E2E2E2E2E2E2E2E2E2E2E2E2E2E2E2E2E2E2E2E2E2E2E2E2E2E2E2E2E2E2E2E2E2E2E2E2E2E2E2E2E2E2E2E2E2E2E2E2E2E2E2E2E2E2E2E2E2E2E2E2E2E2E2E2E2
310
E2E2E2E2E2E2E2E2E2E2E2E2E2E2E2E2E2E2E2E2E2E2E2E2E2E2E2E2E2E2E2E2E2E2E2E2E2E2E2E2E2E2E2E2E2E2E2E2E2E2E2E2E2E2E2E2E2E2E2E2E2E2E2E2E2E2E2E2E2E2E2E2E2E2E2E2E2E2E2E2F5E2E2E2E2F5F5E2F5E2F5F5E2E2F5E2E2F5F5E2F5E2F5F5E2E2E2E2F5E2E2E2E2E2E2E2E2E2E2E2E2E2E2E2E2E2E2
310
E2E2E2E2E2E2E2E2E2E2E2E2E2E2E2E2E2E2E2E2E2E2E2E2E2E2E2E2E2E2E2E2E2E2E2E2E2E2E2E2E2E2E2E2E2E2E2E2E2E2E2E2E2E2E2E2E2E2E2E2E2E2E2E2E2E2E2E2E2E2E2E2E2E2E2E2E2E2E2E2E2E2E2E2E2E2E2E2E2E2E2E2E2E2E2E2E2E2E2E2E2E2E2E2E2E2E2E2E2E2E2E2E2E2E2E2E2E2E2E2E2E2E2E2E2E2E2
310
E2E2E2E2E2E2E2E2E2E2E2E2E2E2E2E2E2E2E2E2E2E2E2E2E2E2E2E2E2E2E2E2E2E2E2E2E2E2E2E2E2E2E2E2E2E2E2E2E2E2E2E2E2E2E2E2E2E2E2E2E2E2E2E2E2E2E2E2E2E2E2E2E2E2E2E2E2E2E2E2E2E2F5F5F5F5F5F5F5E2F5F5F5F5E2E2F5E2E2F5F5F5F5E2F5F5F5F5F5F5F5E2E2E2E2E2E2E2E2E2E2E2E2E2E2E2E2
310
E2E2E2E2E2E2E2E2E2E2E2E2E2E2E2E2E2E2E2E2E2E2E2E2E2E2E2E2E2E2E2E2E2E2E2E2E2E2E2E2E2E2E2E2E2E2E2E2E2E2E2E2E2E2E2E2E2E2E2E2E2E2E2E2E2E2E2E2E2E2E2E2E2E2E2E2E2E2E2E2E2E2E2E2E2E2E2E2E2E2E2E2E2E2E2E2E2E2E2E2E2E2E2E2E2E2E2E2E2E2E2E2E2E2E2E2E2E2E2E2E2E2E2E2E2E2E2
310
E2E2E2E2E2E2E2E2E2E2E2E2E2E2E2E2E2E2E2E2E2E2E2E2E2E2E2E2E2E2E2E2E2E2E2E2E2E2E2E2E2E2E2E2E2E2E2E2E2E2E2E2E2E2E2E2E2E2E2E2E2E2E2E2E2E2E2E2E2E2E2E2E2E2E2E2E2E2E2E2E2E2E2E2F5F5E2E2E2F5F5E2F5F5F5F5E2E2F5E2E2F5F5F5F5E2F5F5E2E2E2F5F5E2E2E2E2E2E2E2E2E2E2E2E2E2E2
310
E2E2E2E2E2E2E2E2E2E2E2E2E2E2E2E2E2E2E2E2E2E2E2E2E2E2E2E2E2E2E2E2E2E2E2E2E2E2E2E2E2E2E2E2E2E2E2E2E2E2E2E2E2E2E2E2E2E2E2E2E2E2E2E2E2E2E2E2E2E2E2E2E2E2E2E2E2E2E2E2E2E2E2E2E2E2E2E2E2E2E2E2E2E2E2E2E2E2E2E2E2E2E2E2E2E2E2E2E2E2E2E2E2E2E2E2E2E2E2E2E2E2E2E2E2E2E2
310
E2E2E2E2E2E2E2E2E2E2E2E2E2E2E2E2E2E2E2E2E2E2E2E2E2E2E2E2E2E2E2E2E2E2E2E2E2E2E2E2E2E2E2E2E2E2E2E2E2E2E2E2E2E2E2E2E2E2E2E2E2E2E2E2E2E2E2E2E2E2E2E2E2E2E2E2E2E2E2E2E2E2E2E2E2E2F5F5E2E2E2F5F5E2F5F5F5F5E2F5F5F5E2F5F5F5F5E2F5F5E2E2E2F5F5E2E2E2E2E2E2E2E2E2E2E2E2
310
E2E2E2E2E2E2E2E2E2E2E2E2E2E2E2E2E2E2E2E2E2E2E2E2E2E2E2E2E2E2E2E2E2E2E2E2E2E2E2E2E2E2E2E2E2E2E2E2E2E2E2E2E2E2E2E2E2E2E2E2E2E2E2E2E2E2E2E2E2E2E2E2E2E2E2E2E2E2E2E2E2E2E2E2E2E2E2E2E2E2E2E2E2E2E2E2E2E2E2E2E2E2E2E2E2E2E2E2E2E2E2E2E2E2E2E2E2E2E2E2E2E2E2E2E2E2E2
310
E2E2E2E2E2E2E2E2E2E2E2E2E2E2E2E2E2E2E2E2E2E2E2E2E2E2E2E2E2E2E2E2E2E2E2E2E2E2E2E2E2E2E2E2E2E2E2E2E2E2E2E2E2E2E2E2E2E2E2E2E2E2E2E2E2E2E2E2E2E2E2E2E2E2E2E2E2E2E2E2E2E2E2E2E2E2E2E2F5F5E2E2E2F5F5E2F5E2F5F5F5E2F5E2F5F5F5E2F5E2F5F5E2E2E2F5F5E2E2E2E2E2E2E2E2E2E2
310
E2E2E2E2E2E2E2E2E2E2E2E2E2E2E2E2E2E2E2E2E2E2E2E2E2E2E2E2E2E2E2E2E2E2E2E2E2E2E2E2E2E2E2E2E2E2E2E2E2E2E2E2E2E2E2E2E2E2E2E2E2E2E2E2E2E2E2E2E2E2E2E2E2E2E2E2E2E2E2E2E2E2E2E2E2E2E2E2E2E2E2E2E2E2E2E2E2E2E2E2E2E2E2E2E2E2E2E2E2E2E2E2E2E2E2E2E2E2E2E2E2E2E2E2E2E2E2
310
E2E2E2E2E2E2E2E2E2E2E2E2E2E2E2E2E2E2E2E2E2E2E2E2E2E2E2E2E2E2E2E2E2E2E2E2E2E2E2E2E2E2E2E2E2E2E2E2E2E2E2E2E2E2E2E2E2E2E2E2E2E2E2E2E2E2E2E2E2E2E2E2E2E2E2E2E2E2E2E2E2E2E2E2E2E2E2E2E2E2F5F5E2E2E2F5F5E2F5F5E2E2E2E2F5E2E2E2E2F5F5E2F5F5E2E2E2F5F5E2E2E2E2E2E2E2E2
310
E2E2E2E2E2E2E2E2E2E2E2E2E2E2E2E2E2E2E2E2E2E2E2E2E2E2E2E2E2E2E2E2E2E2E2E2E2E2E2E2E2E2E2E2E2E2E2E2E2E2E2E2E2E2E2E2E2E2E2E2E2E2E2E2E2E2E2E2E2E2E2E2E2E2E2E2E2E2E2E2E2E2E2E2E2E2E2E2E2E2E2E2E2E2E2E2E2E2E2E2E2E2E2E2E2E2E2E2E2E2E2E2E2E2E2E2E2E2E2E2E2E2E2E2E2E2E2
310
E2E2E2E2E2E2E2E2E2E2E2E2E2E2E2E2E2E2E2E2E2E2E2E2E2E2E2E2E2E2E2E2E2E2E2E2E2E2E2E2E2E2E2E2E2E2E2E2E2E2E2E2E2E2E2E2E2E2E2E2E2E2E2E2E2E2E2E2E2E2E2E2E2E2E2E2E2E2E2E2E2E2E2E2E2E2E2E2E2E2E2E2F5F5E2E2E2F5F5F5E2E2E2E2E2F5F5F5E2E2E2E2E2F5F5F5E2E2E2F5F5E2E2E2E2E2E2
310
E2E2E2E2E2E2E2E2E2E2E2E2E2E2E2E2E2E2E2E2E2E2E2E2E2E2E2E2E2E2E2E2E2E2E2E2E2E2E2E2E2E2E2E2E2E2E2E2E2E2E2E2E2E2E2E2E2E2E2E2E2E2E2E2E2E2E2E2E2E2E2E2E2E2E2E2E2E2E2E2E2E2E2E2E2E2E2E2E2E2E2E2E2E2E2E2E2E2E2E2E2E2E2E2E2E2E2E2E2E2E2E2E2E2E2E2E2E2E2E2E2E2E2E2E2E2E2
310
E2E2E2E2E2E2E2E2E2E2E2E2E2E2E2E2E2E2E2E2E2E2E2E2E2E2E2E2E2E2E2E2E2E2E2E2E2E2E2E2E2E2E2E2E2E2E2E2E2E2E2E2E2E2E2E2E2E2E2E2E2E2E2E2E2E2E2E2E2E2E2E2E2E2E2E2E2E2E2E2E2E2E2E2E2E2E2E2E2E2E2F5F5F5F5F5F5F5F5F5F5F5F5F5F5F5F5F5F5F5F5F5F5F5F5F5F5F5F5F5F5F5F5F5F5F5E2
310
E2E2E2E2E2E2E2E2E2E2E2E2E2E2E2E2E2E2E2E2E2E2E2E2E2E2E2E2E2E2E2E2E2E2E2E2E2E2E2E2E2E2E2E2E2E2E2E2E2E2E2E2E2E2E2E2E2E2E2E2E2E2E2E2E2E2E2E2E2E2E2E2E2E2E2E2E2E2E2E2E2E2E2E2E2E2E2E2E2E2E2E2E2E2E2E2E2E2E2E2E2E2E2E2E2E2E2E2E2E2E2E2E2E2E2E2E2E2E2E2E2E2E2E2E2E2E2
310
E2E2E2E2E2E2E2E2E2E2E2E2E2E2E2E2E2E2E2E2E2E2E2E2E2E2E2E2E2E2E2E2E2E2E2E2E2E2E2E2E2E2E2E2E2E2E2E2E2E2E2E2E2E2E2E2E2E2E2E2E2E2E2E2E2E2E2E2E2E2E2E2E2E2E2E2E2E2E2E2E2E2E2E2E2E2E2E2E2E2E2E2E2E2E2E2F5F5E2E2E2F5F5E2F5F5E2E2E2E2F5E2E2E2F5F5F5E2F5F5E2E2E2F5F5E2E2
310
E2E2E2E2E2E2E2E2E2E2E2E2E2E2E2E2E2E2E2E2E2E2E2E2E2E2E2E2E2E2E2E2E2E2E2E2E2E2E2E2E2E2E2E2E2E2E2E2E2E2E2E2E2E2E2E2E2E2E2E2E2E2E2E2E2E2E2E2E2E2E2E2E2E2E2E2E2E2E2E2E2E2E2E2E2E2E2E2E2E2E2E2E2E2E2E2E2E2E2E2E2E2E2E2E2E2E2E2E2E2E2E2E2E2E2E2E2E2E2E2E2E2E2E2E2E2E2
310
E2E2E2E2E2E2E2E2E2E2E2E2E2E2E2E2E2E2E2E2E2E2E2E2E2E2E2E2E2E2E2E2E2E2E2E2E2E2E2E2E2E2E2E2E2E2E2E2E2E2E2E2E2E2E2E2E2E2E2E2E2E2E2E2E2E2E2E2E2E2E2E2E2E2E2E2E2E2E2E2E2E2E2E2E2E2E2E2E2E2E2E2E2E2E2E2E2E2F5F5E2E2E2F5F5E2F5E2F5F5F5E2F5E2F5F5F5E2F5E2F5F5E2E2E2F5F5
310
E2E2E2E2E2E2E2E2E2E2E2E2E2E2E2E2E2E2E2E2E2E2E2E2E2E2E2E2E2E2E2E2E2E2E2E2E2E2E2E2E2E2E2E2E2E2E2E2E2E2E2E2E2E2E2E2E2E2E2E2E2E2E2E2E2E2E2E2E2E2E2E2E2E2E2E2E2E2E2E2E2E2E2E2E2E2E2E2E2E2E2E2E2E2E2E2E2E2E2E2E2E2E2E2E2E2E2E2E2E2E2E2E2E2E2E2E2E2E2E2E2E2E2E2E2E2E2
310
E2E2E2E2E2E2E2E2E2E2E2E2E2E2E2E2E2E2E2E2E2E2E2E2E2E2E2E2E2E2E2E2E2E2E2E2E2E2E2E2E2E2E2E2E2E2E2E2E2E2E2E2E2E2E2E2E2E2E2E2E2E2E2E2E2E2E2E2E2E2E2E2E2E2E2E2E2E2E2E2E2E2E2E2E2E2E2E2E2E2E2E2E2E2E2E2E2E2E2E2F5F5E2E2E2F5F5E2F5E2F5F5E2F5F5F5E2F5F5E2F5E2F5F5E2E2E2
310
F5F5E2E2E2E2E2E2E2E2E2E2E2E2E2E2E2E2E2E2E2E2E2E2E2E2E2E2E2E2E2E2E2E2E2E2E2E2E2E2E2E2E2E2E2E2E2E2E2E2E2E2E2E2E2E2E2E2E2E2E2E2E2E2E2E2E2E2E2E2E2E2E2E2E2E2E2E2E2E2E2E2E2E2E2E2E2E2E2E2E2E2E2E2E2E2E2E2E2E2E2E2E2E2E2E2E2E2E2E2E2E2E2E2E2E2E2E2E2E2E2E2E2E2E2E2E2
310
E2E2E2E2E2E2E2E2E2E2E2E2E2E2E2E2E2E2E2E2E2E2E2E2E2E2E2E2E2E2E2E2E2E2E2E2E2E2E2E2E2E2E2E2E2E2E2E2E2E2E2E2E2E2E2E2E2E2E2E2E2E2E2E2E2E2E2E2E2E2E2E2E2E2E2E2E2E2E2E2E2E2E2E2E2E2E2E2E2E2E2E2E2E2E2E2E2E2E2E2E2E2F5F5E2E2E2F5F5E2F5F5F5F5E2E2F5E2E2F5F5F5F5E2F5F5E2
310
E2E2F5F5E2E2E2E2E2E2E2E2E2E2E2E2E2E2E2E2E2E2E2E2E2E2E2E2E2E2E2E2E2E2E2E2E2E2E2E2E2E2E2E2E2E2E2E2E2E2E2E2E2E2E2E2E2E2E2E2E2E2E2E2E2E2E2E2E2E2E2E2E2E2E2E2E2E2E2E2E2E2E2E2E2E2E2E2E2E2E2E2E2E2E2E2E2E2E2E2E2E2E2E2E2E2E2E2E2E2E2E2E2E2E2E2E2E2E2E2E2E2E2E2E2E2E2
310
E2E2E2E2E2E2E2E2E2E2E2E2E2E2E2E2E2E2E2E2E2E2E2E2E2E2E2E2E2E2E2E2E2E2E2E2E2E2E2E2E2E2E2E2E2E2E2E2E2E2E2E2E2E2E2E2E2E2E2E2E2E2E2E2E2E2E2E2E2E2E2E2E2E2E2E2E2E2E2E2E2E2E2E2E2E2E2E2E2E2E2E2E2E2E2E2E2E2E2E2E2E2E2E2F5F5F5F5F5F5F5E2F5F5F5F5E2E2F5E2E2F5F5F5F5E2F5
310
F5F5F5F5F5F5E2E2E2E2E2E2E2E2E2E2E2E2E2E2E2E2E2E2E2E2E2E2E2E2E2E2E2E2E2E2E2E2E2E2E2E2E2E2E2E2E2E2E2E2E2E2E2E2E2E2E2E2E2E2E2E2E2E2E2E2E2E2E2E2E2E2E2E2E2E2E2E2E2E2E2E2E2E2E2E2E2E2E2E2E2E2E2E2E2E2E2E2E2E2E2E2E2E2E2E2E2E2E2E2E2E2E2E2E2E2E2E2E2E2E2E2E2E2E2E2E2
310
E2E2E2E2E2E2E2E2E2E2E2E2E2E2E2E2E2E2E2E2E2E2E2E2E2E2E2E2E2E2E2E2E2E2E2E2E2E2E2E2E2E2E2E2E2E2E2E2E2E2E2E2E2E2E2E2E2E2E2E2E2E2E2E2E2E2E2E2E2E2E2E2E2E2E2E2E2E2E2E2E2E2E2E2E2E2E2E2E2E2E2E2E2E2E2E2E2E2E2E2E2E2E2E2E2E2F5E2E2E2E2F5F5E2F5E2F5F5E2E2F5E2E2F5F5E2F5
310
E2F5F5E2E2E2E2F5E2E2E2E2E2E2E2E2E2E2E2E2E2E2E2E2E2E2E2E2E2E2E2E2E2E2E2E2E2E2E2E2E2E2E2E2E2E2E2E2E2E2E2E2E2E2E2E2E2E2E2E2E2E2E2E2E2E2E2E2E2E2E2E2E2E2E2E2E2E2E2E2E2E2E2E2E2E2E2E2E2E2E2E2E2E2E2E2E2E2E2E2E2E2E2E2E2E2E2E2E2E2E2E2E2E2E2E2E2E2E2E2E2E2E2E2E2E2E2
310
E2E2E2E2E2E2E2E2E2E2E2E2E2E2E2E2E2E2E2E2E2E2E2E2E2E2E2E2E2E2E2E2E2E2E2E2E2E2E2E2E2E2E2E2E2E2E2E2E2E2E2E2E2E2E2E2E2E2E2E2E2E2E2E2E2E2E2E2E2E2E2E2E2E2E2E2E2E2E2E2E2E2E2E2E2E2E2E2E2E2E2E2E2E2E2E2E2E2E2E2E2E2E2E2E2E2E2E2E2E2E2E2E2E2F5E2F5E2F5F5E2E2F5E2E2F5F5
310
E2F5E2F5F5E2E2E2E2E2E2E2E2E2E2E2E2E2E2E2E2E2E2E2E2E2E2E2E2E2E2E2E2E2E2E2E2E2E2E2E2E2E2E2E2E2E2E2E2E2E2E2E2E2E2E2E2E2E2E2E2E2E2E2E2E2E2E2E2E2E2E2E2E2E2E2E2E2E2E2E2E2E2E2E2E2E2E2E2E2E2E2E2E2E2E2E2E2E2E2E2E2E2E2E2E2E2E2E2E2E2E2E2E2E2E2E2E2E2E2E2E2E2E2E2E2E2
310
E2E2E2E2E2E2E2E2E2E2E2E2E2E2E2E2E2E2E2E2E2E2E2E2E2E2E2E2E2E2E2E2E2E2E2E2E2E2E2E2E2E2E2E2E2E2E2E2E2E2E2E2E2E2E2E2E2E2E2E2E2E2E2E2E2E2E2E2E2E2E2E2E2E2E2E2E2E2E2E2E2E2E2E2E2E2E2E2E2E2E2E2E2E2E2E2E2E2E2E2E2E2E2E2E2E2E2E2E2E2E2E2E2E2E2E2F5E2F5E2F5F5E2E2F5E2E2
310
F5F5E2F5E2F5F5E2E2E2E2E2E2E2E2E2E2E2E2E2E2E2E2E2E2E2E2E2E2E2E2E2E2E2E2E2E2E2E2E2E2E2E2E2E2E2E2E2E2E2E2E2E2E2E2E2E2E2E2E2E2E2E2E2E2E2E2E2E2E2E2E2E2E2E2E2E2E2E2E2E2E2E2E2E2E2E2E2E2E2E2E2E2E2E2E2E2E2E2E2E2E2E2E2E2E2E2E2E2E2E2E2E2E2E2E2E2E2E2E2E2E2E2E2E2E2E2
310
E2E2E2E2E2E2E2E2E2E2E2E2E2E2E2E2E2E2E2E2E2E2E2E2E2E2E2E2E2E2E2E2E2E2E2E2E2E2E2E2E2E2E2E2E2E2E2E2E2E2E2E2E2E2E2E2E2E2E2E2E2E2E2E2E2E2E2E2E2E2E2E2E2E2E2E2E2E2E2E2E2E2E2E2E2E2E2E2E2E2E2E2E2E2E2E2E2E2E2E2E2E2E2E2E2E2E2E2E2E2E2E2E2E2E2E2E2E2F5E2F5E2F5F5E2E2F5
310
E2E2F5F5E2F5E2F5F5E2E2E2E2E2E2E2E2E2E2E2E2E2E2E2E2E2E2E2E2E2E2E2E2E2E2E2E2E2E2E2E2E2E2E2E2E2E2E2E2E2E2E2E2E2E2E2E2E2E2E2E2E2E2E2E2E2E2E2E2E2E2E2E2E2E2E2E2E2E2E2E2E2E2E2E2E2E2E2E2E2E2E2E2E2E2E2E2E2E2E2E2E2E2E2E2E2E2E2E2E2E2E2E2E2E2E2E2E2E2E2E2E2E2E2E2E2E2
310
E2E2E2E2E2E2E2E2E2E2E2E2E2E2E2E2E2E2E2E2E2E2E2E2E2E2E2E2E2E2E2E2E2E2E2E2E2E2E2E2E2E2E2E2E2E2E2E2E2E2E2E2E2E2E2E2E2E2E2E2E2E2E2E2E2E2E2E2E2E2E2E2E2E2E2E2E2E2E2E2E2E2E2E2E2E2E2E2E2E2E2E2E2E2E2E2E2E2E2E2E2E2E2E2E2E2E2E2E2E2E2E2E2E2E2E2E2E2E2E2F5E2F5E2F5F5E2
310
E2F5E2E2F5F5E2F5E2F5F5E2E2E2E2E2E2E2E2E2E2E2E2E2E2E2E2E2E2E2E2E2E2E2E2E2E2E2E2E2E2E2E2E2E2E2E2E2E2E2E2E2E2E2E2E2E2E2E2E2E2E2E2E2E2E2E2E2E2E2E2E2E2E2E2E2E2E2E2E2E2E2E2E2E2E2E2E2E2E2E2E2E2E2E2E2E2E2E2E2E2E2E2E2E2E2E2E2E2E2E2E2E2E2E2E2E2E2E2E2E2E2E2E2E2E2E2
310
E2E2E2E2E2E2E2E2E2E2E2E2E2E2E2E2E2E2E2E2E2E2E2E2E2E2E2E2E2E2E2E2E2E2E2E2E2E2E2E2E2E2E2E2E2E2E2E2E2E2E2E2E2E2E2E2E2E2E2E2E2E2E2E2E2E2E2E2E2E2E2E2E2E2E2E2E2E2E2E2E2E2E2E2E2E2E2E2E2E2E2E2E2E2E2E2E2E2E2E2E2E2E2E2E2E2E2E2E2E2E2E2E2E2E2E2E2E2E2E2E2E2F5E2F5E2F5
310
F5E2E2F5E2E2F5F5E2F5E2F5F5E2E2E2E2E2E2E2E2E2E2E2E2E2E2E2E2E2E2E2E2E2E2E2E2E2E2E2E2E2E2E2E2E2E2E2E2E2E2E2E2E2E2E2E2E2E2E2E2E2E2E2E2E2E2E2E2E2E2E2E2E2E2E2E2E2E2E2E2E2E2E2E2E2E2E2E2E2E2E2E2E2E2E2E2E2E2E2E2E2E2E2E2E2E2E2E2E2E2E2E2E2E2E2E2E2E2E2E2E2E2E2E2E2E2
310
E2E2E2E2E2E2E2E2E2E2E2E2E2E2E2E2E2E2E2E2E2E2E2E2E2E2E2E2E2E2E2E2E2E2E2E2E2E2E2E2E2E2E2E2E2E2E2E2E2E2E2E2E2E2E2E2E2E2E2E2E2E2E2E2E2E2E2E2E2E2E2E2E2E2E2E2E2E2E2E2E2E2E2E2E2E2E2E2E2E2E2E2E2E2E2E2E2E2E2E2E2E2E2E2E2E2E2E2E2E2E2E2E2E2E2E2E2E2E2E2E2E2E2E2F5E2F5
310
E2F5F5E2E2F5E2E2F5F5E2F5E2F5E2E2E2E2E2E2E2E2E2E2E2E2E2E2E2E2E2E2E2E2E2E2E2E2E2E2E2E2E2E2E2E2E2E2E2E2E2E2E2E2E2E2E2E2E2E2E2E2E2E2E2E2E2E2E2E2E2E2E2E2E2E2E2E2E2E2E2E2E2E2E2E2E2E2E2E2E2E2E2E2E2E2E2E2E2E2E2E2E2E2E2E2E2E2E2E2E2E2E2E2E2E2E2E2E2E2E2E2E2E2E2E2E2
310
E2E2E2E2E2E2E2E2E2E2E2E2E2E2E2E2E2E2E2E2E2E2E2E2E2E2E2E2E2E2E2E2E2E2E2E2E2E2E2E2E2E2E2E2E2E2E2E2E2E2E2E2E2E2E2E2E2E2E2E2E2E2E2E2E2E2E2E2E2E2E2E2E2E2E2E2E2E2E2E2E2E2E2E2E2E2E2E2E2E2E2E2E2E2E2E2E2E2E2E2E2E2E2E2E2E2E2E2E2E2E2E2E2E2E2E2E2E2E2E2E2E2E2E2E2E2F5
310
E2F5E2F5F5E2E2F5E2E2F5F5E2F5E2F5E2E2E2E2E2E2E2E2E2E2E2E2E2E2E2E2E2E2E2E2E2E2E2E2E2E2E2E2E2E2E2E2E2E2E2E2E2E2E2E2E2E2E2E2E2E2E2E2E2E2E2E2E2E2E2E2E2E2E2E2E2E2E2E2E2E2E2E2E2E2E2E2E2E2E2E2E2E2E2E2E2E2E2E2E2E2E2E2E2E2E2E2E2E2E2E2E2E2E2E2E2E2E2E2E2E2E2E2E2E2E2
310
E2E2E2E2E2E2E2E2E2E2E2E2E2E2E2E2E2E2E2E2E2E2E2E2E2E2E2E2E2E2E2E2E2E2E2E2E2E2E2E2E2E2E2E2E2E2E2E2E2E2E2E2E2E2E2E2E2E2E2E2E2E2E2E2E2E2E2E2E2E2E2E2E2E2E2E2E2E2E2E2E2E2E2E2E2E2E2E2E2E2E2E2E2E2E2E2E2E2E2E2E2E2E2E2E2E2E2E2E2E2E2E2E2E2E2E2E2E2E2E2E2E2E2E2E2E2E2
310
E2F5E2F5E2F5F5E2E2F5E2E2F5F5E2F5E2F5E2E2E2E2E2E2E2E2E2E2E2E2E2E2E2E2E2E2E2E2E2E2E2E2E2E2E2E2E2E2E2E2E2E2E2E2E2E2E2E2E2E2E2E2E2E2E2E2E2E2E2E2E2E2E2E2E2E2E2E2E2E2E2E2E2E2E2E2E2E2E2E2E2E2E2E2E2E2E2E2E2E2E2E2E2E2E2E2E2E2E2E2E2E2E2E2E2E2E2E2E2E2E2E2E2E2E2E2E2
310
E2E2E2E2E2E2E2E2E2E2E2E2E2E2E2E2E2E2E2E2E2E2E2E2E2E2E2E2E2E2E2E2E2E2E2E2E2E2E2E2E2E2E2E2E2E2E2E2E2E2E2E2E2E2E2E2E2E2E2E2E2E2E2E2E2E2E2E2E2E2E2E2E2E2E2E2E2E2E2E2E2E2E2E2E2E2E2E2E2E2E2E2E2E2E2E2E2E2E2E2E2E2E2E2E2E2E2E2E2E2E2E2E2E2E2E2E2E2E2E2E2E2E2E2E2E2E2
310
E2E2E2F5E2F5E2F5F5E2E2F5E2E2F5F5E2F5E2F5E2E2E2E2E2E2E2E2E2E2E2E2E2E2E2E2E2E2E2E2E2E2E2E2E2E2E2E2E2E2E2E2E2E2E2E2E2E2E2E2E2E2E2E2E2E2E2E2E2E2E2E2E2E2E2E2E2E2E2E2E2E2E2E2E2E2E2E2E2E2E2E2E2E2E2E2E2E2E2E2E2E2E2E2E2E2E2E2E2E2E2E2E2E2E2E2E2E2E2E2E2E2E2E2E2E2E2
310
E2E2E2E2E2E2E2E2E2E2E2E2E2E2E2E2E2E2E2E2E2E2E2E2E2E2E2E2E2E2E2E2E2E2E2E2E2E2E2E2E2E2E2E2E2E2E2E2E2E2E2E2E2E2E2E2E2E2E2E2E2E2E2E2E2E2E2E2E2E2E2E2E2E2E2E2E2E2E2E2E2E2E2E2E2E2E2E2E2E2E2E2E2E2E2E2E2E2E2E2E2E2E2E2E2E2E2E2E2E2E2E2E2E2E2E2E2E2E2E2E2E2E2E2E2E2E2
310
E2E2E2E2E2F5F5F5F5F5F5F5F5F5F5F5F5F5F5F5F5F5E2E2E2E2E2E2E2E2E2E2E2E2E2E2E2E2E2E2E2E2E2E2E2E2E2E2E2E2E2E2E2E2E2E2E2E2E2E2E2E2E2E2E2E2E2E2E2E2E2E2E2E2E2E2E2E2E2E2E2E2E2E2E2E2E2E2E2E2E2E2E2E2E2E2E2E2E2E2E2E2E2E2E2E2E2E2E2E2E2E2E2E2E2E2E2E2E2E2E2E2E2E2E2E2E2
310
E2E2E2E2E2E2E2E2E2E2E2E2E2E2E2E2E2E2E2E2E2E2E2E2E2E2E2E2E2E2E2E2E2E2E2E2E2E2E2E2E2E2E2E2E2E2E2E2E2E2E2E2E2E2E2E2E2E2E2E2E2E2E2E2E2E2E2E2E2E2E2E2E2E2E2E2E2E2E2E2E2E2E2E2E2E2E2E2E2E2E2E2E2E2E2E2E2E2E2E2E2E2E2E2E2E2E2E2E2E2E2E2E2E2E2E2E2E2E2E2E2E2E2E2E2E2E2
310
E2E2E2E2E2E2E2F5F5F5F5F5F5F5F5F5F5F5F5F5F5F5F5F5E2E2E2E2E2E2E2E2E2E2E2E2E2E2E2E2E2E2E2E2E2E2E2E2E2E2E2E2E2E2E2E2E2E2E2E2E2E2E2E2E2E2E2E2E2E2E2E2E2E2E2E2E2E2E2E2E2E2E2E2E2E2E2E2E2E2E2E2E2E2E2E2E2E2E2E2E2E2E2E2E2E2E2E2E2E2E2E2E2E2E2E2E2E2E2E2E2E2E2E2E2E2E2
310
E2E2E2E2E2E2E2E2E2E2E2E2E2E2E2E2E2E2E2E2E2E2E2E2E2E2E2E2E2E2E2E2E2E2E2E2E2E2E2E2E2E2E2E2E2E2E2E2E2E2E2E2E2E2E2E2E2E2E2E2E2E2E2E2E2E2E2E2E2E2E2E2E2E2E2E2E2E2E2E2E2E2E2E2E2E2E2E2E2E2E2E2E2E2E2E2E2E2E2E2E2E2E2E2E2E2E2E2E2E2E2E2E2E2E2E2E2E2E2E2E2E2E2E2E2E2E2
310
E2E2E2E2E2E2E2E2E2E2E2F5F5F5E2E2E2F5E2E2F5F5F5F5E2E2E2E2E2E2E2E2E2E2E2E2E2E2E2E2E2E2E2E2E2E2E2E2E2E2E2E2E2E2E2E2E2E2E2E2E2E2E2E2E2E2E2E2E2E2E2E2E2E2E2E2E2E2E2E2E2E2E2E2E2E2E2E2E2E2E2E2E2E2E2E2E2E2E2E2E2E2E2E2E2E2E2E2E2E2E2E2E2E2E2E2E2E2E2E2E2E2E2E2E2E2E2
310
E2E2E2E2E2E2E2E2E2E2E2E2E2E2E2E2E2E2E2E2E2E2E2E2E2E2E2E2E2E2E2E2E2E2E2E2E2E2E2E2E2E2E2E2E2E2E2E2E2E2E2E2E2E2E2E2E2E2E2E2E2E2E2E2E2E2E2E2E2E2E2E2E2E2E2E2E2E2E2E2E2E2E2E2E2E2E2E2E2E2E2E2E2E2E2E2E2E2E2E2E2E2E2E2E2E2E2E2E2E2E2E2E2E2E2E2E2E2E2E2E2E2E2E2E2E2E2
310
E2E2E2E2E2E2E2E2E2E2E2E2E2E2E2E2E2E2E2E2E2E2F5F5F5E2E2E2E2E2E2E2E2E2E2E2E2E2E2E2E2E2E2E2E2E2E2E2E2E2E2E2E2E2E2E2E2E2E2E2E2E2E2E2E2E2E2E2E2E2E2E2E2E2E2E2E2E2E2E2E2E2E2E2E2E2E2E2E2E2E2E2E2E2E2E2E2E2E2E2E2E2E2E2E2E2E2E2E2E2E2E2E2E2E2E2E2E2E2E2E2E2E2E2E2E2E2
310
E2E2E2E2E2E2E2E2E2E2E2E2E2E2E2E2E2E2E2E2E2E2E2E2E2E2E2E2E2E2E2E2E2E2E2E2E2E2E2E2E2E2E2E2E2E2E2E2E2E2E2E2E2E2E2E2E2E2E2E2E2E2E2E2E2E2E2E2E2E2E2E2E2E2E2E2E2E2E2E2E2E2E2E2E2E2E2E2E2E2E2E2E2E2E2E2E2E2E2E2E2E2E2E2E2E2E2E2E2E2E2E2E2E2E2E2E2E2E2E2E2E2E2E2E2E2E2
310
E2E2E2E2E2E2E2E2E2E2E2E2E2E2E2E2E2E2E2E2E2E2E2E2F5F5F5E2E2E2E2E2E2E2E2E2E2E2E2E2E2E2E2E2E2E2E2E2E2E2E2E2E2E2E2E2E2E2E2E2E2E2E2E2E2E2E2E2E2E2E2E2E2E2E2E2E2E2E2E2E2E2E2E2E2E2E2E2E2E2E2E2E2E2E2E2E2E2E2E2E2E2E2E2E2E2E2E2E2E2E2E2E2E2E2E2E2E2E2E2E2E2E2E2E2E2E2
310
E2E2E2E2E2E2E2E2E2E2E2E2E2E2E2E2E2E2E2E2E2E2E2E2E2E2E2E2E2E2E2E2E2E2E2E2E2E2E2E2E2E2E2E2E2E2E2E2E2E2E2E2E2E2E2E2E2E2E2E2E2E2E2E2E2E2E2E2E2E2E2E2E2E2E2E2E2E2E2E2E2E2E2E2E2E2E2E2E2E2E2E2E2E2E2E2E2E2E2E2E2E2E2E2E2E2E2E2E2E2E2E2E2E2E2E2E2E2E2E2E2E2E2E2E2E2E2
310
E2E2E2E2E2E2E2E2E2E2E2E2E2E2E2E2E2E2E2E2E2E2E2E2E2E2E2E2E2E2E2E2E2E2E2E2E2E2E2E2E2E2E2E2E2E2E2E2E2E2E2E2E2E2E2E2E2E2E2E2E2E2E2E2E2E2E2E2E2E2E2E2E2E2E2E2E2E2E2E2E2E2E2E2E2E2E2E2E2E2E2E2E2E2E2E2E2E2E2E2E2E2E2E2E2E2E2E2E2E2E2E2E2E2E2E2E2E2E2E2E2E2E2E2E2E2E2
310
E2E2E2E2E2E2E2E2E2E2E2E2E2E2E2E2E2E2E2E2E2E2E2E2E2E2E2E2E2E2E2E2E2E2E2E2E2E2E2E2E2E2E2E2E2E2E2E2E2E2E2E2E2E2E2E2E2E2E2E2E2E2E2E2E2E2E2E2E2E2E2E2E2E2E2E2E2E2E2E2E2E2E2E2E2E2E2E2E2E2E2E2E2E2E2E2E2E2E2E2E2E2E2E2E2E2E2E2E2E2E2E2E2E2E2E2E2E2E2E2E2E2E2E2E2E2E2
310
E2E2E2E2E2E2E2E2E2E2E2E2E2E2E2E2E2E2E2E2E2E2E2E2E2E2E2E2E2E2E2E2E2E2E2E2E2E2E2E2E2E2E2E2E2E2E2E2E2E2E2E2E2E2E2E2E2E2E2E2E2E2E2E2E2E2E2E2E2E2E2E2E2E2E2E2E2E2E2E2E2E2E2E2E2E2E2E2E2E2E2E2E2E2E2E2E2E2E2E2E2E2E2E2E2E2E2E2E2E2E2E2E2E2E2E2E2E2E2E2E2E2E2E2E2E2E2
310
E2E2E2E2E2E2E2E2E2E2E2E2E2E2E2E2E2E2E2E2E2E2E2E2E2E2E2E2E2E2E2E2E2E2E2E2E2E2E2E2E2E2E2E2E2E2E2E2E2E2E2E2E2E2E2E2E2E2E2E2E2E2E2E2E2E2E2E2E2E2E2E2E2E2E2E2E2E2E2E2E2E2E2E2E2E2E2E2E2E2E2E2E2E2E2E2E2E2E2E2E2E2E2E2E2E2E2E2E2E2E2E2E2E2E2E2E2E2E2E2E2E2E2E2E2E2E2
310
E2E2E2E2E2E2E2E2E2E2E2E2E2E2E2E2E2E2E2E2E2E2E2E2E2E2E2E2E2E2E2E2E2E2E2E2E2E2E2E2E2E2E2E2E2E2E2E2E2E2E2E2E2E2E2E2E2E2E2E2E2E2E2E2E2E2E2E2E2E2E2E2E2E2E2E2E2E2E2E2E2E2E2E2E2E2E2E2E2E2E2E2E2E2E2E2E2E2E2E2E2E2E2E2E2E2E2E2E2E2E2E2E2E2E2E2E2E2E2E2E2E2E2E2E2E2E2
310
E2E2E2E2E2E2E2E2E2E2E2E2E2E2E2E2E2E2E2E2E2E2E2E2E2E2E2E2E2E2E2E2E2E2E2E2E2E2E2E2E2E2E2E2E2E2E2E2E2E2E2E2E2E2E2E2E2E2E2E2E2E2E2E2E2E2E2E2E2E2E2E2E2E2E2E2E2E2E2E2E2E2E2E2E2E2E2E2E2E2E2E2E2E2E2E2E2E2E2E2E2E2E2E2E2E2E2E2E2E2E2E2E2E2E2E2E2E2E2E2E2E2E2E2E2E2E2
310
E2E2E2E2E2E2E2E2E2E2E2E2E2E2E2E2E2E2E2E2E2E2E2E2E2E2E2E2E2E2E2E2E2E2E2E2E2E2E2E2E2E2E2E2E2E2E2E2E2E2E2E2E2E2E2E2E2E2E2E2E2E2E2E2E2E2E2E2E2E2E2E2E2E2E2E2E2E2E2E2E2E2E2E2E2E2E2E2E2E2E2E2E2E2E2E2E2E2E2E2E2E2E2E2E2E2E2E2E2E2E2E2E2E2E2E2E2E2E2E2E2E2E2E2E2E2E2
310
E2E2E2E2E2E2E2E2E2E2E2E2E2E2E2E2E2E2E2E2E2E2E2E2E2E2E2E2E2E2E2E2E2E2E2E2E2E2E2E2E2E2E2E2E2E2E2E2E2E2E2E2E2E2E2E2E2E2E2E2E2E2E2E2E2E2E2E2E2E2E2E2E2E2E2E2E2E2E2E2E2E2E2E2E2E2E2E2E2E2E2E2E2E2E2E2E2E2E2E2E2E2E2E2E2E2E2E2E2E2E2E2E2E2E2E2E2E2E2E2E2E2E2E2E2E2E2
310
E2E2E2E2E2E2E2E2E2E2E2E2E2E2E2E2E2E2E2E2E2E2E2E2E2E2E2E2E2E2E2E2E2E2E2E2E2E2E2E2E2E2E2E2E2E2E2E2E2E2E2E2E2E2E2E2E2E2E2E2E2E2E2E2E2E2E2E2E2E2E2E2E2E2E2E2E2E2E2E2E2E2E2E2E2E2E2E2E2E2E2E2E2E2E2E2E2E2E2E2E2E2E2E2E2E2E2E2E2E2E2E2E2E2E2E2E2E2E2E2E2E2E2E2E2E2E2
310
E2E2E2E2E2E2E2E2E2E2E2E2E2E2E2E2E2E2E2E2E2E2E2E2E2E2E2E2E2E2E2E2E2E2E2E2E2E2E2E2E2E2E2E2E2E2E2E2E2E2E2E2E2E2E2E2E2E2E2E2E2E2E2E2E2E2E2E2E2E2E2E2E2E2E2E2E2E2E2E2E2E2E2E2E2E2E2E2E2E2E2E2E2E2E2E2E2E2E2E2E2E2E2E2E2E2E2E2E2E2E2E2E2E2E2E2E2E2E2E2E2E2E2E2E2E2E2
310
E2E2E2E2E2E2E2E2E2E2E2E2E2E2E2E2E2E2E2E2E2E2E2E2E2E2E2E2E2E2E2E2E2E2E2E2E2E2E2E2E2E2E2E2E2E2E2E2E2E2E2E2E2E2E2E2E2E2E2E2E2E2E2E2E2E2E2E2E2E2E2E2E2E2E2E2E2E2E2E2E2E2E2E2E2E2E2E2E2E2E2E2E2E2E2E2E2E2E2E2E2E2E2E2E2E2E2E2E2E2E2E2E2E2E2E2E2E2E2E2E2E2E2E2E2E2E2
310
E2E2E2E2E2E2E2E2E2E2E2E2E2E2E2E2E2E2E2E2E2E2E2E2E2E2E2E2E2E2E2E2E2E2E2E2E2E2E2E2E2E2E2E2E2E2E2E2E2E2E2E2E2E2E2E2E2E2E2E2E2E2E2E2E2E2E2E2E2E2E2E2E2E2E2E2E2E2E2E2E2E2E2E2E2E2E2E2E2E2E2E2E2E2E2E2E2E2E2E2E2E2E2E2E2E2E2E2E2E2E2E2E2E2E2E2E2E2E2E2E2E2E2E2E2E2E2
310
E2E2E2E2E2E2E2E2E2E2E2E2E2E2E2E2E2E2E2E2E2E2E2E2E2E2E2E2E2E2E2E2E2E2E2E2E2E2E2E2E2E2E2E2E2E2E2E2E2E2E2E2E2E2E2E2E2E2E2E2E2E2E2E2E2E2E2E2E2E2E2E2E2E2E2E2E2E2E2E2E2E2E2E2E2E2E2E2E2E2E2E2E2E2E2E2E2E2E2E2E2E2E2E2E2E2E2E2E2E2E2E2E2E2E2E2E2E2E2E2E2E2E2E2E2E2E2
310
E2E2E2E2E2E2E2E2E2E2E2E2E2E2E2E2E2E2E2E2E2E2E2E2E2E2E2E2E2E2E2E2E2E2E2E2E2E2E2E2E2E2E2E2E2E2E2E2E2E2E2E2E2E2E2E2E2E2E2E2E2E2E2E2E2E2E2E2E2E2E2E2E2E2E2E2E2E2E2E2E2E2E2E2E2E2E2E2E2E2E2E2E2E2E2E2E2E2E2E2E2E2E2E2E2E2E2E2E2E2E2E2E2E2E2E2E2E2E2E2E2E2E2E2E2E2E2
310
E2F5F5F5F5F5F5F5E2E2E2F5F5F5F5F5F5F5F5E2E2E2E2E2E2E2E2E2E2E2E2E2E2E2E2E2E2E2E2E2E2E2E2E2E2E2E2E2E2E2E2E2E2E2E2E2E2E2E2E2E2E2E2E2E2E2E2E2E2E2E2E2E2E2E2E2E2E2E2E2E2E2E2E2E2E2E2E2E2E2E2E2E2E2E2E2E2E2E2E2E2E2E2E2E2E2E2E2E2E2E2E2E2E2E2E2E2E2E2E2E2E2E2E2E2E2E2
310
E2E2E2E2E2E2E2E2E2E2E2E2E2E2E2E2E2E2E2E2E2E2E2E2E2E2E2E2E2E2E2E2E2E2E2E2E2E2E2E2E2E2E2E2E2E2E2E2E2E2E2E2E2E2E2E2E2E2E2E2E2E2E2E2E2E2E2E2E2E2E2E2E2E2E2E2E2E2E2E2E2E2E2E2E2E2E2E2E2E2E2E2E2E2E2E2E2E2E2E2E2E2E2E2E2E2E2E2E2E2E2E2E2E2E2E2E2E2E2E2E2E2E2E2E2E2E2
310
E2E2E2E2E2E2E2E2E2E2E2E2E2E2E2E2E2E2E2E2E2E2E2E2E2E2E2E2E2E2E2E2E2E2E2E2E2E2E2E2E2E2E2E2E2E2E2E2E2E2E2E2E2E2E2E2E2E2E2E2E2E2E2E2E2E2E2E2E2E2E2E2E2E2E2E2E2E2E2E2E2E2E2E2E2E2E2E2E2E2E2E2E2E2E2E2E2E2E2E2E2E2E2E2E2E2E2E2E2E2E2E2E2E2E2E2E2E2E2E2E2E2E2E2E2E2E2
310
E2E2E2E2E2E2E2E2E2E2E2E2E2E2E2E2E2E2E2E2E2E2E2E2E2E2E2E2E2E2E2E2E2E2E2E2E2E2E2E2E2E2E2E2E2E2E2E2E2E2E2E2E2E2E2E2E2E2E2E2E2E2E2E2E2E2E2E2E2E2E2E2E2E2E2E2E2E2E2E2E2E2E2E2E2E2E2E2E2E2E2E2E2E2E2E2E2E2E2E2E2F5F5F5F5F5F5F5F5E2E2F5F5F5F5F5F5E2E2E2E2E2F5E2E2E2E2
310
E2F5E2E2E2E2E2E2E2E2E2E2E2E2E2E2E2E2E2E2E2E2E2E2E2E2E2E2F5E2E2E2E2E2E2E2E2F5F5F5F5E2E2E2E2E2E2F5F5F5F5E2E2E2E2E2E2F5F5F5E2E2E2E2E2E2F5F5E2E2E2E2E2E2F5F5F5E2E2E2E2E2E2E2E2E2E2E2E2E2E2F5F5F5F5F5F5F5F5E2E2E2E2F5F5F5F5E2E2E2E2E2E2E2E2E2E2E2E2E2E2E2E2E2E2E2E2
310
E2E2E2E2E2E2E2E2E2E2E2E2E2E2E2E2E2E2E2E2E2E2E2E2E2E2E2E2E2E2E2E2E2E2E2E2E2E2E2E2E2E2E2E2E2E2E2E2E2E2E2E2E2E2E2E2E2E2E2E2E2E2E2E2E2E2E2E2E2E2E2E2E2E2E2E2E2E2E2E2E2E2E2E2E2E2E2E2E2E2E2E2E2E2E2E2E2E2E2E2E2E2E2F5E2E2E2E2E2E2E2E2E2E2E2F5E2E2E2F5F5E2E2E2F5E2E2
310
E2E2E2F5E2E2E2E2E2E2E2E2E2E2E2E2E2E2E2E2E2E2E2E2E2E2E2E2E2E2F5E2E2E2E2E2E2F5F5E2E2E2E2F5F5E2E2F5F5E2E2E2E2F5F5E2E2F5F5E2E2E2F5E2E2E2F5F5E2E2F5F5E2E2F5F5E2E2E2F5E2E2E2E2E2E2E2E2E2E2E2E2E2F5E2E2E2E2E2E2E2E2E2F5F5E2E2E2E2F5F5E2E2E2E2E2E2E2E2E2E2E2E2E2E2E2E2
310
E2E2E2E2E2E2E2E2E2E2E2E2E2E2E2E2E2E2E2E2E2E2E2E2E2E2E2E2E2E2E2E2E2E2E2E2E2E2E2E2E2E2E2E2E2E2E2E2E2E2E2E2E2E2E2E2E2E2E2E2E2E2E2E2E2E2E2E2E2E2E2E2E2E2E2E2E2E2E2E2E2E2E2E2E2E2E2E2E2E2E2E2E2E2E2E2E2E2E2E2E2E2E2E2E2F5E2E2E2E2E2E2E2E2E2E2E2F5E2E2E2E2F5E2E2E2F5
310
E2E2E2E2E2F5E2E2E2E2E2E2E2E2E2E2E2E2E2E2E2E2E2E2E2E2E2E2E2E2E2E2F5E2E2E2E2E2E2E2E2E2E2E2E2E2F5E2E2E2E2E2E2E2E2E2F5E2E2F5E2E2E2E2F5E2E2E2F5E2E2E2E2F5E2E2F5E2E2E2E2F5E2E2E2E2E2E2E2E2E2E2E2E2E2F5E2E2E2E2E2E2E2E2E2E2E2E2E2E2E2F5E2E2E2E2E2E2E2E2E2E2E2E2E2E2E2
310
E2E2E2E2E2E2E2E2E2E2E2E2E2E2E2E2E2E2E2E2E2E2E2E2E2E2E2E2E2E2E2E2E2E2E2E2E2E2E2E2E2E2E2E2E2E2E2E2E2E2E2E2E2E2E2E2E2E2E2E2E2E2E2E2E2E2E2E2E2E2E2E2E2E2E2E2E2E2E2E2E2E2E2E2E2E2E2E2E2E2E2E2E2E2E2E2E2E2E2E2E2E2E2E2E2E2E2F5E2E2E2E2E2E2E2E2E2E2E2F5E2E2E2E2F5E2E2
310
E2F5F5F5F5F5F5F5E2E2E2E2E2E2E2E2E2E2E2E2E2E2E2E2E2E2E2E2E2E2E2E2E2E2F5E2E2E2E2E2E2E2E2E2E2E2E2E2F5E2E2E2E2E2E2E2E2E2F5E2E2F5E2E2E2E2F5E2E2E2F5E2E2E2E2F5E2E2F5E2E2E2E2F5E2E2E2E2E2E2E2E2E2E2E2E2E2F5E2E2E2E2E2E2E2E2E2E2E2E2E2E2F5E2E2E2E2E2E2E2E2E2E2E2E2E2E2
310
E2E2E2E2E2E2E2E2E2E2E2E2E2E2E2E2E2E2E2E2E2E2E2E2E2E2E2E2E2E2E2E2E2E2E2E2E2E2E2E2E2E2E2E2E2E2E2E2E2E2E2E2E2E2E2E2E2E2E2E2E2E2E2E2E2E2E2E2E2E2E2E2E2E2E2E2E2E2E2E2E2E2E2E2E2E2E2E2E2E2E2E2E2E2E2E2E2E2E2E2E2E2E2E2E2E2E2E2E2E2F5E2E2E2E2E2E2E2E2E2E2F5E2E2E2F5E2
310
E2E2E2F5E2E2E2E2E2F5E2E2E2E2E2E2E2E2E2E2E2E2E2E2E2E2E2E2E2E2E2E2E2E2E2E2F5E2E2E2E2E2E2E2E2E2E2E2E2F5E2E2E2E2E2E2E2E2E2E2F5E2E2F5E2E2E2E2F5E2E2E2F5E2E2E2E2F5E2E2F5E2E2E2E2F5E2E2E2E2E2E2E2E2E2E2E2E2E2E2F5E2E2E2E2E2E2E2E2E2E2E2E2F5E2E2E2E2E2E2E2E2E2E2E2E2E2
310
E2E2E2E2E2E2E2E2E2E2E2E2E2E2E2E2E2E2E2E2E2E2E2E2E2E2E2E2E2E2E2E2E2E2E2E2E2E2E2E2E2E2E2E2E2E2E2E2E2E2E2E2E2E2E2E2E2E2E2E2E2E2E2E2E2E2E2E2E2E2E2E2E2E2E2E2E2E2E2E2E2E2E2E2E2E2E2E2E2E2E2E2E2E2E2E2E2E2E2E2E2E2E2E2E2E2E2E2E2E2E2E2E2F5F5F5F5E2E2E2E2E2E2F5F5F5F5
310
E2E2E2E2E2E2F5E2E2E2F5E2E2E2E2E2E2E2E2E2E2E2E2E2E2E2E2E2E2E2E2E2E2E2E2E2E2E2F5E2E2E2E2E2E2E2E2E2F5F5F5E2E2E2E2E2E2E2E2E2E2E2F5E2E2F5E2E2E2E2F5E2E2E2F5E2E2E2E2F5E2E2F5E2E2E2E2F5E2E2E2E2E2E2E2E2E2E2E2E2E2E2E2F5F5F5F5E2E2E2E2E2E2E2F5E2E2E2E2E2E2E2E2E2E2E2E2
310
E2E2E2E2E2E2E2E2E2E2E2E2E2E2E2E2E2E2E2E2E2E2E2E2E2E2E2E2E2E2E2E2E2E2E2E2E2E2E2E2E2E2E2E2E2E2E2E2E2E2E2E2E2E2E2E2E2E2E2E2E2E2E2E2E2E2E2E2E2E2E2E2E2E2E2E2E2E2E2E2E2E2E2E2E2E2E2E2E2E2E2E2E2E2E2E2E2E2E2E2E2E2E2E2E2E2E2E2E2E2E2E2E2E2E2E2E2E2E2F5F5E2E2E2E2F5E2
310
E2E2F5F5E2E2E2E2F5E2E2E2F5E2E2E2E2E2E2E2E2E2E2E2E2E2E2E2E2E2E2E2E2E2E2E2E2E2E2E2F5E2E2E2E2E2E2E2E2E2E2E2E2F5F5E2E2F5F5F5F5F5F5F5E2E2E2F5E2E2E2E2F5E2E2E2F5E2E2E2E2F5E2E2F5E2E2E2E2F5E2E2E2E2E2E2E2E2E2E2E2E2E2E2E2E2E2E2E2F5F5E2E2E2E2F5E2E2E2E2E2E2E2E2E2E2E2
310
E2E2E2E2E2E2E2E2E2E2E2E2E2E2E2E2E2E2E2E2E2E2E2E2E2E2E2E2E2E2E2E2E2E2E2E2E2E2E2E2E2E2E2E2E2E2E2E2E2E2E2E2E2E2E2E2E2E2E2E2E2E2E2E2E2E2E2E2E2E2E2E2E2E2E2E2E2E2E2E2E2E2E2E2E2E2E2E2E2E2E2E2E2E2E2E2E2E2E2E2E2E2E2E2E2E2E2E2E2E2E2E2E2E2E2E2E2E2E2E2E2E2F5E2E2E2E2
310
F5E2E2E2E2F5E2E2E2E2E2F5E2F5E2E2E2E2E2E2E2E2E2E2E2E2E2E2E2E2E2E2E2E2E2E2E2E2E2E2E2E2F5E2E2E2E2E2E2E2E2E2E2E2E2E2F5E2E2F5E2E2E2E2E2E2E2E2E2F5E2E2E2E2F5E2E2E2F5E2E2E2E2F5E2E2F5E2E2E2E2F5E2E2E2E2E2E2E2E2E2E2E2E2E2E2E2E2E2E2E2E2F5E2E2E2F5E2E2E2E2E2E2E2E2E2E2
310
E2E2E2E2E2E2E2E2E2E2E2E2E2E2E2E2E2E2E2E2E2E2E2E2E2E2E2E2E2E2E2E2E2E2E2E2E2E2E2E2E2E2E2E2E2E2E2E2E2E2E2E2E2E2E2E2E2E2E2E2E2E2E2E2E2E2E2E2E2E2E2E2E2E2E2E2E2E2E2E2E2E2E2E2E2E2E2E2E2E2E2E2E2E2E2E2E2E2E2E2E2E2E2E2E2E2E2E2E2E2E2E2E2E2E2E2E2F5E2E2E2E2E2E2F5E2E2
310
E2E2F5E2E2E2E2F5E2E2E2E2E2F5E2F5E2E2E2E2E2E2E2E2E2E2E2E2E2E2E2E2E2E2E2E2E2E2E2E2E2E2E2E2F5E2E2E2E2E2E2F5E2E2E2E2E2E2F5E2E2F5E2E2E2E2E2E2E2E2E2F5E2E2E2E2F5E2E2E2F5E2E2E2E2F5E2E2F5E2E2E2E2F5E2E2E2E2E2E2E2E2E2E2E2E2E2F5E2E2E2E2E2E2F5E2E2F5E2E2E2E2E2E2F5E2E2
310
E2E2E2E2E2E2E2E2E2E2E2E2E2E2E2E2E2E2E2E2E2E2E2E2E2E2E2E2E2E2E2E2E2E2E2E2E2E2E2E2E2E2E2E2E2E2E2E2E2E2E2E2E2E2E2E2E2E2E2E2E2E2E2E2E2E2E2E2E2E2E2E2E2E2E2E2E2E2E2E2E2E2E2E2E2E2E2E2E2E2E2E2E2E2E2E2E2E2E2E2E2E2E2E2E2E2E2E2E2E2E2E2E2E2E2E2E2E2E2E2F5E2E2E2E2F5E2
310
E2E2E2E2F5E2E2E2F5E2E2E2E2E2E2E2F5E2E2E2E2E2E2E2E2E2E2E2E2E2E2E2E2E2E2E2E2E2E2E2E2E2E2E2E2E2F5E2E2E2E2E2E2E2F5E2E2E2E2F5E2E2E2F5E2E2E2E2E2E2E2E2E2E2F5E2E2E2F5E2E2E2E2F5E2E2F5E2E2E2E2F5E2E2E2F5E2E2E2E2E2E2E2E2E2E2E2E2E2E2F5E2E2E2E2F5E2E2E2E2F5E2E2E2E2F5E2
310
E2E2E2E2E2E2E2E2E2E2E2E2E2E2E2E2E2E2E2E2E2E2E2E2E2E2E2E2E2E2E2E2E2E2E2E2E2E2E2E2E2E2E2E2E2E2E2E2E2E2E2E2E2E2E2E2E2E2E2E2E2E2E2E2E2E2E2E2E2E2E2E2E2E2E2E2E2E2E2E2E2E2E2E2E2E2E2E2E2E2E2E2E2E2E2E2E2E2E2E2E2E2E2E2E2E2E2E2E2E2E2E2E2E2E2E2E2E2E2E2E2E2E2F5F5F5F5
310
E2E2E2E2F5F5F5F5F5F5E2E2E2E2E2E2E2E2F5E2E2E2E2E2E2E2E2E2E2E2E2E2E2E2E2E2E2E2E2E2E2E2E2E2E2F5F5F5F5F5F5F5F5E2E2E2E2F5F5F5F5E2E2E2E2F5F5F5F5F5F5F5F5E2E2E2E2F5F5F5E2E2E2E2E2E2F5F5E2E2E2E2E2E2F5F5F5E2E2E2E2E2E2E2E2E2E2E2E2E2E2E2E2F5F5F5F5E2E2E2E2E2E2F5F5F5F5
310
E2E2E2E2E2E2E2E2E2E2E2E2E2E2E2E2E2E2E2E2E2E2E2E2E2E2E2E2E2E2E2E2E2E2E2E2E2E2E2E2E2E2E2E2E2E2E2E2E2E2E2E2E2E2E2E2E2E2E2E2E2E2E2E2E2E2E2E2E2E2E2E2E2E2E2E2E2E2E2E2E2E2E2E2E2E2E2E2E2E2E2E2E2E2E2E2E2E2E2E2E2E2E2E2E2E2E2E2E2E2E2E2E2E2E2E2E2E2E2E2E2E2E2E2E2E2E2
310
E2E2E2E2E2E2E2E2E2E2E2E2E2E2E2E2E2E2E2E2E2E2E2E2E2E2E2E2E2E2E2E2E2E2E2E2E2E2E2E2E2E2E2E2E2E2E2E2E2E2E2E2E2E2E2E2E2E2E2E2E2E2E2E2E2E2E2E2E2E2E2E2E2E2E2E2E2E2E2E2E2E2E2E2E2E2E2E2E2E2E2E2E2E2E2E2E2E2E2E2E2E2E2E2E2E2E2E2E2E2E2E2E2E2E2E2E2E2E2E2E2E2E2E2E2E2E2
310
E2E2E2E2E2E2E2E2E2E2E2E2E2E2E2E2E2E2E2E2E2E2E2E2E2E2E2E2E2E2E2E2E2E2E2E2E2E2E2E2E2E2E2E2E2E2E2E2E2E2E2E2E2E2E2E2E2E2E2E2E2E2E2E2E2E2E2E2E2E2E2E2E2E2E2E2E2E2E2E2E2E2E2E2E2E2E2E2E2E2E2E2E2E2E2E2E2E2E2E2E2E2E2E2E2E2E2E2E2E2E2E2E2E2E2E2E2E2E2E2E2E2E2E2E2E2E2
310
E2E2E2E2E2E2E2E2E2E2E2E2E2E2E2E2E2E2E2E2E2E2E2E2E2E2E2E2E2E2E2E2E2E2E2E2E2E2E2E2E2E2E2E2E2E2E2E2E2E2E2E2E2E2E2E2E2E2E2E2E2E2E2E2E2E2E2E2E2E2E2E2E2E2E2E2E2E2E2E2E2E2E2E2E2E2E2E2E2E2E2E2E2E2E2E2E2E2E2E2E2E2E2E2E2E2E2E2E2E2E2E2E2E2E2E2E2E2E2E2E2E2E2E2E2E2E2
310
E2E2E2E2E2E2E2E2E2E2E2E2E2E2E2E2E2E2E2E2E2E2E2E2E2E2E2E2E2E2E2E2E2E2E2E2E2E2E2E2E2E2E2E2E2E2E2E2E2E2E2E2E2E2E2E2E2E2E2E2E2E2E2E2E2E2E2E2E2E2E2E2E2E2E2E2E2E2E2E2E2E2E2E2E2E2E2E2E2E2E2E2E2E2E2E2E2E2E2E2E2E2E2E2E2E2E2E2E2E2E2E2E2E2E2E2E2E2E2E2E2E2E2E2E2E2E2
310
E2E2E2E2E2E2E2E2E2E2E2E2E2E2E2E2E2E2E2E2E2E2E2E2E2E2E2E2E2E2E2E2E2E2E2E2E2E2E2E2E2E2E2E2E2E2E2E2E2E2E2E2E2E2E2E2E2E2E2E2E2E2E2E2E2E2E2E2E2E2E2E2E2E2E2E2E2E2E2E2E2E2E2E2E2E2E2E2E2E2E2E2E2E2E2E2E2E2E2E2E2E2E2E2E2E2E2E2E2E2E2E2E2E2E2E2E2E2E2E2E2E2E2E2E2E2E2
310
E2E2E2E2E2E2E2E2E2E2E2E2E2E2E2E2E2E2E2E2E2E2E2E2E2E2E2E2E2E2E2E2E2E2E2E2E2E2E2E2E2E2E2E2E2E2E2E2E2E2E2E2E2E2E2E2E2E2E2E2E2E2E2E2E2E2E2E2E2E2E2E2E2E2E2E2E2E2E2E2E2E2E2E2E2E2E2E2E2E2E2E2E2E2E2E2E2E2E2E2E2E2E2E2E2E2E2E2E2E2E2E2E2E2E2E2E2E2E2E2E2E2E2E2E2E2E2
310
E2E2E2E2E2E2E2E2E2E2E2E2E2E2E2E2E2E2E2E2E2E2E2E2E2E2E2E2E2E2E2E2E2E2E2E2E2E2E2E2E2E2E2E2E2E2E2E2E2E2E2E2E2E2E2E2E2E2E2E2E2E2E2E2E2E2E2E2E2E2E2E2E2E2E2E2E2E2E2E2E2E2E2E2E2E2E2E2E2E2E2E2E2E2E2E2E2E2E2E2E2E2E2E2E2E2E2E2E2E2E2E2E2E2E2E2E2E2E2E2E2E2E2E2E2E2E2
310
E2E2E2E2E2E2E2E2E2E2E2E2E2E2E2E2E2E2E2E2E2E2E2E2E2E2E2E2E2E2E2E2E2E2E2E2E2E2E2E2E2E2E2E2E2E2E2E2E2E2E2E2E2E2E2E2E2E2E2E2E2E2E2E2E2E2E2E2E2E2E2E2E2E2E2E2E2E2E2E2E2E2E2E2E2E2E2E2E2E2E2E2E2E2E2E2E2E2E2E2E2E2E2E2E2E2E2E2E2E2E2E2E2E2E2E2E2E2E2E2E2E2E2E2E2E2E2
310
E2E2E2E2E2E2E2E2E2E2E2E2E2E2E2E2E2E2E2E2E2E2E2E2E2E2E2E2E2E2E2E2E2E2E2E2E2E2E2E2E2E2E2E2E2E2E2E2E2E2E2E2E2E2E2E2E2E2E2E2E2E2E2E2E2E2E2E2E2E2E2E2E2E2E2E2E2E2E2E2E2E2E2E2E2E2E2E2E2E2E2E2E2E2E2E2E2E2E2E2E2E2E2E2E2E2E2E2E2E2E2E2E2E2E2E2E2E2E2E2E2E2E2E2E2E2E2
310
E2E2E2E2E2E2E2E2E2E2E2E2E2E2E2E2E2E2E2E2E2E2E2E2E2E2E2E2E2E2E2E2E2E2E2E2E2E2E2E2E2E2E2E2E2E2E2E2E2E2E2E2E2E2E2E2E2E2E2E2E2E2E2E2E2E2E2E2E2E2E2E2E2E2E2E2E2E2E2E2E2E2E2E2E2E2E2E2E2E2E2E2E2E2E2E2E2E2E2E2E2E2E2E2E2E2E2E2E2E2E2E2E2E2E2E2E2E2E2E2E2E2E2E2E2E2E2
310
E2E2E2E2E2E2E2E2E2E2E2E2E2E2E2E2E2E2E2E2E2E2E2E2E2E2E2E2E2E2E2E2E2E2E2E2E2E2E2E2E2E2E2E2E2E2E2E2E2E2E2E2E2E2E2E2E2E2E2E2E2E2E2E2E2E2E2E2E2E2E2E2E2E2E2E2E2E2E2E2E2E2E2E2E2E2E2E2E2E2E2E2E2E2E2E2E2E2E2E2E2E2E2E2E2E2E2E2E2E2E2E2E2E2E2E2E2E2E2E2E2E2E2E2E2E2E2
310
E2E2E2E2E2E2E2E2E2E2E2E2E2E2E2E2E2E2E2E2E2E2E2E2E2E2E2E2E2E2E2E2E2E2E2E2E2E2E2E2E2E2E2E2E2E2E2E2E2E2E2E2E2E2E2E2E2E2E2E2E2E2E2E2E2E2E2E2E2E2E2E2E2E2E2E2E2E2E2E2E2E2E2E2E2E2E2E2E2E2E2E2E2E2E2E2E2E2E2E2E2E2E2E2E2E2E2E2E2E2E2E2E2E2E2E2E2E2E2E2E2E2E2E2E2E2E2
310
E2E2E2E2E2E2E2E2E2E2E2E2E2E2E2E2E2E2E2E2E2E2E2E2E2E2E2E2E2E2E2E2E2E2E2E2E2E2E2E2E2E2E2E2E2E2E2E2E2E2E2E2E2E2E2E2E2E2E2E2E2E2E2E2E2E2E2E2E2E2E2E2E2E2E2E2E2E2E2E2E2E2E2E2E2E2E2E2E2E2E2E2E2E2E2E2E2E2E2E2E2E2E2E2E2E2E2E2E2E2E2E2E2E2E2E2E2E2E2E2E2E2E2E2E2E2E2
310
E2E2E2E2E2E2E2E2E2E2E2E2E2E2E2E2E2E2E2E2E2E2E2E2E2E2E2E2E2E2E2E2E2E2E2E2E2E2E2E2E2E2E2E2E2E2E2E2E2E2E2E2E2E2E2E2E2E2E2E2E2E2E2E2E2E2E2E2E2E2E2E2E2E2E2E2E2E2E2E2E2E2E2E2E2E2E2E2E2E2E2E2E2E2E2E2E2E2E2E2E2E2E2E2E2E2E2E2E2E2E2E2E2E2E2E2E2E2E2E2E2E2E2E2E2E2E2
310
E2E2E2E2E2E2E2E2E2E2E2E2E2E2E2E2E2E2E2E2E2E2E2E2E2E2E2E2E2E2E2E2E2E2E2E2E2E2E2E2E2E2E2E2E2E2E2E2E2E2E2E2E2E2E2E2E2E2E2E2E2E2E2E2E2E2E2E2E2E2E2E2E2E2E2E2E2E2E2E2E2E2E2E2E2E2E2E2E2E2E2E2E2E2E2E2E2E2E2E2E2E2E2E2E2E2E2E2E2E2E2E2E2E2E2E2E2E2E2E2E2E2E2E2E2E2E2
310
E2E2E2E2E2E2E2E2E2E2E2E2E2E2E2E2E2E2E2E2E2E2E2E2E2E2E2E2E2E2E2E2E2E2E2E2E2E2E2E2E2E2E2E2E2E2E2E2E2E2E2E2E2E2E2E2E2E2E2E2E2E2E2E2E2E2E2E2E2E2E2E2E2E2E2E2E2E2E2E2E2E2E2E2E2E2E2E2E2E2E2E2E2E2E2E2E2E2E2E2E2E2E2E2E2E2E2E2E2E2E2E2E2E2E2E2E2E2E2E2E2E2E2E2E2E2E2
310
E2E2E2E2E2E2E2E2E2E2E2E2E2E2E2E2E2E2E2E2E2E2E2E2E2E2E2E2E2E2E2E2E2E2E2E2E2E2E2E2E2E2E2E2E2E2E2E2E2E2E2E2E2E2E2E2E2E2E2E2E2E2E2E2E2E2E2E2E2E2E2E2E2E2E2E2E2E2E2E2E2E2E2E2E2E2E2E2E2E2E2E2E2E2E2E2E2E2E2E2E2E2E2E2E2E2E2E2E2E2E2E2E2E2E2E2E2E2E2E2E2E2E2E2E2E2E2
310
E2E2E2E2E2E2E2E2E2E2E2E2E2E2E2E2E2E2E2E2E2E2E2E2E2E2E2E2E2E2E2E2E2E2E2E2E2E2E2E2E2E2E2E2E2E2E2E2E2E2E2E2E2E2E2E2E2E2E2E2E2E2E2E2E2E2E2E2E2E2E2E2E2E2E2E2E2E2E2E2E2E2E2E2E2E2E2E2E2E2E2E2E2E2E2E2E2E2E2E2E2E2E2E2E2E2E2E2E2E2E2E2E2E2E2E2E2E2E2E2E2E2E2E2E2E2E2
310
E2E2E2E2E2E2E2E2E2E2E2E2E2E2E2E2E2E2E2E2E2E2E2E2E2E2E2E2E2E2E2E2E2E2E2E2E2E2E2E2E2E2E2E2E2E2E2E2E2E2E2E2E2E2E2E2E2E2E2E2E2E2E2E2E2E2E2E2E2E2E2E2E2E2E2E2E2E2E2E2E2E2E2E2E2E2E2E2E2E2E2E2E2E2E2E2E2E2E2E2E2E2E2E2E2E2E2E2E2E2E2E2E2E2E2E2E2E2E2E2E2E2E2E2E2E2E2
310
E2E2E2E2E2E2E2E2E2E2E2E2E2E2E2E2E2E2E2E2E2E2E2E2E2E2E2E2E2E2E2E2E2E2E2E2E2E2E2E2E2E2E2E2E2E2E2E2E2E2E2E2E2E2E2E2E2E2E2E2E2E2E2E2E2E2E2E2E2E2E2E2E2E2E2E2E2E2E2E2E2E2E2E2E2E2E2E2E2E2E2E2E2E2E2E2E2E2E2E2E2E2E2E2
  0
XRECORD
  5
23B2
102
{ACAD_REACTORS
330
100B
102
}
330
100B
100
AcDbXrecord
280
     1
102
MATERIAL
148
0.0
149
0.0
149
0.0
 93
        0
 94
      127
282
     0
 72
     0
 77
     0
171
     0
175
     0
179
     0
273
     0
  0
XRECORD
  5
100D
102
{ACAD_REACTORS
330
100B
102
}
330
100B
100
AcDbXrecord
280
     1
270
     1
271
     1
  0
XRECORD
  5
100C
102
{ACAD_REACTORS
330
100B
102
}
330
100B
100
AcDbXrecord
280
     1
270
     1
271
     1
  0
XRECORD
  5
1010
102
{ACAD_REACTORS
330
100B
102
}
330
100B
100
AcDbXrecord
280
     1
270
     1
271
     1
  0
XRECORD
  5
100F
102
{ACAD_REACTORS
330
100B
102
}
330
100B
100
AcDbXrecord
280
     1
270
     1
271
     1
  0
XRECORD
  5
1011
102
{ACAD_REACTORS
330
100B
102
}
330
100B
100
AcDbXrecord
280
     1
270
     1
271
     1
  0
XRECORD
  5
100E
102
{ACAD_REACTORS
330
100B
102
}
330
100B
100
AcDbXrecord
280
     1
270
     1
271
     1
  0
XRECORD
  5
23B1
102
{ACAD_REACTORS
330
1003
102
}
330
1003
100
AcDbXrecord
280
     1
102
MATERIAL
148
0.0
149
0.0
149
0.0
 93
        0
 94
      127
282
     0
 72
     0
 77
     0
171
     0
175
     0
179
     0
273
     0
  0
XRECORD
  5
1005
102
{ACAD_REACTORS
330
1003
102
}
330
1003
100
AcDbXrecord
280
     1
270
     1
271
     1
  0
XRECORD
  5
1004
102
{ACAD_REACTORS
330
1003
102
}
330
1003
100
AcDbXrecord
280
     1
270
     1
271
     1
  0
XRECORD
  5
1008
102
{ACAD_REACTORS
330
1003
102
}
330
1003
100
AcDbXrecord
280
     1
270
     1
271
     1
  0
XRECORD
  5
1007
102
{ACAD_REACTORS
330
1003
102
}
330
1003
100
AcDbXrecord
280
     1
270
     1
271
     1
  0
XRECORD
  5
1009
102
{ACAD_REACTORS
330
1003
102
}
330
1003
100
AcDbXrecord
280
     1
270
     1
271
     1
  0
XRECORD
  5
1006
102
{ACAD_REACTORS
330
1003
102
}
330
1003
100
AcDbXrecord
280
     1
270
     1
271
     1
  0
XRECORD
  5
23B3
102
{ACAD_REACTORS
330
1013
102
}
330
1013
100
AcDbXrecord
280
     1
102
MATERIAL
148
0.0
149
0.0
149
0.0
 93
        0
 94
      127
282
     0
 72
     0
 77
     0
171
     0
175
     0
179
     0
273
     0
  0
XRECORD
  5
1015
102
{ACAD_REACTORS
330
1013
102
}
330
1013
100
AcDbXrecord
280
     1
270
     1
271
     1
  0
XRECORD
  5
1014
102
{ACAD_REACTORS
330
1013
102
}
330
1013
100
AcDbXrecord
280
     1
270
     1
271
     1
  0
XRECORD
  5
1018
102
{ACAD_REACTORS
330
1013
102
}
330
1013
100
AcDbXrecord
280
     1
270
     1
271
     1
  0
XRECORD
  5
1017
102
{ACAD_REACTORS
330
1013
102
}
330
1013
100
AcDbXrecord
280
     1
270
     1
271
     1
  0
XRECORD
  5
1019
102
{ACAD_REACTORS
330
1013
102
}
330
1013
100
AcDbXrecord
280
     1
270
     1
271
     1
  0
XRECORD
  5
1016
102
{ACAD_REACTORS
330
1013
102
}
330
1013
100
AcDbXrecord
280
     1
270
     1
271
     1
  0
XRECORD
  5
23EE
102
{ACAD_REACTORS
330
23ED
102
}
330
23ED
100
AcDbXrecord
280
     1
102
ACAD_ROUNDTRIP_2012_MLEADER_STYLE
298
     1
  0
XRECORD
  5
23F4
102
{ACAD_REACTORS
330
23F3
102
}
330
23F3
100
AcDbXrecord
280
     1
102
DISPLAYNAME
  1
Imperial24
102
FLAGS
 90
        0
  0
CELLSTYLEMAP
  5
23BB
102
{ACAD_REACTORS
330
122A
102
}
330
122A
100
AcDbCellStyleMap
 90
        3
300
CELLSTYLE
  1
TABLEFORMAT_BEGIN
 90
        5
170
     1
 91
        0
 92
    32768
 62
   257
 93
        1
300
CONTENTFORMAT
  1
CONTENTFORMAT_BEGIN
 90
        0
 91
        0
 92
      512
 93
        0
300

 40
0.0
140
1.0
 94
        5
 62
     0
340
1046
144
0.25
309
CONTENTFORMAT_END
171
     1
301
MARGIN
  1
CELLMARGIN_BEGIN
 40
0.06
 40
0.06
 40
0.06
 40
0.06
 40
0.18
 40
0.18
309
CELLMARGIN_END
 94
        6
 95
        1
302
GRIDFORMAT
  1
GRIDFORMAT_BEGIN
 90
        0
 91
        1
 62
     0
 92
       -2
340
0
 93
        0
 40
0.045
309
GRIDFORMAT_END
 95
        2
302
GRIDFORMAT
  1
GRIDFORMAT_BEGIN
 90
        0
 91
        1
 62
     0
 92
       -2
340
0
 93
        0
 40
0.045
309
GRIDFORMAT_END
 95
        4
302
GRIDFORMAT
  1
GRIDFORMAT_BEGIN
 90
        0
 91
        1
 62
     0
 92
       -2
340
0
 93
        0
 40
0.045
309
GRIDFORMAT_END
 95
        8
302
GRIDFORMAT
  1
GRIDFORMAT_BEGIN
 90
        0
 91
        1
 62
     0
 92
       -2
340
0
 93
        0
 40
0.045
309
GRIDFORMAT_END
 95
       16
302
GRIDFORMAT
  1
GRIDFORMAT_BEGIN
 90
        0
 91
        1
 62
     0
 92
       -2
340
0
 93
        0
 40
0.045
309
GRIDFORMAT_END
 95
       32
302
GRIDFORMAT
  1
GRIDFORMAT_BEGIN
 90
        0
 91
        1
 62
     0
 92
       -2
340
0
 93
        0
 40
0.045
309
GRIDFORMAT_END
309
TABLEFORMAT_END
  1
CELLSTYLE_BEGIN
 90
        1
 91
        1
300
_TITLE
309
CELLSTYLE_END
300
CELLSTYLE
  1
TABLEFORMAT_BEGIN
 90
        5
170
     1
 91
        0
 92
        0
 62
   257
 93
        1
300
CONTENTFORMAT
  1
CONTENTFORMAT_BEGIN
 90
        0
 91
        0
 92
      512
 93
        0
300

 40
0.0
140
1.0
 94
        5
 62
     0
340
1046
144
0.18
309
CONTENTFORMAT_END
171
     1
301
MARGIN
  1
CELLMARGIN_BEGIN
 40
0.06
 40
0.06
 40
0.06
 40
0.06
 40
0.18
 40
0.18
309
CELLMARGIN_END
 94
        6
 95
        1
302
GRIDFORMAT
  1
GRIDFORMAT_BEGIN
 90
        0
 91
        1
 62
     0
 92
       -2
340
0
 93
        0
 40
0.045
309
GRIDFORMAT_END
 95
        2
302
GRIDFORMAT
  1
GRIDFORMAT_BEGIN
 90
        0
 91
        1
 62
     0
 92
       -2
340
0
 93
        0
 40
0.045
309
GRIDFORMAT_END
 95
        4
302
GRIDFORMAT
  1
GRIDFORMAT_BEGIN
 90
        0
 91
        1
 62
     0
 92
       -2
340
0
 93
        0
 40
0.045
309
GRIDFORMAT_END
 95
        8
302
GRIDFORMAT
  1
GRIDFORMAT_BEGIN
 90
        0
 91
        1
 62
     0
 92
       -2
340
0
 93
        0
 40
0.045
309
GRIDFORMAT_END
 95
       16
302
GRIDFORMAT
  1
GRIDFORMAT_BEGIN
 90
        0
 91
        1
 62
     0
 92
       -2
340
0
 93
        0
 40
0.045
309
GRIDFORMAT_END
 95
       32
302
GRIDFORMAT
  1
GRIDFORMAT_BEGIN
 90
        0
 91
        1
 62
     0
 92
       -2
340
0
 93
        0
 40
0.045
309
GRIDFORMAT_END
309
TABLEFORMAT_END
  1
CELLSTYLE_BEGIN
 90
        2
 91
        1
300
_HEADER
309
CELLSTYLE_END
300
CELLSTYLE
  1
TABLEFORMAT_BEGIN
 90
        5
170
     1
 91
        0
 92
        0
 62
   257
 93
        1
300
CONTENTFORMAT
  1
CONTENTFORMAT_BEGIN
 90
        0
 91
        0
 92
      512
 93
        0
300

 40
0.0
140
1.0
 94
        2
 62
     0
340
1046
144
0.18
309
CONTENTFORMAT_END
171
     1
301
MARGIN
  1
CELLMARGIN_BEGIN
 40
0.06
 40
0.06
 40
0.06
 40
0.06
 40
0.18
 40
0.18
309
CELLMARGIN_END
 94
        6
 95
        1
302
GRIDFORMAT
  1
GRIDFORMAT_BEGIN
 90
        0
 91
        1
 62
     0
 92
       -2
340
0
 93
        0
 40
0.045
309
GRIDFORMAT_END
 95
        2
302
GRIDFORMAT
  1
GRIDFORMAT_BEGIN
 90
        0
 91
        1
 62
     0
 92
       -2
340
0
 93
        0
 40
0.045
309
GRIDFORMAT_END
 95
        4
302
GRIDFORMAT
  1
GRIDFORMAT_BEGIN
 90
        0
 91
        1
 62
     0
 92
       -2
340
0
 93
        0
 40
0.045
309
GRIDFORMAT_END
 95
        8
302
GRIDFORMAT
  1
GRIDFORMAT_BEGIN
 90
        0
 91
        1
 62
     0
 92
       -2
340
0
 93
        0
 40
0.045
309
GRIDFORMAT_END
 95
       16
302
GRIDFORMAT
  1
GRIDFORMAT_BEGIN
 90
        0
 91
        1
 62
     0
 92
       -2
340
0
 93
        0
 40
0.045
309
GRIDFORMAT_END
 95
       32
302
GRIDFORMAT
  1
GRIDFORMAT_BEGIN
 90
        0
 91
        1
 62
     0
 92
       -2
340
0
 93
        0
 40
0.045
309
GRIDFORMAT_END
309
TABLEFORMAT_END
  1
CELLSTYLE_BEGIN
 90
        3
 91
        2
300
_DATA
309
CELLSTYLE_END
  0
XRECORD
  5
23C8
102
{ACAD_REACTORS
330
23C7
102
}
330
23C7
100
AcDbXrecord
280
     1
102
RTVSPost2010Prop28
280
     1
102
RTVSPost2010PropOp28
 70
     1
102
RTVSPost2010Prop29
280
     1
102
RTVSPost2010PropOp29
 70
     1
102
RTVSPost2010Prop30
280
     0
102
RTVSPost2010PropOp30
 70
     1
102
RTVSPost2010Prop31
280
     0
102
RTVSPost2010PropOp31
 70
     1
102
RTVSPost2010Prop32
280
     0
102
RTVSPost2010PropOp32
 70
     1
102
RTVSPost2010Prop33
280
     0
102
RTVSPost2010PropOp33
 70
     1
102
RTVSPost2010Prop34
280
     0
102
RTVSPost2010PropOp34
 70
     1
102
RTVSPost2010Prop35
280
     0
102
RTVSPost2010PropOp35
 70
     1
102
RTVSPost2010Prop36
280
     0
102
RTVSPost2010PropOp36
 70
     1
102
RTVSPost2010Prop37
 90
       50
102
RTVSPost2010PropOp37
 70
     1
102
RTVSPost2010Prop38
140
0.0
102
RTVSPost2010PropOp38
 70
     1
102
RTVSPost2010Prop39
140
1.0
102
RTVSPost2010PropOp39
 70
     1
102
RTVSPost2010Prop40
 90
        0
102
RTVSPost2010PropOp40
 70
     1
102
RTVSPost2010Prop41ColorIndex
 90
       18
102
RTVSPost2010Prop41ColorRGB
 90
        0
102
RTVSPost2010PropOp41
 70
     1
102
RTVSPost2010Prop42
 90
       50
102
RTVSPost2010PropOp42
 70
     1
102
RTVSPost2010Prop43
 90
        3
102
RTVSPost2010PropOp43
 70
     1
102
RTVSPost2010Prop44ColorIndex
 90
        5
102
RTVSPost2010Prop44ColorRGB
 90
      255
102
RTVSPost2010PropOp44
 70
     1
102
RTVSPost2010Prop45
280
     0
102
RTVSPost2010PropOp45
 70
     1
102
RTVSPost2010Prop46
 90
       50
102
RTVSPost2010PropOp46
 70
     1
102
RTVSPost2010Prop47
 90
       50
102
RTVSPost2010PropOp47
 70
     1
102
RTVSPost2010Prop48
 90
       50
102
RTVSPost2010PropOp48
 70
     1
102
RTVSPost2010Prop49
280
     0
102
RTVSPost2010PropOp49
 70
     1
102
RTVSPost2010Prop50
 90
       50
102
RTVSPost2010PropOp50
 70
     1
102
RTVSPost2010Prop51ColorIndex
 90
      256
102
RTVSPost2010Prop51ColorRGB
 90
-16777216
102
RTVSPost2010PropOp51
 70
     0
102
RTVSPost2010Prop52
140
1.0
102
RTVSPost2010PropOp52
 70
     0
102
RTVSPost2010Prop53
 90
        2
102
RTVSPost2010PropOp53
 70
     1
102
RTVSPost2010Prop54
  1
strokes_ogs.tif
102
RTVSPost2010PropOp54
 70
     1
102
RTVSPost2010Prop55
280
     0
102
RTVSPost2010PropOp55
 70
     1
102
RTVSPost2010Prop56
140
1.0
102
RTVSPost2010PropOp56
 70
     1
102
RTVSPost2010Prop57
140
1.0
102
RTVSPost2010PropOp57
 70
     1
  0
XRECORD
  5
23F2
102
{ACAD_REACTORS
330
23F1
102
}
330
23F1
100
AcDbXrecord
280
     1
102
RTVSPost2010Prop28
280
     0
102
RTVSPost2010PropOp28
 70
     1
102
RTVSPost2010Prop29
280
     1
102
RTVSPost2010PropOp29
 70
     1
102
RTVSPost2010Prop30
280
     1
102
RTVSPost2010PropOp30
 70
     1
102
RTVSPost2010Prop31
280
     0
102
RTVSPost2010PropOp31
 70
     1
102
RTVSPost2010Prop32
280
     0
102
RTVSPost2010PropOp32
 70
     1
102
RTVSPost2010Prop33
280
     0
102
RTVSPost2010PropOp33
 70
     1
102
RTVSPost2010Prop34
280
     0
102
RTVSPost2010PropOp34
 70
     1
102
RTVSPost2010Prop35
280
     0
102
RTVSPost2010PropOp35
 70
     1
102
RTVSPost2010Prop36
280
     0
102
RTVSPost2010PropOp36
 70
     1
102
RTVSPost2010Prop37
 90
       50
102
RTVSPost2010PropOp37
 70
     1
102
RTVSPost2010Prop38
140
0.0
102
RTVSPost2010PropOp38
 70
     1
102
RTVSPost2010Prop39
140
1.0
102
RTVSPost2010PropOp39
 70
     1
102
RTVSPost2010Prop40
 90
        0
102
RTVSPost2010PropOp40
 70
     1
102
RTVSPost2010Prop41ColorIndex
 90
       18
102
RTVSPost2010Prop41ColorRGB
 90
        0
102
RTVSPost2010PropOp41
 70
     1
102
RTVSPost2010Prop42
 90
       50
102
RTVSPost2010PropOp42
 70
     1
102
RTVSPost2010Prop43
 90
        3
102
RTVSPost2010PropOp43
 70
     1
102
RTVSPost2010Prop44ColorIndex
 90
        5
102
RTVSPost2010Prop44ColorRGB
 90
      255
102
RTVSPost2010PropOp44
 70
     1
102
RTVSPost2010Prop45
280
     0
102
RTVSPost2010PropOp45
 70
     1
102
RTVSPost2010Prop46
 90
       50
102
RTVSPost2010PropOp46
 70
     1
102
RTVSPost2010Prop47
 90
       50
102
RTVSPost2010PropOp47
 70
     1
102
RTVSPost2010Prop48
 90
       50
102
RTVSPost2010PropOp48
 70
     1
102
RTVSPost2010Prop49
280
     0
102
RTVSPost2010PropOp49
 70
     1
102
RTVSPost2010Prop50
 90
       50
102
RTVSPost2010PropOp50
 70
     1
102
RTVSPost2010Prop51ColorIndex
 90
      256
102
RTVSPost2010Prop51ColorRGB
 90
-16777216
102
RTVSPost2010PropOp51
 70
     0
102
RTVSPost2010Prop52
140
1.0
102
RTVSPost2010PropOp52
 70
     0
102
RTVSPost2010Prop53
 90
        2
102
RTVSPost2010PropOp53
 70
     1
102
RTVSPost2010Prop54
  1
strokes_ogs.tif
102
RTVSPost2010PropOp54
 70
     1
102
RTVSPost2010Prop55
280
     0
102
RTVSPost2010PropOp55
 70
     1
102
RTVSPost2010Prop56
140
1.0
102
RTVSPost2010PropOp56
 70
     1
102
RTVSPost2010Prop57
140
1.0
102
RTVSPost2010PropOp57
 70
     1
  0
XRECORD
  5
23F0
102
{ACAD_REACTORS
330
23EF
102
}
330
23EF
100
AcDbXrecord
280
     1
102
RTVSPost2010Prop28
280
     0
102
RTVSPost2010PropOp28
 70
     1
102
RTVSPost2010Prop29
280
     1
102
RTVSPost2010PropOp29
 70
     1
102
RTVSPost2010Prop30
280
     1
102
RTVSPost2010PropOp30
 70
     1
102
RTVSPost2010Prop31
280
     0
102
RTVSPost2010PropOp31
 70
     1
102
RTVSPost2010Prop32
280
     0
102
RTVSPost2010PropOp32
 70
     1
102
RTVSPost2010Prop33
280
     0
102
RTVSPost2010PropOp33
 70
     1
102
RTVSPost2010Prop34
280
     0
102
RTVSPost2010PropOp34
 70
     1
102
RTVSPost2010Prop35
280
     0
102
RTVSPost2010PropOp35
 70
     1
102
RTVSPost2010Prop36
280
     0
102
RTVSPost2010PropOp36
 70
     1
102
RTVSPost2010Prop37
 90
       50
102
RTVSPost2010PropOp37
 70
     1
102
RTVSPost2010Prop38
140
0.0
102
RTVSPost2010PropOp38
 70
     1
102
RTVSPost2010Prop39
140
1.0
102
RTVSPost2010PropOp39
 70
     1
102
RTVSPost2010Prop40
 90
        0
102
RTVSPost2010PropOp40
 70
     1
102
RTVSPost2010Prop41ColorIndex
 90
       18
102
RTVSPost2010Prop41ColorRGB
 90
        0
102
RTVSPost2010PropOp41
 70
     1
102
RTVSPost2010Prop42
 90
       50
102
RTVSPost2010PropOp42
 70
     1
102
RTVSPost2010Prop43
 90
        3
102
RTVSPost2010PropOp43
 70
     1
102
RTVSPost2010Prop44ColorIndex
 90
        5
102
RTVSPost2010Prop44ColorRGB
 90
      255
102
RTVSPost2010PropOp44
 70
     1
102
RTVSPost2010Prop45
280
     0
102
RTVSPost2010PropOp45
 70
     1
102
RTVSPost2010Prop46
 90
       50
102
RTVSPost2010PropOp46
 70
     1
102
RTVSPost2010Prop47
 90
       50
102
RTVSPost2010PropOp47
 70
     1
102
RTVSPost2010Prop48
 90
       50
102
RTVSPost2010PropOp48
 70
     1
102
RTVSPost2010Prop49
280
     0
102
RTVSPost2010PropOp49
 70
     1
102
RTVSPost2010Prop50
 90
       50
102
RTVSPost2010PropOp50
 70
     1
102
RTVSPost2010Prop51ColorIndex
 90
      256
102
RTVSPost2010Prop51ColorRGB
 90
-16777216
102
RTVSPost2010PropOp51
 70
     0
102
RTVSPost2010Prop52
140
1.0
102
RTVSPost2010PropOp52
 70
     0
102
RTVSPost2010Prop53
 90
        2
102
RTVSPost2010PropOp53
 70
     1
102
RTVSPost2010Prop54
  1
strokes_ogs.tif
102
RTVSPost2010PropOp54
 70
     1
102
RTVSPost2010Prop55
280
     0
102
RTVSPost2010PropOp55
 70
     1
102
RTVSPost2010Prop56
140
1.0
102
RTVSPost2010PropOp56
 70
     1
102
RTVSPost2010Prop57
140
1.0
102
RTVSPost2010PropOp57
 70
     1
  0
XRECORD
  5
23C6
102
{ACAD_REACTORS
330
23C5
102
}
330
23C5
100
AcDbXrecord
280
     1
102
RTVSPost2010Prop28
280
     0
102
RTVSPost2010PropOp28
 70
     1
102
RTVSPost2010Prop29
280
     1
102
RTVSPost2010PropOp29
 70
     1
102
RTVSPost2010Prop30
280
     1
102
RTVSPost2010PropOp30
 70
     1
102
RTVSPost2010Prop31
280
     0
102
RTVSPost2010PropOp31
 70
     1
102
RTVSPost2010Prop32
280
     0
102
RTVSPost2010PropOp32
 70
     1
102
RTVSPost2010Prop33
280
     0
102
RTVSPost2010PropOp33
 70
     1
102
RTVSPost2010Prop34
280
     0
102
RTVSPost2010PropOp34
 70
     1
102
RTVSPost2010Prop35
280
     0
102
RTVSPost2010PropOp35
 70
     1
102
RTVSPost2010Prop36
280
     0
102
RTVSPost2010PropOp36
 70
     1
102
RTVSPost2010Prop37
 90
       50
102
RTVSPost2010PropOp37
 70
     1
102
RTVSPost2010Prop38
140
0.0
102
RTVSPost2010PropOp38
 70
     1
102
RTVSPost2010Prop39
140
1.0
102
RTVSPost2010PropOp39
 70
     1
102
RTVSPost2010Prop40
 90
        0
102
RTVSPost2010PropOp40
 70
     1
102
RTVSPost2010Prop41ColorIndex
 90
       18
102
RTVSPost2010Prop41ColorRGB
 90
        0
102
RTVSPost2010PropOp41
 70
     1
102
RTVSPost2010Prop42
 90
       50
102
RTVSPost2010PropOp42
 70
     1
102
RTVSPost2010Prop43
 90
        3
102
RTVSPost2010PropOp43
 70
     1
102
RTVSPost2010Prop44ColorIndex
 90
        5
102
RTVSPost2010Prop44ColorRGB
 90
      255
102
RTVSPost2010PropOp44
 70
     1
102
RTVSPost2010Prop45
280
     0
102
RTVSPost2010PropOp45
 70
     1
102
RTVSPost2010Prop46
 90
       50
102
RTVSPost2010PropOp46
 70
     1
102
RTVSPost2010Prop47
 90
       50
102
RTVSPost2010PropOp47
 70
     1
102
RTVSPost2010Prop48
 90
       50
102
RTVSPost2010PropOp48
 70
     1
102
RTVSPost2010Prop49
280
     0
102
RTVSPost2010PropOp49
 70
     1
102
RTVSPost2010Prop50
 90
       50
102
RTVSPost2010PropOp50
 70
     1
102
RTVSPost2010Prop51ColorIndex
 90
      256
102
RTVSPost2010Prop51ColorRGB
 90
-16777216
102
RTVSPost2010PropOp51
 70
     0
102
RTVSPost2010Prop52
140
1.0
102
RTVSPost2010PropOp52
 70
     0
102
RTVSPost2010Prop53
 90
        2
102
RTVSPost2010PropOp53
 70
     1
102
RTVSPost2010Prop54
  1
strokes_ogs.tif
102
RTVSPost2010PropOp54
 70
     1
102
RTVSPost2010Prop55
280
     0
102
RTVSPost2010PropOp55
 70
     1
102
RTVSPost2010Prop56
140
1.0
102
RTVSPost2010PropOp56
 70
     1
102
RTVSPost2010Prop57
140
1.0
102
RTVSPost2010PropOp57
 70
     1
  0
XRECORD
  5
23D4
102
{ACAD_REACTORS
330
23D3
102
}
330
23D3
100
AcDbXrecord
280
     1
102
RTVSPost2010Prop28
280
     0
102
RTVSPost2010PropOp28
 70
     1
102
RTVSPost2010Prop29
280
     1
102
RTVSPost2010PropOp29
 70
     1
102
RTVSPost2010Prop30
280
     1
102
RTVSPost2010PropOp30
 70
     1
102
RTVSPost2010Prop31
280
     0
102
RTVSPost2010PropOp31
 70
     1
102
RTVSPost2010Prop32
280
     0
102
RTVSPost2010PropOp32
 70
     1
102
RTVSPost2010Prop33
280
     0
102
RTVSPost2010PropOp33
 70
     1
102
RTVSPost2010Prop34
280
     0
102
RTVSPost2010PropOp34
 70
     1
102
RTVSPost2010Prop35
280
     0
102
RTVSPost2010PropOp35
 70
     1
102
RTVSPost2010Prop36
280
     0
102
RTVSPost2010PropOp36
 70
     1
102
RTVSPost2010Prop37
 90
       50
102
RTVSPost2010PropOp37
 70
     1
102
RTVSPost2010Prop38
140
0.0
102
RTVSPost2010PropOp38
 70
     1
102
RTVSPost2010Prop39
140
1.0
102
RTVSPost2010PropOp39
 70
     1
102
RTVSPost2010Prop40
 90
        0
102
RTVSPost2010PropOp40
 70
     1
102
RTVSPost2010Prop41ColorIndex
 90
       18
102
RTVSPost2010Prop41ColorRGB
 90
        0
102
RTVSPost2010PropOp41
 70
     1
102
RTVSPost2010Prop42
 90
       50
102
RTVSPost2010PropOp42
 70
     1
102
RTVSPost2010Prop43
 90
        3
102
RTVSPost2010PropOp43
 70
     1
102
RTVSPost2010Prop44ColorIndex
 90
        5
102
RTVSPost2010Prop44ColorRGB
 90
      255
102
RTVSPost2010PropOp44
 70
     1
102
RTVSPost2010Prop45
280
     0
102
RTVSPost2010PropOp45
 70
     1
102
RTVSPost2010Prop46
 90
       50
102
RTVSPost2010PropOp46
 70
     1
102
RTVSPost2010Prop47
 90
       50
102
RTVSPost2010PropOp47
 70
     1
102
RTVSPost2010Prop48
 90
       50
102
RTVSPost2010PropOp48
 70
     1
102
RTVSPost2010Prop49
280
     0
102
RTVSPost2010PropOp49
 70
     1
102
RTVSPost2010Prop50
 90
       50
102
RTVSPost2010PropOp50
 70
     1
102
RTVSPost2010Prop51ColorIndex
 90
      256
102
RTVSPost2010Prop51ColorRGB
 90
-16777216
102
RTVSPost2010PropOp51
 70
     0
102
RTVSPost2010Prop52
140
1.0
102
RTVSPost2010PropOp52
 70
     0
102
RTVSPost2010Prop53
 90
        2
102
RTVSPost2010PropOp53
 70
     1
102
RTVSPost2010Prop54
  1
strokes_ogs.tif
102
RTVSPost2010PropOp54
 70
     1
102
RTVSPost2010Prop55
280
     0
102
RTVSPost2010PropOp55
 70
     1
102
RTVSPost2010Prop56
140
1.0
102
RTVSPost2010PropOp56
 70
     1
102
RTVSPost2010Prop57
140
1.0
102
RTVSPost2010PropOp57
 70
     1
  0
XRECORD
  5
23DC
102
{ACAD_REACTORS
330
23DB
102
}
330
23DB
100
AcDbXrecord
280
     1
102
RTVSPost2010Prop28
280
     0
102
RTVSPost2010PropOp28
 70
     1
102
RTVSPost2010Prop29
280
     1
102
RTVSPost2010PropOp29
 70
     1
102
RTVSPost2010Prop30
280
     1
102
RTVSPost2010PropOp30
 70
     1
102
RTVSPost2010Prop31
280
     0
102
RTVSPost2010PropOp31
 70
     1
102
RTVSPost2010Prop32
280
     0
102
RTVSPost2010PropOp32
 70
     1
102
RTVSPost2010Prop33
280
     0
102
RTVSPost2010PropOp33
 70
     1
102
RTVSPost2010Prop34
280
     0
102
RTVSPost2010PropOp34
 70
     1
102
RTVSPost2010Prop35
280
     0
102
RTVSPost2010PropOp35
 70
     1
102
RTVSPost2010Prop36
280
     0
102
RTVSPost2010PropOp36
 70
     1
102
RTVSPost2010Prop37
 90
       50
102
RTVSPost2010PropOp37
 70
     1
102
RTVSPost2010Prop38
140
0.0
102
RTVSPost2010PropOp38
 70
     1
102
RTVSPost2010Prop39
140
1.0
102
RTVSPost2010PropOp39
 70
     1
102
RTVSPost2010Prop40
 90
        0
102
RTVSPost2010PropOp40
 70
     1
102
RTVSPost2010Prop41ColorIndex
 90
       18
102
RTVSPost2010Prop41ColorRGB
 90
        0
102
RTVSPost2010PropOp41
 70
     1
102
RTVSPost2010Prop42
 90
       50
102
RTVSPost2010PropOp42
 70
     1
102
RTVSPost2010Prop43
 90
        3
102
RTVSPost2010PropOp43
 70
     1
102
RTVSPost2010Prop44ColorIndex
 90
        5
102
RTVSPost2010Prop44ColorRGB
 90
      255
102
RTVSPost2010PropOp44
 70
     1
102
RTVSPost2010Prop45
280
     0
102
RTVSPost2010PropOp45
 70
     1
102
RTVSPost2010Prop46
 90
       50
102
RTVSPost2010PropOp46
 70
     1
102
RTVSPost2010Prop47
 90
       50
102
RTVSPost2010PropOp47
 70
     1
102
RTVSPost2010Prop48
 90
       50
102
RTVSPost2010PropOp48
 70
     1
102
RTVSPost2010Prop49
280
     0
102
RTVSPost2010PropOp49
 70
     1
102
RTVSPost2010Prop50
 90
       50
102
RTVSPost2010PropOp50
 70
     1
102
RTVSPost2010Prop51ColorIndex
 90
      256
102
RTVSPost2010Prop51ColorRGB
 90
-16777216
102
RTVSPost2010PropOp51
 70
     0
102
RTVSPost2010Prop52
140
1.0
102
RTVSPost2010PropOp52
 70
     0
102
RTVSPost2010Prop53
 90
        2
102
RTVSPost2010PropOp53
 70
     1
102
RTVSPost2010Prop54
  1
strokes_ogs.tif
102
RTVSPost2010PropOp54
 70
     1
102
RTVSPost2010Prop55
280
     0
102
RTVSPost2010PropOp55
 70
     1
102
RTVSPost2010Prop56
140
1.0
102
RTVSPost2010PropOp56
 70
     1
102
RTVSPost2010Prop57
140
1.0
102
RTVSPost2010PropOp57
 70
     1
  0
XRECORD
  5
23CE
102
{ACAD_REACTORS
330
23CD
102
}
330
23CD
100
AcDbXrecord
280
     1
102
RTVSPost2010Prop28
280
     0
102
RTVSPost2010PropOp28
 70
     1
102
RTVSPost2010Prop29
280
     1
102
RTVSPost2010PropOp29
 70
     1
102
RTVSPost2010Prop30
280
     1
102
RTVSPost2010PropOp30
 70
     1
102
RTVSPost2010Prop31
280
     0
102
RTVSPost2010PropOp31
 70
     1
102
RTVSPost2010Prop32
280
     0
102
RTVSPost2010PropOp32
 70
     1
102
RTVSPost2010Prop33
280
     0
102
RTVSPost2010PropOp33
 70
     1
102
RTVSPost2010Prop34
280
     0
102
RTVSPost2010PropOp34
 70
     1
102
RTVSPost2010Prop35
280
     0
102
RTVSPost2010PropOp35
 70
     1
102
RTVSPost2010Prop36
280
     0
102
RTVSPost2010PropOp36
 70
     1
102
RTVSPost2010Prop37
 90
       50
102
RTVSPost2010PropOp37
 70
     1
102
RTVSPost2010Prop38
140
0.0
102
RTVSPost2010PropOp38
 70
     1
102
RTVSPost2010Prop39
140
1.0
102
RTVSPost2010PropOp39
 70
     1
102
RTVSPost2010Prop40
 90
        0
102
RTVSPost2010PropOp40
 70
     1
102
RTVSPost2010Prop41ColorIndex
 90
       18
102
RTVSPost2010Prop41ColorRGB
 90
        0
102
RTVSPost2010PropOp41
 70
     1
102
RTVSPost2010Prop42
 90
       50
102
RTVSPost2010PropOp42
 70
     1
102
RTVSPost2010Prop43
 90
        3
102
RTVSPost2010PropOp43
 70
     1
102
RTVSPost2010Prop44ColorIndex
 90
        5
102
RTVSPost2010Prop44ColorRGB
 90
      255
102
RTVSPost2010PropOp44
 70
     1
102
RTVSPost2010Prop45
280
     0
102
RTVSPost2010PropOp45
 70
     1
102
RTVSPost2010Prop46
 90
       50
102
RTVSPost2010PropOp46
 70
     1
102
RTVSPost2010Prop47
 90
       50
102
RTVSPost2010PropOp47
 70
     1
102
RTVSPost2010Prop48
 90
       50
102
RTVSPost2010PropOp48
 70
     1
102
RTVSPost2010Prop49
280
     0
102
RTVSPost2010PropOp49
 70
     1
102
RTVSPost2010Prop50
 90
       50
102
RTVSPost2010PropOp50
 70
     1
102
RTVSPost2010Prop51ColorIndex
 90
      256
102
RTVSPost2010Prop51ColorRGB
 90
-16777216
102
RTVSPost2010PropOp51
 70
     0
102
RTVSPost2010Prop52
140
1.0
102
RTVSPost2010PropOp52
 70
     0
102
RTVSPost2010Prop53
 90
        2
102
RTVSPost2010PropOp53
 70
     1
102
RTVSPost2010Prop54
  1
strokes_ogs.tif
102
RTVSPost2010PropOp54
 70
     1
102
RTVSPost2010Prop55
280
     0
102
RTVSPost2010PropOp55
 70
     1
102
RTVSPost2010Prop56
140
1.0
102
RTVSPost2010PropOp56
 70
     1
102
RTVSPost2010Prop57
140
1.0
102
RTVSPost2010PropOp57
 70
     1
  0
XRECORD
  5
23D2
102
{ACAD_REACTORS
330
23D1
102
}
330
23D1
100
AcDbXrecord
280
     1
102
RTVSPost2010Prop28
280
     0
102
RTVSPost2010PropOp28
 70
     1
102
RTVSPost2010Prop29
280
     1
102
RTVSPost2010PropOp29
 70
     1
102
RTVSPost2010Prop30
280
     1
102
RTVSPost2010PropOp30
 70
     1
102
RTVSPost2010Prop31
280
     0
102
RTVSPost2010PropOp31
 70
     1
102
RTVSPost2010Prop32
280
     0
102
RTVSPost2010PropOp32
 70
     1
102
RTVSPost2010Prop33
280
     0
102
RTVSPost2010PropOp33
 70
     1
102
RTVSPost2010Prop34
280
     0
102
RTVSPost2010PropOp34
 70
     1
102
RTVSPost2010Prop35
280
     0
102
RTVSPost2010PropOp35
 70
     1
102
RTVSPost2010Prop36
280
     0
102
RTVSPost2010PropOp36
 70
     1
102
RTVSPost2010Prop37
 90
       50
102
RTVSPost2010PropOp37
 70
     1
102
RTVSPost2010Prop38
140
0.0
102
RTVSPost2010PropOp38
 70
     1
102
RTVSPost2010Prop39
140
1.0
102
RTVSPost2010PropOp39
 70
     1
102
RTVSPost2010Prop40
 90
        0
102
RTVSPost2010PropOp40
 70
     1
102
RTVSPost2010Prop41ColorIndex
 90
       18
102
RTVSPost2010Prop41ColorRGB
 90
        0
102
RTVSPost2010PropOp41
 70
     1
102
RTVSPost2010Prop42
 90
       50
102
RTVSPost2010PropOp42
 70
     1
102
RTVSPost2010Prop43
 90
        3
102
RTVSPost2010PropOp43
 70
     1
102
RTVSPost2010Prop44ColorIndex
 90
        5
102
RTVSPost2010Prop44ColorRGB
 90
      255
102
RTVSPost2010PropOp44
 70
     1
102
RTVSPost2010Prop45
280
     0
102
RTVSPost2010PropOp45
 70
     1
102
RTVSPost2010Prop46
 90
       50
102
RTVSPost2010PropOp46
 70
     1
102
RTVSPost2010Prop47
 90
       50
102
RTVSPost2010PropOp47
 70
     1
102
RTVSPost2010Prop48
 90
       50
102
RTVSPost2010PropOp48
 70
     1
102
RTVSPost2010Prop49
280
     0
102
RTVSPost2010PropOp49
 70
     1
102
RTVSPost2010Prop50
 90
       50
102
RTVSPost2010PropOp50
 70
     1
102
RTVSPost2010Prop51ColorIndex
 90
      256
102
RTVSPost2010Prop51ColorRGB
 90
-16777216
102
RTVSPost2010PropOp51
 70
     0
102
RTVSPost2010Prop52
140
1.0
102
RTVSPost2010PropOp52
 70
     0
102
RTVSPost2010Prop53
 90
        2
102
RTVSPost2010PropOp53
 70
     1
102
RTVSPost2010Prop54
  1
strokes_ogs.tif
102
RTVSPost2010PropOp54
 70
     1
102
RTVSPost2010Prop55
280
     0
102
RTVSPost2010PropOp55
 70
     1
102
RTVSPost2010Prop56
140
1.0
102
RTVSPost2010PropOp56
 70
     1
102
RTVSPost2010Prop57
140
1.0
102
RTVSPost2010PropOp57
 70
     1
  0
XRECORD
  5
23EC
102
{ACAD_REACTORS
330
23EB
102
}
330
23EB
100
AcDbXrecord
280
     1
102
RTVSPost2010Prop28
280
     0
102
RTVSPost2010PropOp28
 70
     1
102
RTVSPost2010Prop29
280
     1
102
RTVSPost2010PropOp29
 70
     1
102
RTVSPost2010Prop30
280
     1
102
RTVSPost2010PropOp30
 70
     1
102
RTVSPost2010Prop31
280
     0
102
RTVSPost2010PropOp31
 70
     1
102
RTVSPost2010Prop32
280
     0
102
RTVSPost2010PropOp32
 70
     1
102
RTVSPost2010Prop33
280
     0
102
RTVSPost2010PropOp33
 70
     1
102
RTVSPost2010Prop34
280
     0
102
RTVSPost2010PropOp34
 70
     1
102
RTVSPost2010Prop35
280
     0
102
RTVSPost2010PropOp35
 70
     1
102
RTVSPost2010Prop36
280
     0
102
RTVSPost2010PropOp36
 70
     1
102
RTVSPost2010Prop37
 90
       50
102
RTVSPost2010PropOp37
 70
     1
102
RTVSPost2010Prop38
140
0.0
102
RTVSPost2010PropOp38
 70
     1
102
RTVSPost2010Prop39
140
1.0
102
RTVSPost2010PropOp39
 70
     1
102
RTVSPost2010Prop40
 90
        0
102
RTVSPost2010PropOp40
 70
     1
102
RTVSPost2010Prop41ColorIndex
 90
       18
102
RTVSPost2010Prop41ColorRGB
 90
        0
102
RTVSPost2010PropOp41
 70
     1
102
RTVSPost2010Prop42
 90
       50
102
RTVSPost2010PropOp42
 70
     1
102
RTVSPost2010Prop43
 90
        3
102
RTVSPost2010PropOp43
 70
     1
102
RTVSPost2010Prop44ColorIndex
 90
        5
102
RTVSPost2010Prop44ColorRGB
 90
      255
102
RTVSPost2010PropOp44
 70
     1
102
RTVSPost2010Prop45
280
     0
102
RTVSPost2010PropOp45
 70
     1
102
RTVSPost2010Prop46
 90
       50
102
RTVSPost2010PropOp46
 70
     1
102
RTVSPost2010Prop47
 90
       50
102
RTVSPost2010PropOp47
 70
     1
102
RTVSPost2010Prop48
 90
       50
102
RTVSPost2010PropOp48
 70
     1
102
RTVSPost2010Prop49
280
     0
102
RTVSPost2010PropOp49
 70
     1
102
RTVSPost2010Prop50
 90
       50
102
RTVSPost2010PropOp50
 70
     1
102
RTVSPost2010Prop51ColorIndex
 90
      256
102
RTVSPost2010Prop51ColorRGB
 90
-16777216
102
RTVSPost2010PropOp51
 70
     0
102
RTVSPost2010Prop52
140
1.0
102
RTVSPost2010PropOp52
 70
     0
102
RTVSPost2010Prop53
 90
        2
102
RTVSPost2010PropOp53
 70
     1
102
RTVSPost2010Prop54
  1
strokes_ogs.tif
102
RTVSPost2010PropOp54
 70
     1
102
RTVSPost2010Prop55
280
     0
102
RTVSPost2010PropOp55
 70
     1
102
RTVSPost2010Prop56
140
1.0
102
RTVSPost2010PropOp56
 70
     1
102
RTVSPost2010Prop57
140
1.0
102
RTVSPost2010PropOp57
 70
     1
  0
XRECORD
  5
23DA
102
{ACAD_REACTORS
330
23D9
102
}
330
23D9
100
AcDbXrecord
280
     1
102
RTVSPost2010Prop28
280
     0
102
RTVSPost2010PropOp28
 70
     1
102
RTVSPost2010Prop29
280
     1
102
RTVSPost2010PropOp29
 70
     1
102
RTVSPost2010Prop30
280
     1
102
RTVSPost2010PropOp30
 70
     1
102
RTVSPost2010Prop31
280
     0
102
RTVSPost2010PropOp31
 70
     1
102
RTVSPost2010Prop32
280
     0
102
RTVSPost2010PropOp32
 70
     1
102
RTVSPost2010Prop33
280
     0
102
RTVSPost2010PropOp33
 70
     1
102
RTVSPost2010Prop34
280
     0
102
RTVSPost2010PropOp34
 70
     1
102
RTVSPost2010Prop35
280
     0
102
RTVSPost2010PropOp35
 70
     1
102
RTVSPost2010Prop36
280
     0
102
RTVSPost2010PropOp36
 70
     1
102
RTVSPost2010Prop37
 90
       50
102
RTVSPost2010PropOp37
 70
     1
102
RTVSPost2010Prop38
140
0.0
102
RTVSPost2010PropOp38
 70
     1
102
RTVSPost2010Prop39
140
1.0
102
RTVSPost2010PropOp39
 70
     1
102
RTVSPost2010Prop40
 90
        0
102
RTVSPost2010PropOp40
 70
     1
102
RTVSPost2010Prop41ColorIndex
 90
       18
102
RTVSPost2010Prop41ColorRGB
 90
        0
102
RTVSPost2010PropOp41
 70
     1
102
RTVSPost2010Prop42
 90
       50
102
RTVSPost2010PropOp42
 70
     1
102
RTVSPost2010Prop43
 90
        3
102
RTVSPost2010PropOp43
 70
     1
102
RTVSPost2010Prop44ColorIndex
 90
        5
102
RTVSPost2010Prop44ColorRGB
 90
      255
102
RTVSPost2010PropOp44
 70
     1
102
RTVSPost2010Prop45
280
     0
102
RTVSPost2010PropOp45
 70
     1
102
RTVSPost2010Prop46
 90
       50
102
RTVSPost2010PropOp46
 70
     1
102
RTVSPost2010Prop47
 90
       50
102
RTVSPost2010PropOp47
 70
     1
102
RTVSPost2010Prop48
 90
       50
102
RTVSPost2010PropOp48
 70
     1
102
RTVSPost2010Prop49
280
     0
102
RTVSPost2010PropOp49
 70
     1
102
RTVSPost2010Prop50
 90
       50
102
RTVSPost2010PropOp50
 70
     1
102
RTVSPost2010Prop51ColorIndex
 90
      256
102
RTVSPost2010Prop51ColorRGB
 90
-16777216
102
RTVSPost2010PropOp51
 70
     0
102
RTVSPost2010Prop52
140
1.0
102
RTVSPost2010PropOp52
 70
     0
102
RTVSPost2010Prop53
 90
        2
102
RTVSPost2010PropOp53
 70
     1
102
RTVSPost2010Prop54
  1
strokes_ogs.tif
102
RTVSPost2010PropOp54
 70
     1
102
RTVSPost2010Prop55
280
     0
102
RTVSPost2010PropOp55
 70
     1
102
RTVSPost2010Prop56
140
1.0
102
RTVSPost2010PropOp56
 70
     1
102
RTVSPost2010Prop57
140
1.0
102
RTVSPost2010PropOp57
 70
     1
  0
XRECORD
  5
23BE
102
{ACAD_REACTORS
330
23BD
102
}
330
23BD
100
AcDbXrecord
280
     1
102
RTVSPost2010Prop28
280
     0
102
RTVSPost2010PropOp28
 70
     1
102
RTVSPost2010Prop29
280
     1
102
RTVSPost2010PropOp29
 70
     1
102
RTVSPost2010Prop30
280
     1
102
RTVSPost2010PropOp30
 70
     1
102
RTVSPost2010Prop31
280
     0
102
RTVSPost2010PropOp31
 70
     1
102
RTVSPost2010Prop32
280
     0
102
RTVSPost2010PropOp32
 70
     1
102
RTVSPost2010Prop33
280
     0
102
RTVSPost2010PropOp33
 70
     1
102
RTVSPost2010Prop34
280
     0
102
RTVSPost2010PropOp34
 70
     1
102
RTVSPost2010Prop35
280
     0
102
RTVSPost2010PropOp35
 70
     1
102
RTVSPost2010Prop36
280
     0
102
RTVSPost2010PropOp36
 70
     1
102
RTVSPost2010Prop37
 90
       50
102
RTVSPost2010PropOp37
 70
     1
102
RTVSPost2010Prop38
140
0.0
102
RTVSPost2010PropOp38
 70
     1
102
RTVSPost2010Prop39
140
1.0
102
RTVSPost2010PropOp39
 70
     1
102
RTVSPost2010Prop40
 90
        0
102
RTVSPost2010PropOp40
 70
     1
102
RTVSPost2010Prop41ColorIndex
 90
       18
102
RTVSPost2010Prop41ColorRGB
 90
        0
102
RTVSPost2010PropOp41
 70
     1
102
RTVSPost2010Prop42
 90
       50
102
RTVSPost2010PropOp42
 70
     1
102
RTVSPost2010Prop43
 90
        3
102
RTVSPost2010PropOp43
 70
     1
102
RTVSPost2010Prop44ColorIndex
 90
        5
102
RTVSPost2010Prop44ColorRGB
 90
      255
102
RTVSPost2010PropOp44
 70
     1
102
RTVSPost2010Prop45
280
     0
102
RTVSPost2010PropOp45
 70
     1
102
RTVSPost2010Prop46
 90
       50
102
RTVSPost2010PropOp46
 70
     1
102
RTVSPost2010Prop47
 90
       50
102
RTVSPost2010PropOp47
 70
     1
102
RTVSPost2010Prop48
 90
       50
102
RTVSPost2010PropOp48
 70
     1
102
RTVSPost2010Prop49
280
     0
102
RTVSPost2010PropOp49
 70
     1
102
RTVSPost2010Prop50
 90
       50
102
RTVSPost2010PropOp50
 70
     1
102
RTVSPost2010Prop51ColorIndex
 90
      256
102
RTVSPost2010Prop51ColorRGB
 90
-16777216
102
RTVSPost2010PropOp51
 70
     0
102
RTVSPost2010Prop52
140
1.0
102
RTVSPost2010PropOp52
 70
     0
102
RTVSPost2010Prop53
 90
        2
102
RTVSPost2010PropOp53
 70
     1
102
RTVSPost2010Prop54
  1
strokes_ogs.tif
102
RTVSPost2010PropOp54
 70
     1
102
RTVSPost2010Prop55
280
     0
102
RTVSPost2010PropOp55
 70
     1
102
RTVSPost2010Prop56
140
1.0
102
RTVSPost2010PropOp56
 70
     1
102
RTVSPost2010Prop57
140
1.0
102
RTVSPost2010PropOp57
 70
     1
  0
XRECORD
  5
23C0
102
{ACAD_REACTORS
330
23BF
102
}
330
23BF
100
AcDbXrecord
280
     1
102
RTVSPost2010Prop28
280
     0
102
RTVSPost2010PropOp28
 70
     1
102
RTVSPost2010Prop29
280
     1
102
RTVSPost2010PropOp29
 70
     1
102
RTVSPost2010Prop30
280
     1
102
RTVSPost2010PropOp30
 70
     1
102
RTVSPost2010Prop31
280
     0
102
RTVSPost2010PropOp31
 70
     1
102
RTVSPost2010Prop32
280
     0
102
RTVSPost2010PropOp32
 70
     1
102
RTVSPost2010Prop33
280
     0
102
RTVSPost2010PropOp33
 70
     1
102
RTVSPost2010Prop34
280
     0
102
RTVSPost2010PropOp34
 70
     1
102
RTVSPost2010Prop35
280
     0
102
RTVSPost2010PropOp35
 70
     1
102
RTVSPost2010Prop36
280
     0
102
RTVSPost2010PropOp36
 70
     1
102
RTVSPost2010Prop37
 90
       50
102
RTVSPost2010PropOp37
 70
     1
102
RTVSPost2010Prop38
140
0.0
102
RTVSPost2010PropOp38
 70
     1
102
RTVSPost2010Prop39
140
1.0
102
RTVSPost2010PropOp39
 70
     1
102
RTVSPost2010Prop40
 90
        0
102
RTVSPost2010PropOp40
 70
     1
102
RTVSPost2010Prop41ColorIndex
 90
       18
102
RTVSPost2010Prop41ColorRGB
 90
        0
102
RTVSPost2010PropOp41
 70
     1
102
RTVSPost2010Prop42
 90
       50
102
RTVSPost2010PropOp42
 70
     1
102
RTVSPost2010Prop43
 90
        3
102
RTVSPost2010PropOp43
 70
     1
102
RTVSPost2010Prop44ColorIndex
 90
        5
102
RTVSPost2010Prop44ColorRGB
 90
      255
102
RTVSPost2010PropOp44
 70
     1
102
RTVSPost2010Prop45
280
     0
102
RTVSPost2010PropOp45
 70
     1
102
RTVSPost2010Prop46
 90
       50
102
RTVSPost2010PropOp46
 70
     1
102
RTVSPost2010Prop47
 90
       50
102
RTVSPost2010PropOp47
 70
     1
102
RTVSPost2010Prop48
 90
       50
102
RTVSPost2010PropOp48
 70
     1
102
RTVSPost2010Prop49
280
     0
102
RTVSPost2010PropOp49
 70
     1
102
RTVSPost2010Prop50
 90
       50
102
RTVSPost2010PropOp50
 70
     1
102
RTVSPost2010Prop51ColorIndex
 90
      256
102
RTVSPost2010Prop51ColorRGB
 90
-16777216
102
RTVSPost2010PropOp51
 70
     0
102
RTVSPost2010Prop52
140
1.0
102
RTVSPost2010PropOp52
 70
     0
102
RTVSPost2010Prop53
 90
        2
102
RTVSPost2010PropOp53
 70
     1
102
RTVSPost2010Prop54
  1
strokes_ogs.tif
102
RTVSPost2010PropOp54
 70
     1
102
RTVSPost2010Prop55
280
     0
102
RTVSPost2010PropOp55
 70
     1
102
RTVSPost2010Prop56
140
1.0
102
RTVSPost2010PropOp56
 70
     1
102
RTVSPost2010Prop57
140
1.0
102
RTVSPost2010PropOp57
 70
     1
  0
XRECORD
  5
23C2
102
{ACAD_REACTORS
330
23C1
102
}
330
23C1
100
AcDbXrecord
280
     1
102
RTVSPost2010Prop28
280
     0
102
RTVSPost2010PropOp28
 70
     1
102
RTVSPost2010Prop29
280
     1
102
RTVSPost2010PropOp29
 70
     1
102
RTVSPost2010Prop30
280
     1
102
RTVSPost2010PropOp30
 70
     1
102
RTVSPost2010Prop31
280
     0
102
RTVSPost2010PropOp31
 70
     1
102
RTVSPost2010Prop32
280
     0
102
RTVSPost2010PropOp32
 70
     1
102
RTVSPost2010Prop33
280
     0
102
RTVSPost2010PropOp33
 70
     1
102
RTVSPost2010Prop34
280
     0
102
RTVSPost2010PropOp34
 70
     1
102
RTVSPost2010Prop35
280
     0
102
RTVSPost2010PropOp35
 70
     1
102
RTVSPost2010Prop36
280
     0
102
RTVSPost2010PropOp36
 70
     1
102
RTVSPost2010Prop37
 90
       50
102
RTVSPost2010PropOp37
 70
     1
102
RTVSPost2010Prop38
140
0.0
102
RTVSPost2010PropOp38
 70
     1
102
RTVSPost2010Prop39
140
1.0
102
RTVSPost2010PropOp39
 70
     1
102
RTVSPost2010Prop40
 90
        0
102
RTVSPost2010PropOp40
 70
     1
102
RTVSPost2010Prop41ColorIndex
 90
       18
102
RTVSPost2010Prop41ColorRGB
 90
        0
102
RTVSPost2010PropOp41
 70
     1
102
RTVSPost2010Prop42
 90
       50
102
RTVSPost2010PropOp42
 70
     1
102
RTVSPost2010Prop43
 90
        3
102
RTVSPost2010PropOp43
 70
     1
102
RTVSPost2010Prop44ColorIndex
 90
        5
102
RTVSPost2010Prop44ColorRGB
 90
      255
102
RTVSPost2010PropOp44
 70
     1
102
RTVSPost2010Prop45
280
     0
102
RTVSPost2010PropOp45
 70
     1
102
RTVSPost2010Prop46
 90
       50
102
RTVSPost2010PropOp46
 70
     1
102
RTVSPost2010Prop47
 90
       50
102
RTVSPost2010PropOp47
 70
     1
102
RTVSPost2010Prop48
 90
       50
102
RTVSPost2010PropOp48
 70
     1
102
RTVSPost2010Prop49
280
     0
102
RTVSPost2010PropOp49
 70
     1
102
RTVSPost2010Prop50
 90
       50
102
RTVSPost2010PropOp50
 70
     1
102
RTVSPost2010Prop51ColorIndex
 90
      256
102
RTVSPost2010Prop51ColorRGB
 90
-16777216
102
RTVSPost2010PropOp51
 70
     0
102
RTVSPost2010Prop52
140
1.0
102
RTVSPost2010PropOp52
 70
     0
102
RTVSPost2010Prop53
 90
        2
102
RTVSPost2010PropOp53
 70
     1
102
RTVSPost2010Prop54
  1
strokes_ogs.tif
102
RTVSPost2010PropOp54
 70
     1
102
RTVSPost2010Prop55
280
     0
102
RTVSPost2010PropOp55
 70
     1
102
RTVSPost2010Prop56
140
1.0
102
RTVSPost2010PropOp56
 70
     1
102
RTVSPost2010Prop57
140
1.0
102
RTVSPost2010PropOp57
 70
     1
  0
XRECORD
  5
23C4
102
{ACAD_REACTORS
330
23C3
102
}
330
23C3
100
AcDbXrecord
280
     1
102
RTVSPost2010Prop28
280
     0
102
RTVSPost2010PropOp28
 70
     1
102
RTVSPost2010Prop29
280
     1
102
RTVSPost2010PropOp29
 70
     1
102
RTVSPost2010Prop30
280
     1
102
RTVSPost2010PropOp30
 70
     1
102
RTVSPost2010Prop31
280
     0
102
RTVSPost2010PropOp31
 70
     1
102
RTVSPost2010Prop32
280
     0
102
RTVSPost2010PropOp32
 70
     1
102
RTVSPost2010Prop33
280
     0
102
RTVSPost2010PropOp33
 70
     1
102
RTVSPost2010Prop34
280
     0
102
RTVSPost2010PropOp34
 70
     1
102
RTVSPost2010Prop35
280
     0
102
RTVSPost2010PropOp35
 70
     1
102
RTVSPost2010Prop36
280
     0
102
RTVSPost2010PropOp36
 70
     1
102
RTVSPost2010Prop37
 90
       50
102
RTVSPost2010PropOp37
 70
     1
102
RTVSPost2010Prop38
140
0.0
102
RTVSPost2010PropOp38
 70
     1
102
RTVSPost2010Prop39
140
1.0
102
RTVSPost2010PropOp39
 70
     1
102
RTVSPost2010Prop40
 90
        0
102
RTVSPost2010PropOp40
 70
     1
102
RTVSPost2010Prop41ColorIndex
 90
       18
102
RTVSPost2010Prop41ColorRGB
 90
        0
102
RTVSPost2010PropOp41
 70
     1
102
RTVSPost2010Prop42
 90
       50
102
RTVSPost2010PropOp42
 70
     1
102
RTVSPost2010Prop43
 90
        3
102
RTVSPost2010PropOp43
 70
     1
102
RTVSPost2010Prop44ColorIndex
 90
        5
102
RTVSPost2010Prop44ColorRGB
 90
      255
102
RTVSPost2010PropOp44
 70
     1
102
RTVSPost2010Prop45
280
     0
102
RTVSPost2010PropOp45
 70
     1
102
RTVSPost2010Prop46
 90
       50
102
RTVSPost2010PropOp46
 70
     1
102
RTVSPost2010Prop47
 90
       50
102
RTVSPost2010PropOp47
 70
     1
102
RTVSPost2010Prop48
 90
       50
102
RTVSPost2010PropOp48
 70
     1
102
RTVSPost2010Prop49
280
     0
102
RTVSPost2010PropOp49
 70
     1
102
RTVSPost2010Prop50
 90
       50
102
RTVSPost2010PropOp50
 70
     1
102
RTVSPost2010Prop51ColorIndex
 90
      256
102
RTVSPost2010Prop51ColorRGB
 90
-16777216
102
RTVSPost2010PropOp51
 70
     0
102
RTVSPost2010Prop52
140
1.0
102
RTVSPost2010PropOp52
 70
     0
102
RTVSPost2010Prop53
 90
        2
102
RTVSPost2010PropOp53
 70
     1
102
RTVSPost2010Prop54
  1
strokes_ogs.tif
102
RTVSPost2010PropOp54
 70
     1
102
RTVSPost2010Prop55
280
     0
102
RTVSPost2010PropOp55
 70
     1
102
RTVSPost2010Prop56
140
1.0
102
RTVSPost2010PropOp56
 70
     1
102
RTVSPost2010Prop57
140
1.0
102
RTVSPost2010PropOp57
 70
     1
  0
XRECORD
  5
23CC
102
{ACAD_REACTORS
330
23CB
102
}
330
23CB
100
AcDbXrecord
280
     1
102
RTVSPost2010Prop28
280
     0
102
RTVSPost2010PropOp28
 70
     1
102
RTVSPost2010Prop29
280
     1
102
RTVSPost2010PropOp29
 70
     1
102
RTVSPost2010Prop30
280
     1
102
RTVSPost2010PropOp30
 70
     1
102
RTVSPost2010Prop31
280
     0
102
RTVSPost2010PropOp31
 70
     1
102
RTVSPost2010Prop32
280
     0
102
RTVSPost2010PropOp32
 70
     1
102
RTVSPost2010Prop33
280
     0
102
RTVSPost2010PropOp33
 70
     1
102
RTVSPost2010Prop34
280
     0
102
RTVSPost2010PropOp34
 70
     1
102
RTVSPost2010Prop35
280
     0
102
RTVSPost2010PropOp35
 70
     1
102
RTVSPost2010Prop36
280
     0
102
RTVSPost2010PropOp36
 70
     1
102
RTVSPost2010Prop37
 90
       50
102
RTVSPost2010PropOp37
 70
     1
102
RTVSPost2010Prop38
140
0.0
102
RTVSPost2010PropOp38
 70
     1
102
RTVSPost2010Prop39
140
1.0
102
RTVSPost2010PropOp39
 70
     1
102
RTVSPost2010Prop40
 90
        0
102
RTVSPost2010PropOp40
 70
     1
102
RTVSPost2010Prop41ColorIndex
 90
       18
102
RTVSPost2010Prop41ColorRGB
 90
        0
102
RTVSPost2010PropOp41
 70
     1
102
RTVSPost2010Prop42
 90
       50
102
RTVSPost2010PropOp42
 70
     1
102
RTVSPost2010Prop43
 90
        3
102
RTVSPost2010PropOp43
 70
     1
102
RTVSPost2010Prop44ColorIndex
 90
        5
102
RTVSPost2010Prop44ColorRGB
 90
      255
102
RTVSPost2010PropOp44
 70
     1
102
RTVSPost2010Prop45
280
     0
102
RTVSPost2010PropOp45
 70
     1
102
RTVSPost2010Prop46
 90
       50
102
RTVSPost2010PropOp46
 70
     1
102
RTVSPost2010Prop47
 90
       50
102
RTVSPost2010PropOp47
 70
     1
102
RTVSPost2010Prop48
 90
       50
102
RTVSPost2010PropOp48
 70
     1
102
RTVSPost2010Prop49
280
     0
102
RTVSPost2010PropOp49
 70
     1
102
RTVSPost2010Prop50
 90
       50
102
RTVSPost2010PropOp50
 70
     1
102
RTVSPost2010Prop51ColorIndex
 90
      256
102
RTVSPost2010Prop51ColorRGB
 90
-16777216
102
RTVSPost2010PropOp51
 70
     0
102
RTVSPost2010Prop52
140
1.0
102
RTVSPost2010PropOp52
 70
     0
102
RTVSPost2010Prop53
 90
        2
102
RTVSPost2010PropOp53
 70
     1
102
RTVSPost2010Prop54
  1
strokes_ogs.tif
102
RTVSPost2010PropOp54
 70
     1
102
RTVSPost2010Prop55
280
     0
102
RTVSPost2010PropOp55
 70
     1
102
RTVSPost2010Prop56
140
1.0
102
RTVSPost2010PropOp56
 70
     1
102
RTVSPost2010Prop57
140
1.0
102
RTVSPost2010PropOp57
 70
     1
  0
XRECORD
  5
23E8
102
{ACAD_REACTORS
330
23E7
102
}
330
23E7
100
AcDbXrecord
280
     1
102
RTVSPost2010Prop28
280
     0
102
RTVSPost2010PropOp28
 70
     1
102
RTVSPost2010Prop29
280
     1
102
RTVSPost2010PropOp29
 70
     1
102
RTVSPost2010Prop30
280
     1
102
RTVSPost2010PropOp30
 70
     1
102
RTVSPost2010Prop31
280
     0
102
RTVSPost2010PropOp31
 70
     1
102
RTVSPost2010Prop32
280
     0
102
RTVSPost2010PropOp32
 70
     1
102
RTVSPost2010Prop33
280
     0
102
RTVSPost2010PropOp33
 70
     1
102
RTVSPost2010Prop34
280
     0
102
RTVSPost2010PropOp34
 70
     1
102
RTVSPost2010Prop35
280
     0
102
RTVSPost2010PropOp35
 70
     1
102
RTVSPost2010Prop36
280
     0
102
RTVSPost2010PropOp36
 70
     1
102
RTVSPost2010Prop37
 90
       50
102
RTVSPost2010PropOp37
 70
     1
102
RTVSPost2010Prop38
140
0.0
102
RTVSPost2010PropOp38
 70
     1
102
RTVSPost2010Prop39
140
1.0
102
RTVSPost2010PropOp39
 70
     1
102
RTVSPost2010Prop40
 90
        0
102
RTVSPost2010PropOp40
 70
     1
102
RTVSPost2010Prop41ColorIndex
 90
       18
102
RTVSPost2010Prop41ColorRGB
 90
        0
102
RTVSPost2010PropOp41
 70
     1
102
RTVSPost2010Prop42
 90
       50
102
RTVSPost2010PropOp42
 70
     1
102
RTVSPost2010Prop43
 90
        3
102
RTVSPost2010PropOp43
 70
     1
102
RTVSPost2010Prop44ColorIndex
 90
        5
102
RTVSPost2010Prop44ColorRGB
 90
      255
102
RTVSPost2010PropOp44
 70
     1
102
RTVSPost2010Prop45
280
     0
102
RTVSPost2010PropOp45
 70
     1
102
RTVSPost2010Prop46
 90
       50
102
RTVSPost2010PropOp46
 70
     1
102
RTVSPost2010Prop47
 90
       50
102
RTVSPost2010PropOp47
 70
     1
102
RTVSPost2010Prop48
 90
       50
102
RTVSPost2010PropOp48
 70
     1
102
RTVSPost2010Prop49
280
     0
102
RTVSPost2010PropOp49
 70
     1
102
RTVSPost2010Prop50
 90
       50
102
RTVSPost2010PropOp50
 70
     1
102
RTVSPost2010Prop51ColorIndex
 90
      256
102
RTVSPost2010Prop51ColorRGB
 90
-16777216
102
RTVSPost2010PropOp51
 70
     0
102
RTVSPost2010Prop52
140
1.0
102
RTVSPost2010PropOp52
 70
     0
102
RTVSPost2010Prop53
 90
        2
102
RTVSPost2010PropOp53
 70
     1
102
RTVSPost2010Prop54
  1
strokes_ogs.tif
102
RTVSPost2010PropOp54
 70
     1
102
RTVSPost2010Prop55
280
     0
102
RTVSPost2010PropOp55
 70
     1
102
RTVSPost2010Prop56
140
1.0
102
RTVSPost2010PropOp56
 70
     1
102
RTVSPost2010Prop57
140
1.0
102
RTVSPost2010PropOp57
 70
     1
  0
XRECORD
  5
23D8
102
{ACAD_REACTORS
330
23D7
102
}
330
23D7
100
AcDbXrecord
280
     1
102
RTVSPost2010Prop28
280
     0
102
RTVSPost2010PropOp28
 70
     1
102
RTVSPost2010Prop29
280
     1
102
RTVSPost2010PropOp29
 70
     1
102
RTVSPost2010Prop30
280
     1
102
RTVSPost2010PropOp30
 70
     1
102
RTVSPost2010Prop31
280
     0
102
RTVSPost2010PropOp31
 70
     1
102
RTVSPost2010Prop32
280
     0
102
RTVSPost2010PropOp32
 70
     1
102
RTVSPost2010Prop33
280
     0
102
RTVSPost2010PropOp33
 70
     1
102
RTVSPost2010Prop34
280
     0
102
RTVSPost2010PropOp34
 70
     1
102
RTVSPost2010Prop35
280
     0
102
RTVSPost2010PropOp35
 70
     1
102
RTVSPost2010Prop36
280
     0
102
RTVSPost2010PropOp36
 70
     1
102
RTVSPost2010Prop37
 90
       50
102
RTVSPost2010PropOp37
 70
     1
102
RTVSPost2010Prop38
140
0.0
102
RTVSPost2010PropOp38
 70
     1
102
RTVSPost2010Prop39
140
1.0
102
RTVSPost2010PropOp39
 70
     1
102
RTVSPost2010Prop40
 90
        0
102
RTVSPost2010PropOp40
 70
     1
102
RTVSPost2010Prop41ColorIndex
 90
       18
102
RTVSPost2010Prop41ColorRGB
 90
        0
102
RTVSPost2010PropOp41
 70
     1
102
RTVSPost2010Prop42
 90
       50
102
RTVSPost2010PropOp42
 70
     1
102
RTVSPost2010Prop43
 90
        3
102
RTVSPost2010PropOp43
 70
     1
102
RTVSPost2010Prop44ColorIndex
 90
        5
102
RTVSPost2010Prop44ColorRGB
 90
      255
102
RTVSPost2010PropOp44
 70
     1
102
RTVSPost2010Prop45
280
     0
102
RTVSPost2010PropOp45
 70
     1
102
RTVSPost2010Prop46
 90
       50
102
RTVSPost2010PropOp46
 70
     1
102
RTVSPost2010Prop47
 90
       50
102
RTVSPost2010PropOp47
 70
     1
102
RTVSPost2010Prop48
 90
       50
102
RTVSPost2010PropOp48
 70
     1
102
RTVSPost2010Prop49
280
     0
102
RTVSPost2010PropOp49
 70
     1
102
RTVSPost2010Prop50
 90
       50
102
RTVSPost2010PropOp50
 70
     1
102
RTVSPost2010Prop51ColorIndex
 90
      256
102
RTVSPost2010Prop51ColorRGB
 90
-16777216
102
RTVSPost2010PropOp51
 70
     0
102
RTVSPost2010Prop52
140
1.0
102
RTVSPost2010PropOp52
 70
     0
102
RTVSPost2010Prop53
 90
        2
102
RTVSPost2010PropOp53
 70
     1
102
RTVSPost2010Prop54
  1
strokes_ogs.tif
102
RTVSPost2010PropOp54
 70
     1
102
RTVSPost2010Prop55
280
     0
102
RTVSPost2010PropOp55
 70
     1
102
RTVSPost2010Prop56
140
1.0
102
RTVSPost2010PropOp56
 70
     1
102
RTVSPost2010Prop57
140
1.0
102
RTVSPost2010PropOp57
 70
     1
  0
XRECORD
  5
23EA
102
{ACAD_REACTORS
330
23E9
102
}
330
23E9
100
AcDbXrecord
280
     1
102
RTVSPost2010Prop28
280
     0
102
RTVSPost2010PropOp28
 70
     1
102
RTVSPost2010Prop29
280
     1
102
RTVSPost2010PropOp29
 70
     1
102
RTVSPost2010Prop30
280
     1
102
RTVSPost2010PropOp30
 70
     1
102
RTVSPost2010Prop31
280
     0
102
RTVSPost2010PropOp31
 70
     1
102
RTVSPost2010Prop32
280
     0
102
RTVSPost2010PropOp32
 70
     1
102
RTVSPost2010Prop33
280
     0
102
RTVSPost2010PropOp33
 70
     1
102
RTVSPost2010Prop34
280
     0
102
RTVSPost2010PropOp34
 70
     1
102
RTVSPost2010Prop35
280
     0
102
RTVSPost2010PropOp35
 70
     1
102
RTVSPost2010Prop36
280
     0
102
RTVSPost2010PropOp36
 70
     1
102
RTVSPost2010Prop37
 90
       50
102
RTVSPost2010PropOp37
 70
     1
102
RTVSPost2010Prop38
140
0.0
102
RTVSPost2010PropOp38
 70
     1
102
RTVSPost2010Prop39
140
1.0
102
RTVSPost2010PropOp39
 70
     1
102
RTVSPost2010Prop40
 90
        0
102
RTVSPost2010PropOp40
 70
     1
102
RTVSPost2010Prop41ColorIndex
 90
       18
102
RTVSPost2010Prop41ColorRGB
 90
        0
102
RTVSPost2010PropOp41
 70
     1
102
RTVSPost2010Prop42
 90
       50
102
RTVSPost2010PropOp42
 70
     1
102
RTVSPost2010Prop43
 90
        3
102
RTVSPost2010PropOp43
 70
     1
102
RTVSPost2010Prop44ColorIndex
 90
        5
102
RTVSPost2010Prop44ColorRGB
 90
      255
102
RTVSPost2010PropOp44
 70
     1
102
RTVSPost2010Prop45
280
     0
102
RTVSPost2010PropOp45
 70
     1
102
RTVSPost2010Prop46
 90
       50
102
RTVSPost2010PropOp46
 70
     1
102
RTVSPost2010Prop47
 90
       50
102
RTVSPost2010PropOp47
 70
     1
102
RTVSPost2010Prop48
 90
       50
102
RTVSPost2010PropOp48
 70
     1
102
RTVSPost2010Prop49
280
     0
102
RTVSPost2010PropOp49
 70
     1
102
RTVSPost2010Prop50
 90
       50
102
RTVSPost2010PropOp50
 70
     1
102
RTVSPost2010Prop51ColorIndex
 90
      256
102
RTVSPost2010Prop51ColorRGB
 90
-16777216
102
RTVSPost2010PropOp51
 70
     0
102
RTVSPost2010Prop52
140
1.0
102
RTVSPost2010PropOp52
 70
     0
102
RTVSPost2010Prop53
 90
        2
102
RTVSPost2010PropOp53
 70
     1
102
RTVSPost2010Prop54
  1
strokes_ogs.tif
102
RTVSPost2010PropOp54
 70
     1
102
RTVSPost2010Prop55
280
     0
102
RTVSPost2010PropOp55
 70
     1
102
RTVSPost2010Prop56
140
1.0
102
RTVSPost2010PropOp56
 70
     1
102
RTVSPost2010Prop57
140
1.0
102
RTVSPost2010PropOp57
 70
     1
  0
XRECORD
  5
23D0
102
{ACAD_REACTORS
330
23CF
102
}
330
23CF
100
AcDbXrecord
280
     1
102
RTVSPost2010Prop28
280
     0
102
RTVSPost2010PropOp28
 70
     1
102
RTVSPost2010Prop29
280
     1
102
RTVSPost2010PropOp29
 70
     1
102
RTVSPost2010Prop30
280
     1
102
RTVSPost2010PropOp30
 70
     1
102
RTVSPost2010Prop31
280
     0
102
RTVSPost2010PropOp31
 70
     1
102
RTVSPost2010Prop32
280
     0
102
RTVSPost2010PropOp32
 70
     1
102
RTVSPost2010Prop33
280
     0
102
RTVSPost2010PropOp33
 70
     1
102
RTVSPost2010Prop34
280
     0
102
RTVSPost2010PropOp34
 70
     1
102
RTVSPost2010Prop35
280
     0
102
RTVSPost2010PropOp35
 70
     1
102
RTVSPost2010Prop36
280
     0
102
RTVSPost2010PropOp36
 70
     1
102
RTVSPost2010Prop37
 90
       50
102
RTVSPost2010PropOp37
 70
     1
102
RTVSPost2010Prop38
140
0.0
102
RTVSPost2010PropOp38
 70
     1
102
RTVSPost2010Prop39
140
1.0
102
RTVSPost2010PropOp39
 70
     1
102
RTVSPost2010Prop40
 90
        0
102
RTVSPost2010PropOp40
 70
     1
102
RTVSPost2010Prop41ColorIndex
 90
       18
102
RTVSPost2010Prop41ColorRGB
 90
        0
102
RTVSPost2010PropOp41
 70
     1
102
RTVSPost2010Prop42
 90
       50
102
RTVSPost2010PropOp42
 70
     1
102
RTVSPost2010Prop43
 90
        3
102
RTVSPost2010PropOp43
 70
     1
102
RTVSPost2010Prop44ColorIndex
 90
        5
102
RTVSPost2010Prop44ColorRGB
 90
      255
102
RTVSPost2010PropOp44
 70
     1
102
RTVSPost2010Prop45
280
     0
102
RTVSPost2010PropOp45
 70
     1
102
RTVSPost2010Prop46
 90
       50
102
RTVSPost2010PropOp46
 70
     1
102
RTVSPost2010Prop47
 90
       50
102
RTVSPost2010PropOp47
 70
     1
102
RTVSPost2010Prop48
 90
       50
102
RTVSPost2010PropOp48
 70
     1
102
RTVSPost2010Prop49
280
     0
102
RTVSPost2010PropOp49
 70
     1
102
RTVSPost2010Prop50
 90
       50
102
RTVSPost2010PropOp50
 70
     1
102
RTVSPost2010Prop51ColorIndex
 90
      256
102
RTVSPost2010Prop51ColorRGB
 90
-16777216
102
RTVSPost2010PropOp51
 70
     0
102
RTVSPost2010Prop52
140
1.0
102
RTVSPost2010PropOp52
 70
     0
102
RTVSPost2010Prop53
 90
        2
102
RTVSPost2010PropOp53
 70
     1
102
RTVSPost2010Prop54
  1
strokes_ogs.tif
102
RTVSPost2010PropOp54
 70
     1
102
RTVSPost2010Prop55
280
     0
102
RTVSPost2010PropOp55
 70
     1
102
RTVSPost2010Prop56
140
1.0
102
RTVSPost2010PropOp56
 70
     1
102
RTVSPost2010Prop57
140
1.0
102
RTVSPost2010PropOp57
 70
     1
  0
XRECORD
  5
23E6
102
{ACAD_REACTORS
330
23E5
102
}
330
23E5
100
AcDbXrecord
280
     1
102
RTVSPost2010Prop28
280
     0
102
RTVSPost2010PropOp28
 70
     1
102
RTVSPost2010Prop29
280
     1
102
RTVSPost2010PropOp29
 70
     1
102
RTVSPost2010Prop30
280
     1
102
RTVSPost2010PropOp30
 70
     1
102
RTVSPost2010Prop31
280
     0
102
RTVSPost2010PropOp31
 70
     1
102
RTVSPost2010Prop32
280
     0
102
RTVSPost2010PropOp32
 70
     1
102
RTVSPost2010Prop33
280
     0
102
RTVSPost2010PropOp33
 70
     1
102
RTVSPost2010Prop34
280
     0
102
RTVSPost2010PropOp34
 70
     1
102
RTVSPost2010Prop35
280
     0
102
RTVSPost2010PropOp35
 70
     1
102
RTVSPost2010Prop36
280
     0
102
RTVSPost2010PropOp36
 70
     1
102
RTVSPost2010Prop37
 90
       50
102
RTVSPost2010PropOp37
 70
     1
102
RTVSPost2010Prop38
140
0.0
102
RTVSPost2010PropOp38
 70
     1
102
RTVSPost2010Prop39
140
1.0
102
RTVSPost2010PropOp39
 70
     1
102
RTVSPost2010Prop40
 90
        0
102
RTVSPost2010PropOp40
 70
     1
102
RTVSPost2010Prop41ColorIndex
 90
       18
102
RTVSPost2010Prop41ColorRGB
 90
        0
102
RTVSPost2010PropOp41
 70
     1
102
RTVSPost2010Prop42
 90
       50
102
RTVSPost2010PropOp42
 70
     1
102
RTVSPost2010Prop43
 90
        3
102
RTVSPost2010PropOp43
 70
     1
102
RTVSPost2010Prop44ColorIndex
 90
        5
102
RTVSPost2010Prop44ColorRGB
 90
      255
102
RTVSPost2010PropOp44
 70
     1
102
RTVSPost2010Prop45
280
     0
102
RTVSPost2010PropOp45
 70
     1
102
RTVSPost2010Prop46
 90
       50
102
RTVSPost2010PropOp46
 70
     1
102
RTVSPost2010Prop47
 90
       50
102
RTVSPost2010PropOp47
 70
     1
102
RTVSPost2010Prop48
 90
       50
102
RTVSPost2010PropOp48
 70
     1
102
RTVSPost2010Prop49
280
     0
102
RTVSPost2010PropOp49
 70
     1
102
RTVSPost2010Prop50
 90
       50
102
RTVSPost2010PropOp50
 70
     1
102
RTVSPost2010Prop51ColorIndex
 90
      256
102
RTVSPost2010Prop51ColorRGB
 90
-16777216
102
RTVSPost2010PropOp51
 70
     0
102
RTVSPost2010Prop52
140
1.0
102
RTVSPost2010PropOp52
 70
     0
102
RTVSPost2010Prop53
 90
        2
102
RTVSPost2010PropOp53
 70
     1
102
RTVSPost2010Prop54
  1
strokes_ogs.tif
102
RTVSPost2010PropOp54
 70
     1
102
RTVSPost2010Prop55
280
     0
102
RTVSPost2010PropOp55
 70
     1
102
RTVSPost2010Prop56
140
1.0
102
RTVSPost2010PropOp56
 70
     1
102
RTVSPost2010Prop57
140
1.0
102
RTVSPost2010PropOp57
 70
     1
  0
XRECORD
  5
23E4
102
{ACAD_REACTORS
330
23E3
102
}
330
23E3
100
AcDbXrecord
280
     1
102
RTVSPost2010Prop28
280
     0
102
RTVSPost2010PropOp28
 70
     1
102
RTVSPost2010Prop29
280
     1
102
RTVSPost2010PropOp29
 70
     1
102
RTVSPost2010Prop30
280
     1
102
RTVSPost2010PropOp30
 70
     1
102
RTVSPost2010Prop31
280
     0
102
RTVSPost2010PropOp31
 70
     1
102
RTVSPost2010Prop32
280
     0
102
RTVSPost2010PropOp32
 70
     1
102
RTVSPost2010Prop33
280
     0
102
RTVSPost2010PropOp33
 70
     1
102
RTVSPost2010Prop34
280
     0
102
RTVSPost2010PropOp34
 70
     1
102
RTVSPost2010Prop35
280
     0
102
RTVSPost2010PropOp35
 70
     1
102
RTVSPost2010Prop36
280
     0
102
RTVSPost2010PropOp36
 70
     1
102
RTVSPost2010Prop37
 90
       50
102
RTVSPost2010PropOp37
 70
     1
102
RTVSPost2010Prop38
140
0.0
102
RTVSPost2010PropOp38
 70
     1
102
RTVSPost2010Prop39
140
1.0
102
RTVSPost2010PropOp39
 70
     1
102
RTVSPost2010Prop40
 90
        0
102
RTVSPost2010PropOp40
 70
     1
102
RTVSPost2010Prop41ColorIndex
 90
       18
102
RTVSPost2010Prop41ColorRGB
 90
        0
102
RTVSPost2010PropOp41
 70
     1
102
RTVSPost2010Prop42
 90
       50
102
RTVSPost2010PropOp42
 70
     1
102
RTVSPost2010Prop43
 90
        3
102
RTVSPost2010PropOp43
 70
     1
102
RTVSPost2010Prop44ColorIndex
 90
        5
102
RTVSPost2010Prop44ColorRGB
 90
      255
102
RTVSPost2010PropOp44
 70
     1
102
RTVSPost2010Prop45
280
     0
102
RTVSPost2010PropOp45
 70
     1
102
RTVSPost2010Prop46
 90
       50
102
RTVSPost2010PropOp46
 70
     1
102
RTVSPost2010Prop47
 90
       50
102
RTVSPost2010PropOp47
 70
     1
102
RTVSPost2010Prop48
 90
       50
102
RTVSPost2010PropOp48
 70
     1
102
RTVSPost2010Prop49
280
     0
102
RTVSPost2010PropOp49
 70
     1
102
RTVSPost2010Prop50
 90
       50
102
RTVSPost2010PropOp50
 70
     1
102
RTVSPost2010Prop51ColorIndex
 90
      256
102
RTVSPost2010Prop51ColorRGB
 90
-16777216
102
RTVSPost2010PropOp51
 70
     0
102
RTVSPost2010Prop52
140
1.0
102
RTVSPost2010PropOp52
 70
     0
102
RTVSPost2010Prop53
 90
        2
102
RTVSPost2010PropOp53
 70
     1
102
RTVSPost2010Prop54
  1
strokes_ogs.tif
102
RTVSPost2010PropOp54
 70
     1
102
RTVSPost2010Prop55
280
     0
102
RTVSPost2010PropOp55
 70
     1
102
RTVSPost2010Prop56
140
1.0
102
RTVSPost2010PropOp56
 70
     1
102
RTVSPost2010Prop57
140
1.0
102
RTVSPost2010PropOp57
 70
     1
  0
XRECORD
  5
23DE
102
{ACAD_REACTORS
330
23DD
102
}
330
23DD
100
AcDbXrecord
280
     1
102
RTVSPost2010Prop28
280
     0
102
RTVSPost2010PropOp28
 70
     1
102
RTVSPost2010Prop29
280
     1
102
RTVSPost2010PropOp29
 70
     1
102
RTVSPost2010Prop30
280
     1
102
RTVSPost2010PropOp30
 70
     1
102
RTVSPost2010Prop31
280
     0
102
RTVSPost2010PropOp31
 70
     1
102
RTVSPost2010Prop32
280
     0
102
RTVSPost2010PropOp32
 70
     1
102
RTVSPost2010Prop33
280
     0
102
RTVSPost2010PropOp33
 70
     1
102
RTVSPost2010Prop34
280
     0
102
RTVSPost2010PropOp34
 70
     1
102
RTVSPost2010Prop35
280
     0
102
RTVSPost2010PropOp35
 70
     1
102
RTVSPost2010Prop36
280
     0
102
RTVSPost2010PropOp36
 70
     1
102
RTVSPost2010Prop37
 90
       50
102
RTVSPost2010PropOp37
 70
     1
102
RTVSPost2010Prop38
140
0.0
102
RTVSPost2010PropOp38
 70
     1
102
RTVSPost2010Prop39
140
1.0
102
RTVSPost2010PropOp39
 70
     1
102
RTVSPost2010Prop40
 90
        0
102
RTVSPost2010PropOp40
 70
     1
102
RTVSPost2010Prop41ColorIndex
 90
       18
102
RTVSPost2010Prop41ColorRGB
 90
        0
102
RTVSPost2010PropOp41
 70
     1
102
RTVSPost2010Prop42
 90
       50
102
RTVSPost2010PropOp42
 70
     1
102
RTVSPost2010Prop43
 90
        3
102
RTVSPost2010PropOp43
 70
     1
102
RTVSPost2010Prop44ColorIndex
 90
        5
102
RTVSPost2010Prop44ColorRGB
 90
      255
102
RTVSPost2010PropOp44
 70
     1
102
RTVSPost2010Prop45
280
     0
102
RTVSPost2010PropOp45
 70
     1
102
RTVSPost2010Prop46
 90
       50
102
RTVSPost2010PropOp46
 70
     1
102
RTVSPost2010Prop47
 90
       50
102
RTVSPost2010PropOp47
 70
     1
102
RTVSPost2010Prop48
 90
       50
102
RTVSPost2010PropOp48
 70
     1
102
RTVSPost2010Prop49
280
     0
102
RTVSPost2010PropOp49
 70
     1
102
RTVSPost2010Prop50
 90
       50
102
RTVSPost2010PropOp50
 70
     1
102
RTVSPost2010Prop51ColorIndex
 90
      256
102
RTVSPost2010Prop51ColorRGB
 90
-16777216
102
RTVSPost2010PropOp51
 70
     0
102
RTVSPost2010Prop52
140
1.0
102
RTVSPost2010PropOp52
 70
     0
102
RTVSPost2010Prop53
 90
        2
102
RTVSPost2010PropOp53
 70
     1
102
RTVSPost2010Prop54
  1
strokes_ogs.tif
102
RTVSPost2010PropOp54
 70
     1
102
RTVSPost2010Prop55
280
     0
102
RTVSPost2010PropOp55
 70
     1
102
RTVSPost2010Prop56
140
1.0
102
RTVSPost2010PropOp56
 70
     1
102
RTVSPost2010Prop57
140
1.0
102
RTVSPost2010PropOp57
 70
     1
  0
XRECORD
  5
23E0
102
{ACAD_REACTORS
330
23DF
102
}
330
23DF
100
AcDbXrecord
280
     1
102
RTVSPost2010Prop28
280
     0
102
RTVSPost2010PropOp28
 70
     1
102
RTVSPost2010Prop29
280
     1
102
RTVSPost2010PropOp29
 70
     1
102
RTVSPost2010Prop30
280
     1
102
RTVSPost2010PropOp30
 70
     1
102
RTVSPost2010Prop31
280
     0
102
RTVSPost2010PropOp31
 70
     1
102
RTVSPost2010Prop32
280
     0
102
RTVSPost2010PropOp32
 70
     1
102
RTVSPost2010Prop33
280
     0
102
RTVSPost2010PropOp33
 70
     1
102
RTVSPost2010Prop34
280
     0
102
RTVSPost2010PropOp34
 70
     1
102
RTVSPost2010Prop35
280
     0
102
RTVSPost2010PropOp35
 70
     1
102
RTVSPost2010Prop36
280
     0
102
RTVSPost2010PropOp36
 70
     1
102
RTVSPost2010Prop37
 90
       50
102
RTVSPost2010PropOp37
 70
     1
102
RTVSPost2010Prop38
140
0.0
102
RTVSPost2010PropOp38
 70
     1
102
RTVSPost2010Prop39
140
1.0
102
RTVSPost2010PropOp39
 70
     1
102
RTVSPost2010Prop40
 90
        0
102
RTVSPost2010PropOp40
 70
     1
102
RTVSPost2010Prop41ColorIndex
 90
       18
102
RTVSPost2010Prop41ColorRGB
 90
        0
102
RTVSPost2010PropOp41
 70
     1
102
RTVSPost2010Prop42
 90
       50
102
RTVSPost2010PropOp42
 70
     1
102
RTVSPost2010Prop43
 90
        3
102
RTVSPost2010PropOp43
 70
     1
102
RTVSPost2010Prop44ColorIndex
 90
        5
102
RTVSPost2010Prop44ColorRGB
 90
      255
102
RTVSPost2010PropOp44
 70
     1
102
RTVSPost2010Prop45
280
     0
102
RTVSPost2010PropOp45
 70
     1
102
RTVSPost2010Prop46
 90
       50
102
RTVSPost2010PropOp46
 70
     1
102
RTVSPost2010Prop47
 90
       50
102
RTVSPost2010PropOp47
 70
     1
102
RTVSPost2010Prop48
 90
       50
102
RTVSPost2010PropOp48
 70
     1
102
RTVSPost2010Prop49
280
     0
102
RTVSPost2010PropOp49
 70
     1
102
RTVSPost2010Prop50
 90
       50
102
RTVSPost2010PropOp50
 70
     1
102
RTVSPost2010Prop51ColorIndex
 90
      256
102
RTVSPost2010Prop51ColorRGB
 90
-16777216
102
RTVSPost2010PropOp51
 70
     0
102
RTVSPost2010Prop52
140
1.0
102
RTVSPost2010PropOp52
 70
     0
102
RTVSPost2010Prop53
 90
        2
102
RTVSPost2010PropOp53
 70
     1
102
RTVSPost2010Prop54
  1
strokes_ogs.tif
102
RTVSPost2010PropOp54
 70
     1
102
RTVSPost2010Prop55
280
     0
102
RTVSPost2010PropOp55
 70
     1
102
RTVSPost2010Prop56
140
1.0
102
RTVSPost2010PropOp56
 70
     1
102
RTVSPost2010Prop57
140
1.0
102
RTVSPost2010PropOp57
 70
     1
  0
XRECORD
  5
23D6
102
{ACAD_REACTORS
330
23D5
102
}
330
23D5
100
AcDbXrecord
280
     1
102
RTVSPost2010Prop28
280
     0
102
RTVSPost2010PropOp28
 70
     1
102
RTVSPost2010Prop29
280
     1
102
RTVSPost2010PropOp29
 70
     1
102
RTVSPost2010Prop30
280
     1
102
RTVSPost2010PropOp30
 70
     1
102
RTVSPost2010Prop31
280
     0
102
RTVSPost2010PropOp31
 70
     1
102
RTVSPost2010Prop32
280
     0
102
RTVSPost2010PropOp32
 70
     1
102
RTVSPost2010Prop33
280
     0
102
RTVSPost2010PropOp33
 70
     1
102
RTVSPost2010Prop34
280
     0
102
RTVSPost2010PropOp34
 70
     1
102
RTVSPost2010Prop35
280
     0
102
RTVSPost2010PropOp35
 70
     1
102
RTVSPost2010Prop36
280
     0
102
RTVSPost2010PropOp36
 70
     1
102
RTVSPost2010Prop37
 90
       50
102
RTVSPost2010PropOp37
 70
     1
102
RTVSPost2010Prop38
140
0.0
102
RTVSPost2010PropOp38
 70
     1
102
RTVSPost2010Prop39
140
1.0
102
RTVSPost2010PropOp39
 70
     1
102
RTVSPost2010Prop40
 90
        0
102
RTVSPost2010PropOp40
 70
     1
102
RTVSPost2010Prop41ColorIndex
 90
       18
102
RTVSPost2010Prop41ColorRGB
 90
        0
102
RTVSPost2010PropOp41
 70
     1
102
RTVSPost2010Prop42
 90
       50
102
RTVSPost2010PropOp42
 70
     1
102
RTVSPost2010Prop43
 90
        3
102
RTVSPost2010PropOp43
 70
     1
102
RTVSPost2010Prop44ColorIndex
 90
        5
102
RTVSPost2010Prop44ColorRGB
 90
      255
102
RTVSPost2010PropOp44
 70
     1
102
RTVSPost2010Prop45
280
     0
102
RTVSPost2010PropOp45
 70
     1
102
RTVSPost2010Prop46
 90
       50
102
RTVSPost2010PropOp46
 70
     1
102
RTVSPost2010Prop47
 90
       50
102
RTVSPost2010PropOp47
 70
     1
102
RTVSPost2010Prop48
 90
       50
102
RTVSPost2010PropOp48
 70
     1
102
RTVSPost2010Prop49
280
     0
102
RTVSPost2010PropOp49
 70
     1
102
RTVSPost2010Prop50
 90
       50
102
RTVSPost2010PropOp50
 70
     1
102
RTVSPost2010Prop51ColorIndex
 90
      256
102
RTVSPost2010Prop51ColorRGB
 90
-16777216
102
RTVSPost2010PropOp51
 70
     0
102
RTVSPost2010Prop52
140
1.0
102
RTVSPost2010PropOp52
 70
     0
102
RTVSPost2010Prop53
 90
        2
102
RTVSPost2010PropOp53
 70
     1
102
RTVSPost2010Prop54
  1
strokes_ogs.tif
102
RTVSPost2010PropOp54
 70
     1
102
RTVSPost2010Prop55
280
     0
102
RTVSPost2010PropOp55
 70
     1
102
RTVSPost2010Prop56
140
1.0
102
RTVSPost2010PropOp56
 70
     1
102
RTVSPost2010Prop57
140
1.0
102
RTVSPost2010PropOp57
 70
     1
  0
XRECORD
  5
23CA
102
{ACAD_REACTORS
330
23C9
102
}
330
23C9
100
AcDbXrecord
280
     1
102
RTVSPost2010Prop28
280
     0
102
RTVSPost2010PropOp28
 70
     1
102
RTVSPost2010Prop29
280
     1
102
RTVSPost2010PropOp29
 70
     1
102
RTVSPost2010Prop30
280
     1
102
RTVSPost2010PropOp30
 70
     1
102
RTVSPost2010Prop31
280
     0
102
RTVSPost2010PropOp31
 70
     1
102
RTVSPost2010Prop32
280
     0
102
RTVSPost2010PropOp32
 70
     1
102
RTVSPost2010Prop33
280
     0
102
RTVSPost2010PropOp33
 70
     1
102
RTVSPost2010Prop34
280
     0
102
RTVSPost2010PropOp34
 70
     1
102
RTVSPost2010Prop35
280
     0
102
RTVSPost2010PropOp35
 70
     1
102
RTVSPost2010Prop36
280
     0
102
RTVSPost2010PropOp36
 70
     1
102
RTVSPost2010Prop37
 90
       50
102
RTVSPost2010PropOp37
 70
     1
102
RTVSPost2010Prop38
140
0.0
102
RTVSPost2010PropOp38
 70
     1
102
RTVSPost2010Prop39
140
1.0
102
RTVSPost2010PropOp39
 70
     1
102
RTVSPost2010Prop40
 90
        0
102
RTVSPost2010PropOp40
 70
     1
102
RTVSPost2010Prop41ColorIndex
 90
       18
102
RTVSPost2010Prop41ColorRGB
 90
        0
102
RTVSPost2010PropOp41
 70
     1
102
RTVSPost2010Prop42
 90
       50
102
RTVSPost2010PropOp42
 70
     1
102
RTVSPost2010Prop43
 90
        3
102
RTVSPost2010PropOp43
 70
     1
102
RTVSPost2010Prop44ColorIndex
 90
        5
102
RTVSPost2010Prop44ColorRGB
 90
      255
102
RTVSPost2010PropOp44
 70
     1
102
RTVSPost2010Prop45
280
     0
102
RTVSPost2010PropOp45
 70
     1
102
RTVSPost2010Prop46
 90
       50
102
RTVSPost2010PropOp46
 70
     1
102
RTVSPost2010Prop47
 90
       50
102
RTVSPost2010PropOp47
 70
     1
102
RTVSPost2010Prop48
 90
       50
102
RTVSPost2010PropOp48
 70
     1
102
RTVSPost2010Prop49
280
     0
102
RTVSPost2010PropOp49
 70
     1
102
RTVSPost2010Prop50
 90
       50
102
RTVSPost2010PropOp50
 70
     1
102
RTVSPost2010Prop51ColorIndex
 90
      256
102
RTVSPost2010Prop51ColorRGB
 90
-16777216
102
RTVSPost2010PropOp51
 70
     0
102
RTVSPost2010Prop52
140
1.0
102
RTVSPost2010PropOp52
 70
     0
102
RTVSPost2010Prop53
 90
        2
102
RTVSPost2010PropOp53
 70
     1
102
RTVSPost2010Prop54
  1
strokes_ogs.tif
102
RTVSPost2010PropOp54
 70
     1
102
RTVSPost2010Prop55
280
     0
102
RTVSPost2010PropOp55
 70
     1
102
RTVSPost2010Prop56
140
1.0
102
RTVSPost2010PropOp56
 70
     1
102
RTVSPost2010Prop57
140
1.0
102
RTVSPost2010PropOp57
 70
     1
  0
XRECORD
  5
23E2
102
{ACAD_REACTORS
330
23E1
102
}
330
23E1
100
AcDbXrecord
280
     1
102
RTVSPost2010Prop28
280
     0
102
RTVSPost2010PropOp28
 70
     1
102
RTVSPost2010Prop29
280
     1
102
RTVSPost2010PropOp29
 70
     1
102
RTVSPost2010Prop30
280
     1
102
RTVSPost2010PropOp30
 70
     1
102
RTVSPost2010Prop31
280
     0
102
RTVSPost2010PropOp31
 70
     1
102
RTVSPost2010Prop32
280
     0
102
RTVSPost2010PropOp32
 70
     1
102
RTVSPost2010Prop33
280
     0
102
RTVSPost2010PropOp33
 70
     1
102
RTVSPost2010Prop34
280
     0
102
RTVSPost2010PropOp34
 70
     1
102
RTVSPost2010Prop35
280
     0
102
RTVSPost2010PropOp35
 70
     1
102
RTVSPost2010Prop36
280
     0
102
RTVSPost2010PropOp36
 70
     1
102
RTVSPost2010Prop37
 90
       50
102
RTVSPost2010PropOp37
 70
     1
102
RTVSPost2010Prop38
140
0.0
102
RTVSPost2010PropOp38
 70
     1
102
RTVSPost2010Prop39
140
1.0
102
RTVSPost2010PropOp39
 70
     1
102
RTVSPost2010Prop40
 90
        0
102
RTVSPost2010PropOp40
 70
     1
102
RTVSPost2010Prop41ColorIndex
 90
       18
102
RTVSPost2010Prop41ColorRGB
 90
        0
102
RTVSPost2010PropOp41
 70
     1
102
RTVSPost2010Prop42
 90
       50
102
RTVSPost2010PropOp42
 70
     1
102
RTVSPost2010Prop43
 90
        3
102
RTVSPost2010PropOp43
 70
     1
102
RTVSPost2010Prop44ColorIndex
 90
        5
102
RTVSPost2010Prop44ColorRGB
 90
      255
102
RTVSPost2010PropOp44
 70
     1
102
RTVSPost2010Prop45
280
     0
102
RTVSPost2010PropOp45
 70
     1
102
RTVSPost2010Prop46
 90
       50
102
RTVSPost2010PropOp46
 70
     1
102
RTVSPost2010Prop47
 90
       50
102
RTVSPost2010PropOp47
 70
     1
102
RTVSPost2010Prop48
 90
       50
102
RTVSPost2010PropOp48
 70
     1
102
RTVSPost2010Prop49
280
     0
102
RTVSPost2010PropOp49
 70
     1
102
RTVSPost2010Prop50
 90
       50
102
RTVSPost2010PropOp50
 70
     1
102
RTVSPost2010Prop51ColorIndex
 90
      256
102
RTVSPost2010Prop51ColorRGB
 90
-16777216
102
RTVSPost2010PropOp51
 70
     0
102
RTVSPost2010Prop52
140
1.0
102
RTVSPost2010PropOp52
 70
     0
102
RTVSPost2010Prop53
 90
        2
102
RTVSPost2010PropOp53
 70
     1
102
RTVSPost2010Prop54
  1
strokes_ogs.tif
102
RTVSPost2010PropOp54
 70
     1
102
RTVSPost2010Prop55
280
     0
102
RTVSPost2010PropOp55
 70
     1
102
RTVSPost2010Prop56
140
1.0
102
RTVSPost2010PropOp56
 70
     1
102
RTVSPost2010Prop57
140
1.0
102
RTVSPost2010PropOp57
 70
     1
  0
ENDSEC
  0
EOF
