  0
SECTION
  2
HEADER
  9
$ACADVER
  1
AC1024
  9
$ACADMAINTVER
 70
   226
  9
$DWGCODEPAGE
  3
ANSI_932
  9
$LASTSAVEDBY
  1
t-kanatani
  9
$INSBASE
 10
0.0
 20
0.0
 30
0.0
  9
$EXTMIN
 10
-367.6103254233094
 20
-72.1321728398566
 30
0.0
  9
$EXTMAX
 10
358.3333333333335
 20
709.1666666666668
 30
0.0
  9
$LIMMIN
 10
-2550.0
 20
0.0
  9
$LIMMAX
 10
0.0
 20
1800.0
  9
$ORTHOMODE
 70
     1
  9
$REGENMODE
 70
     1
  9
$FILLMODE
 70
     1
  9
$QTEXTMODE
 70
     0
  9
$MIRRTEXT
 70
     0
  9
$LTSCALE
 40
1.0
  9
$ATTMODE
 70
     1
  9
$TEXTSIZE
 40
0.2
  9
$TRACEWID
 40
0.05
  9
$TEXTSTYLE
  7
STANDARD
  9
$CLAYER
  8
0
  9
$CELTYPE
  6
CONTINUOUS
  9
$CECOLOR
 62
   256
  9
$CELTSCALE
 40
1.0
  9
$DISPSILH
 70
     0
  9
$DIMSCALE
 40
1.0
  9
$DIMASZ
 40
0.18
  9
$DIMEXO
 40
0.0625
  9
$DIMDLI
 40
0.38
  9
$DIMRND
 40
0.0
  9
$DIMDLE
 40
0.0
  9
$DIMEXE
 40
0.18
  9
$DIMTP
 40
0.0
  9
$DIMTM
 40
0.0
  9
$DIMTXT
 40
0.18
  9
$DIMCEN
 40
0.09
  9
$DIMTSZ
 40
0.0
  9
$DIMTOL
 70
     0
  9
$DIMLIM
 70
     0
  9
$DIMTIH
 70
     1
  9
$DIMTOH
 70
     1
  9
$DIMSE1
 70
     0
  9
$DIMSE2
 70
     0
  9
$DIMTAD
 70
     0
  9
$DIMZIN
 70
     0
  9
$DIMBLK
  1

  9
$DIMASO
 70
     1
  9
$DIMSHO
 70
     0
  9
$DIMPOST
  1

  9
$DIMAPOST
  1

  9
$DIMALT
 70
     0
  9
$DIMALTD
 70
     2
  9
$DIMALTF
 40
25.4
  9
$DIMLFAC
 40
1.0
  9
$DIMTOFL
 70
     0
  9
$DIMTVP
 40
0.0
  9
$DIMTIX
 70
     0
  9
$DIMSOXD
 70
     0
  9
$DIMSAH
 70
     0
  9
$DIMBLK1
  1

  9
$DIMBLK2
  1

  9
$DIMSTYLE
  2
Standard
  9
$DIMCLRD
 70
     0
  9
$DIMCLRE
 70
     0
  9
$DIMCLRT
 70
     0
  9
$DIMTFAC
 40
1.0
  9
$DIMGAP
 40
0.09
  9
$DIMJUST
 70
     0
  9
$DIMSD1
 70
     0
  9
$DIMSD2
 70
     0
  9
$DIMTOLJ
 70
     1
  9
$DIMTZIN
 70
     0
  9
$DIMALTZ
 70
     0
  9
$DIMALTTZ
 70
     0
  9
$DIMUPT
 70
     0
  9
$DIMDEC
 70
     4
  9
$DIMTDEC
 70
     4
  9
$DIMALTU
 70
     2
  9
$DIMALTTD
 70
     2
  9
$DIMTXSTY
  7
STANDARD
  9
$DIMAUNIT
 70
     0
  9
$DIMADEC
 70
     0
  9
$DIMALTRND
 40
0.0
  9
$DIMAZIN
 70
     0
  9
$DIMDSEP
 70
    46
  9
$DIMATFIT
 70
     3
  9
$DIMFRAC
 70
     0
  9
$DIMLDRBLK
  1

  9
$DIMLUNIT
 70
     2
  9
$DIMLWD
 70
    -2
  9
$DIMLWE
 70
    -2
  9
$DIMTMOVE
 70
     0
  9
$DIMFXL
 40
1.0
  9
$DIMFXLON
 70
     0
  9
$DIMJOGANG
 40
0.7853981633974483
  9
$DIMTFILL
 70
     1
  9
$DIMTFILLCLR
 70
     0
  9
$DIMARCSYM
 70
     1
  9
$DIMLTYPE
  6
CONTINUOUS
  9
$DIMLTEX1
  6
CONTINUOUS
  9
$DIMLTEX2
  6
CONTINUOUS
  9
$DIMTXTDIRECTION
 70
     0
  9
$LUNITS
 70
     2
  9
$LUPREC
 70
     8
  9
$SKETCHINC
 40
0.1
  9
$FILLETRAD
 40
0.0
  9
$AUNITS
 70
     0
  9
$AUPREC
 70
     0
  9
$MENU
  1
.
  9
$ELEVATION
 40
0.0
  9
$PELEVATION
 40
0.0
  9
$THICKNESS
 40
0.0
  9
$LIMCHECK
 70
     0
  9
$CHAMFERA
 40
0.0
  9
$CHAMFERB
 40
0.0
  9
$CHAMFERC
 40
0.0
  9
$CHAMFERD
 40
0.0
  9
$SKPOLY
 70
     0
  9
$TDCREATE
 40
2456143.683831019
  9
$TDUCREATE
 40
2456143.308840602
  9
$TDUPDATE
 40
2458905.472731482
  9
$TDUUPDATE
 40
2458905.097731482
  9
$TDINDWG
 40
0.0424686343
  9
$TDUSRTIMER
 40
0.0424686343
  9
$USRTIMER
 70
     1
  9
$ANGBASE
 50
0.0
  9
$ANGDIR
 70
     0
  9
$PDMODE
 70
     0
  9
$PDSIZE
 40
0.0
  9
$PLINEWID
 40
0.0
  9
$SPLFRAME
 70
     0
  9
$SPLINETYPE
 70
     6
  9
$SPLINESEGS
 70
     8
  9
$HANDSEED
  5
2550
  9
$SURFTAB1
 70
     6
  9
$SURFTAB2
 70
     6
  9
$SURFTYPE
 70
     6
  9
$SURFU
 70
     6
  9
$SURFV
 70
     6
  9
$UCSBASE
  2

  9
$UCSNAME
  2

  9
$UCSORG
 10
0.0
 20
0.0
 30
0.0
  9
$UCSXDIR
 10
1.0
 20
0.0
 30
0.0
  9
$UCSYDIR
 10
0.0
 20
1.0
 30
0.0
  9
$UCSORTHOREF
  2

  9
$UCSORTHOVIEW
 70
     0
  9
$UCSORGTOP
 10
0.0
 20
0.0
 30
0.0
  9
$UCSORGBOTTOM
 10
0.0
 20
0.0
 30
0.0
  9
$UCSORGLEFT
 10
0.0
 20
0.0
 30
0.0
  9
$UCSORGRIGHT
 10
0.0
 20
0.0
 30
0.0
  9
$UCSORGFRONT
 10
0.0
 20
0.0
 30
0.0
  9
$UCSORGBACK
 10
0.0
 20
0.0
 30
0.0
  9
$PUCSBASE
  2

  9
$PUCSNAME
  2

  9
$PUCSORG
 10
0.0
 20
0.0
 30
0.0
  9
$PUCSXDIR
 10
1.0
 20
0.0
 30
0.0
  9
$PUCSYDIR
 10
0.0
 20
1.0
 30
0.0
  9
$PUCSORTHOREF
  2

  9
$PUCSORTHOVIEW
 70
     0
  9
$PUCSORGTOP
 10
0.0
 20
0.0
 30
0.0
  9
$PUCSORGBOTTOM
 10
0.0
 20
0.0
 30
0.0
  9
$PUCSORGLEFT
 10
0.0
 20
0.0
 30
0.0
  9
$PUCSORGRIGHT
 10
0.0
 20
0.0
 30
0.0
  9
$PUCSORGFRONT
 10
0.0
 20
0.0
 30
0.0
  9
$PUCSORGBACK
 10
0.0
 20
0.0
 30
0.0
  9
$USERI1
 70
     0
  9
$USERI2
 70
     0
  9
$USERI3
 70
     0
  9
$USERI4
 70
     0
  9
$USERI5
 70
     0
  9
$USERR1
 40
0.0
  9
$USERR2
 40
0.0
  9
$USERR3
 40
0.0
  9
$USERR4
 40
0.0
  9
$USERR5
 40
0.0
  9
$WORLDVIEW
 70
     1
  9
$SHADEDGE
 70
     3
  9
$SHADEDIF
 70
    70
  9
$TILEMODE
 70
     1
  9
$MAXACTVP
 70
    64
  9
$PINSBASE
 10
0.0
 20
0.0
 30
0.0
  9
$PLIMCHECK
 70
     0
  9
$PEXTMIN
 10
-2550.0
 20
0.0
 30
0.0
  9
$PEXTMAX
 10
0.0
 20
1800.0
 30
0.0
  9
$PLIMMIN
 10
-2550.0
 20
0.0
  9
$PLIMMAX
 10
0.0
 20
1800.0
  9
$UNITMODE
 70
     0
  9
$VISRETAIN
 70
     1
  9
$PLINEGEN
 70
     0
  9
$PSLTSCALE
 70
     1
  9
$TREEDEPTH
 70
  3020
  9
$CMLSTYLE
  2
STANDARD
  9
$CMLJUST
 70
     0
  9
$CMLSCALE
 40
1.0
  9
$PROXYGRAPHICS
 70
     1
  9
$MEASUREMENT
 70
     1
  9
$CELWEIGHT
370
    -1
  9
$ENDCAPS
280
     0
  9
$JOINSTYLE
280
     0
  9
$LWDISPLAY
290
     0
  9
$INSUNITS
 70
     0
  9
$HYPERLINKBASE
  1

  9
$STYLESHEET
  1

  9
$XEDIT
290
     1
  9
$CEPSNTYPE
380
     0
  9
$PSTYLEMODE
290
     1
  9
$FINGERPRINTGUID
  2
{BB9BFA00-F76C-44F8-8090-B0A6A8DEAECD}
  9
$VERSIONGUID
  2
{33CC68DC-1674-D24D-A399-AF3895913E3C}
  9
$EXTNAMES
290
     1
  9
$PSVPSCALE
 40
0.0
  9
$OLESTARTUP
290
     0
  9
$SORTENTS
280
   127
  9
$INDEXCTL
280
     0
  9
$HIDETEXT
280
     0
  9
$XCLIPFRAME
280
     2
  9
$HALOGAP
280
     0
  9
$OBSCOLOR
 70
   257
  9
$OBSLTYPE
280
     0
  9
$INTERSECTIONDISPLAY
280
     0
  9
$INTERSECTIONCOLOR
 70
   257
  9
$DIMASSOC
280
     1
  9
$PROJECTNAME
  1

  9
$CAMERADISPLAY
290
     0
  9
$LENSLENGTH
 40
50.0
  9
$CAMERAHEIGHT
 40
0.0
  9
$STEPSPERSEC
 40
2.0
  9
$STEPSIZE
 40
6.0
  9
$3DDWFPREC
 40
2.0
  9
$PSOLWIDTH
 40
0.25
  9
$PSOLHEIGHT
 40
4.0
  9
$LOFTANG1
 40
1.570796326794896
  9
$LOFTANG2
 40
1.570796326794896
  9
$LOFTMAG1
 40
0.0
  9
$LOFTMAG2
 40
0.0
  9
$LOFTPARAM
 70
     7
  9
$LOFTNORMALS
280
     1
  9
$LATITUDE
 40
37.795
  9
$LONGITUDE
 40
-122.394
  9
$NORTHDIRECTION
 40
0.0
  9
$TIMEZONE
 70
 -8000
  9
$LIGHTGLYPHDISPLAY
280
     1
  9
$TILEMODELIGHTSYNCH
280
     1
  9
$CMATERIAL
347
1454
  9
$SOLIDHIST
280
     1
  9
$SHOWHIST
280
     1
  9
$DWFFRAME
280
     2
  9
$DGNFRAME
280
     0
  9
$REALWORLDSCALE
290
     1
  9
$INTERFERECOLOR
 62
     1
  9
$INTERFEREOBJVS
345
1476
  9
$INTERFEREVPVS
346
1473
  9
$CSHADOW
280
     0
  9
$SHADOWPLANELOCATION
 40
0.0
  0
ENDSEC
  0
SECTION
  2
CLASSES
  0
CLASS
  1
ACDBDICTIONARYWDFLT
  2
AcDbDictionaryWithDefault
  3
ObjectDBX Classes
 90
        0
 91
        1
280
     0
281
     0
  0
CLASS
  1
MATERIAL
  2
AcDbMaterial
  3
ObjectDBX Classes
 90
     1153
 91
        3
280
     0
281
     0
  0
CLASS
  1
VISUALSTYLE
  2
AcDbVisualStyle
  3
ObjectDBX Classes
 90
     4095
 91
       26
280
     0
281
     0
  0
CLASS
  1
TABLESTYLE
  2
AcDbTableStyle
  3
ObjectDBX Classes
 90
     4095
 91
        1
280
     0
281
     0
  0
CLASS
  1
SCALE
  2
AcDbScale
  3
ObjectDBX Classes
 90
     1153
 91
       17
280
     0
281
     0
  0
CLASS
  1
MLEADERSTYLE
  2
AcDbMLeaderStyle
  3
ACDB_MLEADERSTYLE_CLASS
 90
     4095
 91
        1
280
     0
281
     0
  0
CLASS
  1
ACMESCOPE
  2
AcMeScope
  3
AcMeServices
 90
     1024
 91
        0
280
     0
281
     0
  0
CLASS
  1
ACMECOMMANDHISTORY
  2
AcMeCommandHistory
  3
AcMeServices
 90
     1024
 91
        0
280
     0
281
     0
  0
CLASS
  1
ACIMSYSVARMAN
  2
AcImSysVarManager
  3
AcMeServices
 90
     1024
 91
        0
280
     0
281
     0
  0
CLASS
  1
ACIMINTSYSVAR
  2
AcImIntSysVar
  3
AcMeServices
 90
     1024
 91
        0
280
     0
281
     0
  0
CLASS
  1
ACMESTATEMGR
  2
AcMeStateMgr
  3
AcMeServices
 90
     1024
 91
        0
280
     0
281
     0
  0
CLASS
  1
AMGSETTINGSOBJ
  2
AmgSettingsObj
  3
"AcadM|Product Description: AutoCAD Mechanical|Company: Autodesk, Inc."
 90
     1024
 91
        0
280
     0
281
     0
  0
CLASS
  1
ACGREFMASTER
  2
AcGrefMaster
  3
AcAttribServices
 90
     1024
 91
        0
280
     0
281
     0
  0
CLASS
  1
AMGOBJPROPCFG
  2
AmgObjPropCfg
  3
"AmgLay|Product Description: AutoCAD Mechanical|Company: Autodesk, Inc."
 90
     1025
 91
        0
280
     0
281
     0
  0
CLASS
  1
ACME_DOCUMENT
  2
AcMeDbDoc
  3
AcMeServices
 90
     1024
 91
        0
280
     0
281
     0
  0
CLASS
  1
ACDBENTITYCACHE
  2
AcMeEntityCache
  3
AcMeServices
 90
     1024
 91
        0
280
     0
281
     0
  0
CLASS
  1
ACME_DATABASE
  2
AcMeDbDatabase
  3
AcMeServices
 90
     1024
 91
        0
280
     0
281
     0
  0
CLASS
  1
ACRFINSADJUSTERMGR
  2
AcRfInsAdjusterMgr
  3
AcMeServices
 90
     1024
 91
        0
280
     0
281
     0
  0
CLASS
  1
ACGREFACADMASTER
  2
AcGrefacadMaster
  3
AcGrefServices
 90
     1024
 91
        0
280
     0
281
     0
  0
CLASS
  1
AMDTMENUSTATEMGR
  2
AmdtMenuStateMgr
  3
McadcomServices
 90
     1024
 91
        0
280
     0
281
     0
  0
CLASS
  1
AMDTMCOMMENUSTATE
  2
AmdtMcomMenuState
  3
McadcomServices
 90
     1024
 91
        0
280
     0
281
     0
  0
CLASS
  1
AMIMASTER
  2
AmiMaster
  3
AmiServices
 90
     1024
 91
        0
280
     0
281
     0
  0
CLASS
  1
MAPIAMMOUDLE
  2
MApiAmModule
  3
MApiAmServices
 90
     1024
 91
        0
280
     0
281
     0
  0
CLASS
  1
ACMSTANDARDISO
  2
AcmStandardISO
  3
"Amdt_StdImp|Product Description: AutoCAD Mechanical|Company: Autodesk, Inc."
 90
     1024
 91
        0
280
     0
281
     0
  0
CLASS
  1
AMDTEDGESTANDARDISO
  2
AmdtEdgeStdISO
  3
"Amdt_StdImp|Product Description: AutoCAD Mechanical|Company: Autodesk, Inc."
 90
     1024
 91
        0
280
     0
281
     0
  0
CLASS
  1
ACMSURFSTANDARDISO
  2
AcmSurfTextStdISO
  3
"Amdt_StdImp|Product Description: AutoCAD Mechanical|Company: Autodesk, Inc."
 90
     1024
 91
        0
280
     0
281
     0
  0
CLASS
  1
ACMFCFSTANDARDISO
  2
AcmFCFStdISO
  3
"Amdt_StdImp|Product Description: AutoCAD Mechanical|Company: Autodesk, Inc."
 90
     1024
 91
        0
280
     0
281
     0
  0
CLASS
  1
ACMWELDSTANDARDISO
  2
AcmWeldingStdISO
  3
"Amdt_StdImp|Product Description: AutoCAD Mechanical|Company: Autodesk, Inc."
 90
     1024
 91
        0
280
     0
281
     0
  0
CLASS
  1
ACMIDSTANDARDISO
  2
AcmIdStdISO
  3
"Amdt_StdImp|Product Description: AutoCAD Mechanical|Company: Autodesk, Inc."
 90
     1024
 91
        0
280
     0
281
     0
  0
CLASS
  1
ACMDATUMSTANDARDISO
  2
AcmDatumStdISO
  3
"Amdt_StdImp|Product Description: AutoCAD Mechanical|Company: Autodesk, Inc."
 90
     1024
 91
        0
280
     0
281
     0
  0
CLASS
  1
ACMBOMSTANDARDISO
  2
AcmBOMStdISO
  3
"Amdt_StdImp|Product Description: AutoCAD Mechanical|Company: Autodesk, Inc."
 90
     1024
 91
        0
280
     0
281
     0
  0
CLASS
  1
ACMDETAILSTANDARDISO
  2
AmdtDetailSymStdISO
  3
"Amdt_StdImp|Product Description: AutoCAD Mechanical|Company: Autodesk, Inc."
 90
     1024
 91
        0
280
     0
281
     0
  0
CLASS
  1
ACMSECTIONSTANDARDISO
  2
AmdtSectionSymStdISO
  3
"Amdt_StdImp|Product Description: AutoCAD Mechanical|Company: Autodesk, Inc."
 90
     1024
 91
        0
280
     0
281
     0
  0
CLASS
  1
ACMCENTERLINESTANDARDISO
  2
AmdtCenterLineStdISO
  3
"Amdt_StdImp|Product Description: AutoCAD Mechanical|Company: Autodesk, Inc."
 90
     1024
 91
        0
280
     0
281
     0
  0
CLASS
  1
ACMNOTESTANDARDISO
  2
AmdtNoteStdISO
  3
"Amdt_StdImp|Product Description: AutoCAD Mechanical|Company: Autodesk, Inc."
 90
     1024
 91
        0
280
     0
281
     0
  0
CLASS
  1
AMDTNOTETEMPLATEDB
  2
AmdtNoteTemplateDB
  3
AcmSymBB|Product Description: AutoCAD Mechanical|Company: Autodesk, Inc.
 90
     1024
 91
        0
280
     0
281
     0
  0
CLASS
  1
ACAMGLAYSTD
  2
AcAmgLayStd
  3
"AmgLay|Product Description: AutoCAD Mechanical|Company: Autodesk, Inc."
 90
     1024
 91
        0
280
     0
281
     0
  0
CLASS
  1
ACAMGDIMSTD
  2
AcAmgDimStd
  3
"AmgDim|Product Description: AutoCAD Mechanical|Company: Autodesk, Inc."
 90
     1024
 91
        0
280
     0
281
     0
  0
CLASS
  1
ACAMGHOLECHARTSTDISO
  2
AcAmgHoleChartStdISO
  3
AmgDim|Product Description: AutoCAD Mechanical|Company: Autodesk, Inc.
 90
     1024
 91
        0
280
     0
281
     0
  0
CLASS
  1
ACAMGTITLESTD
  2
AcAmgTitleStd
  3
"AmgTitle|Product Description: AutoCAD Mechanical|Company: Autodesk, Inc."
 90
     4095
 91
        0
280
     0
281
     0
  0
CLASS
  1
ACMTHREADLINESTANDARDISO
  2
AmdtThreadLineStdISO
  3
"Amdt_StdImp|Product Description: AutoCAD Mechanical|Company: Autodesk, Inc."
 90
     1024
 91
        0
280
     0
281
     0
  0
CLASS
  1
ACMTAPERSTANDARDISO
  2
AcmTaperStdISO
  3
"Amdt_StdImp|Product Description: AutoCAD Mechanical|Company: Autodesk, Inc."
 90
     1024
 91
        0
280
     0
281
     0
  0
CLASS
  1
ACMANOOTATIONVIEWSTANDARDISO
  2
AmdtAnViewStdISO
  3
"Amdt_StdImp|Product Description: AutoCAD Mechanical|Company: Autodesk, Inc."
 90
     1024
 91
        0
280
     0
281
     0
  0
CLASS
  1
ACMSTANDARDJIS
  2
AcmStandardJIS
  3
"Amdt_StdImp|Product Description: AutoCAD Mechanical|Company: Autodesk, Inc."
 90
     1024
 91
        0
280
     0
281
     0
  0
CLASS
  1
ACMSURFSTANDARDJIS
  2
AcmSurfTextStdJIS
  3
"Amdt_StdImp|Product Description: AutoCAD Mechanical|Company: Autodesk, Inc."
 90
     1024
 91
        0
280
     0
281
     0
  0
CLASS
  1
ACMFCFSTANDARDJIS
  2
AcmFCFStdJIS
  3
"Amdt_StdImp|Product Description: AutoCAD Mechanical|Company: Autodesk, Inc."
 90
     1024
 91
        0
280
     0
281
     0
  0
CLASS
  1
ACMWELDSTANDARDJIS
  2
AcmWeldingStdJIS
  3
"Amdt_StdImp|Product Description: AutoCAD Mechanical|Company: Autodesk, Inc."
 90
     1024
 91
        0
280
     0
281
     0
  0
CLASS
  1
ACMIDSTANDARDJIS
  2
AcmIdStdJIS
  3
"Amdt_StdImp|Product Description: AutoCAD Mechanical|Company: Autodesk, Inc."
 90
     1024
 91
        0
280
     0
281
     0
  0
CLASS
  1
ACMDATUMSTANDARDJIS
  2
AcmDatumStdJIS
  3
"Amdt_StdImp|Product Description: AutoCAD Mechanical|Company: Autodesk, Inc."
 90
     1024
 91
        0
280
     0
281
     0
  0
CLASS
  1
ACMBOMSTANDARDJIS
  2
AcmBOMStdJIS
  3
"Amdt_StdImp|Product Description: AutoCAD Mechanical|Company: Autodesk, Inc."
 90
     1024
 91
        0
280
     0
281
     0
  0
CLASS
  1
ACMDETAILSTANDARDJIS
  2
AmdtDetailSymStdJIS
  3
"Amdt_StdImp|Product Description: AutoCAD Mechanical|Company: Autodesk, Inc."
 90
     1024
 91
        0
280
     0
281
     0
  0
CLASS
  1
ACMSECTIONSTANDARDJIS
  2
AmdtSectionSymStdJIS
  3
"Amdt_StdImp|Product Description: AutoCAD Mechanical|Company: Autodesk, Inc."
 90
     1024
 91
        0
280
     0
281
     0
  0
CLASS
  1
ACMCENTERLINESTANDARDJIS
  2
AmdtCenterLineStdJIS
  3
"Amdt_StdImp|Product Description: AutoCAD Mechanical|Company: Autodesk, Inc."
 90
     1024
 91
        0
280
     0
281
     0
  0
CLASS
  1
ACMTHREADLINESTANDARDJIS
  2
AmdtThreadLineStdJIS
  3
"Amdt_StdImp|Product Description: AutoCAD Mechanical|Company: Autodesk, Inc."
 90
     1024
 91
        0
280
     0
281
     0
  0
CLASS
  1
ACMNOTESTANDARDJIS
  2
AmdtNoteStdJIS
  3
"Amdt_StdImp|Product Description: AutoCAD Mechanical|Company: Autodesk, Inc."
 90
     1024
 91
        0
280
     0
281
     0
  0
CLASS
  1
ACAMGHOLECHARTSTDJIS
  2
AcAmgHoleChartStdJIS
  3
AmgDim|Product Description: AutoCAD Mechanical|Company: Autodesk, Inc.
 90
     1024
 91
        0
280
     0
281
     0
  0
CLASS
  1
ACMTAPERSTANDARDJIS
  2
AcmTaperStdJIS
  3
"Amdt_StdImp|Product Description: AutoCAD Mechanical|Company: Autodesk, Inc."
 90
     1024
 91
        0
280
     0
281
     0
  0
CLASS
  1
ACMANOOTATIONVIEWSTANDARDJIS
  2
AmdtAnViewStdJIS
  3
"Amdt_StdImp|Product Description: AutoCAD Mechanical|Company: Autodesk, Inc."
 90
     1024
 91
        0
280
     0
281
     0
  0
CLASS
  1
AMDTEDGESTANDARDJIS
  2
AmdtEdgeStdJIS
  3
"Amdt_StdImp|Product Description: AutoCAD Mechanical|Company: Autodesk, Inc."
 90
     1024
 91
        0
280
     0
281
     0
  0
CLASS
  1
ACMFCFSTANDARDJIS98
  2
AcmFCFStdJIS98
  3
"Amdt_StdImp|Product Description: AutoCAD Mechanical|Company: Autodesk, Inc."
 90
     1024
 91
        0
280
     0
281
     0
  0
CLASS
  1
ACIMSTRSYSVAR
  2
AcImStrSysVar
  3
AcMeServices
 90
     1024
 91
        0
280
     0
281
     0
  0
CLASS
  1
AMDTAMMENUSTATE
  2
AmdtAmMenuState
  3
DesignerAssemblies
 90
     1024
 91
        0
280
     0
281
     0
  0
CLASS
  1
ACAMPROJECT
  2
AcAmProject
  3
DesignerAssemblies
 90
     1024
 91
        0
280
     0
281
     0
  0
CLASS
  1
ACAMGRCOMPDEF
  2
AcAmGrCompDef
  3
DesignerAssemblies
 90
     1024
 91
        0
280
     0
281
     0
  0
CLASS
  1
ACAMCOMPDEF
  2
AcAmCompDef
  3
DesignerAssemblies
 90
     1024
 91
        0
280
     0
281
     0
  0
CLASS
  1
ACAMCOMPDEFMGR
  2
AcAmCompDefMgr
  3
DesignerAssemblies
 90
     1024
 91
        0
280
     0
281
     0
  0
CLASS
  1
AMCONTEXTMGR
  2
AcAmContextMgr
  3
DesignerAssemblies
 90
     1024
 91
        0
280
     0
281
     0
  0
CLASS
  1
ACAMCONTEXTMODELER
  2
AcAmContextModeler
  3
DesignerAssemblies
 90
     1024
 91
        0
280
     0
281
     0
  0
CLASS
  1
ACMDATADICTIONARY
  2
AcmDataDictionary
  3
"AcmSymBB|Product Description: AutoCAD Mechanical|Company: Autodesk, Inc."
 90
     1024
 91
        0
280
     0
281
     0
  0
CLASS
  1
ACAMGRCOMPDEFSET
  2
AcAmGrCompDefSet
  3
DesignerAssemblies
 90
     1024
 91
        0
280
     0
281
     0
  0
CLASS
  1
AMDTBROWSERDBTAB
  2
AmdtBrowserDbTab
  3
McadcomServices
 90
     1024
 91
        0
280
     0
281
     0
  0
CLASS
  1
CBROWSERAPPOBJECT
  2
CBrowserAppObject
  3
McadcomServices
 90
     1024
 91
        0
280
     0
281
     0
  0
CLASS
  1
DM_PLACEHOLDER
  2
AcDmSelsetPlaceholder
  3
McadcomServices
 90
     1024
 91
        0
280
     0
281
     0
  0
CLASS
  1
EXACXREFPANELOBJECT
  2
ExAcXREFPanelObject
  3
EXAC_ESW
 90
     1025
 91
        0
280
     0
281
     0
  0
CLASS
  1
NPOCOLLECTION
  2
AcDbImpNonPersistentObjectsCollection
  3
ObjectDBX Classes
 90
     1153
 91
        0
280
     0
281
     0
  0
CLASS
  1
ACAMGFILTERDAT
  2
AcAmgFilterDat
  3
"AcadM|Product Description: AutoCAD Mechanical|Company: Autodesk, Inc."
 90
     1024
 91
        0
280
     0
281
     0
  0
CLASS
  1
DIMASSOC
  2
AcDbDimAssoc
  3
"AcDbDimAssoc|Product Desc:     AcDim ARX App For Dimension|Company:          Autodesk, Inc.|WEB Address:      www.autodesk.com"
 90
        0
 91
        0
280
     0
281
     0
  0
CLASS
  1
SOLID_BACKGROUND
  2
AcDbSolidBackground
  3
SCENEOE
 90
     4095
 91
        0
280
     0
281
     0
  0
CLASS
  1
CAMSSTRUCTBTNSTATE
  2
StructBtnState
  3
DesignerAssemblies
 90
     1024
 91
        0
280
     0
281
     0
  0
CLASS
  1
DICTIONARYVAR
  2
AcDbDictionaryVar
  3
ObjectDBX Classes
 90
        0
 91
       14
280
     0
281
     0
  0
CLASS
  1
SORTENTSTABLE
  2
AcDbSortentsTable
  3
ObjectDBX Classes
 90
        0
 91
        1
280
     0
281
     0
  0
CLASS
  1
CELLSTYLEMAP
  2
AcDbCellStyleMap
  3
ObjectDBX Classes
 90
     1152
 91
        2
280
     0
281
     0
  0
CLASS
  1
ACDBPLACEHOLDER
  2
AcDbPlaceHolder
  3
ObjectDBX Classes
 90
        0
 91
        1
280
     0
281
     0
  0
CLASS
  1
LAYOUT
  2
AcDbLayout
  3
ObjectDBX Classes
 90
        0
 91
        2
280
     0
281
     0
  0
CLASS
  1
AEC_REFEDIT_STATUS_TRACKER
  2
AecDbRefEditStatusTracker
  3
AecArchBase60|Product Desc: Autodesk Architectural Desktop 2007 |Company: Autodesk,Inc. |WEB Address: www.autodesk.com
 90
      129
 91
        0
280
     0
281
     0
  0
CLASS
  1
ACDBSECTIONVIEWSTYLE
  2
AcDbSectionViewStyle
  3
ObjectDBX Classes
 90
     1025
 91
        2
280
     0
281
     0
  0
CLASS
  1
ACDBDETAILVIEWSTYLE
  2
AcDbDetailViewStyle
  3
ObjectDBX Classes
 90
     1025
 91
        2
280
     0
281
     0
  0
ENDSEC
  0
SECTION
  2
TABLES
  0
TABLE
  2
VPORT
  5
E2
102
{ACAD_XDICTIONARY
360
1A2B
102
}
330
0
100
AcDbSymbolTable
 70
     1
  0
VPORT
  5
14A6
330
E2
100
AcDbSymbolTableRecord
100
AcDbViewportTableRecord
  2
*Active
 70
     0
 10
0.0
 20
0.0
 11
1.0
 21
1.0
 12
1878.634238750742
 22
-134.8817982538576
 13
0.0
 23
0.0
 14
1.0
 24
1.0
 15
0.0
 25
0.0
 16
0.0
 26
0.0
 36
13589.73119704388
 17
-1533.185437899534
 27
463.7850657233811
 37
0.0
 40
850.5657622585658
 41
2.233748271092669
 42
50.0
 43
0.0
 44
0.0
 50
0.0
 51
0.0
 71
     0
 72
  1000
 73
     1
 74
     3
 75
     0
 76
     0
 77
     0
 78
     0
281
     0
 65
     1
110
0.0
120
0.0
130
0.0
111
1.0
121
0.0
131
0.0
112
0.0
122
1.0
132
0.0
 79
     0
146
0.0
348
1472
 60
     3
 61
     5
292
     1
282
     1
141
0.0
142
0.0
 63
   250
421
  3355443
1001
ACAD_NAV_VCDISPLAY
1070
     1
  0
ENDTAB
  0
TABLE
  2
LTYPE
  5
25
330
0
100
AcDbSymbolTable
 70
     3
  0
LTYPE
  5
26
330
25
100
AcDbSymbolTableRecord
100
AcDbLinetypeTableRecord
  2
BYBLOCK
 70
     0
  3

 72
    65
 73
     0
 40
0.0
  0
LTYPE
  5
27
330
25
100
AcDbSymbolTableRecord
100
AcDbLinetypeTableRecord
  2
BYLAYER
 70
     0
  3

 72
    65
 73
     0
 40
0.0
  0
LTYPE
  5
28
330
25
100
AcDbSymbolTableRecord
100
AcDbLinetypeTableRecord
  2
CONTINUOUS
 70
     0
  3
Solid line
 72
    65
 73
     0
 40
0.0
  0
LTYPE
  5
2A
330
25
100
AcDbSymbolTableRecord
100
AcDbLinetypeTableRecord
  2
CENTER
 70
     0
  3
__ . __
 72
    65
 73
     4
 40
7.0
 49
4.0
 74
     0
 49
-1.0
 74
     0
 49
1.0
 74
     0
 49
-1.0
 74
     0
  0
ENDTAB
  0
TABLE
  2
LAYER
  5
C8
102
{ACAD_XDICTIONARY
360
1A0A
102
}
330
0
100
AcDbSymbolTable
 70
     2
  0
LAYER
  5
C9
102
{ACAD_XDICTIONARY
360
15EF
102
}
330
C8
100
AcDbSymbolTableRecord
100
AcDbLayerTableRecord
  2
0
 70
     0
 62
     7
  6
CONTINUOUS
370
    -3
390
1452
347
1464
  0
LAYER
  5
2474
330
C8
100
AcDbSymbolTableRecord
100
AcDbLayerTableRecord
  2
Defpoints
 70
     0
 62
     7
  6
CONTINUOUS
290
     0
370
    -3
390
1452
347
1464
  0
ENDTAB
  0
TABLE
  2
STYLE
  5
CA
330
0
100
AcDbSymbolTable
 70
     1
  0
STYLE
  5
23
330
CA
100
AcDbSymbolTableRecord
100
AcDbTextStyleTableRecord
  2
STANDARD
 70
     0
 40
0.0
 41
1.0
 50
0.0
 71
     0
 42
0.2
  3
txt.shx
  4

  0
ENDTAB
  0
TABLE
  2
VIEW
  5
CE
330
0
100
AcDbSymbolTable
 70
     0
  0
ENDTAB
  0
TABLE
  2
UCS
  5
CF
330
0
100
AcDbSymbolTable
 70
     0
  0
ENDTAB
  0
TABLE
  2
APPID
  5
CC
330
0
100
AcDbSymbolTable
 70
    85
  0
APPID
  5
CD
330
CC
100
AcDbSymbolTableRecord
100
AcDbRegAppTableRecord
  2
ACAD
 70
     0
  0
APPID
  5
14A5
330
CC
100
AcDbSymbolTableRecord
100
AcDbRegAppTableRecord
  2
ACAD_NAV_VCDISPLAY
 70
     0
  0
APPID
  5
14AC
330
CC
100
AcDbSymbolTableRecord
100
AcDbRegAppTableRecord
  2
MCAD_NO_VIS
 70
     0
  0
APPID
  5
14AD
330
CC
100
AcDbSymbolTableRecord
100
AcDbRegAppTableRecord
  2
ACAD_TEMP_GRAPHIC
 70
     0
  0
APPID
  5
14B3
330
CC
100
AcDbSymbolTableRecord
100
AcDbRegAppTableRecord
  2
ACATTRIBSERVICES
 70
     0
  0
APPID
  5
14B4
330
CC
100
AcDbSymbolTableRecord
100
AcDbRegAppTableRecord
  2
AD_DRAW
 70
     0
  0
APPID
  5
14B5
330
CC
100
AcDbSymbolTableRecord
100
AcDbRegAppTableRecord
  2
DESIGNERASSEMBLIES
 70
     0
  0
APPID
  5
14B6
330
CC
100
AcDbSymbolTableRecord
100
AcDbRegAppTableRecord
  2
ASURF_PCURVE_APPNAME
 70
     0
  0
APPID
  5
14B7
330
CC
100
AcDbSymbolTableRecord
100
AcDbRegAppTableRecord
  2
ACADM_DIM_EDIT
 70
     0
  0
APPID
  5
14B8
330
CC
100
AcDbSymbolTableRecord
100
AcDbRegAppTableRecord
  2
GENIUS_GENDIM_13
 70
     0
  0
APPID
  5
14B9
330
CC
100
AcDbSymbolTableRecord
100
AcDbRegAppTableRecord
  2
GENIUS_GENDTOL_13
 70
     0
  0
APPID
  5
14BA
330
CC
100
AcDbSymbolTableRecord
100
AcDbRegAppTableRecord
  2
GENIUS_GE3DTOL_13
 70
     0
  0
APPID
  5
14BB
330
CC
100
AcDbSymbolTableRecord
100
AcDbRegAppTableRecord
  2
AMG_3D2D_5.0
 70
     0
  0
APPID
  5
14BC
330
CC
100
AcDbSymbolTableRecord
100
AcDbRegAppTableRecord
  2
AMDT_DM_ADJ
 70
     0
  0
APPID
  5
14BD
330
CC
100
AcDbSymbolTableRecord
100
AcDbRegAppTableRecord
  2
CK_MATE-SERIES
 70
     0
  0
APPID
  5
14BE
330
CC
100
AcDbSymbolTableRecord
100
AcDbRegAppTableRecord
  2
GEVID1042077799
 70
     0
  0
APPID
  5
14BF
330
CC
100
AcDbSymbolTableRecord
100
AcDbRegAppTableRecord
  2
GEVMK
 70
     0
  0
APPID
  5
14C0
330
CC
100
AcDbSymbolTableRecord
100
AcDbRegAppTableRecord
  2
GEVDC
 70
     0
  0
APPID
  5
14C1
330
CC
100
AcDbSymbolTableRecord
100
AcDbRegAppTableRecord
  2
GENIUS_GENBH_13
 70
     0
  0
APPID
  5
14C2
330
CC
100
AcDbSymbolTableRecord
100
AcDbRegAppTableRecord
  2
GENIUS_GENOLIS_13
 70
     0
  0
APPID
  5
14C3
330
CC
100
AcDbSymbolTableRecord
100
AcDbRegAppTableRecord
  2
GENIUS_GENOENT_13
 70
     0
  0
APPID
  5
14C4
330
CC
100
AcDbSymbolTableRecord
100
AcDbRegAppTableRecord
  2
GENIUS_GENODEF_13
 70
     0
  0
APPID
  5
14C5
330
CC
100
AcDbSymbolTableRecord
100
AcDbRegAppTableRecord
  2
GENIUS_GENOBJ-NBEHI-BHF_13
 70
     0
  0
APPID
  5
14C6
330
CC
100
AcDbSymbolTableRecord
100
AcDbRegAppTableRecord
  2
GENIUS_GENOREF_13
 70
     0
  0
APPID
  5
14C7
330
CC
100
AcDbSymbolTableRecord
100
AcDbRegAppTableRecord
  2
GENIUS_GENOBJ-NBEHI-BHB_13
 70
     0
  0
APPID
  5
14C8
330
CC
100
AcDbSymbolTableRecord
100
AcDbRegAppTableRecord
  2
GEVID1042183772
 70
     0
  0
APPID
  5
14C9
330
CC
100
AcDbSymbolTableRecord
100
AcDbRegAppTableRecord
  2
GEVID1042183773
 70
     0
  0
APPID
  5
14CA
330
CC
100
AcDbSymbolTableRecord
100
AcDbRegAppTableRecord
  2
GEVID1042183774
 70
     0
  0
APPID
  5
14CB
330
CC
100
AcDbSymbolTableRecord
100
AcDbRegAppTableRecord
  2
DCO15
 70
     0
  0
APPID
  5
14CC
330
CC
100
AcDbSymbolTableRecord
100
AcDbRegAppTableRecord
  2
ACAD_DSTYLE_DIMARC_LENGTH_SYMBOL
 70
     0
  0
APPID
  5
14CD
330
CC
100
AcDbSymbolTableRecord
100
AcDbRegAppTableRecord
  2
ACAD_DSTYLE_DIMJOGGED_JOGANGLE_SYMBOL
 70
     0
  0
APPID
  5
14CE
330
CC
100
AcDbSymbolTableRecord
100
AcDbRegAppTableRecord
  2
ACAD_MLEADERVER
 70
     0
  0
APPID
  5
14CF
330
CC
100
AcDbSymbolTableRecord
100
AcDbRegAppTableRecord
  2
GENIUS_GENOBJ-N-FIL_13
 70
     0
  0
APPID
  5
14D0
330
CC
100
AcDbSymbolTableRecord
100
AcDbRegAppTableRecord
  2
AcadAnnoPO
 70
     0
  0
APPID
  5
14D1
330
CC
100
AcDbSymbolTableRecord
100
AcDbRegAppTableRecord
  2
GENIUS_GENOBJ-N-TIT_13
 70
     0
  0
APPID
  5
14D2
330
CC
100
AcDbSymbolTableRecord
100
AcDbRegAppTableRecord
  2
GENIUS_GENTITLE_13
 70
     0
  0
APPID
  5
14D3
330
CC
100
AcDbSymbolTableRecord
100
AcDbRegAppTableRecord
  2
GENIUS_GENSCREG_15
 70
     0
  0
APPID
  5
14D4
330
CC
100
AcDbSymbolTableRecord
100
AcDbRegAppTableRecord
  2
GENIUS_GENOBJ-N-SDF_13
 70
     0
  0
APPID
  5
14D5
330
CC
100
AcDbSymbolTableRecord
100
AcDbRegAppTableRecord
  2
ACAD_PSEXT
 70
     0
  0
APPID
  5
14D6
330
CC
100
AcDbSymbolTableRecord
100
AcDbRegAppTableRecord
  2
AcAecLayerStandard
 70
     0
  0
APPID
  5
14D7
330
CC
100
AcDbSymbolTableRecord
100
AcDbRegAppTableRecord
  2
ACAD_EXEMPT_FROM_CAD_STANDARDS
 70
     0
  0
APPID
  5
14D8
330
CC
100
AcDbSymbolTableRecord
100
AcDbRegAppTableRecord
  2
ACAD_DSTYLE_DIMINSPECT
 70
     0
  0
APPID
  5
14D9
330
CC
100
AcDbSymbolTableRecord
100
AcDbRegAppTableRecord
  2
GENIUS_GENDIMSH_14
 70
     0
  0
APPID
  5
14DA
330
CC
100
AcDbSymbolTableRecord
100
AcDbRegAppTableRecord
  2
GENIUS_GENOBJ-N-CEN_13
 70
     0
  0
APPID
  5
14DB
330
CC
100
AcDbSymbolTableRecord
100
AcDbRegAppTableRecord
  2
GENIUS_GENCEN_19
 70
     0
  0
APPID
  5
14DC
330
CC
100
AcDbSymbolTableRecord
100
AcDbRegAppTableRecord
  2
ACAD_DSTYLE_DIMJAG
 70
     0
  0
APPID
  5
14DD
330
CC
100
AcDbSymbolTableRecord
100
AcDbRegAppTableRecord
  2
ACAD_DSTYLE_DIMTALN
 70
     0
  0
APPID
  5
14DE
330
CC
100
AcDbSymbolTableRecord
100
AcDbRegAppTableRecord
  2
GENIUS_GENREC_14
 70
     0
  0
APPID
  5
14DF
330
CC
100
AcDbSymbolTableRecord
100
AcDbRegAppTableRecord
  2
GENIUS_GENOBJ-N-REC_13
 70
     0
  0
APPID
  5
14E0
330
CC
100
AcDbSymbolTableRecord
100
AcDbRegAppTableRecord
  2
ACAD_DIMASSOC_CALC_DIMLFAC
 70
     0
  0
APPID
  5
14E1
330
CC
100
AcDbSymbolTableRecord
100
AcDbRegAppTableRecord
  2
ACAD_DIMASSOC_DIMLFAC
 70
     0
  0
APPID
  5
14E2
330
CC
100
AcDbSymbolTableRecord
100
AcDbRegAppTableRecord
  2
ACAD_DIMASSOC_OVERRIDDEN_DIMLFAC
 70
     0
  0
APPID
  5
14E3
330
CC
100
AcDbSymbolTableRecord
100
AcDbRegAppTableRecord
  2
AcadAnnotative
 70
     0
  0
APPID
  5
14E4
330
CC
100
AcDbSymbolTableRecord
100
AcDbRegAppTableRecord
  2
ACAD_DSTYLE_DIMEXT_LENGTH
 70
     0
  0
APPID
  5
14E5
330
CC
100
AcDbSymbolTableRecord
100
AcDbRegAppTableRecord
  2
ACAD_DSTYLE_DIMEXT_ENABLED
 70
     0
  0
APPID
  5
14E6
330
CC
100
AcDbSymbolTableRecord
100
AcDbRegAppTableRecord
  2
ACAD_DSTYLE_DIMBREAK
 70
     0
  0
APPID
  5
14E7
330
CC
100
AcDbSymbolTableRecord
100
AcDbRegAppTableRecord
  2
ACAD_DSTYLE_DIMANGULAR_EXTENSION
 70
     0
  0
APPID
  5
14E8
330
CC
100
AcDbSymbolTableRecord
100
AcDbRegAppTableRecord
  2
ACCMTRANSPARENCY
 70
     0
  0
APPID
  5
14E9
330
CC
100
AcDbSymbolTableRecord
100
AcDbRegAppTableRecord
  2
GENIUS_GENBLLY_14
 70
     0
  0
APPID
  5
14EA
330
CC
100
AcDbSymbolTableRecord
100
AcDbRegAppTableRecord
  2
GENIUS_GENTRA_14
 70
     0
  0
APPID
  5
14EB
330
CC
100
AcDbSymbolTableRecord
100
AcDbRegAppTableRecord
  2
GENIUS_GENOBJ-N-REV_13
 70
     0
  0
APPID
  5
14EC
330
CC
100
AcDbSymbolTableRecord
100
AcDbRegAppTableRecord
  2
GENIUS_GENOBJ-N-RSSYM_13
 70
     0
  0
APPID
  5
14ED
330
CC
100
AcDbSymbolTableRecord
100
AcDbRegAppTableRecord
  2
GENIUS_GENSYMENT_13
 70
     0
  0
APPID
  5
14EE
330
CC
100
AcDbSymbolTableRecord
100
AcDbRegAppTableRecord
  2
GENIUS_GENSCSYM_13
 70
     0
  0
APPID
  5
14EF
330
CC
100
AcDbSymbolTableRecord
100
AcDbRegAppTableRecord
  2
AcDbBlockRepBTag
 70
     0
  0
APPID
  5
14F0
330
CC
100
AcDbSymbolTableRecord
100
AcDbRegAppTableRecord
  2
ACAUTHENVIRON
 70
     0
  0
APPID
  5
14F1
330
CC
100
AcDbSymbolTableRecord
100
AcDbRegAppTableRecord
  2
AcDbDynamicBlockTrueName
 70
     0
  0
APPID
  5
14F2
330
CC
100
AcDbSymbolTableRecord
100
AcDbRegAppTableRecord
  2
AcDbDynamicBlockGUID
 70
     0
  0
APPID
  5
14F3
330
CC
100
AcDbSymbolTableRecord
100
AcDbRegAppTableRecord
  2
AcDbBlockRepETag
 70
     0
  0
APPID
  5
14F4
330
CC
100
AcDbSymbolTableRecord
100
AcDbRegAppTableRecord
  2
GENIUS_GENOBJ-N-HTC_13
 70
     0
  0
APPID
  5
14F5
330
CC
100
AcDbSymbolTableRecord
100
AcDbRegAppTableRecord
  2
GENIUS_GENHATCH_13
 70
     0
  0
APPID
  5
14F6
330
CC
100
AcDbSymbolTableRecord
100
AcDbRegAppTableRecord
  2
GRADIENTCOLOR1ACI
 70
     0
  0
APPID
  5
14F7
330
CC
100
AcDbSymbolTableRecord
100
AcDbRegAppTableRecord
  2
GRADIENTCOLOR2ACI
 70
     0
  0
APPID
  5
14F8
330
CC
100
AcDbSymbolTableRecord
100
AcDbRegAppTableRecord
  2
GENIUS_GENFIL_13
 70
     0
  0
APPID
  5
14F9
330
CC
100
AcDbSymbolTableRecord
100
AcDbRegAppTableRecord
  2
GENIUS_GENOBJ-N-CHA_13
 70
     0
  0
APPID
  5
14FA
330
CC
100
AcDbSymbolTableRecord
100
AcDbRegAppTableRecord
  2
ACAD_DSTYLE_DIM_LINETYPE
 70
     0
  0
APPID
  5
14FB
330
CC
100
AcDbSymbolTableRecord
100
AcDbRegAppTableRecord
  2
ACAD_DSTYLE_DIM_EXT1_LINETYPE
 70
     0
  0
APPID
  5
14FC
330
CC
100
AcDbSymbolTableRecord
100
AcDbRegAppTableRecord
  2
ACAD_DSTYLE_DIM_EXT2_LINETYPE
 70
     0
  0
APPID
  5
14FD
330
CC
100
AcDbSymbolTableRecord
100
AcDbRegAppTableRecord
  2
AcDbAttr
 70
     0
  0
APPID
  5
14FE
330
CC
100
AcDbSymbolTableRecord
100
AcDbRegAppTableRecord
  2
ACAD_DSTYLE_DIMRADIAL_EXTENSION
 70
     0
  0
APPID
  5
14FF
330
CC
100
AcDbSymbolTableRecord
100
AcDbRegAppTableRecord
  2
ACADANNOAV
 70
     0
  0
APPID
  5
1500
330
CC
100
AcDbSymbolTableRecord
100
AcDbRegAppTableRecord
  2
ACAD_DSTYLE_DIMTEXT_FILL
 70
     0
  0
APPID
  5
1501
330
CC
100
AcDbSymbolTableRecord
100
AcDbRegAppTableRecord
  2
ACAD_DSTYLE_DIMFLIPARROW_WHICH_SYMBOL
 70
     0
  0
APPID
  5
1502
330
CC
100
AcDbSymbolTableRecord
100
AcDbRegAppTableRecord
  2
ACADBPTGRAPHNODEID
 70
     0
  0
APPID
  5
1503
330
CC
100
AcDbSymbolTableRecord
100
AcDbRegAppTableRecord
  2
PE_URL
 70
     0
  0
ENDTAB
  0
TABLE
  2
DIMSTYLE
  5
CB
330
0
100
AcDbSymbolTable
 70
     1
100
AcDbDimStyleTable
 71
     1
340
149C
  0
DIMSTYLE
105
149C
330
CB
100
AcDbSymbolTableRecord
100
AcDbDimStyleTableRecord
  2
Standard
 70
     0
340
23
  0
ENDTAB
  0
TABLE
  2
BLOCK_RECORD
  5
D0
330
0
100
AcDbSymbolTable
 70
     0
  0
BLOCK_RECORD
  5
D1
102
{ACAD_XDICTIONARY
360
16F1
102
}
330
D0
100
AcDbSymbolTableRecord
100
AcDbBlockTableRecord
  2
*MODEL_SPACE
340
149F
 70
     0
280
     1
281
     0
  0
BLOCK_RECORD
  5
D2
330
D0
100
AcDbSymbolTableRecord
100
AcDbBlockTableRecord
  2
*PAPER_SPACE
340
14A0
 70
     0
280
     1
281
     0
  0
ENDTAB
  0
ENDSEC
  0
SECTION
  2
BLOCKS
  0
BLOCK
  5
E3
330
D1
100
AcDbEntity
  8
0
100
AcDbBlockBegin
  2
*MODEL_SPACE
 70
     0
 10
0.0
 20
0.0
 30
0.0
  3
*MODEL_SPACE
  1

  0
ENDBLK
  5
E4
330
D1
100
AcDbEntity
  8
0
100
AcDbBlockEnd
  0
BLOCK
  5
E5
330
D2
100
AcDbEntity
 67
     1
  8
0
100
AcDbBlockBegin
  2
*PAPER_SPACE
 70
     0
 10
0.0
 20
0.0
 30
0.0
  3
*PAPER_SPACE
  1

  0
ENDBLK
  5
E6
330
D2
100
AcDbEntity
 67
     1
  8
0
100
AcDbBlockEnd
  0
ENDSEC
  0
SECTION
  2
ENTITIES
  0
LINE
  5
1689
330
D1
100
AcDbEntity
  8
0
  6
Continuous
100
AcDbLine
 10
-41.975067
 20
452.5
 30
0.0
 11
-38.97506700000003
 21
452.5
 31
0.0
  0
LINE
  5
168A
330
D1
100
AcDbEntity
  8
0
  6
Continuous
100
AcDbLine
 10
-41.975067
 20
452.5
 30
0.0
 11
-41.975067
 21
464.252659
 31
0.0
  0
LINE
  5
168D
330
D1
100
AcDbEntity
  8
0
  6
Continuous
100
AcDbLine
 10
-33.32505799999985
 20
341.5
 30
0.0
 11
-33.32505799999985
 21
350.293056
 31
0.0
  0
LINE
  5
168E
330
D1
100
AcDbEntity
  8
0
  6
Continuous
100
AcDbLine
 10
-27.62505899999992
 20
341.5
 30
0.0
 11
-33.32505799999985
 21
341.5
 31
0.0
  0
LINE
  5
1695
330
D1
100
AcDbEntity
  8
0
  6
Continuous
100
AcDbLine
 10
-34.72506700000003
 20
350.5
 30
0.0
 11
-34.72506700000003
 21
363.249984924705
 31
0.0
  0
LINE
  5
1697
330
D1
100
AcDbEntity
  8
0
  6
Continuous
100
AcDbLine
 10
-34.72506700000003
 20
350.5
 30
0.0
 11
-39.97506700000003
 21
350.5
 31
0.0
  0
LINE
  5
169A
330
D1
100
AcDbEntity
  8
0
  6
Continuous
100
AcDbLine
 10
-39.97506700000003
 20
350.5
 30
0.0
 11
-39.97506700000003
 21
373.2294299452815
 31
0.0
  0
LINE
  5
169C
330
D1
100
AcDbEntity
  8
0
  6
Continuous
100
AcDbLine
 10
-62.50003099999997
 20
435.250145
 30
0.0
 11
-62.50003099999998
 21
384.750145
 31
0.0
  0
LINE
  5
169D
330
D1
100
AcDbEntity
  8
0
  6
Continuous
100
AcDbLine
 10
-55.9929959999999
 20
429.050148
 30
0.0
 11
-38.97497199999993
 21
429.050148
 31
0.0
  0
LINE
  5
169E
330
D1
100
AcDbEntity
  8
0
  6
Continuous
100
AcDbLine
 10
-62.50003099999998
 20
384.750145
 30
0.0
 11
-60.21018999999995
 21
384.750145
 31
0.0
  0
LINE
  5
169F
330
D1
100
AcDbEntity
  8
0
  6
Continuous
100
AcDbLine
 10
-62.50003099999997
 20
435.250145
 30
0.0
 11
-60.21018999999995
 21
435.250145
 31
0.0
  0
LINE
  5
16A0
330
D1
100
AcDbEntity
  8
0
  6
Continuous
100
AcDbLine
 10
-59.45844699999992
 20
385.276527
 30
0.0
 11
-57.87238699999982
 21
389.634184
 31
0.0
  0
LINE
  5
16A1
330
D1
100
AcDbEntity
  8
0
  6
Continuous
100
AcDbLine
 10
-57.39341699999993
 20
390.9501419999998
 30
0.0
 11
-57.39341699999993
 21
429.050148
 31
0.0
  0
LINE
  5
16A2
330
D1
100
AcDbEntity
  8
0
  6
Continuous
100
AcDbLine
 10
36.00000000000007
 20
390.9499969999998
 30
0.0
 11
55.99298100000015
 21
390.9499969999998
 31
0.0
  0
LINE
  5
16A3
330
D1
100
AcDbEntity
  8
0
  6
Continuous
100
AcDbLine
 10
62.50000000000007
 20
435.25
 30
0.0
 11
62.50000000000007
 21
384.75
 31
0.0
  0
LINE
  5
16A4
330
D1
100
AcDbEntity
  8
0
  6
Continuous
100
AcDbLine
 10
62.50000000000007
 20
435.25
 30
0.0
 11
60.210175
 21
435.25
 31
0.0
  0
LINE
  5
16A5
330
D1
100
AcDbEntity
  8
0
  6
Continuous
100
AcDbLine
 10
59.65000900000001
 20
434.7236139999998
 30
0.0
 11
59.65000900000001
 21
385.805191
 31
0.0
  0
LINE
  5
16A6
330
D1
100
AcDbEntity
  8
0
  6
Continuous
100
AcDbLine
 10
59.45841200000001
 20
434.7236139999998
 30
0.0
 11
57.87235600000014
 21
430.3659649999998
 31
0.0
  0
LINE
  5
16A7
330
D1
100
AcDbEntity
  8
0
  6
Continuous
100
AcDbLine
 10
62.50000000000007
 20
384.75
 30
0.0
 11
60.21017499999999
 21
384.75
 31
0.0
  0
LINE
  5
16A8
330
D1
100
AcDbEntity
  8
0
  6
Continuous
100
AcDbLine
 10
59.45841999999998
 20
385.276394
 30
0.0
 11
57.87236800000011
 21
389.634039
 31
0.0
  0
LINE
  5
16A9
330
D1
100
AcDbEntity
  8
0
  6
Continuous
100
AcDbLine
 10
55.99296600000007
 20
429.050003
 30
0.0
 11
36.00000000000007
 21
429.050003
 31
0.0
  0
LINE
  5
16AA
330
D1
100
AcDbEntity
  8
0
  6
Continuous
100
AcDbLine
 10
57.39340199999998
 20
390.9499969999998
 30
0.0
 11
57.39340199999998
 21
429.050003
 31
0.0
  0
LINE
  5
16AB
330
D1
100
AcDbEntity
  8
0
  6
Continuous
100
AcDbLine
 10
-55.9929959999999
 20
390.9501419999998
 30
0.0
 11
-38.97505999999993
 21
390.9501419999998
 31
0.0
  0
LINE
  5
16AC
330
D1
100
AcDbEntity
  8
0
  6
Continuous
100
AcDbLine
 10
-59.65002399999997
 20
434.723755
 30
0.0
 11
-59.65002399999997
 21
385.8053279999999
 31
0.0
  0
LINE
  5
16AD
330
D1
100
AcDbEntity
  8
0
  6
Continuous
100
AcDbLine
 10
-59.45845400000002
 20
434.7237569999998
 30
0.0
 11
-57.87239799999992
 21
430.3661039999998
 31
0.0
  0
LINE
  5
16AF
330
D1
100
AcDbEntity
  8
0
  6
Continuous
100
AcDbLine
 10
-38.97506700000003
 20
363.249984924705
 30
0.0
 11
-38.97506700000003
 21
456.7499849247049
 31
0.0
  0
ARC
  5
16DC
330
D1
100
AcDbEntity
  8
0
  6
Continuous
100
AcDbCircle
 10
-30.47506500000004
 20
357.5
 30
0.0
 40
7.75
100
AcDbArc
 50
236.7435510321672
 51
303.2665609627447
  0
ARC
  5
16E4
330
D1
100
AcDbEntity
  8
0
  6
Continuous
100
AcDbCircle
 10
-55.9929959999999
 20
388.9501419999999
 30
0.0
 40
2.0
100
AcDbArc
 50
90.0
 51
160.0000220000007
  0
ARC
  5
16E5
330
D1
100
AcDbEntity
  8
0
  6
Continuous
100
AcDbCircle
 10
28.00000000000006
 20
410.0
 30
0.0
 40
13.0
100
AcDbArc
 50
283.443492808807
 51
76.55650719119293
  0
ARC
  5
16E7
330
D1
100
AcDbEntity
  8
0
  6
Continuous
100
AcDbCircle
 10
-60.21018999999995
 20
434.4501419999998
 30
0.0
 40
0.8000000099999999
100
AcDbArc
 50
20.00003000000322
 51
90.0
  0
ARC
  5
16E8
330
D1
100
AcDbEntity
  8
0
  6
Continuous
100
AcDbCircle
 10
36.00000000000007
 20
431.050003
 30
0.0
 40
2.0
100
AcDbArc
 50
180.0
 51
270.0
  0
ARC
  5
16E9
330
D1
100
AcDbEntity
  8
0
  6
Continuous
100
AcDbCircle
 10
-60.21018999999995
 20
385.550148
 30
0.0
 40
0.8000000099999999
100
AcDbArc
 50
270.0
 51
339.9999699999968
  0
ARC
  5
16EA
330
D1
100
AcDbEntity
  8
0
  6
Continuous
100
AcDbCircle
 10
36.00000000000007
 20
388.949997
 30
0.0
 40
2.0
100
AcDbArc
 50
90.0
 51
180.0
  0
ARC
  5
16EB
330
D1
100
AcDbEntity
  8
0
  6
Continuous
100
AcDbCircle
 10
60.21017499999999
 20
434.4500049999998
 30
0.0
 40
0.8000000099999999
100
AcDbArc
 50
90.0
 51
159.9999709999988
  0
ARC
  5
16EC
330
D1
100
AcDbEntity
  8
0
  6
Continuous
100
AcDbCircle
 10
60.21017499999999
 20
385.5500030000002
 30
0.0
 40
0.8000000099999999
100
AcDbArc
 50
200.0000300000032
 51
270.0
  0
ARC
  5
16ED
330
D1
100
AcDbEntity
  8
0
  6
Continuous
100
AcDbCircle
 10
-55.9929959999999
 20
431.050148
 30
0.0
 40
2.0
100
AcDbArc
 50
199.9999800000019
 51
270.0
  0
ARC
  5
16EE
330
D1
100
AcDbEntity
  8
0
  6
Continuous
100
AcDbCircle
 10
55.99298100000015
 20
388.949997
 30
0.0
 40
2.0
100
AcDbArc
 50
19.99998000000191
 51
90.0
  0
ARC
  5
16EF
330
D1
100
AcDbEntity
  8
0
  6
Continuous
100
AcDbCircle
 10
55.99296600000007
 20
431.050003
 30
0.0
 40
2.0
100
AcDbArc
 50
270.0
 51
340.0000199999981
  0
ARC
  5
16F0
330
D1
100
AcDbEntity
  8
0
  6
Continuous
100
AcDbCircle
 10
28.00000000000006
 20
410.0
 30
0.0
 40
10.0
100
AcDbArc
 50
295.1789241550395
 51
64.8210758449605
  0
LINE
  5
1708
330
D1
100
AcDbEntity
  8
0
  6
Continuous
100
AcDbLine
 10
-33.3250579999999
 20
-46.74993099999993
 30
0.0
 11
-38.97506700000008
 21
-46.74993099999993
 31
0.0
  0
LINE
  5
1709
330
D1
100
AcDbEntity
  8
0
  6
Continuous
100
AcDbLine
 10
-38.97506700000008
 20
-46.74993099999993
 30
0.0
 11
-38.97506700000008
 21
-14.99992899999995
 31
0.0
  0
LINE
  5
170A
330
D1
100
AcDbEntity
  8
0
  6
Continuous
100
AcDbLine
 10
-21.97506500000009
 20
-46.74993099999993
 30
0.0
 11
-21.97506500000008
 21
-14.99992899999995
 31
0.0
  0
LINE
  5
170C
330
D1
100
AcDbEntity
  8
0
  6
Continuous
100
AcDbLine
 10
19.00000000000001
 20
39.5
 30
0.0
 11
19.00000000000001
 21
32.62112400000001
 31
0.0
  0
LINE
  5
170D
330
D1
100
AcDbEntity
  8
0
  6
Continuous
100
AcDbLine
 10
15.00000000000001
 20
55.5
 30
0.0
 11
15.00000000000001
 21
53.5
 31
0.0
  0
LINE
  5
170E
330
D1
100
AcDbEntity
  8
0
  6
Continuous
100
AcDbLine
 10
-17.49999999999998
 20
53.5
 30
0.0
 11
-12.49999999999998
 21
53.5
 31
0.0
  0
LINE
  5
170F
330
D1
100
AcDbEntity
  8
0
  6
Continuous
100
AcDbLine
 10
-62.50003100000003
 20
25.25014499999998
 30
0.0
 11
-62.50003100000003
 21
-25.24985500000002
 31
0.0
  0
LINE
  5
1710
330
D1
100
AcDbEntity
  8
0
  6
Continuous
100
AcDbLine
 10
-18.99999999999999
 20
39.5
 30
0.0
 11
-18.99999999999999
 21
35.25
 31
0.0
  0
LINE
  5
1712
330
D1
100
AcDbEntity
  8
0
  6
Continuous
100
AcDbLine
 10
-14.74999999999998
 20
83.50086999999994
 30
0.0
 11
-14.74999999999998
 21
55.5
 31
0.0
  0
LINE
  5
1713
330
D1
100
AcDbEntity
  8
0
  6
Continuous
100
AcDbLine
 10
14.75000000000002
 20
83.50086999999994
 30
0.0
 11
14.75000000000001
 21
55.5
 31
0.0
  0
LINE
  5
1714
330
D1
100
AcDbEntity
  8
0
  6
Continuous
100
AcDbLine
 10
-18.99999999999999
 20
39.5
 30
0.0
 11
19.00000000000001
 21
39.5
 31
0.0
  0
LINE
  5
1715
330
D1
100
AcDbEntity
  8
0
  6
Continuous
100
AcDbLine
 10
-55.99299599999993
 20
19.05014800000004
 30
0.0
 11
-38.97497199999996
 21
19.05014800000004
 31
0.0
  0
LINE
  5
1716
330
D1
100
AcDbEntity
  8
0
  6
Continuous
100
AcDbLine
 10
-62.50003100000003
 20
-25.24985500000002
 30
0.0
 11
-60.21019
 21
-25.24985500000002
 31
0.0
  0
LINE
  5
1717
330
D1
100
AcDbEntity
  8
0
  6
Continuous
100
AcDbLine
 10
12.50000000000001
 20
55.5
 30
0.0
 11
15.00000000000001
 21
55.5
 31
0.0
  0
LINE
  5
1718
330
D1
100
AcDbEntity
  8
0
  6
Continuous
100
AcDbLine
 10
-14.99999999999998
 20
55.5
 30
0.0
 11
-14.99999999999998
 21
53.5
 31
0.0
  0
LINE
  5
1719
330
D1
100
AcDbEntity
  8
0
  6
Continuous
100
AcDbLine
 10
-9.500034299999921
 20
-56.99965299999997
 30
0.0
 11
9.499965700000077
 21
-56.99965299999997
 31
0.0
  0
LINE
  5
171A
330
D1
100
AcDbEntity
  8
0
  6
Continuous
100
AcDbLine
 10
17.49996600000008
 20
-48.99965299999998
 30
0.0
 11
17.49996600000009
 21
-42.99965299999995
 31
0.0
  0
LINE
  5
171B
330
D1
100
AcDbEntity
  8
0
  6
Continuous
100
AcDbLine
 10
-17.50003399999991
 20
-48.99965299999998
 30
0.0
 11
-17.50003399999991
 21
-42.99965299999995
 31
0.0
  0
LINE
  5
171C
330
D1
100
AcDbEntity
  8
0
  6
Continuous
100
AcDbLine
 10
-14.50003399999991
 20
-39.99965299999997
 30
0.0
 11
14.49996600000009
 21
-39.99965299999997
 31
0.0
  0
LINE
  5
1723
330
D1
100
AcDbEntity
  8
0
  6
Continuous
100
AcDbLine
 10
-17.40080299999999
 20
-42.99965299999995
 30
0.0
 11
-17.40080299999999
 21
-48.99965299999998
 31
0.0
  0
LINE
  5
1724
330
D1
100
AcDbEntity
  8
0
  6
Continuous
100
AcDbLine
 10
-10.31207900000003
 20
-42.99965299999995
 30
0.0
 11
-10.31207900000003
 21
-48.99965299999998
 31
0.0
  0
LINE
  5
1725
330
D1
100
AcDbEntity
  8
0
  6
Continuous
100
AcDbLine
 10
-7.088758000000094
 20
-42.99965299999995
 30
0.0
 11
-7.088758000000094
 21
-48.99965299999998
 31
0.0
  0
LINE
  5
1726
330
D1
100
AcDbEntity
  8
0
  6
Continuous
100
AcDbLine
 10
7.088688900000081
 20
-42.99965299999995
 30
0.0
 11
7.088688900000081
 21
-48.99965299999998
 31
0.0
  0
LINE
  5
1727
330
D1
100
AcDbEntity
  8
0
  6
Continuous
100
AcDbLine
 10
10.3120100000001
 20
-42.99965299999995
 30
0.0
 11
10.3120100000001
 21
-48.99965299999998
 31
0.0
  0
LINE
  5
1728
330
D1
100
AcDbEntity
  8
0
  6
Continuous
100
AcDbLine
 10
17.40073400000006
 20
-42.99965299999995
 30
0.0
 11
17.40073400000006
 21
-48.99965299999998
 31
0.0
  0
LINE
  5
172B
330
D1
100
AcDbEntity
  8
0
  6
Continuous
100
AcDbLine
 10
31.48820900000012
 20
83.50040400000002
 30
0.0
 11
31.48820900000012
 21
85.500404
 31
0.0
  0
LINE
  5
172C
330
D1
100
AcDbEntity
  8
0
  6
Continuous
100
AcDbLine
 10
-16.08832899999991
 20
83.50040400000002
 30
0.0
 11
-31.488329
 21
83.50040400000002
 31
0.0
  0
LINE
  5
172D
330
D1
100
AcDbEntity
  8
0
  6
Continuous
100
AcDbLine
 10
-18.15435599999999
 20
75.500404
 30
0.0
 11
-29.42230399999992
 21
75.500404
 31
0.0
  0
LINE
  5
172E
330
D1
100
AcDbEntity
  8
0
  6
Continuous
100
AcDbLine
 10
-17.28833000000007
 20
76.00040400000001
 30
0.0
 11
-17.28833000000007
 21
83.50040400000002
 31
0.0
  0
LINE
  5
172F
330
D1
100
AcDbEntity
  8
0
  6
Continuous
100
AcDbLine
 10
-30.28833000000008
 20
76.00040400000001
 30
0.0
 11
-30.28833000000008
 21
83.50040400000002
 31
0.0
  0
LINE
  5
1730
330
D1
100
AcDbEntity
  8
0
  6
Continuous
100
AcDbLine
 10
-17.28833000000007
 20
82.25040400000002
 30
0.0
 11
-30.28833000000008
 21
82.25040400000002
 31
0.0
  0
LINE
  5
1731
330
D1
100
AcDbEntity
  8
0
  6
Continuous
100
AcDbLine
 10
-17.28833000000007
 20
76.00040400000001
 30
0.0
 11
-30.28833000000008
 21
76.00040400000001
 31
0.0
  0
LINE
  5
1732
330
D1
100
AcDbEntity
  8
0
  6
Continuous
100
AcDbLine
 10
-18.15435599999999
 20
75.500404
 30
0.0
 11
-17.28832800000007
 21
76.00040400000001
 31
0.0
  0
LINE
  5
1733
330
D1
100
AcDbEntity
  8
0
  6
Continuous
100
AcDbLine
 10
-29.42230399999992
 20
75.500404
 30
0.0
 11
-30.28833000000008
 21
76.00040400000001
 31
0.0
  0
LINE
  5
173E
330
D1
100
AcDbEntity
  8
0
  6
Continuous
100
AcDbLine
 10
-14.99999999999998
 20
55.5
 30
0.0
 11
-12.49999999999998
 21
55.5
 31
0.0
  0
LINE
  5
173F
330
D1
100
AcDbEntity
  8
0
  6
Continuous
100
AcDbLine
 10
-62.50003100000003
 20
25.25014499999998
 30
0.0
 11
-60.21019
 21
25.25014499999998
 31
0.0
  0
LINE
  5
1740
330
D1
100
AcDbEntity
  8
0
  6
Continuous
100
AcDbLine
 10
-59.45844699999997
 20
-24.72347300000001
 30
0.0
 11
-57.87238699999988
 21
-20.36581599999999
 31
0.0
  0
LINE
  5
1741
330
D1
100
AcDbEntity
  8
0
  6
Continuous
100
AcDbLine
 10
-32.49999999999998
 20
100.500404
 30
0.0
 11
-32.5
 21
85.500404
 31
0.0
  0
LINE
  5
1742
330
D1
100
AcDbEntity
  8
0
  6
Continuous
100
AcDbLine
 10
-11.49999999999999
 20
-35.25
 30
0.0
 11
-11.49999999999999
 21
-39.36525000000006
 31
0.0
  0
LINE
  5
1743
330
D1
100
AcDbEntity
  8
0
  6
Continuous
100
AcDbLine
 10
-19.99999999999998
 20
50.50040799999999
 30
0.0
 11
-19.99999999999999
 21
40.50040799999999
 31
0.0
  0
LINE
  5
1744
330
D1
100
AcDbEntity
  8
0
  6
Continuous
100
AcDbLine
 10
20.00000000000001
 20
50.50040799999999
 30
0.0
 11
20.00000000000001
 21
40.50040799999999
 31
0.0
  0
LINE
  5
1745
330
D1
100
AcDbEntity
  8
0
  6
Continuous
100
AcDbLine
 10
11.5
 20
-34.26149699999996
 30
0.0
 11
11.5
 21
-39.36525000000006
 31
0.0
  0
LINE
  5
1746
330
D1
100
AcDbEntity
  8
0
  6
Continuous
100
AcDbLine
 10
20.00000000000001
 20
50.50040799999999
 30
0.0
 11
12.50000000000001
 21
50.50040799999999
 31
0.0
  0
LINE
  5
1747
330
D1
100
AcDbEntity
  8
0
  6
Continuous
100
AcDbLine
 10
-12.49999999999998
 20
81.50040399999998
 30
0.0
 11
-12.49999999999998
 21
46.50040799999999
 31
0.0
  0
LINE
  5
1748
330
D1
100
AcDbEntity
  8
0
  6
Continuous
100
AcDbLine
 10
-57.39341699999999
 20
-19.04985799999996
 30
0.0
 11
-57.39341699999999
 21
19.05014800000004
 31
0.0
  0
LINE
  5
174A
330
D1
100
AcDbEntity
  8
0
  6
Continuous
100
AcDbLine
 10
-21.97505799999999
 20
-32.25
 30
0.0
 11
-14.49999999999999
 21
-32.25
 31
0.0
  0
LINE
  5
174B
330
D1
100
AcDbEntity
  8
0
  6
Continuous
100
AcDbLine
 10
41.0
 20
51.50040799999999
 30
0.0
 11
12.50000000000001
 21
51.50040799999999
 31
0.0
  0
LINE
  5
174C
330
D1
100
AcDbEntity
  8
0
  6
Continuous
100
AcDbLine
 10
12.50000000000002
 20
81.50040399999998
 30
0.0
 11
12.50000000000001
 21
46.50040799999999
 31
0.0
  0
LINE
  5
174D
330
D1
100
AcDbEntity
  8
0
  6
Continuous
100
AcDbLine
 10
36.00000000000001
 20
-19.05000299999995
 30
0.0
 11
55.99298100000011
 21
-19.05000299999995
 31
0.0
  0
LINE
  5
174E
330
D1
100
AcDbEntity
  8
0
  6
Continuous
100
AcDbLine
 10
34.00000000000001
 20
-26.0
 30
0.0
 11
34.00000000000001
 21
26.0
 31
0.0
  0
LINE
  5
174F
330
D1
100
AcDbEntity
  8
0
  6
Continuous
100
AcDbLine
 10
23.0
 20
-29.0
 30
0.0
 11
31.0
 21
-29.0
 31
0.0
  0
LINE
  5
1750
330
D1
100
AcDbEntity
  8
0
  6
Continuous
100
AcDbLine
 10
23.00000000000001
 20
29.22909700000002
 30
0.0
 11
23.0
 21
-29.22909500000003
 31
0.0
  0
LINE
  5
1751
330
D1
100
AcDbEntity
  8
0
  6
Continuous
100
AcDbLine
 10
23.00000000000001
 20
29.0
 30
0.0
 11
31.00000000000001
 21
29.0
 31
0.0
  0
LINE
  5
1752
330
D1
100
AcDbEntity
  8
0
  6
Continuous
100
AcDbLine
 10
62.5
 20
25.24999999999999
 30
0.0
 11
62.5
 21
-25.25000000000001
 31
0.0
  0
LINE
  5
1753
330
D1
100
AcDbEntity
  8
0
  6
Continuous
100
AcDbLine
 10
62.5
 20
25.24999999999999
 30
0.0
 11
60.21017499999993
 21
25.24999999999999
 31
0.0
  0
LINE
  5
1754
330
D1
100
AcDbEntity
  8
0
  6
Continuous
100
AcDbLine
 10
59.65000899999996
 20
24.72361399999999
 30
0.0
 11
59.65000899999996
 21
-24.19480899999997
 31
0.0
  0
LINE
  5
1755
330
D1
100
AcDbEntity
  8
0
  6
Continuous
100
AcDbLine
 10
59.45841199999996
 20
24.72361399999999
 30
0.0
 11
57.87235600000009
 21
20.36596499999995
 31
0.0
  0
LINE
  5
1756
330
D1
100
AcDbEntity
  8
0
  6
Continuous
100
AcDbLine
 10
62.5
 20
-25.25000000000001
 30
0.0
 11
60.21017499999993
 21
-25.25000000000001
 31
0.0
  0
LINE
  5
1757
330
D1
100
AcDbEntity
  8
0
  6
Continuous
100
AcDbLine
 10
59.45841999999993
 20
-24.72360600000004
 30
0.0
 11
57.87236800000004
 21
-20.36596099999998
 31
0.0
  0
LINE
  5
1758
330
D1
100
AcDbEntity
  8
0
  6
Continuous
100
AcDbLine
 10
55.99296600000003
 20
19.05000299999994
 30
0.0
 11
36.00000000000001
 21
19.05000299999994
 31
0.0
  0
LINE
  5
1759
330
D1
100
AcDbEntity
  8
0
  6
Continuous
100
AcDbLine
 10
57.39340199999993
 20
-19.05000299999995
 30
0.0
 11
57.39340199999993
 21
19.05000299999994
 31
0.0
  0
LINE
  5
175A
330
D1
100
AcDbEntity
  8
0
  6
Continuous
100
AcDbLine
 10
12.50000000000001
 20
53.5
 30
0.0
 11
41.0
 21
53.49999999999999
 31
0.0
  0
LINE
  5
175B
330
D1
100
AcDbEntity
  8
0
  6
Continuous
100
AcDbLine
 10
-55.99299599999993
 20
-19.04985799999996
 30
0.0
 11
-38.97505999999998
 21
-19.04985799999997
 31
0.0
  0
LINE
  5
175C
330
D1
100
AcDbEntity
  8
0
  6
Continuous
100
AcDbLine
 10
32.50000000000002
 20
85.500404
 30
0.0
 11
-32.5
 21
85.500404
 31
0.0
  0
LINE
  5
175D
330
D1
100
AcDbEntity
  8
0
  6
Continuous
100
AcDbLine
 10
3.345299500000009
 20
50.20040900000004
 30
0.0
 11
5.654700300000056
 21
50.20040900000004
 31
0.0
  0
LINE
  5
175F
330
D1
100
AcDbEntity
  8
0
  6
Continuous
100
AcDbLine
 10
-12.49999999999998
 20
50.50040799999999
 30
0.0
 11
-19.99999999999998
 21
50.50040799999999
 31
0.0
  0
LINE
  5
1760
330
D1
100
AcDbEntity
  8
0
  6
Continuous
100
AcDbLine
 10
32.50000000000002
 20
100.500404
 30
0.0
 11
32.50000000000002
 21
85.500404
 31
0.0
  0
LINE
  5
1761
330
D1
100
AcDbEntity
  8
0
  6
Continuous
100
AcDbLine
 10
-59.65002400000003
 20
24.72375499999999
 30
0.0
 11
-59.65002400000003
 21
-24.19467199999996
 31
0.0
  0
LINE
  5
1762
330
D1
100
AcDbEntity
  8
0
  6
Continuous
100
AcDbLine
 10
-59.45845400000006
 20
24.72375699999999
 30
0.0
 11
-57.87239799999997
 21
20.36610399999996
 31
0.0
  0
LINE
  5
1764
330
D1
100
AcDbEntity
  8
0
  6
Continuous
100
AcDbLine
 10
-34.72506700000007
 20
15.00007100000005
 30
0.0
 11
-39.97506700000008
 21
15.00007100000005
 31
0.0
  0
LINE
  5
1765
330
D1
100
AcDbEntity
  8
0
  6
Continuous
100
AcDbLine
 10
-27.62505899999996
 20
-32.05751799999996
 30
0.0
 11
-27.62505899999997
 21
-52.85751299999998
 31
0.0
  0
LINE
  5
1766
330
D1
100
AcDbEntity
  8
0
  6
Continuous
100
AcDbLine
 10
9.5
 20
48.20040900000003
 30
0.0
 11
9.5
 21
46.50040799999999
 31
0.0
  0
LINE
  5
1768
330
D1
100
AcDbEntity
  8
0
  6
Continuous
100
AcDbLine
 10
-39.97506700000008
 20
-3.999929700000047
 30
0.0
 11
-34.72506700000007
 21
-3.999929700000047
 31
0.0
  0
LINE
  5
1769
330
D1
100
AcDbEntity
  8
0
  6
Continuous
100
AcDbLine
 10
-38.22506700000007
 20
-18.77887499999997
 30
0.0
 11
-38.22506700000007
 21
-28.05751599999996
 31
0.0
  0
LINE
  5
176A
330
D1
100
AcDbEntity
  8
0
  6
Continuous
100
AcDbLine
 10
-34.72506700000007
 20
15.00007100000005
 30
0.0
 11
-34.72506700000007
 21
4.000070599999961
 31
0.0
  0
LINE
  5
176B
330
D1
100
AcDbEntity
  8
0
  6
Continuous
100
AcDbLine
 10
-20.97506500000008
 20
-14.99992899999995
 30
0.0
 11
-26.22506500000008
 21
-14.99992899999995
 31
0.0
  0
LINE
  5
176C
330
D1
100
AcDbEntity
  8
0
  6
Continuous
100
AcDbLine
 10
-20.97506500000008
 20
-3.999929700000048
 30
0.0
 11
-26.22506500000008
 21
-3.999929700000048
 31
0.0
  0
LINE
  5
176D
330
D1
100
AcDbEntity
  8
0
  6
Continuous
100
AcDbLine
 10
-20.97506500000008
 20
4.000070599999959
 30
0.0
 11
-26.22506500000008
 21
4.00007059999996
 31
0.0
  0
LINE
  5
176E
330
D1
100
AcDbEntity
  8
0
  6
Continuous
100
AcDbLine
 10
-20.97506500000008
 20
15.00007100000005
 30
0.0
 11
-26.22506500000008
 21
15.00007100000005
 31
0.0
  0
LINE
  5
1770
330
D1
100
AcDbEntity
  8
0
  6
Continuous
100
AcDbLine
 10
-34.72506700000007
 20
4.000070599999961
 30
0.0
 11
-39.97506700000008
 21
4.000070599999962
 31
0.0
  0
LINE
  5
1771
330
D1
100
AcDbEntity
  8
0
  6
Continuous
100
AcDbLine
 10
-24.72506500000009
 20
-30.05751599999996
 30
0.0
 11
-36.22506700000008
 21
-30.05751599999996
 31
0.0
  0
LINE
  5
1772
330
D1
100
AcDbEntity
  8
0
  6
Continuous
100
AcDbLine
 10
-39.97506700000008
 20
-14.99992899999995
 30
0.0
 11
-34.72506700000007
 21
-14.99992899999995
 31
0.0
  0
LINE
  5
1773
330
D1
100
AcDbEntity
  8
0
  6
Continuous
100
AcDbLine
 10
-22.72506500000007
 20
-18.77887499999997
 30
0.0
 11
-22.72506500000007
 21
-28.05751599999996
 31
0.0
  0
LINE
  5
1774
330
D1
100
AcDbEntity
  8
0
  6
Continuous
100
AcDbLine
 10
-20.97506500000008
 20
-3.999929700000048
 30
0.0
 11
-20.97506500000008
 21
-14.99992899999995
 31
0.0
  0
LINE
  5
1775
330
D1
100
AcDbEntity
  8
0
  6
Continuous
100
AcDbLine
 10
-39.97506700000008
 20
-3.999929700000047
 30
0.0
 11
-39.97506700000008
 21
-14.99992899999995
 31
0.0
  0
LINE
  5
1776
330
D1
100
AcDbEntity
  8
0
  6
Continuous
100
AcDbLine
 10
-39.97506700000008
 20
15.00007100000005
 30
0.0
 11
-39.97506700000008
 21
4.000070599999962
 31
0.0
  0
LINE
  5
1778
330
D1
100
AcDbEntity
  8
0
  6
Continuous
100
AcDbLine
 10
-20.97506500000008
 20
15.00007100000005
 30
0.0
 11
-20.97506500000008
 21
4.000070599999959
 31
0.0
  0
LINE
  5
1779
330
D1
100
AcDbEntity
  8
0
  6
Continuous
100
AcDbLine
 10
-34.47506700000007
 20
14.42827
 30
0.0
 11
-34.47506700000007
 21
-12.85751900000002
 31
0.0
  0
LINE
  5
177B
330
D1
100
AcDbEntity
  8
0
  6
Continuous
100
AcDbLine
 10
-26.22506500000008
 20
15.00007100000005
 30
0.0
 11
-26.22506500000008
 21
4.00007059999996
 31
0.0
  0
LINE
  5
177D
330
D1
100
AcDbEntity
  8
0
  6
Continuous
100
AcDbLine
 10
-26.47506500000007
 20
14.42827
 30
0.0
 11
-26.47506500000007
 21
-12.85751900000002
 31
0.0
  0
LINE
  5
1784
330
D1
100
AcDbEntity
  8
0
  6
Continuous
100
AcDbLine
 10
-33.3250579999999
 20
-32.05751799999994
 30
0.0
 11
-33.3250579999999
 21
-52.85751299999997
 31
0.0
  0
LINE
  5
1788
330
D1
100
AcDbEntity
  8
0
  6
Continuous
100
AcDbLine
 10
-34.47506700000007
 20
-30.24712799999997
 30
0.0
 11
-34.47506700000007
 21
-39.42821500000002
 31
0.0
  0
LINE
  5
178A
330
D1
100
AcDbEntity
  8
0
  6
Continuous
100
AcDbLine
 10
-26.47506500000007
 20
-30.24713299999997
 30
0.0
 11
-26.47506500000007
 21
-39.42821500000002
 31
0.0
  0
LINE
  5
178B
330
D1
100
AcDbEntity
  8
0
  6
Continuous
100
AcDbLine
 10
-26.22506500000008
 20
-14.99992899999995
 30
0.0
 11
-26.22506500000008
 21
-3.999929700000048
 31
0.0
  0
LINE
  5
178C
330
D1
100
AcDbEntity
  8
0
  6
Continuous
100
AcDbLine
 10
-34.72506700000007
 20
-14.99992899999995
 30
0.0
 11
-34.72506700000007
 21
-3.999929700000047
 31
0.0
  0
LINE
  5
1790
330
D1
100
AcDbEntity
  8
0
  6
Continuous
100
AcDbLine
 10
-26.22506500000008
 20
-12.85751900000002
 30
0.0
 11
-34.72506700000007
 21
-12.85751900000002
 31
0.0
  0
LINE
  5
1791
330
D1
100
AcDbEntity
  8
0
  6
Continuous
100
AcDbLine
 10
3.345297800000024
 20
50.20040500000003
 30
0.0
 11
2.190598500000078
 21
48.20040900000003
 31
0.0
  0
LINE
  5
1794
330
D1
100
AcDbEntity
  8
0
  6
Continuous
100
AcDbLine
 10
5.654701200000089
 20
50.20040500000003
 30
0.0
 11
6.809400599999889
 21
48.20040900000003
 31
0.0
  0
LINE
  5
1797
330
D1
100
AcDbEntity
  8
0
  6
Continuous
100
AcDbLine
 10
6.809399600000006
 20
48.20040500000004
 30
0.0
 11
5.654700300000056
 21
46.20040900000002
 31
0.0
  0
LINE
  5
1798
330
D1
100
AcDbEntity
  8
0
  6
Continuous
100
AcDbLine
 10
5.654700300000056
 20
46.20040900000002
 30
0.0
 11
3.345299500000009
 21
46.20040900000002
 31
0.0
  0
LINE
  5
179B
330
D1
100
AcDbEntity
  8
0
  6
Continuous
100
AcDbLine
 10
2.190599699999892
 20
48.20040500000004
 30
0.0
 11
3.345299000000068
 21
46.20040900000002
 31
0.0
  0
LINE
  5
17A0
330
D1
100
AcDbEntity
  8
0
  6
Continuous
100
AcDbLine
 10
19.99999800000001
 20
40.50040799999999
 30
0.0
 11
19.00000000000001
 21
39.500408
 31
0.0
  0
LINE
  5
17A1
330
D1
100
AcDbEntity
  8
0
  6
Continuous
100
AcDbLine
 10
-18.99999999999999
 20
39.500408
 30
0.0
 11
-19.99999799999999
 21
40.50040799999999
 31
0.0
  0
LINE
  5
17A2
330
D1
100
AcDbEntity
  8
0
  6
Continuous
100
AcDbLine
 10
20.00000000000001
 20
40.50040799999999
 30
0.0
 11
-19.99999999999999
 21
40.50040799999999
 31
0.0
  0
LINE
  5
17A4
330
D1
100
AcDbEntity
  8
0
  6
Continuous
100
AcDbLine
 10
-18.99999799999999
 20
51.50040399999999
 30
0.0
 11
-19.99999799999999
 21
50.50040799999999
 31
0.0
  0
LINE
  5
17A5
330
D1
100
AcDbEntity
  8
0
  6
Continuous
100
AcDbLine
 10
18.99999800000002
 20
51.50040399999999
 30
0.0
 11
19.99999800000002
 21
50.50040799999999
 31
0.0
  0
LINE
  5
17A9
330
D1
100
AcDbEntity
  8
0
  6
Continuous
100
AcDbLine
 10
-17.49999999999998
 20
53.50040799999999
 30
0.0
 11
-17.49999999999998
 21
51.50040799999999
 31
0.0
  0
LINE
  5
17AA
330
D1
100
AcDbEntity
  8
0
  6
Continuous
100
AcDbLine
 10
-31.488329
 20
83.50040400000002
 30
0.0
 11
-31.488329
 21
85.500404
 31
0.0
  0
LINE
  5
17AB
330
D1
100
AcDbEntity
  8
0
  6
Continuous
100
AcDbLine
 10
-12.49999999999998
 20
51.50040799999999
 30
0.0
 11
-18.99999999999998
 21
51.50040799999999
 31
0.0
  0
LINE
  5
17AC
330
D1
100
AcDbEntity
  8
0
  6
Continuous
100
AcDbLine
 10
-16.08832899999991
 20
83.50040400000002
 30
0.0
 11
-16.08832899999991
 21
85.500404
 31
0.0
  0
LINE
  5
17AE
330
D1
100
AcDbEntity
  8
0
  6
Continuous
100
AcDbLine
 10
16.08820900000002
 20
83.50040400000002
 30
0.0
 11
16.08820900000002
 21
85.500404
 31
0.0
  0
LINE
  5
17AF
330
D1
100
AcDbEntity
  8
0
  6
Continuous
100
AcDbLine
 10
31.48820900000012
 20
83.50040400000002
 30
0.0
 11
16.08820900000002
 21
83.50040400000002
 31
0.0
  0
LINE
  5
17B3
330
D1
100
AcDbEntity
  8
0
  6
Continuous
100
AcDbLine
 10
-0.5
 20
48.20040900000003
 30
0.0
 11
-0.5
 21
46.50040799999999
 31
0.0
  0
LINE
  5
17B4
330
D1
100
AcDbEntity
  8
0
  6
Continuous
100
AcDbLine
 10
29.42218200000004
 20
75.500404
 30
0.0
 11
18.1542340000001
 21
75.500404
 31
0.0
  0
LINE
  5
17B5
330
D1
100
AcDbEntity
  8
0
  6
Continuous
100
AcDbLine
 10
30.28820799999996
 20
76.00040400000001
 30
0.0
 11
30.28820799999996
 21
83.50040400000002
 31
0.0
  0
LINE
  5
17B6
330
D1
100
AcDbEntity
  8
0
  6
Continuous
100
AcDbLine
 10
17.28820799999996
 20
76.00040400000001
 30
0.0
 11
17.28820799999996
 21
83.50040400000002
 31
0.0
  0
LINE
  5
17C2
330
D1
100
AcDbEntity
  8
0
  6
Continuous
100
AcDbLine
 10
30.28820799999996
 20
82.25040400000002
 30
0.0
 11
17.28820799999996
 21
82.25040400000002
 31
0.0
  0
LINE
  5
17C3
330
D1
100
AcDbEntity
  8
0
  6
Continuous
100
AcDbLine
 10
30.28820799999996
 20
76.00040400000001
 30
0.0
 11
17.28820799999996
 21
76.00040400000001
 31
0.0
  0
LINE
  5
17C4
330
D1
100
AcDbEntity
  8
0
  6
Continuous
100
AcDbLine
 10
29.42218200000004
 20
75.500404
 30
0.0
 11
30.28820599999996
 21
76.00040400000001
 31
0.0
  0
LINE
  5
17C5
330
D1
100
AcDbEntity
  8
0
  6
Continuous
100
AcDbLine
 10
18.1542340000001
 20
75.500404
 30
0.0
 11
17.28820799999996
 21
76.00040400000001
 31
0.0
  0
LINE
  5
17C7
330
D1
100
AcDbEntity
  8
0
  6
Continuous
100
AcDbLine
 10
-21.97506500000007
 20
46.75006900000004
 30
0.0
 11
-21.97506500000008
 21
15.00007100000005
 31
0.0
  0
LINE
  5
17C9
330
D1
100
AcDbEntity
  8
0
  6
Continuous
100
AcDbLine
 10
-38.97506700000008
 20
46.75006900000004
 30
0.0
 11
-38.97506700000008
 21
15.00007100000005
 31
0.0
  0
LINE
  5
17CD
330
D1
100
AcDbEntity
  8
0
  6
Continuous
100
AcDbLine
 10
-21.97506500000007
 20
46.75006900000004
 30
0.0
 11
-38.97506700000008
 21
46.75006900000004
 31
0.0
  0
LINE
  5
17CE
330
D1
100
AcDbEntity
  8
0
  6
Continuous
100
AcDbLine
 10
-21.97506500000009
 20
-46.74993099999993
 30
0.0
 11
-27.62505899999997
 21
-46.74993099999993
 31
0.0
  0
LINE
  5
17D0
330
D1
100
AcDbEntity
  8
0
  6
Continuous
100
AcDbLine
 10
41.0
 20
53.50040799999998
 30
0.0
 11
41.0
 21
51.50040799999999
 31
0.0
  0
ARC
  5
181D
330
D1
100
AcDbEntity
  8
0
  6
Continuous
100
AcDbCircle
 10
-55.99299599999993
 20
-21.04985799999997
 30
0.0
 40
2.0
100
AcDbArc
 50
90.0
 51
160.0000220000004
  0
ARC
  5
181E
330
D1
100
AcDbEntity
  8
0
  6
Continuous
100
AcDbCircle
 10
16.50000000000002
 20
81.50040399999998
 30
0.0
 40
4.0
100
AcDbArc
 50
90.0
 51
180.0
  0
ARC
  5
1821
330
D1
100
AcDbEntity
  8
0
  6
Continuous
100
AcDbCircle
 10
9.499965700000078
 20
-48.99965299999998
 30
0.0
 40
8.0
100
AcDbArc
 50
269.999989999999
 51
0.0
  0
ARC
  5
1822
330
D1
100
AcDbEntity
  8
0
  6
Continuous
100
AcDbCircle
 10
-9.500034299999919
 20
-48.99965299999998
 30
0.0
 40
8.0
100
AcDbArc
 50
180.0
 51
270.0
  0
ARC
  5
1823
330
D1
100
AcDbEntity
  8
0
  6
Continuous
100
AcDbCircle
 10
14.49996600000009
 20
-42.99965299999995
 30
0.0
 40
3.0
100
AcDbArc
 50
0.0
 51
90.0
  0
ARC
  5
1824
330
D1
100
AcDbEntity
  8
0
  6
Continuous
100
AcDbCircle
 10
-14.50003399999991
 20
-42.99965299999995
 30
0.0
 40
3.0
100
AcDbArc
 50
90.0
 51
180.0
  0
ARC
  5
1825
330
D1
100
AcDbEntity
  8
0
  6
Continuous
100
AcDbCircle
 10
-16.49999999999998
 20
81.50040399999998
 30
0.0
 40
4.0
100
AcDbArc
 50
0.0
 51
90.0
  0
CIRCLE
  5
1826
330
D1
100
AcDbEntity
  8
0
  6
Continuous
100
AcDbCircle
 10
4.5
 20
48.20040900000003
 30
0.0
 40
4.25
  0
ARC
  5
1827
330
D1
100
AcDbEntity
  8
0
  6
Continuous
100
AcDbCircle
 10
-12.74999999999998
 20
83.50086999999994
 30
0.0
 40
2.0
100
AcDbArc
 50
138.9761980000027
 51
180.0
  0
ARC
  5
1828
330
D1
100
AcDbEntity
  8
0
  6
Continuous
100
AcDbCircle
 10
-41.95004300000003
 20
-18.99985500000002
 30
0.0
 40
0.050000001
100
AcDbArc
 50
180.0
 51
270.0
  0
ARC
  5
182B
330
D1
100
AcDbEntity
  8
0
  6
Continuous
100
AcDbCircle
 10
12.75000000000002
 20
83.50086999999994
 30
0.0
 40
2.0
100
AcDbArc
 50
0.0
 51
41.02379999999334
  0
ARC
  5
182C
330
D1
100
AcDbEntity
  8
0
  6
Continuous
100
AcDbCircle
 10
-60.21019
 20
24.45014200000004
 30
0.0
 40
0.8000000099999999
100
AcDbArc
 50
20.00003000000313
 51
90.0
  0
ARC
  5
182D
330
D1
100
AcDbEntity
  8
0
  6
Continuous
100
AcDbCircle
 10
12.5
 20
-39.36525000000006
 30
0.0
 40
1.0
100
AcDbArc
 50
180.0
 51
219.4009199999971
  0
ARC
  5
182E
330
D1
100
AcDbEntity
  8
0
  6
Continuous
100
AcDbCircle
 10
-12.5
 20
-39.36525000000006
 30
0.0
 40
1.0
100
AcDbArc
 50
320.6242399999982
 51
0.0
  0
ARC
  5
182F
330
D1
100
AcDbEntity
  8
0
  6
Continuous
100
AcDbCircle
 10
36.00000000000001
 20
21.05000299999995
 30
0.0
 40
2.0
100
AcDbArc
 50
180.0
 51
270.0
  0
ARC
  5
1830
330
D1
100
AcDbEntity
  8
0
  6
Continuous
100
AcDbCircle
 10
-60.21019
 20
-24.44985199999996
 30
0.0
 40
0.8000000099999999
100
AcDbArc
 50
270.0
 51
339.9999699999969
  0
ARC
  5
1831
330
D1
100
AcDbEntity
  8
0
  6
Continuous
100
AcDbCircle
 10
-21.99999999999999
 20
35.25
 30
0.0
 40
3.0
100
AcDbArc
 50
270.47925
 51
0.0
  0
ARC
  5
1832
330
D1
100
AcDbEntity
  8
0
  6
Continuous
100
AcDbCircle
 10
-14.49999999999999
 20
-35.25
 30
0.0
 40
3.0
100
AcDbArc
 50
0.0
 51
90.0
  0
ARC
  5
1833
330
D1
100
AcDbEntity
  8
0
  6
Continuous
100
AcDbCircle
 10
36.00000000000001
 20
-21.05000299999995
 30
0.0
 40
2.0
100
AcDbArc
 50
90.0
 51
180.0
  0
ARC
  5
1834
330
D1
100
AcDbEntity
  8
0
  6
Continuous
100
AcDbCircle
 10
31.0
 20
-26.0
 30
0.0
 40
3.0
100
AcDbArc
 50
270.0
 51
0.0
  0
ARC
  5
1835
330
D1
100
AcDbEntity
  8
0
  6
Continuous
100
AcDbCircle
 10
31.00000000000001
 20
26.0
 30
0.0
 40
3.0
100
AcDbArc
 50
0.0
 51
90.0
  0
ARC
  5
1836
330
D1
100
AcDbEntity
  8
0
  6
Continuous
100
AcDbCircle
 10
0.000000000000015
 20
50.0
 30
0.0
 40
82.5
100
AcDbArc
 50
279.763219999998
 51
286.1878699999989
  0
ARC
  5
1837
330
D1
100
AcDbEntity
  8
0
  6
Continuous
100
AcDbCircle
 10
14.5
 20
-34.26149699999996
 30
0.0
 40
3.0
100
AcDbArc
 50
99.76402100000562
 51
180.0
  0
ARC
  5
1838
330
D1
100
AcDbEntity
  8
0
  6
Continuous
100
AcDbCircle
 10
0.0000000000000027
 20
-50.0
 30
0.0
 40
82.5
100
AcDbArc
 50
73.81213000000112
 51
75.08950000000083
  0
ARC
  5
1839
330
D1
100
AcDbEntity
  8
0
  6
Continuous
100
AcDbCircle
 10
22.00000000000001
 20
32.62112400000001
 30
0.0
 40
3.0
100
AcDbArc
 50
180.0
 51
255.0895200000032
  0
ARC
  5
183A
330
D1
100
AcDbEntity
  8
0
  6
Continuous
100
AcDbCircle
 10
60.21017499999993
 20
24.45000500000003
 30
0.0
 40
0.8000000099999999
100
AcDbArc
 50
90.0
 51
159.9999710000046
  0
ARC
  5
183B
330
D1
100
AcDbEntity
  8
0
  6
Continuous
100
AcDbCircle
 10
60.21017499999993
 20
-24.44999700000006
 30
0.0
 40
0.8000000099999999
100
AcDbArc
 50
200.0000300000031
 51
270.0
  0
ARC
  5
183C
330
D1
100
AcDbEntity
  8
0
  6
Continuous
100
AcDbCircle
 10
-55.99299599999993
 20
21.05014800000004
 30
0.0
 40
2.0
100
AcDbArc
 50
199.9999800000016
 51
270.0
  0
ARC
  5
183D
330
D1
100
AcDbEntity
  8
0
  6
Continuous
100
AcDbCircle
 10
55.99298100000011
 20
-21.05000299999995
 30
0.0
 40
2.0
100
AcDbArc
 50
19.99998000000161
 51
90.0
  0
ARC
  5
183E
330
D1
100
AcDbEntity
  8
0
  6
Continuous
100
AcDbCircle
 10
55.99296600000003
 20
21.05000299999994
 30
0.0
 40
2.0
100
AcDbArc
 50
270.0
 51
340.0000199999984
  0
ARC
  5
183F
330
D1
100
AcDbEntity
  8
0
  6
Continuous
100
AcDbCircle
 10
-30.47506500000008
 20
7.50007059999996
 30
0.0
 40
8.0
100
AcDbArc
 50
59.99999999999946
 51
120.0000139999972
  0
ARC
  5
1843
330
D1
100
AcDbEntity
  8
0
  6
Continuous
100
AcDbCircle
 10
-30.47506500000008
 20
-32.50002300000006
 30
0.0
 40
8.0
100
AcDbArc
 50
239.9999900000064
 51
249.1299200000054
  0
ARC
  5
184E
330
D1
100
AcDbEntity
  8
0
  6
Continuous
100
AcDbCircle
 10
-24.72506500000009
 20
-28.05751599999996
 30
0.0
 40
2.0
100
AcDbArc
 50
270.0
 51
0.0
  0
ARC
  5
1850
330
D1
100
AcDbEntity
  8
0
  6
Continuous
100
AcDbCircle
 10
-36.22506700000008
 20
-28.05751599999996
 30
0.0
 40
2.0
100
AcDbArc
 50
180.0
 51
270.0
  0
ARC
  5
1851
330
D1
100
AcDbEntity
  8
0
  6
Continuous
100
AcDbCircle
 10
-25.62505899999996
 20
-32.05751799999996
 30
0.0
 40
2.0
100
AcDbArc
 50
90.0
 51
180.0
  0
ARC
  5
1852
330
D1
100
AcDbEntity
  8
0
  6
Continuous
100
AcDbCircle
 10
-35.3250579999999
 20
-32.05751799999994
 30
0.0
 40
2.0
100
AcDbArc
 50
0.0
 51
90.0
  0
ARC
  5
1855
330
D1
100
AcDbEntity
  8
0
  6
Continuous
100
AcDbCircle
 10
-30.47506500000008
 20
-18.77887499999997
 30
0.0
 40
7.75
100
AcDbArc
 50
0.0000100000010064
 51
29.18334999999283
  0
ARC
  5
1856
330
D1
100
AcDbEntity
  8
0
  6
Continuous
100
AcDbCircle
 10
-30.47506500000008
 20
-32.50002300000006
 30
0.0
 40
8.0
100
AcDbArc
 50
290.8700699999947
 51
300.0000000000005
  0
ARC
  5
1858
330
D1
100
AcDbEntity
  8
0
  6
Continuous
100
AcDbCircle
 10
-30.47506500000008
 20
-18.77887499999997
 30
0.0
 40
7.75
100
AcDbArc
 50
150.8166529999981
 51
179.9999858989582
  0
CIRCLE
  5
185D
330
D1
100
AcDbEntity
  8
0
  6
Continuous
100
AcDbCircle
 10
4.5
 20
48.20040900000003
 30
0.0
 40
3.730384799999998
  0
ARC
  5
185F
330
D1
100
AcDbEntity
  8
0
  6
Continuous
100
AcDbCircle
 10
4.5
 20
48.20040900000003
 30
0.0
 40
5.0
100
AcDbArc
 50
0.0
 51
180.0
  0
ELLIPSE
  5
187B
330
D1
100
AcDbEntity
  8
0
  6
Continuous
100
AcDbEllipse
 10
13.85637199999997
 20
-48.99965299999998
 30
0.0
 11
-0.0000000000002268
 21
4.663689399999999
 31
0.0
210
0.0
220
0.0
230
-1.0
 40
0.7599909700000002
 41
1.5707963
 42
4.712388999999999
  0
ELLIPSE
  5
187C
330
D1
100
AcDbEntity
  8
0
  6
Continuous
100
AcDbEllipse
 10
13.85637199999997
 20
-42.99965299999995
 30
0.0
 11
3.544361799999999
 21
-0.0000000000000004
 31
0.0
210
0.0
220
0.0
230
-1.0
 40
0.7330166500000001
 41
3.1415927
 42
6.283185299999998
  0
ELLIPSE
  5
187D
330
D1
100
AcDbEntity
  8
0
  6
Continuous
100
AcDbEllipse
 10
-13.8564409999999
 20
-48.99965299999998
 30
0.0
 11
0.0000000000002262
 21
4.663689399999999
 31
0.0
210
0.0
220
0.0
230
-1.0
 40
0.7599909700000002
 41
1.5707963
 42
4.712388999999999
  0
ELLIPSE
  5
187E
330
D1
100
AcDbEntity
  8
0
  6
Continuous
100
AcDbEllipse
 10
-0.0000346432930165
 20
-42.99965299999995
 30
0.0
 11
7.088723599999998
 21
-0.0000000000000009
 31
0.0
210
0.0
220
0.0
230
-1.0
 40
0.36650832
 41
3.1415927
 42
6.283185299999998
  0
ELLIPSE
  5
187F
330
D1
100
AcDbEntity
  8
0
  6
Continuous
100
AcDbEllipse
 10
-0.0000346432930172
 20
-48.99965299999998
 30
0.0
 11
-7.088723599999998
 21
0.0000000000000009
 31
0.0
210
0.0
220
0.0
230
-1.0
 40
0.6579025600000001
 41
3.1415927
 42
6.283185299999998
  0
ELLIPSE
  5
1880
330
D1
100
AcDbEntity
  8
0
  6
Continuous
100
AcDbEllipse
 10
-13.8564409999999
 20
-42.99965299999995
 30
0.0
 11
-3.544361799999999
 21
0.0000000000000004
 31
0.0
210
0.0
220
0.0
230
-1.0
 40
0.7330166500000001
 41
0.0
 42
3.1415927
  0
LINE
  5
18FC
330
D1
100
AcDbEntity
  8
0
  6
Continuous
100
AcDbLine
 10
-268.511793
 20
83.50087
 30
0.0
 11
-268.511793
 21
85.50086999999997
 31
0.0
  0
LINE
  5
18FD
330
D1
100
AcDbEntity
  8
0
  6
Continuous
100
AcDbLine
 10
-316.0883310000002
 20
83.50087
 30
0.0
 11
-331.4883310000003
 21
83.50087
 31
0.0
  0
LINE
  5
18FE
330
D1
100
AcDbEntity
  8
0
  6
Continuous
100
AcDbLine
 10
-318.1543560000002
 20
75.50087000000002
 30
0.0
 11
-329.4223040000002
 21
75.50087000000002
 31
0.0
  0
LINE
  5
18FF
330
D1
100
AcDbEntity
  8
0
  6
Continuous
100
AcDbLine
 10
-317.2883300000003
 20
76.00087000000002
 30
0.0
 11
-317.2883300000003
 21
83.50087
 31
0.0
  0
LINE
  5
1900
330
D1
100
AcDbEntity
  8
0
  6
Continuous
100
AcDbLine
 10
-330.2883300000003
 20
76.00087000000002
 30
0.0
 11
-330.2883300000003
 21
83.50087
 31
0.0
  0
LINE
  5
1901
330
D1
100
AcDbEntity
  8
0
  6
Continuous
100
AcDbLine
 10
-317.2883300000003
 20
82.25087
 30
0.0
 11
-330.2883300000003
 21
82.25087
 31
0.0
  0
LINE
  5
1902
330
D1
100
AcDbEntity
  8
0
  6
Continuous
100
AcDbLine
 10
-317.2883300000003
 20
76.00087000000002
 30
0.0
 11
-330.2883300000003
 21
76.00087000000002
 31
0.0
  0
LINE
  5
1903
330
D1
100
AcDbEntity
  8
0
  6
Continuous
100
AcDbLine
 10
-318.1543520000003
 20
75.50087000000002
 30
0.0
 11
-317.2883280000003
 21
76.00087000000002
 31
0.0
  0
LINE
  5
1904
330
D1
100
AcDbEntity
  8
0
  6
Continuous
100
AcDbLine
 10
-329.4223060000001
 20
75.50087000000002
 30
0.0
 11
-330.2883280000003
 21
76.00087000000002
 31
0.0
  0
LINE
  5
1910
330
D1
100
AcDbEntity
  8
0
  6
Continuous
100
AcDbLine
 10
-281.8457680000001
 20
75.50086999999997
 30
0.0
 11
-282.7117940000003
 21
76.00086999999998
 31
0.0
  0
LINE
  5
1911
330
D1
100
AcDbEntity
  8
0
  6
Continuous
100
AcDbLine
 10
-270.5778180000002
 20
75.50086999999997
 30
0.0
 11
-269.7117960000003
 21
76.00086999999998
 31
0.0
  0
LINE
  5
1912
330
D1
100
AcDbEntity
  8
0
  6
Continuous
100
AcDbLine
 10
-269.7117920000003
 20
76.00086999999998
 30
0.0
 11
-282.7117920000003
 21
76.00086999999998
 31
0.0
  0
LINE
  5
1913
330
D1
100
AcDbEntity
  8
0
  6
Continuous
100
AcDbLine
 10
-269.7117920000003
 20
82.25087
 30
0.0
 11
-282.7117920000003
 21
82.25087
 31
0.0
  0
LINE
  5
1919
330
D1
100
AcDbEntity
  8
0
  6
Continuous
100
AcDbLine
 10
-284.3875050000002
 20
50.50087000000004
 30
0.0
 11
-284.3875050000002
 21
44.93917100000001
 31
0.0
  0
LINE
  5
1920
330
D1
100
AcDbEntity
  8
0
  6
Continuous
100
AcDbLine
 10
-282.7117920000003
 20
76.00086999999998
 30
0.0
 11
-282.7117920000003
 21
83.50087
 31
0.0
  0
LINE
  5
1921
330
D1
100
AcDbEntity
  8
0
  6
Continuous
100
AcDbLine
 10
-269.7117920000003
 20
76.00086999999998
 30
0.0
 11
-269.7117920000003
 21
83.50087
 31
0.0
  0
LINE
  5
1922
330
D1
100
AcDbEntity
  8
0
  6
Continuous
100
AcDbLine
 10
-270.5778180000002
 20
75.50086999999997
 30
0.0
 11
-281.8457660000001
 21
75.50086999999997
 31
0.0
  0
LINE
  5
1923
330
D1
100
AcDbEntity
  8
0
  6
Continuous
100
AcDbLine
 10
-318.7082860000003
 20
75.50087000000002
 30
0.0
 11
-318.7082860000003
 21
51.90087100000003
 31
0.0
  0
LINE
  5
1925
330
D1
100
AcDbEntity
  8
0
  6
Continuous
100
AcDbLine
 10
-285.6909140000002
 20
51.50087000000007
 30
0.0
 11
-284.3875060000002
 21
50.50087000000004
 31
0.0
  0
LINE
  5
1928
330
D1
100
AcDbEntity
  8
0
  6
Continuous
100
AcDbLine
 10
-272.5000000000002
 20
75.50086999999997
 30
0.0
 11
-272.5000000000002
 21
56.43753100000006
 31
0.0
  0
LINE
  5
192B
330
D1
100
AcDbEntity
  8
0
  6
Continuous
100
AcDbLine
 10
-315.6124950000003
 20
50.50087000000004
 30
0.0
 11
-315.6124950000003
 21
44.93917100000001
 31
0.0
  0
LINE
  5
192D
330
D1
100
AcDbEntity
  8
0
  6
Continuous
100
AcDbLine
 10
-314.3090860000002
 20
51.50087000000007
 30
0.0
 11
-315.6124940000002
 21
50.50087000000004
 31
0.0
  0
LINE
  5
192E
330
D1
100
AcDbEntity
  8
0
  6
Continuous
100
AcDbLine
 10
-326.8978594250086
 20
53.20087100000003
 30
0.0
 11
-325.1643554250086
 21
53.20087100000003
 31
0.0
  0
LINE
  5
1931
330
D1
100
AcDbEntity
  8
0
  6
Continuous
100
AcDbLine
 10
-321.6713904250087
 20
49.06515900000003
 30
0.0
 11
-319.9999994250086
 21
47.99555200000001
 31
0.0
  0
LINE
  5
1935
330
D1
100
AcDbEntity
  8
0
  6
Continuous
100
AcDbLine
 10
-285.0000000000002
 20
55.50086999999999
 30
0.0
 11
-315.0000000000002
 21
55.50086999999999
 31
0.0
  0
LINE
  5
1936
330
D1
100
AcDbEntity
  8
0
  6
Continuous
100
AcDbLine
 10
-315.5000000000002
 20
53.50086999999999
 30
0.0
 11
-315.5000000000002
 21
51.50087000000007
 31
0.0
  0
LINE
  5
1937
330
D1
100
AcDbEntity
  8
0
  6
Continuous
100
AcDbLine
 10
-285.2500000000002
 20
85.50086999999997
 30
0.0
 11
-285.2500000000002
 21
55.50086999999999
 31
0.0
  0
LINE
  5
1938
330
D1
100
AcDbEntity
  8
0
  6
Continuous
100
AcDbLine
 10
-314.7500000000003
 20
85.50087000000003
 30
0.0
 11
-314.7500000000002
 21
55.50086999999999
 31
0.0
  0
LINE
  5
1939
330
D1
100
AcDbEntity
  8
0
  6
Continuous
100
AcDbLine
 10
-284.5000000000002
 20
53.50086999999999
 30
0.0
 11
-284.5000000000002
 21
51.50087000000007
 31
0.0
  0
LINE
  5
193A
330
D1
100
AcDbEntity
  8
0
  6
Continuous
100
AcDbLine
 10
-325.9999994250086
 20
52.45087100000003
 30
0.0
 11
-324.8020724250086
 21
52.45087100000003
 31
0.0
  0
LINE
  5
193B
330
D1
100
AcDbEntity
  8
0
  6
Continuous
100
AcDbLine
 10
-321.2999984250087
 20
48.82748800000005
 30
0.0
 11
-321.2999984250087
 21
43.60086800000003
 31
0.0
  0
LINE
  5
193C
330
D1
100
AcDbEntity
  8
0
  6
Continuous
100
AcDbLine
 10
-326.2999984250086
 20
51.93125500000006
 30
0.0
 11
-326.2999984250086
 21
44.47048600000003
 31
0.0
  0
LINE
  5
193D
330
D1
100
AcDbEntity
  8
0
  6
Continuous
100
AcDbLine
 10
-325.9999994250086
 20
43.95087100000004
 30
0.0
 11
-321.2999984250087
 21
43.95087100000004
 31
0.0
  0
LINE
  5
193E
330
D1
100
AcDbEntity
  8
0
  6
Continuous
100
AcDbLine
 10
-321.2999984250087
 20
43.60086800000003
 30
0.0
 11
-319.9999994250086
 21
43.60086800000003
 31
0.0
  0
LINE
  5
193F
330
D1
100
AcDbEntity
  8
0
  6
Continuous
100
AcDbLine
 10
-321.9999994250086
 20
49.28505700000003
 30
0.0
 11
-321.9999994250086
 21
43.95087100000004
 31
0.0
  0
LINE
  5
1940
330
D1
100
AcDbEntity
  8
0
  6
Continuous
100
AcDbLine
 10
-325.9999994250086
 20
52.45087100000003
 30
0.0
 11
-325.9999994250086
 21
43.95087100000004
 31
0.0
  0
LINE
  5
1941
330
D1
100
AcDbEntity
  8
0
  6
Continuous
100
AcDbLine
 10
-325.9999994250086
 20
43.95087100000004
 30
0.0
 11
-326.3000004250086
 21
44.47048600000003
 31
0.0
  0
LINE
  5
1943
330
D1
100
AcDbEntity
  8
0
  6
Continuous
100
AcDbLine
 10
-326.2999984250086
 20
51.93125500000006
 30
0.0
 11
-325.9999994250086
 21
52.45087100000003
 31
0.0
  0
LINE
  5
194C
330
D1
100
AcDbEntity
  8
0
  6
Continuous
100
AcDbLine
 10
-319.9999994250086
 20
47.99555200000001
 30
0.0
 11
-319.9999994250086
 21
42.25590100000003
 31
0.0
  0
LINE
  5
194D
330
D1
100
AcDbEntity
  8
0
  6
Continuous
100
AcDbLine
 10
-281.7747420000003
 20
51.50087000000007
 30
0.0
 11
-318.2252580000002
 21
51.50087000000007
 31
0.0
  0
LINE
  5
194E
330
D1
100
AcDbEntity
  8
0
  6
Continuous
100
AcDbLine
 10
-279.9999994250086
 20
44.93917100000003
 30
0.0
 11
-279.9999994250086
 21
42.25590100000004
 31
0.0
  0
LINE
  5
194F
330
D1
100
AcDbEntity
  8
0
  6
Continuous
100
AcDbLine
 10
-332.5
 20
100.50087
 30
0.0
 11
-332.5000000000002
 21
85.50087000000003
 31
0.0
  0
LINE
  5
1950
330
D1
100
AcDbEntity
  8
0
  6
Continuous
100
AcDbLine
 10
-267.5
 20
100.50087
 30
0.0
 11
-267.5000000000002
 21
85.50086999999997
 31
0.0
  0
LINE
  5
1953
330
D1
100
AcDbEntity
  8
0
  6
Continuous
100
AcDbLine
 10
-268.511793
 20
83.50087
 30
0.0
 11
-283.9117930000002
 21
83.50087
 31
0.0
  0
LINE
  5
1954
330
D1
100
AcDbEntity
  8
0
  6
Continuous
100
AcDbLine
 10
-283.9117930000002
 20
83.50087
 30
0.0
 11
-283.9117930000002
 21
85.50086999999997
 31
0.0
  0
LINE
  5
1956
330
D1
100
AcDbEntity
  8
0
  6
Continuous
100
AcDbLine
 10
-284.5000000000002
 20
53.50086999999999
 30
0.0
 11
-315.5000000000002
 21
53.50086999999999
 31
0.0
  0
LINE
  5
1958
330
D1
100
AcDbEntity
  8
0
  6
Continuous
100
AcDbLine
 10
-281.2917140000002
 20
75.50086999999997
 30
0.0
 11
-281.2917140000002
 21
51.90087100000003
 31
0.0
  0
LINE
  5
1959
330
D1
100
AcDbEntity
  8
0
  6
Continuous
100
AcDbLine
 10
-327.5000000000002
 20
75.50087000000002
 30
0.0
 11
-327.5000000000002
 21
56.43753100000008
 31
0.0
  0
LINE
  5
195D
330
D1
100
AcDbEntity
  8
0
  6
Continuous
100
AcDbLine
 10
-278.7207274250086
 20
47.39662600000001
 30
0.0
 11
-276.3378104250087
 21
49.06516300000003
 31
0.0
  0
LINE
  5
1960
330
D1
100
AcDbEntity
  8
0
  6
Continuous
100
AcDbLine
 10
-315.0000000000002
 20
55.50086999999999
 30
0.0
 11
-315.0000000000002
 21
53.50086999999999
 31
0.0
  0
LINE
  5
1961
330
D1
100
AcDbEntity
  8
0
  6
Continuous
100
AcDbLine
 10
-285.0000000000002
 20
55.50086999999999
 30
0.0
 11
-285.0000000000002
 21
53.50086999999999
 31
0.0
  0
LINE
  5
1962
330
D1
100
AcDbEntity
  8
0
  6
Continuous
100
AcDbLine
 10
-309.5000000000002
 20
-56.99919099999996
 30
0.0
 11
-290.5000000000002
 21
-56.99919099999996
 31
0.0
  0
LINE
  5
1963
330
D1
100
AcDbEntity
  8
0
  6
Continuous
100
AcDbLine
 10
-284.0000000000003
 20
-43.92679999999997
 30
0.0
 11
-284.0000000000003
 21
-53.66287999999997
 31
0.0
  0
LINE
  5
1964
330
D1
100
AcDbEntity
  8
0
  6
Continuous
100
AcDbLine
 10
-316.0000000000002
 20
-43.92679999999997
 30
0.0
 11
-316.0000000000002
 21
-53.66287999999997
 31
0.0
  0
LINE
  5
1966
330
D1
100
AcDbEntity
  8
0
  6
Continuous
100
AcDbLine
 10
-314.1390140000003
 20
-44.56065799999995
 30
0.0
 11
-314.1390140000003
 21
-48.99919099999996
 31
0.0
  0
LINE
  5
1968
330
D1
100
AcDbEntity
  8
0
  6
Continuous
100
AcDbLine
 10
-301.8609854000001
 20
-46.71295899999996
 30
0.0
 11
-301.8609854000001
 21
-48.99919099999996
 31
0.0
  0
LINE
  5
1969
330
D1
100
AcDbEntity
  8
0
  6
Continuous
100
AcDbLine
 10
-255.2500000000002
 20
-18.75761399999996
 30
0.0
 11
-255.2500000000002
 21
-22.88771099999996
 31
0.0
  0
LINE
  5
196A
330
D1
100
AcDbEntity
  8
0
  6
Continuous
100
AcDbLine
 10
-239.7500000000002
 20
-18.75761399999996
 30
0.0
 11
-239.7500000000002
 21
-22.88771099999997
 31
0.0
  0
LINE
  5
196B
330
D1
100
AcDbEntity
  8
0
  6
Continuous
100
AcDbLine
 10
-242.5000000000002
 20
-32.05760199999998
 30
0.0
 11
-242.5000000000002
 21
-43.85751299999995
 31
0.0
  0
LINE
  5
196C
330
D1
100
AcDbEntity
  8
0
  6
Continuous
100
AcDbLine
 10
-252.5000000000002
 20
-32.05760199999998
 30
0.0
 11
-252.5000000000002
 21
-43.85751299999995
 31
0.0
  0
LINE
  5
196D
330
D1
100
AcDbEntity
  8
0
  6
Continuous
100
AcDbLine
 10
-250.5000000000002
 20
-30.05760199999997
 30
0.0
 11
-244.5000000000002
 21
-30.05760199999997
 31
0.0
  0
LINE
  5
196E
330
D1
100
AcDbEntity
  8
0
  6
Continuous
100
AcDbLine
 10
-231.5000000000002
 20
-48.85751299999995
 30
0.0
 11
-231.5000000000002
 21
-50.85751299999995
 31
0.0
  0
LINE
  5
196F
330
D1
100
AcDbEntity
  8
0
  6
Continuous
100
AcDbLine
 10
-263.5000000000002
 20
-48.85751299999995
 30
0.0
 11
-263.5000000000002
 21
-50.85751299999993
 31
0.0
  0
LINE
  5
1970
330
D1
100
AcDbEntity
  8
0
  6
Continuous
100
AcDbLine
 10
-261.5000000000001
 20
-52.85751299999994
 30
0.0
 11
-233.5000000000002
 21
-52.85751299999995
 31
0.0
  0
LINE
  5
1973
330
D1
100
AcDbEntity
  8
0
  6
Continuous
100
AcDbLine
 10
-243.5000000000002
 20
-30.32560699999996
 30
0.0
 11
-243.5000000000002
 21
-39.42820699999997
 31
0.0
  0
LINE
  5
1974
330
D1
100
AcDbEntity
  8
0
  6
Continuous
100
AcDbLine
 10
-251.5000000000002
 20
-30.32560699999996
 30
0.0
 11
-251.5000000000002
 21
-39.42820699999997
 31
0.0
  0
LINE
  5
1978
330
D1
100
AcDbEntity
  8
0
  6
Continuous
100
AcDbLine
 10
-243.5000000000002
 20
3.843094300000018
 30
0.0
 11
-243.5000000000002
 21
-4.00001529999997
 31
0.0
  0
LINE
  5
197D
330
D1
100
AcDbEntity
  8
0
  6
Continuous
100
AcDbLine
 10
-241.5000000000002
 20
3.999985200000026
 30
0.0
 11
-261.8874510000003
 21
3.999985000000041
 31
0.0
  0
LINE
  5
197E
330
D1
100
AcDbEntity
  8
0
  6
Continuous
100
AcDbLine
 10
-241.5000000000002
 20
-4.00001529999997
 30
0.0
 11
-261.8874510000003
 21
-4.000015299999969
 31
0.0
  0
LINE
  5
197F
330
D1
100
AcDbEntity
  8
0
  6
Continuous
100
AcDbLine
 10
-241.5000000000002
 20
14.99998500000003
 30
0.0
 11
-253.6204830000002
 21
14.99998500000003
 31
0.0
  0
LINE
  5
1980
330
D1
100
AcDbEntity
  8
0
  6
Continuous
100
AcDbLine
 10
-240.5000000000002
 20
-5.00001529999997
 30
0.0
 11
-240.5000000000002
 21
-14.00001499999996
 31
0.0
  0
LINE
  5
1981
330
D1
100
AcDbEntity
  8
0
  6
Continuous
100
AcDbLine
 10
-340.3297730000002
 20
-2.136700199999965
 30
0.0
 11
-344.6907040000003
 21
-3.305209199999964
 31
0.0
  0
LINE
  5
1982
330
D1
100
AcDbEntity
  8
0
  6
Continuous
100
AcDbLine
 10
-340.3297650000002
 20
2.136681600000043
 30
0.0
 11
-344.6906700000001
 21
3.305182700000031
 31
0.0
  0
LINE
  5
1985
330
D1
100
AcDbEntity
  8
0
  6
Continuous
100
AcDbLine
 10
-251.5000000000002
 20
3.843094100000031
 30
0.0
 11
-251.5000000000002
 21
-4.00001529999997
 31
0.0
  0
LINE
  5
1986
330
D1
100
AcDbEntity
  8
0
  6
Continuous
100
AcDbLine
 10
-241.5000000000002
 20
-15.00001499999996
 30
0.0
 11
-253.6204830000002
 21
-15.00001499999996
 31
0.0
  0
LINE
  5
1987
330
D1
100
AcDbEntity
  8
0
  6
Continuous
100
AcDbLine
 10
-240.5000000000002
 20
13.99998500000004
 30
0.0
 11
-240.5000000000002
 21
4.999984700000029
 31
0.0
  0
LINE
  5
1989
330
D1
100
AcDbEntity
  8
0
  6
Continuous
100
AcDbLine
 10
-298.1390145000002
 20
-46.71295899999996
 30
0.0
 11
-298.1390145000002
 21
-48.99919099999996
 31
0.0
  0
LINE
  5
198B
330
D1
100
AcDbEntity
  8
0
  6
Continuous
100
AcDbLine
 10
-267.5000000000002
 20
85.50086999999997
 30
0.0
 11
-332.5000000000002
 21
85.50087000000003
 31
0.0
  0
LINE
  5
198D
330
D1
100
AcDbEntity
  8
0
  6
Continuous
100
AcDbLine
 10
-285.8609860000001
 20
-44.56065799999995
 30
0.0
 11
-285.8609860000001
 21
-48.99919099999996
 31
0.0
  0
LINE
  5
1990
330
D1
100
AcDbEntity
  8
0
  6
Continuous
100
AcDbLine
 10
-316.0883310000002
 20
83.50087
 30
0.0
 11
-316.0883310000002
 21
85.50087000000003
 31
0.0
  0
LINE
  5
1993
330
D1
100
AcDbEntity
  8
0
  6
Continuous
100
AcDbLine
 10
-331.4883310000003
 20
83.50087
 30
0.0
 11
-331.4883310000003
 21
85.50087000000003
 31
0.0
  0
CIRCLE
  5
19BA
330
D1
100
AcDbEntity
  8
0
  6
Continuous
100
AcDbCircle
 10
-247.5000000000002
 20
9.499984700000027
 30
0.0
 40
3.5
  0
CIRCLE
  5
19BB
330
D1
100
AcDbEntity
  8
0
  6
Continuous
100
AcDbCircle
 10
-299.9999997125044
 20
-0.0000150752949738
 30
0.0
 40
31.879999
  0
ARC
  5
19C0
330
D1
100
AcDbEntity
  8
0
  6
Continuous
100
AcDbCircle
 10
-265.2500000000002
 20
-22.88771099999996
 30
0.0
 40
10.0
100
AcDbArc
 50
324.7522499999978
 51
359.9999900000006
  0
ARC
  5
19C1
330
D1
100
AcDbEntity
  8
0
  6
Continuous
100
AcDbCircle
 10
-228.5000000000002
 20
-48.85751299999995
 30
0.0
 40
35.0
100
AcDbArc
 50
144.752512999997
 51
180.0000099999994
  0
ARC
  5
19C2
330
D1
100
AcDbEntity
  8
0
  6
Continuous
100
AcDbCircle
 10
-229.7500000000002
 20
-22.88771099999997
 30
0.0
 40
10.0
100
AcDbArc
 50
180.0
 51
215.2477500000021
  0
ARC
  5
19C3
330
D1
100
AcDbEntity
  8
0
  6
Continuous
100
AcDbCircle
 10
-266.5000000000002
 20
-48.85751299999995
 30
0.0
 40
35.0
100
AcDbArc
 50
359.9999900000006
 51
35.24748999999705
  0
ARC
  5
19C4
330
D1
100
AcDbEntity
  8
0
  6
Continuous
100
AcDbCircle
 10
-247.5000000000002
 20
-18.77891499999995
 30
0.0
 40
7.75
100
AcDbArc
 50
151.4956949999938
 51
180.0
  0
ARC
  5
19C5
330
D1
100
AcDbEntity
  8
0
  6
Continuous
100
AcDbCircle
 10
-247.5000000000002
 20
-18.77891499999995
 30
0.0
 40
7.75
100
AcDbArc
 50
0.0
 51
31.1244100000055
  0
ARC
  5
19C6
330
D1
100
AcDbEntity
  8
0
  6
Continuous
100
AcDbCircle
 10
-233.5000000000002
 20
-50.85751299999995
 30
0.0
 40
2.0
100
AcDbArc
 50
270.0
 51
0.0
  0
ARC
  5
19C7
330
D1
100
AcDbEntity
  8
0
  6
Continuous
100
AcDbCircle
 10
-261.5000000000001
 20
-50.85751299999993
 30
0.0
 40
2.0
100
AcDbArc
 50
180.0
 51
270.0
  0
ARC
  5
19C8
330
D1
100
AcDbEntity
  8
0
  6
Continuous
100
AcDbCircle
 10
-244.5000000000002
 20
-32.05760199999998
 30
0.0
 40
2.0
100
AcDbArc
 50
0.0
 51
90.0
  0
ARC
  5
19C9
330
D1
100
AcDbEntity
  8
0
  6
Continuous
100
AcDbCircle
 10
-250.5000000000002
 20
-32.05760199999998
 30
0.0
 40
2.0
100
AcDbArc
 50
90.0
 51
180.0
  0
ARC
  5
19CA
330
D1
100
AcDbEntity
  8
0
  6
Continuous
100
AcDbCircle
 10
-247.5000000000002
 20
-43.85751299999995
 30
0.0
 40
5.0
100
AcDbArc
 50
180.0106173193037
 51
0.0
  0
ARC
  5
19CC
330
D1
100
AcDbEntity
  8
0
  6
Continuous
100
AcDbCircle
 10
-254.5000000000002
 20
3.843094100000031
 30
0.0
 40
3.0
100
AcDbArc
 50
0.0
 51
2.997230000000131
  0
ARC
  5
19CD
330
D1
100
AcDbEntity
  8
0
  6
Continuous
100
AcDbCircle
 10
-247.5000000000002
 20
9.499984700000027
 30
0.0
 40
6.0
100
AcDbArc
 50
66.44322999999332
 51
113.5567709999991
  0
ARC
  5
19CE
330
D1
100
AcDbEntity
  8
0
  6
Continuous
100
AcDbCircle
 10
-240.5000000000002
 20
3.843094100000031
 30
0.0
 40
3.0
100
AcDbArc
 50
177.0027657000002
 51
180.0
  0
ARC
  5
19CF
330
D1
100
AcDbEntity
  8
0
  6
Continuous
100
AcDbCircle
 10
-247.5000000000002
 20
-32.50001499999999
 30
0.0
 40
8.0
100
AcDbArc
 50
240.000059999997
 51
299.9999400000031
  0
ARC
  5
19D0
330
D1
100
AcDbEntity
  8
0
  6
Continuous
100
AcDbCircle
 10
-347.0000000000002
 20
8.499984700000039
 30
0.0
 40
4.5
100
AcDbArc
 50
324.1117899999937
 51
144.1118229999972
  0
ARC
  5
19D1
330
D1
100
AcDbEntity
  8
0
  6
Continuous
100
AcDbCircle
 10
-347.0000000000002
 20
-8.500015299999956
 30
0.0
 40
4.5
100
AcDbArc
 50
215.888169999996
 51
35.88821000000625
  0
ARC
  5
19D2
330
D1
100
AcDbEntity
  8
0
  6
Continuous
100
AcDbCircle
 10
-335.2526860000003
 20
-0.0000151575019503
 30
0.0
 40
10.0
100
AcDbArc
 50
144.1115709999994
 51
215.8884300000053
  0
CIRCLE
  5
19D3
330
D1
100
AcDbEntity
  8
0
  6
Continuous
100
AcDbCircle
 10
-347.0000000000002
 20
-8.500015299999956
 30
0.0
 40
2.5
  0
CIRCLE
  5
19D4
330
D1
100
AcDbEntity
  8
0
  6
Continuous
100
AcDbCircle
 10
-347.0000000000002
 20
8.499984700000039
 30
0.0
 40
2.5
  0
ARC
  5
19D5
330
D1
100
AcDbEntity
  8
0
  6
Continuous
100
AcDbCircle
 10
-335.2526860000003
 20
-0.0000151575019503
 30
0.0
 40
19.0
100
AcDbArc
 50
144.111679999993
 51
215.888320000007
  0
ARC
  5
19D9
330
D1
100
AcDbEntity
  8
0
  6
Continuous
100
AcDbCircle
 10
-253.6204830000002
 20
-18.00001499999996
 30
0.0
 40
3.0
100
AcDbArc
 50
90.0
 51
158.7882509999963
  0
ARC
  5
19DA
330
D1
100
AcDbEntity
  8
0
  6
Continuous
100
AcDbCircle
 10
-253.6204830000002
 20
17.99998500000004
 30
0.0
 40
3.0
100
AcDbArc
 50
201.2117500000035
 51
270.0
  0
ARC
  5
19DC
330
D1
100
AcDbEntity
  8
0
  6
Continuous
100
AcDbCircle
 10
-261.8874510000003
 20
6.999985200000028
 30
0.0
 40
3.0
100
AcDbArc
 50
190.40827
 51
270.0
  0
ARC
  5
19DD
330
D1
100
AcDbEntity
  8
0
  6
Continuous
100
AcDbCircle
 10
-300.0000002874954
 20
-0.0000150752949738
 30
0.0
 40
35.75
100
AcDbArc
 50
10.40725000000295
 51
171.3177821999989
  0
ARC
  5
19DE
330
D1
100
AcDbEntity
  8
0
  6
Continuous
100
AcDbCircle
 10
-261.8874510000003
 20
-7.00001479999997
 30
0.0
 40
3.0
100
AcDbArc
 50
90.0
 51
169.5917299999999
  0
ARC
  5
19DF
330
D1
100
AcDbEntity
  8
0
  6
Continuous
100
AcDbCircle
 10
-300.0000002874954
 20
-0.0000150752949738
 30
0.0
 40
46.74999999999999
100
AcDbArc
 50
200.2008300000006
 51
338.7886699999967
  0
ARC
  5
19E0
330
D1
100
AcDbEntity
  8
0
  6
Continuous
100
AcDbCircle
 10
-339.2945560000003
 20
-6.000411999999968
 30
0.0
 40
4.0
100
AcDbArc
 50
8.681290000000362
 51
105.0002569999971
  0
ARC
  5
19E1
330
D1
100
AcDbEntity
  8
0
  6
Continuous
100
AcDbCircle
 10
-339.2945560000003
 20
6.000488300000043
 30
0.0
 40
4.0
100
AcDbArc
 50
254.9997400000063
 51
351.3187099999997
  0
ARC
  5
19E2
330
D1
100
AcDbEntity
  8
0
  6
Continuous
100
AcDbCircle
 10
-348.5667720000001
 20
17.86988800000004
 30
0.0
 40
5.0
100
AcDbArc
 50
279.5448900000033
 51
339.798920000004
  0
ARC
  5
19E3
330
D1
100
AcDbEntity
  8
0
  6
Continuous
100
AcDbCircle
 10
-348.5667720000001
 20
-17.86990399999995
 30
0.0
 40
5.0
100
AcDbArc
 50
20.20109999999775
 51
80.4211070000022
  0
ARC
  5
19E4
330
D1
100
AcDbEntity
  8
0
  6
Continuous
100
AcDbCircle
 10
-300.0000002874954
 20
-0.0000150752949738
 30
0.0
 40
46.74999999999999
100
AcDbArc
 50
21.21133000000338
 51
159.7991739999995
  0
ARC
  5
19E5
330
D1
100
AcDbEntity
  8
0
  6
Continuous
100
AcDbCircle
 10
-300.0000002874954
 20
-0.0000150752949738
 30
0.0
 40
35.75
100
AcDbArc
 50
188.6822199999998
 51
349.5927499999971
  0
ARC
  5
19E6
330
D1
100
AcDbEntity
  8
0
  6
Continuous
100
AcDbCircle
 10
-241.5000000000002
 20
-14.00001499999996
 30
0.0
 40
1.0
100
AcDbArc
 50
270.0
 51
0.0
  0
ARC
  5
19E7
330
D1
100
AcDbEntity
  8
0
  6
Continuous
100
AcDbCircle
 10
-241.5000000000002
 20
-5.000014799999972
 30
0.0
 40
1.0
100
AcDbArc
 50
0.0
 51
90.0
  0
ARC
  5
19E8
330
D1
100
AcDbEntity
  8
0
  6
Continuous
100
AcDbCircle
 10
-241.5000000000002
 20
4.999985200000025
 30
0.0
 40
1.0
100
AcDbArc
 50
270.0
 51
0.0
  0
ARC
  5
19E9
330
D1
100
AcDbEntity
  8
0
  6
Continuous
100
AcDbCircle
 10
-241.5000000000002
 20
13.99998500000004
 30
0.0
 40
1.0
100
AcDbArc
 50
0.0
 51
90.0
  0
CIRCLE
  5
19EB
330
D1
100
AcDbEntity
  8
0
  6
Continuous
100
AcDbCircle
 10
-299.9999997125044
 20
-0.0000150752949738
 30
0.0
 40
17.850006
  0
ARC
  5
19EC
330
D1
100
AcDbEntity
  8
0
  6
Continuous
100
AcDbCircle
 10
-300.0000002874954
 20
-0.0000150752949738
 30
0.0
 40
38.75
100
AcDbArc
 50
354.0294900000003
 51
5.924970000000302
  0
ARC
  5
19ED
330
D1
100
AcDbEntity
  8
0
  6
Continuous
100
AcDbCircle
 10
-300.0000002874954
 20
-0.0000150752949738
 30
0.0
 40
38.75
100
AcDbArc
 50
176.9742448999998
 51
183.0257700000004
  0
CIRCLE
  5
19EE
330
D1
100
AcDbEntity
  8
0
  6
Continuous
100
AcDbCircle
 10
-299.9999997125044
 20
-0.0000150752949738
 30
0.0
 40
25.25
  0
ARC
  5
19EF
330
D1
100
AcDbEntity
  8
0
  6
Continuous
100
AcDbCircle
 10
-318.4999994250087
 20
56.43753100000006
 30
0.0
 40
9.0
100
AcDbArc
 50
180.0
 51
201.0773999999976
  0
ARC
  5
19F4
330
D1
100
AcDbEntity
  8
0
  6
Continuous
100
AcDbCircle
 10
-276.9999994250086
 20
44.93916700000004
 30
0.0
 40
3.0
100
AcDbArc
 50
125.0000200000049
 51
180.0
  0
ARC
  5
19F5
330
D1
100
AcDbEntity
  8
0
  6
Continuous
100
AcDbCircle
 10
-281.4999994250086
 20
56.43753100000006
 30
0.0
 40
9.0
100
AcDbArc
 50
304.9999999999972
 51
0.000000000000007
  0
ARC
  5
19F8
330
D1
100
AcDbEntity
  8
0
  6
Continuous
100
AcDbCircle
 10
-290.5000000000002
 20
-48.99919099999996
 30
0.0
 40
8.0
100
AcDbArc
 50
269.999989999999
 51
324.3409199999957
  0
ARC
  5
19F9
330
D1
100
AcDbEntity
  8
0
  6
Continuous
100
AcDbCircle
 10
-309.5000000000002
 20
-48.99919099999996
 30
0.0
 40
8.0
100
AcDbArc
 50
215.6590800000043
 51
270.0
  0
ELLIPSE
  5
1A00
330
D1
100
AcDbEntity
  8
0
  6
Continuous
100
AcDbEllipse
 10
-308.0000000000002
 20
-48.99919099999996
 30
0.0
 11
6.1390149
 21
-0.0000000000000008
 31
0.0
210
0.0
220
0.0
230
-1.0
 40
0.7596803100000002
 41
0.0
 42
3.1415927
  0
ELLIPSE
  5
1A01
330
D1
100
AcDbEntity
  8
0
  6
Continuous
100
AcDbEllipse
 10
-318.2252580000002
 20
51.90087100000003
 30
0.0
 11
0.48302973
 21
-0.0000000000000001
 31
0.0
210
0.0
220
0.0
230
-0.9999999999999998
 40
0.82810641
 41
1.5707963
 42
3.141597399999998
  0
ELLIPSE
  5
1A03
330
D1
100
AcDbEntity
  8
0
  6
Continuous
100
AcDbEllipse
 10
-281.7747420000003
 20
51.90087100000003
 30
0.0
 11
-0.48302973
 21
0.0000000000000001
 31
0.0
210
0.0
220
0.0
230
-0.9999999999999998
 40
0.82810641
 41
3.1415879
 42
4.712388999999999
  0
SPLINE
  5
1A04
330
D1
100
AcDbEntity
  8
0
  6
Continuous
100
AcDbSpline
210
0.0
220
0.0
230
1.0
 70
  1064
 71
     3
 72
    13
 73
     9
 74
     7
 42
0.000000001
 43
0.0000000001
 44
0.00001
 12
0.3961836001156706
 22
-0.918171310268071
 32
0.0
 13
0.8422435502752508
 23
-0.5390972101761804
 33
0.0
 40
0.0
 40
0.0
 40
0.0
 40
0.0
 40
0.9157023023093756
 40
1.831687038904798
 40
2.747947692597699
 40
3.664039289798743
 40
4.580436748070704
 40
5.493992006248997
 40
5.493992006248997
 40
5.493992006248997
 40
5.493992006248997
 10
-325.1643554250086
 20
53.20087100000003
 30
0.0
 10
-325.0434266800876
 20
52.92061380575773
 30
0.0
 10
-324.7751419250203
 20
52.3709751851462
 30
0.0
 10
-324.2968316188989
 20
51.58824091595818
 30
0.0
 10
-323.7444847805406
 20
50.85543235817996
 30
0.0
 10
-323.1191240408644
 20
50.1833813818648
 30
0.0
 10
-322.4265752490234
 20
49.58244783866572
 30
0.0
 10
-321.9278690996823
 20
49.22932803034192
 30
0.0
 10
-321.6713904250087
 20
49.06516300000002
 30
0.0
 11
-325.1643554250086
 21
53.20087100000003
 31
0.0
 11
-324.7625604250087
 21
52.37802600000001
 31
0.0
 11
-324.2845634250086
 21
51.59665100000005
 31
0.0
 11
-323.7323024250086
 21
50.86552700000002
 31
0.0
 11
-323.1078934250086
 21
50.19520000000003
 31
0.0
 11
-322.4165384250087
 21
49.593691
 31
0.0
 11
-321.6713904250087
 21
49.06516300000002
 31
0.0
  0
ELLIPSE
  5
1A05
330
D1
100
AcDbEntity
  8
0
  6
Continuous
100
AcDbEllipse
 10
-292.0000000000002
 20
-48.99919099999996
 30
0.0
 11
-6.1390149
 21
0.0000000000000008
 31
0.0
210
0.0
220
0.0
230
-1.0
 40
0.7596803100000002
 41
3.1415927
 42
6.283185299999998
  0
LINE
  5
1A1A
330
D1
100
AcDbEntity
  8
0
  6
CENTER
100
AcDbLine
 10
-300.0
 20
-72.0912745604946
 30
0.0
 11
-300.0
 21
286.1428194498049
 31
0.0
  0
LINE
  5
1A1B
330
D1
100
AcDbEntity
  8
0
  6
CENTER
100
AcDbLine
 10
-226.9759322685804
 20
0.0000000000000278
 30
0.0
 11
-367.6103254233094
 21
0.000000000000045
 31
0.0
  0
LINE
  5
1A1C
330
D1
100
AcDbEntity
  8
0
  6
CENTER
100
AcDbLine
 10
0.0
 20
-72.1321728398566
 30
0.0
 11
0.0000000000000439
 21
286.1428194498048
 31
0.0
  0
LINE
  5
1A1D
330
D1
100
AcDbEntity
  8
0
  6
CENTER
100
AcDbLine
 10
86.12564670917164
 20
-0.0000000000000105
 30
0.0
 11
-84.44107015615553
 21
0.0000000000000103
 31
0.0
  0
LINE
  5
1A1E
330
D1
100
AcDbEntity
  8
0
  6
CENTER
100
AcDbLine
 10
0.0000000000000539
 20
368.165480941648
 30
0.0
 11
0.0000000000000642
 21
451.8345190583519
 31
0.0
  0
LINE
  5
1A1F
330
D1
100
AcDbEntity
  8
0
  6
CENTER
100
AcDbLine
 10
85.28335843266367
 20
410.0
 30
0.0
 11
-85.28335843266352
 21
410.0
 31
0.0
  0
TEXT
  5
1A20
330
D1
100
AcDbEntity
  8
0
100
AcDbText
 10
-358.3333333333332
 20
559.1666666666666
 30
0.0
 40
50.0
  1
2MA__V06000 1.5S
 72
     4
 11
0.0
 21
580.0
 31
0.0
100
AcDbText
  0
LINE
  5
1A24
330
D1
100
AcDbEntity
  8
0
  6
Continuous
100
AcDbLine
 10
-38.97506700000003
 20
373.2294299452815
 30
0.0
 11
-39.97506700000003
 21
373.2294299452815
 31
0.0
  0
LINE
  5
1A26
330
D1
100
AcDbEntity
  8
0
  6
Continuous
100
AcDbLine
 10
-27.62505899999997
 20
-52.85751299999998
 30
0.0
 11
-33.3250579999999
 21
-52.85751299999997
 31
0.0
  0
LINE
  5
1FA5
330
D1
100
AcDbEntity
  8
0
  6
Continuous
100
AcDbLine
 10
-267.5
 20
89.50083948242186
 30
0.0
 11
-332.5
 21
89.50083948242188
 31
0.0
  0
LINE
  5
206A
330
D1
100
AcDbEntity
  8
0
100
AcDbLine
 10
-267.5500030517578
 20
100.50087
 30
0.0
 11
-332.4500122070312
 21
100.50087
 31
0.0
  0
LINE
  5
206B
330
D1
100
AcDbEntity
  8
0
100
AcDbLine
 10
-266.5500030517578
 20
131.6318514453125
 30
0.0
 11
-266.5500030517578
 21
101.50087
 31
0.0
  0
LINE
  5
206C
330
D1
100
AcDbEntity
  8
0
100
AcDbLine
 10
-333.4500122070313
 20
101.50087
 30
0.0
 11
-333.4500122070313
 21
131.6318514453125
 31
0.0
  0
LINE
  5
206D
330
D1
100
AcDbEntity
  8
0
100
AcDbLine
 10
-266.5500030517578
 20
103.50087
 30
0.0
 11
-333.4500122070313
 21
103.50087
 31
0.0
  0
LINE
  5
2073
330
D1
100
AcDbEntity
  8
0
100
AcDbLine
 10
-333.4500122070313
 20
131.6318514453125
 30
0.0
 11
-266.5500030517578
 21
131.6318514453125
 31
0.0
  0
LINE
  5
2074
330
D1
100
AcDbEntity
  8
0
100
AcDbLine
 10
-268.249999939195
 20
151.0629517609516
 30
0.0
 11
-266.5499988285492
 21
131.6318500947893
 31
0.0
  0
LINE
  5
2075
330
D1
100
AcDbEntity
  8
0
100
AcDbLine
 10
-331.749995399034
 20
151.0629471415396
 30
0.0
 11
-333.4499951797888
 21
131.6318606761019
 31
0.0
  0
LINE
  5
2076
330
D1
100
AcDbEntity
  8
0
100
AcDbLine
 10
-331.7499999999999
 20
242.8008669482422
 30
0.0
 11
-331.75
 21
151.0629427539062
 31
0.0
  0
LINE
  5
2077
330
D1
100
AcDbEntity
  8
0
100
AcDbLine
 10
-268.25
 20
242.8008669482422
 30
0.0
 11
-268.25
 21
151.0629427539062
 31
0.0
  0
LINE
  5
2078
330
D1
100
AcDbEntity
  8
0
100
AcDbLine
 10
-330.75
 20
243.8008669482422
 30
0.0
 11
-269.2499999999999
 21
243.8008669482422
 31
0.0
  0
LINE
  5
207A
330
D1
100
AcDbEntity
  8
0
100
AcDbLine
 10
-331.75
 20
151.0629427539062
 30
0.0
 11
-268.25
 21
151.0629427539062
 31
0.0
  0
ARC
  5
2086
330
D1
100
AcDbEntity
  8
0
100
AcDbCircle
 10
-269.2499999999999
 20
242.8008669482422
 30
0.0
 40
1.0
100
AcDbArc
 50
0.0
 51
90.00000250448172
  0
ARC
  5
2087
330
D1
100
AcDbEntity
  8
0
100
AcDbCircle
 10
-330.75
 20
242.8008669482422
 30
0.0
 40
1.0
100
AcDbArc
 50
90.00000250448172
 51
180.0000050089569
  0
ARC
  5
2088
330
D1
100
AcDbEntity
  8
0
100
AcDbCircle
 10
-332.4500122070312
 20
101.50087
 30
0.0
 40
1.0
100
AcDbArc
 50
179.9999913485786
 51
270.000000683243
  0
ARC
  5
2089
330
D1
100
AcDbEntity
  8
0
100
AcDbCircle
 10
-267.5500030517578
 20
101.50087
 30
0.0
 40
1.0
100
AcDbArc
 50
269.9999974955182
 51
0.0
  0
LINE
  5
20A6
330
D1
100
AcDbEntity
  8
0
  6
Continuous
100
AcDbLine
 10
-267.5
 20
100.50087
 30
0.0
 11
-332.5
 21
100.50087
 31
0.0
  0
LINE
  5
20A7
330
D1
100
AcDbEntity
  8
0
  6
Continuous
100
AcDbLine
 10
-273.3964233398438
 20
100.5008394824218
 30
0.0
 11
-273.3964233398438
 21
89.50083948242186
 31
0.0
  0
LINE
  5
20A8
330
D1
100
AcDbEntity
  8
0
  6
Continuous
100
AcDbLine
 10
-326.6035766601563
 20
100.5008394824218
 30
0.0
 11
-326.6035766601563
 21
89.50083948242188
 31
0.0
  0
LINE
  5
2118
330
D1
100
AcDbEntity
  8
0
  6
Continuous
100
AcDbLine
 10
32.50000000000002
 20
89.500404
 30
0.0
 11
-32.49999999999998
 21
89.500404
 31
0.0
  0
LINE
  5
2119
330
D1
100
AcDbEntity
  8
0
  6
Continuous
100
AcDbLine
 10
-32.49999999999998
 20
100.500404
 30
0.0
 11
32.50000000000002
 21
100.500404
 31
0.0
  0
LINE
  5
211A
330
D1
100
AcDbEntity
  8
0
  6
Continuous
100
AcDbLine
 10
-26.60357666015623
 20
100.5003734824219
 30
0.0
 11
-26.60357666015623
 21
89.50037348242188
 31
0.0
  0
LINE
  5
211B
330
D1
100
AcDbEntity
  8
0
  6
Continuous
100
AcDbLine
 10
26.60357666015627
 20
100.5003734824219
 30
0.0
 11
26.60357666015627
 21
89.50037348242188
 31
0.0
  0
LINE
  5
211E
330
D1
100
AcDbEntity
  8
0
100
AcDbLine
 10
-33.45001220703123
 20
131.6313854453125
 30
0.0
 11
-33.45001220703123
 21
101.500404
 31
0.0
  0
LINE
  5
211F
330
D1
100
AcDbEntity
  8
0
100
AcDbLine
 10
33.45001220703127
 20
101.500404
 30
0.0
 11
33.45001220703127
 21
131.6313854453125
 31
0.0
  0
LINE
  5
2120
330
D1
100
AcDbEntity
  8
0
100
AcDbLine
 10
-32.45001220703123
 20
100.500404
 30
0.0
 11
32.45001220703127
 21
100.500404
 31
0.0
  0
LINE
  5
2121
330
D1
100
AcDbEntity
  8
0
100
AcDbLine
 10
-33.45001220703123
 20
103.500404
 30
0.0
 11
33.45001220703127
 21
103.500404
 31
0.0
  0
LINE
  5
2122
330
D1
100
AcDbEntity
  8
0
100
AcDbLine
 10
33.45001220703127
 20
131.6313854453125
 30
0.0
 11
-33.45001220703123
 21
131.6313854453125
 31
0.0
  0
LINE
  5
2123
330
D1
100
AcDbEntity
  8
0
100
AcDbLine
 10
31.75000869855287
 20
151.062478445689
 30
0.0
 11
33.45000980919851
 21
131.6313767795267
 31
0.0
  0
LINE
  5
2124
330
D1
100
AcDbEntity
  8
0
100
AcDbLine
 10
-31.75001849262683
 20
151.0624759158595
 30
0.0
 11
-33.45001827338157
 21
131.6313894504219
 31
0.0
  0
LINE
  5
2125
330
D1
100
AcDbEntity
  8
0
100
AcDbLine
 10
31.75000000000004
 20
242.8004009482422
 30
0.0
 11
31.75000000000002
 21
151.0624767539062
 31
0.0
  0
LINE
  5
2126
330
D1
100
AcDbEntity
  8
0
100
AcDbLine
 10
-31.74999999999997
 20
242.8004009482422
 30
0.0
 11
-31.74999999999998
 21
151.0624767539062
 31
0.0
  0
LINE
  5
2127
330
D1
100
AcDbEntity
  8
0
100
AcDbLine
 10
31.75000000000002
 20
151.0624767539062
 30
0.0
 11
-31.74999999999998
 21
151.0624767539062
 31
0.0
  0
ARC
  5
2128
330
D1
100
AcDbEntity
  8
0
100
AcDbCircle
 10
32.45001220703127
 20
101.500404
 30
0.0
 40
1.0
100
AcDbArc
 50
269.999999316757
 51
0.0000086514213948
  0
ARC
  5
2129
330
D1
100
AcDbEntity
  8
0
100
AcDbCircle
 10
-32.45001220703123
 20
101.500404
 30
0.0
 40
1.0
100
AcDbArc
 50
180.0
 51
270.0000025044817
  0
LINE
  5
213E
330
D1
100
AcDbEntity
  8
0
100
AcDbLine
 10
30.75000000000004
 20
243.8004009482422
 30
0.0
 11
-30.74999999999997
 21
243.8004009482422
 31
0.0
  0
ARC
  5
2146
330
D1
100
AcDbEntity
  8
0
100
AcDbCircle
 10
-30.74999999999997
 20
242.8004009482422
 30
0.0
 40
1.0
100
AcDbArc
 50
89.99999749553131
 51
180.0
  0
ARC
  5
2147
330
D1
100
AcDbEntity
  8
0
100
AcDbCircle
 10
30.75000000000004
 20
242.8004009482422
 30
0.0
 40
1.0
100
AcDbArc
 50
359.9999949910431
 51
89.99999749553131
  0
CIRCLE
  5
2148
330
D1
100
AcDbEntity
  8
0
100
AcDbCircle
 10
0.000000000000059
 20
410.0
 30
0.0
 40
12.0
  0
CIRCLE
  5
2149
330
D1
100
AcDbEntity
  8
0
100
AcDbCircle
 10
-12.90472412109369
 20
397.0952758789063
 30
0.0
 40
2.599999904632568
  0
CIRCLE
  5
214A
330
D1
100
AcDbEntity
  8
0
100
AcDbCircle
 10
-12.90472412109369
 20
422.9047241210937
 30
0.0
 40
3.0
  0
CIRCLE
  5
214B
330
D1
100
AcDbEntity
  8
0
100
AcDbCircle
 10
-12.90472412109369
 20
397.0952758789063
 30
0.0
 40
3.0
  0
CIRCLE
  5
214C
330
D1
100
AcDbEntity
  8
0
100
AcDbCircle
 10
0.000000000000059
 20
410.0
 30
0.0
 40
7.75
  0
CIRCLE
  5
214D
330
D1
100
AcDbEntity
  8
0
100
AcDbCircle
 10
12.90472412109381
 20
422.9047241210937
 30
0.0
 40
2.599999904632568
  0
CIRCLE
  5
214E
330
D1
100
AcDbEntity
  8
0
100
AcDbCircle
 10
12.9047241210938
 20
397.0952758789063
 30
0.0
 40
3.0
  0
CIRCLE
  5
214F
330
D1
100
AcDbEntity
  8
0
100
AcDbCircle
 10
0.000000000000059
 20
410.0
 30
0.0
 40
7.5
  0
CIRCLE
  5
2150
330
D1
100
AcDbEntity
  8
0
100
AcDbCircle
 10
12.9047241210938
 20
397.0952758789063
 30
0.0
 40
2.599999904632568
  0
CIRCLE
  5
2151
330
D1
100
AcDbEntity
  8
0
100
AcDbCircle
 10
0.000000000000059
 20
410.0
 30
0.0
 40
33.5
  0
CIRCLE
  5
2152
330
D1
100
AcDbEntity
  8
0
100
AcDbCircle
 10
0.000000000000059
 20
410.0
 30
0.0
 40
31.75
  0
CIRCLE
  5
2153
330
D1
100
AcDbEntity
  8
0
100
AcDbCircle
 10
-12.90472412109369
 20
422.9047241210937
 30
0.0
 40
2.599999904632568
  0
CIRCLE
  5
2154
330
D1
100
AcDbEntity
  8
0
100
AcDbCircle
 10
12.90472412109381
 20
422.9047241210937
 30
0.0
 40
3.0
  0
LINE
  5
2155
330
D1
100
AcDbEntity
  8
0
100
AcDbLine
 10
-22.25000158327538
 20
407.6906187875811
 30
0.0
 11
-18.25000344827578
 21
405.3812187875813
 31
0.0
  0
LINE
  5
2156
330
D1
100
AcDbEntity
  8
0
100
AcDbLine
 10
-18.25000344827578
 20
405.3812187875813
 30
0.0
 11
-14.25000531327629
 21
407.6906187875811
 31
0.0
  0
CIRCLE
  5
2157
330
D1
100
AcDbEntity
  8
0
100
AcDbCircle
 10
-18.25000344827578
 20
410.0000187875813
 30
0.0
 40
3.9
  0
LINE
  5
2158
330
D1
100
AcDbEntity
  8
0
100
AcDbLine
 10
-14.25000531327629
 20
412.3094187875811
 30
0.0
 11
-18.25000344827578
 21
414.6188187875813
 31
0.0
  0
LINE
  5
2159
330
D1
100
AcDbEntity
  8
0
100
AcDbLine
 10
-14.25000531327629
 20
407.6906187875811
 30
0.0
 11
-14.25000531327629
 21
412.3094187875811
 31
0.0
  0
LINE
  5
215A
330
D1
100
AcDbEntity
  8
0
100
AcDbLine
 10
-18.25000344827578
 20
414.6188187875813
 30
0.0
 11
-22.25000158327538
 21
412.3094187875811
 31
0.0
  0
LINE
  5
215B
330
D1
100
AcDbEntity
  8
0
100
AcDbLine
 10
-22.25000158327538
 20
412.3094187875811
 30
0.0
 11
-22.25000158327538
 21
407.6906187875811
 31
0.0
  0
CIRCLE
  5
215C
330
D1
100
AcDbEntity
  8
0
100
AcDbCircle
 10
-18.25000344827578
 20
410.0000187875813
 30
0.0
 40
2.5
  0
CIRCLE
  5
215D
330
D1
100
AcDbEntity
  8
0
100
AcDbCircle
 10
-18.25000344827578
 20
410.0000187875813
 30
0.0
 40
5.0
  0
CIRCLE
  5
215E
330
D1
100
AcDbEntity
  8
0
100
AcDbCircle
 10
18.25000344827578
 20
410.0000187875813
 30
0.0
 40
2.5
  0
CIRCLE
  5
215F
330
D1
100
AcDbEntity
  8
0
100
AcDbCircle
 10
18.25000344827578
 20
410.0000187875813
 30
0.0
 40
5.0
  0
LINE
  5
2160
330
D1
100
AcDbEntity
  8
0
100
AcDbLine
 10
22.25000158327549
 20
407.6906187875811
 30
0.0
 11
18.25000344827578
 21
405.3812187875813
 31
0.0
  0
LINE
  5
2161
330
D1
100
AcDbEntity
  8
0
100
AcDbLine
 10
18.25000344827578
 20
405.3812187875813
 30
0.0
 11
14.25000531327629
 21
407.6906187875811
 31
0.0
  0
CIRCLE
  5
2162
330
D1
100
AcDbEntity
  8
0
100
AcDbCircle
 10
18.25000344827578
 20
410.0000187875813
 30
0.0
 40
3.9
  0
LINE
  5
2163
330
D1
100
AcDbEntity
  8
0
100
AcDbLine
 10
14.25000531327629
 20
412.3094187875811
 30
0.0
 11
18.25000344827578
 21
414.6188187875813
 31
0.0
  0
LINE
  5
2164
330
D1
100
AcDbEntity
  8
0
100
AcDbLine
 10
14.25000531327629
 20
407.6906187875811
 30
0.0
 11
14.25000531327629
 21
412.3094187875811
 31
0.0
  0
LINE
  5
2165
330
D1
100
AcDbEntity
  8
0
100
AcDbLine
 10
18.25000344827578
 20
414.6188187875813
 30
0.0
 11
22.25000158327549
 21
412.3094187875811
 31
0.0
  0
LINE
  5
2166
330
D1
100
AcDbEntity
  8
0
100
AcDbLine
 10
22.25000158327549
 20
412.3094187875811
 30
0.0
 11
22.25000158327549
 21
407.6906187875811
 31
0.0
  0
LINE
  5
2167
330
D1
100
AcDbEntity
  8
0
  6
Continuous
100
AcDbLine
 10
34.00000000000007
 20
384.0
 30
0.0
 11
34.00000000000007
 21
398.4674374053292
 31
0.0
  0
LINE
  5
2168
330
D1
100
AcDbEntity
  8
0
  6
Continuous
100
AcDbLine
 10
23.00000000000007
 20
381.0
 30
0.0
 11
31.00000000000007
 21
381.0
 31
0.0
  0
LINE
  5
2169
330
D1
100
AcDbEntity
  8
0
  6
Continuous
100
AcDbLine
 10
23.00000000000007
 20
439.2290969999999
 30
0.0
 11
23.00000000000007
 21
434.3567239176372
 31
0.0
  0
ARC
  5
216A
330
D1
100
AcDbEntity
  8
0
  6
Continuous
100
AcDbCircle
 10
31.00000000000007
 20
384.0
 30
0.0
 40
3.0
100
AcDbArc
 50
270.0
 51
0.0
  0
ARC
  5
216B
330
D1
100
AcDbEntity
  8
0
  6
Continuous
100
AcDbCircle
 10
0.0000000000000794
 20
460.0
 30
0.0
 40
82.5
100
AcDbArc
 50
277.2522468650594
 51
286.1878699999993
  0
LINE
  5
216D
330
D1
100
AcDbEntity
  8
0
  6
Continuous
100
AcDbLine
 10
23.00000000000007
 20
385.6432760823628
 30
0.0
 11
23.00000000000007
 21
380.770905
 31
0.0
  0
LINE
  5
216F
330
D1
100
AcDbEntity
  8
0
  6
Continuous
100
AcDbLine
 10
-41.975067
 20
464.252659
 30
0.0
 11
-18.97504999999972
 21
464.252659
 31
0.0
  0
LINE
  5
2170
330
D1
100
AcDbEntity
  8
0
  6
Continuous
100
AcDbLine
 10
-18.97504999999972
 20
452.5
 30
0.0
 11
-21.97504999999972
 21
452.5
 31
0.0
  0
LINE
  5
2171
330
D1
100
AcDbEntity
  8
0
  6
Continuous
100
AcDbLine
 10
-18.97504999999972
 20
452.5
 30
0.0
 11
-18.97504999999972
 21
464.252659
 31
0.0
  0
LINE
  5
2172
330
D1
100
AcDbEntity
  8
0
  6
Continuous
100
AcDbLine
 10
-27.62505899999992
 20
341.5
 30
0.0
 11
-27.62505899999992
 21
350.293056
 31
0.0
  0
LINE
  5
2173
330
D1
100
AcDbEntity
  8
0
  6
Continuous
100
AcDbLine
 10
-26.22504999999974
 20
350.5
 30
0.0
 11
-26.22504999999973
 21
363.249984924705
 31
0.0
  0
LINE
  5
2174
330
D1
100
AcDbEntity
  8
0
  6
Continuous
100
AcDbLine
 10
-26.22504999999974
 20
350.5
 30
0.0
 11
-20.97504999999973
 21
350.5
 31
0.0
  0
LINE
  5
2175
330
D1
100
AcDbEntity
  8
0
  6
Continuous
100
AcDbLine
 10
-20.97504999999973
 20
350.5
 30
0.0
 11
-20.97504999999973
 21
373.2294299452815
 31
0.0
  0
LINE
  5
2176
330
D1
100
AcDbEntity
  8
0
  6
Continuous
100
AcDbLine
 10
-21.97504999999973
 20
363.249984924705
 30
0.0
 11
-21.97504999999973
 21
384.7146845481906
 31
0.0
  0
LINE
  5
2177
330
D1
100
AcDbEntity
  8
0
  6
Continuous
100
AcDbLine
 10
-21.97504999999972
 20
435.2853154518093
 30
0.0
 11
-21.97504999999972
 21
456.7499849247049
 31
0.0
  0
LINE
  5
2179
330
D1
100
AcDbEntity
  8
0
  6
Continuous
100
AcDbLine
 10
-21.97504999999972
 20
456.7499849247049
 30
0.0
 11
-38.97506700000003
 21
456.7499849247049
 31
0.0
  0
LINE
  5
217A
330
D1
100
AcDbEntity
  8
0
  6
Continuous
100
AcDbLine
 10
-21.97504999999973
 20
363.249984924705
 30
0.0
 11
-38.97506700000003
 21
363.249984924705
 31
0.0
  0
LINE
  5
217B
330
D1
100
AcDbEntity
  8
0
  6
Continuous
100
AcDbLine
 10
-21.97504999999973
 20
373.2294299452815
 30
0.0
 11
-20.97504999999973
 21
373.2294299452815
 31
0.0
  0
LINE
  5
217C
330
D1
100
AcDbEntity
  8
0
  6
Continuous
100
AcDbLine
 10
-21.97505799999992
 20
377.75
 30
0.0
 11
-9.065732182234318
 21
377.75
 31
0.0
  0
LINE
  5
217D
330
D1
100
AcDbEntity
  8
0
  6
Continuous
100
AcDbLine
 10
23.00000000000007
 20
439.0
 30
0.0
 11
31.00000000000008
 21
439.0
 31
0.0
  0
ARC
  5
217E
330
D1
100
AcDbEntity
  8
0
  6
Continuous
100
AcDbCircle
 10
31.00000000000008
 20
436.0
 30
0.0
 40
3.0
100
AcDbArc
 50
0.0
 51
89.99999999999998
  0
ARC
  5
217F
330
D1
100
AcDbEntity
  8
0
  6
Continuous
100
AcDbCircle
 10
0.0000000000000671
 20
360.0
 30
0.0
 40
82.5
100
AcDbArc
 50
73.81213000000045
 51
82.7477531349403
  0
LINE
  5
2180
330
D1
100
AcDbEntity
  8
0
  6
Continuous
100
AcDbLine
 10
-21.97505799999992
 20
442.25
 30
0.0
 11
-9.065732182234311
 21
442.25
 31
0.0
  0
LINE
  5
2184
330
D1
100
AcDbEntity
  8
0
  6
Continuous
100
AcDbLine
 10
34.00000000000007
 20
421.5325625946706
 30
0.0
 11
34.00000000000008
 21
436.0
 31
0.0
  0
LINE
  5
2185
330
D1
100
AcDbEntity
  8
0
  6
Continuous
100
AcDbLine
 10
34.00000000000007
 20
402.0
 30
0.0
 11
34.00000000000007
 21
418.0
 31
0.0
  0
LINE
  5
2187
330
D1
100
AcDbEntity
  8
0
  6
Continuous
100
AcDbLine
 10
-278.7000004250089
 20
47.41113920646017
 30
0.0
 11
-278.7000004250089
 21
43.60086800000003
 31
0.0
  0
LINE
  5
2188
330
D1
100
AcDbEntity
  8
0
  6
Continuous
100
AcDbLine
 10
-273.700000425009
 20
51.93125500000006
 30
0.0
 11
-273.700000425009
 21
44.47048600000003
 31
0.0
  0
LINE
  5
2189
330
D1
100
AcDbEntity
  8
0
  6
Continuous
100
AcDbLine
 10
-273.999999425009
 20
43.95087100000004
 30
0.0
 11
-278.7000004250089
 21
43.95087100000004
 31
0.0
  0
LINE
  5
218A
330
D1
100
AcDbEntity
  8
0
  6
Continuous
100
AcDbLine
 10
-278.7000004250089
 20
43.60086800000003
 30
0.0
 11
-279.999999425009
 21
43.60086800000003
 31
0.0
  0
LINE
  5
218B
330
D1
100
AcDbEntity
  8
0
  6
Continuous
100
AcDbLine
 10
-277.999999425009
 20
47.90128534606004
 30
0.0
 11
-277.999999425009
 21
43.95087100000004
 31
0.0
  0
LINE
  5
218C
330
D1
100
AcDbEntity
  8
0
  6
Continuous
100
AcDbLine
 10
-273.999999425009
 20
51.46259381446633
 30
0.0
 11
-273.999999425009
 21
43.95087100000004
 31
0.0
  0
LINE
  5
218D
330
D1
100
AcDbEntity
  8
0
  6
Continuous
100
AcDbLine
 10
-273.999999425009
 20
43.95087100000004
 30
0.0
 11
-273.699998425009
 21
44.47048600000003
 31
0.0
  0
LINE
  5
218E
330
D1
100
AcDbEntity
  8
0
  6
Continuous
100
AcDbLine
 10
-273.700000425009
 20
51.93125500000006
 30
0.0
 11
-273.7046974697355
 21
51.93939055909392
 31
0.0
  0
LINE
  5
23E6
330
D1
100
AcDbEntity
  8
0
100
AcDbLine
 10
-16.14999389648431
 20
251.8004009482422
 30
0.0
 11
-20.35000610351557
 21
251.8004009482422
 31
0.0
  0
LINE
  5
23E7
330
D1
100
AcDbEntity
  8
0
100
AcDbLine
 10
12.00000000000005
 20
267.3
 30
0.0
 11
12.00000000000005
 21
246.8004009482422
 31
0.0
  0
LINE
  5
23E8
330
D1
100
AcDbEntity
  8
0
100
AcDbLine
 10
-23.24999999999994
 20
244.8004009482422
 30
0.0
 11
-13.24999999999994
 21
244.8004009482422
 31
0.0
  0
LINE
  5
23E9
330
D1
100
AcDbEntity
  8
0
100
AcDbLine
 10
-23.24999999999994
 20
243.8004009482422
 30
0.0
 11
-23.24999999999994
 21
244.8004009482422
 31
0.0
  0
LINE
  5
23EA
330
D1
100
AcDbEntity
  8
0
100
AcDbLine
 10
-16.15000548811957
 20
251.8004094961024
 30
0.0
 11
-15.75001368831266
 21
251.4004176962954
 31
0.0
  0
LINE
  5
23EB
330
D1
100
AcDbEntity
  8
0
100
AcDbLine
 10
-15.74999999999994
 20
251.4004070517578
 30
0.0
 11
-15.74999999999994
 21
248.8004009482422
 31
0.0
  0
LINE
  5
23EC
330
D1
100
AcDbEntity
  8
0
100
AcDbLine
 10
-13.24999999999994
 20
244.8004009482422
 30
0.0
 11
-13.24999999999994
 21
243.8004009482422
 31
0.0
  0
LINE
  5
23ED
330
D1
100
AcDbEntity
  8
0
100
AcDbLine
 10
-20.74999999999994
 20
251.4004070517578
 30
0.0
 11
-20.74999999999994
 21
248.8004009482422
 31
0.0
  0
LINE
  5
23EE
330
D1
100
AcDbEntity
  8
0
100
AcDbLine
 10
-20.35000570283836
 20
251.8004094961024
 30
0.0
 11
-20.75000559484016
 21
251.4004096041006
 31
0.0
  0
LINE
  5
23EF
330
D1
100
AcDbEntity
  8
0
100
AcDbLine
 10
-6.999999999999943
 20
243.8004009482422
 30
0.0
 11
-6.999999999999943
 21
245.8004009482422
 31
0.0
  0
LINE
  5
23F0
330
D1
100
AcDbEntity
  8
0
100
AcDbLine
 10
7.000000000000056
 20
245.8004009482422
 30
0.0
 11
7.000000000000056
 21
243.8004009482422
 31
0.0
  0
LINE
  5
23F1
330
D1
100
AcDbEntity
  8
0
100
AcDbLine
 10
-10.99999999999994
 20
268.3
 30
0.0
 11
11.00000000000005
 21
268.3
 31
0.0
  0
LINE
  5
23F2
330
D1
100
AcDbEntity
  8
0
100
AcDbLine
 10
-11.99999999999994
 20
267.2999999125772
 30
0.0
 11
-11.99999999999994
 21
246.8004009482422
 31
0.0
  0
LINE
  5
23F3
330
D1
100
AcDbEntity
  8
0
100
AcDbLine
 10
-10.99999999999994
 20
245.8004009482422
 30
0.0
 11
11.00000000000005
 21
245.8004009482422
 31
0.0
  0
ARC
  5
23F4
330
D1
100
AcDbEntity
  8
0
100
AcDbCircle
 10
11.00000000000005
 20
267.3
 30
0.0
 40
1.0
100
AcDbArc
 50
0.0
 51
90.0000025044817
  0
ARC
  5
23F5
330
D1
100
AcDbEntity
  8
0
100
AcDbCircle
 10
-10.99999999999994
 20
267.3
 30
0.0
 40
1.0
100
AcDbArc
 50
90.0000025044817
 51
180.0000050089569
  0
CIRCLE
  5
23F6
330
D1
100
AcDbEntity
  8
0
100
AcDbCircle
 10
0.0000000000000568
 20
236.8004009482422
 30
0.0
 40
4.158030033111571
  0
CIRCLE
  5
23F7
330
D1
100
AcDbEntity
  8
0
100
AcDbCircle
 10
0.0000000000000568
 20
236.8004009482422
 30
0.0
 40
4.738999843597412
  0
ARC
  5
23F8
330
D1
100
AcDbEntity
  8
0
100
AcDbCircle
 10
-10.99999999999994
 20
246.8004009482422
 30
0.0
 40
1.0
100
AcDbArc
 50
179.999994991043
 51
269.9999974955182
  0
ARC
  5
23F9
330
D1
100
AcDbEntity
  8
0
100
AcDbCircle
 10
11.00000000000005
 20
246.8004009482422
 30
0.0
 40
1.0
100
AcDbArc
 50
269.9999974955182
 51
0.0
  0
ARC
  5
23FA
330
D1
100
AcDbEntity
  8
0
100
AcDbCircle
 10
-20.24999655172411
 20
242.9658870593425
 30
0.0
 40
5.776760101318356
100
AcDbArc
 50
69.74444580078143
 51
110.2555541992185
  0
LINE
  5
23FB
330
D1
100
AcDbEntity
  8
0
100
AcDbLine
 10
-14.24999655172411
 20
248.8003821606609
 30
0.0
 11
-22.24999655172411
 21
248.8003821606609
 31
0.0
  0
LINE
  5
23FC
330
D1
100
AcDbEntity
  8
0
100
AcDbLine
 10
-22.24999655172411
 20
244.8003821606609
 30
0.0
 11
-22.24999655172411
 21
248.8003821606609
 31
0.0
  0
LINE
  5
23FD
330
D1
100
AcDbEntity
  8
0
100
AcDbLine
 10
-18.24999655172411
 20
244.8003821606609
 30
0.0
 11
-18.24999655172411
 21
248.3853829806609
 31
0.0
  0
ARC
  5
23FE
330
D1
100
AcDbEntity
  8
0
100
AcDbCircle
 10
-16.24999655172411
 20
242.9658870593425
 30
0.0
 40
5.776760101318356
100
AcDbArc
 50
69.74444580078143
 51
110.2555541992185
  0
LINE
  5
23FF
330
D1
100
AcDbEntity
  8
0
100
AcDbLine
 10
-14.24999655172411
 20
244.8003821606609
 30
0.0
 11
-14.24999655172411
 21
248.8003821606609
 31
0.0
  0
LINE
  5
2400
330
D1
100
AcDbEntity
  8
0
100
AcDbLine
 10
16.14999389648443
 20
251.8004009482422
 30
0.0
 11
20.35000610351568
 21
251.8004009482422
 31
0.0
  0
LINE
  5
2401
330
D1
100
AcDbEntity
  8
0
100
AcDbLine
 10
23.25000000000006
 20
243.8004009482422
 30
0.0
 11
23.25000000000006
 21
244.8004009482422
 31
0.0
  0
LINE
  5
2402
330
D1
100
AcDbEntity
  8
0
100
AcDbLine
 10
16.15000548811969
 20
251.8004094961024
 30
0.0
 11
15.75001368831278
 21
251.4004176962954
 31
0.0
  0
LINE
  5
2403
330
D1
100
AcDbEntity
  8
0
100
AcDbLine
 10
15.75000000000005
 20
251.4004070517578
 30
0.0
 11
15.75000000000005
 21
248.8004009482422
 31
0.0
  0
LINE
  5
2404
330
D1
100
AcDbEntity
  8
0
100
AcDbLine
 10
13.25000000000005
 20
244.8004009482422
 30
0.0
 11
13.25000000000005
 21
243.8004009482422
 31
0.0
  0
LINE
  5
2405
330
D1
100
AcDbEntity
  8
0
100
AcDbLine
 10
23.25000000000006
 20
244.8004009482422
 30
0.0
 11
13.25000000000005
 21
244.8004009482422
 31
0.0
  0
LINE
  5
2406
330
D1
100
AcDbEntity
  8
0
100
AcDbLine
 10
20.75000000000006
 20
251.4004070517578
 30
0.0
 11
20.75000000000006
 21
248.8004009482422
 31
0.0
  0
LINE
  5
2407
330
D1
100
AcDbEntity
  8
0
100
AcDbLine
 10
20.35000570283847
 20
251.8004094961024
 30
0.0
 11
20.75000559484039
 21
251.4004096041006
 31
0.0
  0
ARC
  5
2408
330
D1
100
AcDbEntity
  8
0
100
AcDbCircle
 10
20.24999655172411
 20
242.9658870593425
 30
0.0
 40
5.776760101318356
100
AcDbArc
 50
69.74444580078143
 51
110.2555541992185
  0
LINE
  5
2409
330
D1
100
AcDbEntity
  8
0
100
AcDbLine
 10
14.24999655172422
 20
248.8003821606609
 30
0.0
 11
22.24999655172411
 21
248.8003821606609
 31
0.0
  0
LINE
  5
240A
330
D1
100
AcDbEntity
  8
0
100
AcDbLine
 10
22.24999655172411
 20
244.8003821606609
 30
0.0
 11
22.24999655172411
 21
248.8003821606609
 31
0.0
  0
LINE
  5
240B
330
D1
100
AcDbEntity
  8
0
100
AcDbLine
 10
18.24999655172411
 20
244.8003821606609
 30
0.0
 11
18.24999655172411
 21
248.3853829806609
 31
0.0
  0
ARC
  5
240C
330
D1
100
AcDbEntity
  8
0
100
AcDbCircle
 10
16.24999655172422
 20
242.9658870593425
 30
0.0
 40
5.776760101318356
100
AcDbArc
 50
69.74444580078143
 51
110.2555541992185
  0
LINE
  5
240D
330
D1
100
AcDbEntity
  8
0
100
AcDbLine
 10
14.24999655172422
 20
244.8003821606609
 30
0.0
 11
14.24999655172422
 21
248.8003821606609
 31
0.0
  0
CIRCLE
  5
240E
330
D1
100
AcDbEntity
  8
0
100
AcDbCircle
 10
0.0
 20
121.500404
 30
0.0
 40
4.158030033111571
  0
CIRCLE
  5
240F
330
D1
100
AcDbEntity
  8
0
100
AcDbCircle
 10
0.0
 20
121.500404
 30
0.0
 40
4.738999843597412
  0
LINE
  5
2410
330
D1
100
AcDbEntity
  8
0
100
AcDbLine
 10
-304.6188049316406
 20
245.8008669482422
 30
0.0
 11
-311.0
 21
245.8008669482422
 31
0.0
  0
LINE
  5
2411
330
D1
100
AcDbEntity
  8
0
100
AcDbLine
 10
-289.0
 20
268.3000000000001
 30
0.0
 11
-311.0
 21
268.3000000000001
 31
0.0
  0
LINE
  5
2412
330
D1
100
AcDbEntity
  8
0
100
AcDbLine
 10
-289.0
 20
245.8008669482422
 30
0.0
 11
-295.3811950683594
 21
245.8008669482422
 31
0.0
  0
LINE
  5
2413
330
D1
100
AcDbEntity
  8
0
100
AcDbLine
 10
-312.0
 20
267.3000000000001
 30
0.0
 11
-312.0
 21
246.8008669482422
 31
0.0
  0
LINE
  5
2414
330
D1
100
AcDbEntity
  8
0
100
AcDbLine
 10
-288.0
 20
267.3000000000001
 30
0.0
 11
-288.0
 21
246.8008669482422
 31
0.0
  0
LINE
  5
2415
330
D1
100
AcDbEntity
  8
0
100
AcDbLine
 10
-297.900014034612
 20
251.8008593117126
 30
0.0
 11
-297.5000114452118
 21
251.4008567223124
 31
0.0
  0
LINE
  5
2416
330
D1
100
AcDbEntity
  8
0
100
AcDbLine
 10
-297.5
 20
251.4008730517578
 30
0.0
 11
-297.5
 21
248.8008669482422
 31
0.0
  0
LINE
  5
2417
330
D1
100
AcDbEntity
  8
0
100
AcDbLine
 10
-305.0
 20
244.8008669482422
 30
0.0
 11
-305.0
 21
243.8008669482422
 31
0.0
  0
LINE
  5
2418
330
D1
100
AcDbEntity
  8
0
100
AcDbLine
 10
-295.3811950683594
 20
248.4364565478516
 30
0.0
 11
-295.3811950683594
 21
244.8008669482422
 31
0.0
  0
LINE
  5
2419
330
D1
100
AcDbEntity
  8
0
100
AcDbLine
 10
-297.6906127929687
 20
248.4364565478516
 30
0.0
 11
-297.6906127929687
 21
244.8008669482422
 31
0.0
  0
LINE
  5
241A
330
D1
100
AcDbEntity
  8
0
100
AcDbLine
 10
-296.535888671875
 20
248.8008669482422
 30
0.0
 11
-303.464111328125
 21
248.8008669482422
 31
0.0
  0
LINE
  5
241B
330
D1
100
AcDbEntity
  8
0
100
AcDbLine
 10
-304.6188049316406
 20
248.4364565478516
 30
0.0
 11
-304.6188049316406
 21
244.8008669482422
 31
0.0
  0
LINE
  5
241C
330
D1
100
AcDbEntity
  8
0
100
AcDbLine
 10
-302.1000142493308
 20
251.8008593117126
 30
0.0
 11
-302.5000060491377
 21
251.4008675119057
 31
0.0
  0
LINE
  5
241D
330
D1
100
AcDbEntity
  8
0
100
AcDbLine
 10
-302.5
 20
251.4008730517578
 30
0.0
 11
-302.5
 21
248.8008669482422
 31
0.0
  0
LINE
  5
241E
330
D1
100
AcDbEntity
  8
0
100
AcDbLine
 10
-293.0
 20
243.8008669482422
 30
0.0
 11
-293.0
 21
245.8008669482422
 31
0.0
  0
LINE
  5
241F
330
D1
100
AcDbEntity
  8
0
100
AcDbLine
 10
-295.0
 20
244.8008669482422
 30
0.0
 11
-305.0
 21
244.8008669482422
 31
0.0
  0
LINE
  5
2420
330
D1
100
AcDbEntity
  8
0
100
AcDbLine
 10
-302.1000061035156
 20
251.8008669482422
 30
0.0
 11
-297.8999938964843
 21
251.8008669482422
 31
0.0
  0
LINE
  5
2421
330
D1
100
AcDbEntity
  8
0
100
AcDbLine
 10
-295.0
 20
243.8008669482422
 30
0.0
 11
-295.0
 21
244.8008669482422
 31
0.0
  0
LINE
  5
2422
330
D1
100
AcDbEntity
  8
0
100
AcDbLine
 10
-307.0
 20
245.8008669482422
 30
0.0
 11
-307.0
 21
243.8008669482422
 31
0.0
  0
LINE
  5
2423
330
D1
100
AcDbEntity
  8
0
100
AcDbLine
 10
-302.3093872070313
 20
248.4364565478516
 30
0.0
 11
-302.3093872070313
 21
244.8008669482422
 31
0.0
  0
ARC
  5
2424
330
D1
100
AcDbEntity
  8
0
100
AcDbCircle
 10
-303.464111328125
 20
246.7892092333984
 30
0.0
 40
2.011653184890746
100
AcDbArc
 50
54.96995848795736
 51
125.0300365030967
  0
ARC
  5
2425
330
D1
100
AcDbEntity
  8
0
100
AcDbCircle
 10
-296.535888671875
 20
246.7892092333984
 30
0.0
 40
2.011653184890746
100
AcDbArc
 50
54.96995848795736
 51
125.0300365030967
  0
ARC
  5
2426
330
D1
100
AcDbEntity
  8
0
100
AcDbCircle
 10
-300.0
 20
241.3008669482422
 30
0.0
 40
7.5
100
AcDbArc
 50
72.0660654144607
 51
107.9339364067715
  0
ARC
  5
2427
330
D1
100
AcDbEntity
  8
0
100
AcDbCircle
 10
-311.0
 20
267.3000000000001
 30
0.0
 40
1.0
100
AcDbArc
 50
89.99999749553131
 51
180.0
  0
ARC
  5
2428
330
D1
100
AcDbEntity
  8
0
100
AcDbCircle
 10
-289.0
 20
267.3000000000001
 30
0.0
 40
1.0
100
AcDbArc
 50
359.9999949910431
 51
89.99999749553131
  0
ARC
  5
2429
330
D1
100
AcDbEntity
  8
0
100
AcDbCircle
 10
-311.0
 20
246.8008669482422
 30
0.0
 40
1.0
100
AcDbArc
 50
180.0
 51
270.0000025044817
  0
ARC
  5
242A
330
D1
100
AcDbEntity
  8
0
100
AcDbCircle
 10
-289.0
 20
246.8008669482422
 30
0.0
 40
1.0
100
AcDbArc
 50
270.0000025044817
 51
0.0000050089569452
  0
TEXT
  5
2512
330
D1
100
AcDbEntity
  8
0
100
AcDbText
 10
-358.3333333333333
 20
659.1666666666666
 30
0.0
 40
50.0
  1
2BA__V06000 1.5S
 72
     4
 11
0.0
 21
680.0
 31
0.0
100
AcDbText
  0
ENDSEC
  0
SECTION
  2
OBJECTS
  0
DICTIONARY
  5
144B
330
0
100
AcDbDictionary
281
     1
  3
ACAD_BACKGROUND
350
15E4
  3
ACAD_CIP_PREVIOUS_PRODUCT_INFO
350
14A7
  3
ACAD_COLOR
350
1485
  3
ACAD_DETAILVIEWSTYLE
350
24E3
  3
ACAD_GROUP
350
144C
  3
ACAD_LAYOUT
350
149D
  3
ACAD_MATERIAL
350
1453
  3
ACAD_MLEADERSTYLE
350
149A
  3
ACAD_MLINESTYLE
350
144D
  3
ACAD_PLOTSETTINGS
350
149E
  3
ACAD_PLOTSTYLENAME
350
1451
  3
ACAD_SCALELIST
350
1488
  3
ACAD_SECTIONVIEWSTYLE
350
24E1
  3
ACAD_TABLESTYLE
350
1486
  3
ACAD_VISUALSTYLE
350
146C
  3
ACDB_RECOMPOSE_DATA
350
2515
  3
AcDbVariableDictionary
350
15FB
  3
AcmDictionary
350
151A
  3
AEC_PROPERTY_SET_DEFS
350
1A18
  3
AMG
350
14A9
  3
AMGSNAPSETTINGS
350
15B1
  0
DICTIONARY
  5
1A2B
330
E2
100
AcDbDictionary
280
     1
281
     1
  0
DICTIONARY
  5
1A0A
330
C8
100
AcDbDictionary
280
     1
281
     1
  3
ACAD_LAYERSTATES
360
1A0B
  0
DICTIONARY
  5
15EF
330
C9
100
AcDbDictionary
280
     1
281
     1
  3
ADSK_XREC_LAYER_RECONCILED
360
15F0
  0
DICTIONARY
  5
16F1
330
D1
100
AcDbDictionary
280
     1
281
     1
  3
ACAD_SORTENTS
360
16F2
  0
DICTIONARY
  5
15E4
102
{ACAD_REACTORS
330
144B
102
}
330
144B
100
AcDbDictionary
281
     1
  0
XRECORD
  5
14A7
102
{ACAD_REACTORS
330
144B
102
}
330
144B
100
AcDbXrecord
280
     1
300
ACDLT
300
2019
300
ACDLT_F_S
  0
DICTIONARY
  5
1485
102
{ACAD_REACTORS
330
144B
102
}
330
144B
100
AcDbDictionary
281
     1
  0
DICTIONARY
  5
24E3
102
{ACAD_REACTORS
330
144B
102
}
330
144B
100
AcDbDictionary
281
     1
  3
Metric50
350
24E4
  0
DICTIONARY
  5
144C
102
{ACAD_REACTORS
330
144B
102
}
330
144B
100
AcDbDictionary
281
     1
  0
DICTIONARY
  5
149D
102
{ACAD_REACTORS
330
144B
102
}
330
144B
100
AcDbDictionary
281
     1
  3
Model
350
149F
  3
レイアウト1
350
14A0
  0
DICTIONARY
  5
1453
102
{ACAD_REACTORS
330
144B
102
}
330
144B
100
AcDbDictionary
281
     1
  3
ByBlock
350
145C
  3
ByLayer
350
1454
  3
Global
350
1464
  0
DICTIONARY
  5
149A
102
{ACAD_REACTORS
330
144B
102
}
330
144B
100
AcDbDictionary
281
     1
  3
Standard
350
149B
  0
DICTIONARY
  5
144D
102
{ACAD_REACTORS
330
144B
102
}
330
144B
100
AcDbDictionary
281
     1
  3
STANDARD
350
144E
  0
DICTIONARY
  5
149E
102
{ACAD_REACTORS
330
144B
102
}
330
144B
100
AcDbDictionary
281
     1
  0
ACDBDICTIONARYWDFLT
  5
1451
102
{ACAD_REACTORS
330
144B
102
}
330
144B
100
AcDbDictionary
281
     1
  3
Normal
350
1452
100
AcDbDictionaryWithDefault
340
1452
  0
DICTIONARY
  5
1488
102
{ACAD_REACTORS
330
144B
102
}
330
144B
100
AcDbDictionary
281
     1
  3
A0
350
1489
  3
A1
350
148A
  3
A2
350
148B
  3
A3
350
148C
  3
A4
350
148D
  3
A5
350
148E
  3
A6
350
148F
  3
A7
350
1490
  3
A8
350
1491
  3
A9
350
1492
  3
B0
350
1493
  3
B1
350
1494
  3
B2
350
1495
  3
B3
350
1496
  3
B4
350
1497
  3
B5
350
1498
  3
B6
350
1499
  0
DICTIONARY
  5
24E1
102
{ACAD_REACTORS
330
144B
102
}
330
144B
100
AcDbDictionary
281
     1
  3
Metric50
350
24E2
  0
DICTIONARY
  5
1486
102
{ACAD_REACTORS
330
144B
102
}
330
144B
100
AcDbDictionary
281
     1
  3
Standard
350
1487
  0
DICTIONARY
  5
146C
102
{ACAD_REACTORS
330
144B
102
}
330
144B
100
AcDbDictionary
281
     1
  3
2dWireframe
350
1472
  3
3D Hidden
350
2470
  3
3dWireframe
350
246F
  3
Basic
350
1471
  3
Brighten
350
1478
  3
ColorChange
350
147C
  3
Conceptual
350
1475
  3
Dim
350
1477
  3
EdgeColorOff
350
1484
  3
Facepattern
350
147B
  3
Flat
350
146D
  3
FlatWithEdges
350
146E
  3
Gouraud
350
146F
  3
GouraudWithEdges
350
1470
  3
Hidden
350
1474
  3
JitterOff
350
1482
  3
Linepattern
350
147A
  3
OverhangOff
350
1483
  3
Realistic
350
1476
  3
Shaded
350
1481
  3
Shaded with edges
350
1480
  3
Shades of Gray
350
147D
  3
Sketchy
350
147E
  3
Thicken
350
1479
  3
Wireframe
350
1473
  3
X-Ray
350
147F
  0
XRECORD
  5
2515
102
{ACAD_REACTORS
330
144B
102
}
330
144B
100
AcDbXrecord
280
     1
 90
        1
330
1487
  0
DICTIONARY
  5
15FB
102
{ACAD_REACTORS
330
144B
102
}
330
144B
100
AcDbDictionary
281
     1
  3
CANNOSCALE
350
15FF
  3
CMLEADERSTYLE
350
15FD
  3
CTABLESTYLE
350
15FC
  3
CVIEWDETAILSTYLE
350
24F9
  3
CVIEWSECTIONSTYLE
350
24FA
  3
DIMASSOC
350
1A67
  3
INDEXCTL
350
1A66
  3
LAYEREVAL
350
1601
  3
LAYERNOTIFY
350
1602
  3
LIGHTINGUNITS
350
1600
  3
MSLTSCALE
350
15FE
  3
SOLIDHIST
350
24FB
  3
SORTENTS
350
1A65
  0
DICTIONARY
  5
151A
102
{ACAD_REACTORS
330
144B
102
}
330
144B
100
AcDbDictionary
281
     1
  3
AcmStdDictionary
350
151B
  0
DICTIONARY
  5
1A18
102
{ACAD_REACTORS
330
144B
102
}
330
144B
100
AcDbDictionary
281
     1
  0
DICTIONARY
  5
14A9
102
{ACAD_REACTORS
330
144B
102
}
330
144B
100
AcDbDictionary
281
     1
  0
DICTIONARY
  5
15B1
102
{ACAD_REACTORS
330
144B
102
}
330
144B
100
AcDbDictionary
281
     1
  0
DICTIONARY
  5
1A0B
102
{ACAD_REACTORS
330
1A0A
102
}
330
1A0A
100
AcDbDictionary
281
     1
  0
XRECORD
  5
15F0
102
{ACAD_REACTORS
330
15EF
102
}
330
15EF
100
AcDbXrecord
280
     1
290
     1
  0
SORTENTSTABLE
  5
16F2
102
{ACAD_REACTORS
330
16F1
102
}
330
16F1
100
AcDbSortentsTable
330
D1
331
1689
  5
1687
331
168A
  5
1688
331
168D
  5
168B
331
168E
  5
168C
331
1695
  5
1693
331
1697
  5
1695
331
169A
  5
1698
331
169C
  5
169A
331
169D
  5
169B
331
169E
  5
169C
331
169F
  5
169D
331
16A0
  5
169E
331
16A1
  5
169F
331
16A2
  5
16A0
331
16A3
  5
16A1
331
16A4
  5
16A2
331
16A5
  5
16A3
331
16A6
  5
16A4
331
16A7
  5
16A5
331
16A8
  5
16A6
331
16A9
  5
16A7
331
16AA
  5
16A8
331
16AB
  5
16A9
331
16AC
  5
16AA
331
16AD
  5
16AB
331
16AF
  5
16AD
331
16DC
  5
16DA
331
16E4
  5
16E2
331
16E5
  5
16E3
331
16E7
  5
16E5
331
16E8
  5
16E6
331
16E9
  5
16E7
331
16EA
  5
16E8
331
16EB
  5
16E9
331
16EC
  5
16EA
331
16ED
  5
16EB
331
16EE
  5
16EC
331
16EF
  5
16ED
331
16F0
  5
16EE
331
1708
  5
1707
331
1709
  5
1708
331
170A
  5
1709
331
170C
  5
170B
331
170D
  5
170C
331
170E
  5
170D
331
170F
  5
170E
331
1710
  5
170F
331
1712
  5
1711
331
1713
  5
1712
331
1714
  5
1713
331
1715
  5
1714
331
1716
  5
1715
331
1717
  5
1716
331
1718
  5
1717
331
1719
  5
1718
331
171A
  5
1719
331
171B
  5
171A
331
171C
  5
171B
331
1723
  5
1722
331
1724
  5
1723
331
1725
  5
1724
331
1726
  5
1725
331
1727
  5
1726
331
1728
  5
1727
331
172B
  5
172A
331
172C
  5
172B
331
172D
  5
172C
331
172E
  5
172D
331
172F
  5
172E
331
1730
  5
172F
331
1731
  5
1730
331
1732
  5
1731
331
1733
  5
1732
331
173E
  5
173D
331
173F
  5
173E
331
1740
  5
173F
331
1741
  5
1740
331
1742
  5
1741
331
1743
  5
1742
331
1744
  5
1743
331
1745
  5
1744
331
1746
  5
1745
331
1747
  5
1746
331
1748
  5
1747
331
174A
  5
1749
331
174B
  5
174A
331
174C
  5
174B
331
174D
  5
174C
331
174E
  5
174D
331
174F
  5
174E
331
1750
  5
174F
331
1751
  5
1750
331
1752
  5
1751
331
1753
  5
1752
331
1754
  5
1753
331
1755
  5
1754
331
1756
  5
1755
331
1757
  5
1756
331
1758
  5
1757
331
1759
  5
1758
331
175A
  5
1759
331
175B
  5
175A
331
175C
  5
175B
331
175D
  5
175C
331
175F
  5
175E
331
1760
  5
175F
331
1761
  5
1760
331
1762
  5
1761
331
1764
  5
1763
331
1765
  5
1764
331
1766
  5
1765
331
1768
  5
1767
331
1769
  5
1768
331
176A
  5
1769
331
176B
  5
176A
331
176C
  5
176B
331
176D
  5
176C
331
176E
  5
176D
331
1770
  5
176F
331
1771
  5
1770
331
1772
  5
1771
331
1773
  5
1772
331
1774
  5
1773
331
1775
  5
1774
331
1776
  5
1775
331
1778
  5
1777
331
1779
  5
1778
331
177B
  5
177A
331
177D
  5
177C
331
1784
  5
1783
331
1788
  5
1787
331
178A
  5
1789
331
178B
  5
178A
331
178C
  5
178B
331
1790
  5
178F
331
1791
  5
1790
331
1794
  5
1793
331
1797
  5
1796
331
1798
  5
1797
331
179B
  5
179A
331
17A0
  5
179F
331
17A1
  5
17A0
331
17A2
  5
17A1
331
17A4
  5
17A3
331
17A5
  5
17A4
331
17A9
  5
17A8
331
17AA
  5
17A9
331
17AB
  5
17AA
331
17AC
  5
17AB
331
17AE
  5
17AD
331
17AF
  5
17AE
331
17B3
  5
17B2
331
17B4
  5
17B3
331
17B5
  5
17B4
331
17B6
  5
17B5
331
17C2
  5
17C1
331
17C3
  5
17C2
331
17C4
  5
17C3
331
17C5
  5
17C4
331
17C7
  5
17C6
331
17C9
  5
17C8
331
17CD
  5
17CC
331
17CE
  5
17CD
331
17D0
  5
17CF
331
181D
  5
181C
331
181E
  5
181D
331
1821
  5
1820
331
1822
  5
1821
331
1823
  5
1822
331
1824
  5
1823
331
1825
  5
1824
331
1826
  5
1825
331
1827
  5
1826
331
1828
  5
1827
331
182B
  5
182A
331
182C
  5
182B
331
182D
  5
182C
331
182E
  5
182D
331
182F
  5
182E
331
1830
  5
182F
331
1831
  5
1830
331
1832
  5
1831
331
1833
  5
1832
331
1834
  5
1833
331
1835
  5
1834
331
1836
  5
1835
331
1837
  5
1836
331
1838
  5
1837
331
1839
  5
1838
331
183A
  5
1839
331
183B
  5
183A
331
183C
  5
183B
331
183D
  5
183C
331
183E
  5
183D
331
183F
  5
183E
331
1843
  5
1842
331
184E
  5
184D
331
1850
  5
184F
331
1851
  5
1850
331
1852
  5
1851
331
1855
  5
1854
331
1856
  5
1855
331
1858
  5
1857
331
185D
  5
185C
331
185F
  5
185E
331
187B
  5
187A
331
187C
  5
187B
331
187D
  5
187C
331
187E
  5
187D
331
187F
  5
187E
331
1880
  5
187F
331
2168
  5
216A
331
2169
  5
216B
331
216A
  5
216F
331
216B
  5
2170
331
216F
  5
2171
331
2170
  5
2172
331
2171
  5
2173
331
2172
  5
2174
331
2173
  5
2175
331
2174
  5
2176
331
2175
  5
2177
331
2176
  5
2178
331
2177
  5
2179
331
2179
  5
217B
331
217A
  5
217C
331
217B
  5
217D
331
217C
  5
217E
331
217D
  5
217F
331
217E
  5
2180
331
217F
  5
2184
331
2180
  5
2185
331
2184
  5
2169
331
2185
  5
2168
  0
ACDBDETAILVIEWSTYLE
  5
24E4
102
{ACAD_XDICTIONARY
360
254E
102
}
102
{ACAD_REACTORS
330
24E3
102
}
330
24E3
100
AcDbModelDocViewStyle
 70
     0
  3
Metric50
290
     0
100
AcDbDetailViewStyle
 70
     0
 71
     0
 90
        3
 71
     1
340
23
 62
   256
 40
5.0
340
0
 62
   256
 40
5.0
300

 40
0.0
280
     1
 71
     2
340
28
 90
       25
 62
   256
 71
     3
340
23
 62
   256
 40
5.0
 90
        0
 40
15.0
 90
        1
300
%<\AcVar ViewDetailId>% (%<\AcVar ViewScale \f "%sn">%)
 71
     4
340
28
 90
       25
 62
   256
340
28
 90
       25
 62
   256
280
     0
  0
LAYOUT
  5
149F
102
{ACAD_XDICTIONARY
360
24B3
102
}
102
{ACAD_REACTORS
330
149D
102
}
330
149D
100
AcDbPlotSettings
  1

  2
iR C4580
  4

  6

 40
0.0
 41
0.0
 42
0.0
 43
0.0
 44
0.0
 45
0.0
 46
0.0
 47
0.0
 48
0.0
 49
0.0
140
0.0
141
0.0
142
1.0
143
1.0
 70
  1712
 72
     0
 73
     0
 74
     0
  7

 75
     0
147
1.0
 76
     0
 77
     2
 78
   300
148
0.0
149
0.0
100
AcDbLayout
  1
Model
 70
     1
 71
     0
 10
0.0
 20
0.0
 11
12.0
 21
9.0
 12
0.0
 22
0.0
 32
0.0
 14
0.0
 24
0.0
 34
0.0
 15
0.0
 25
0.0
 35
0.0
146
0.0
 13
0.0
 23
0.0
 33
0.0
 16
1.0
 26
0.0
 36
0.0
 17
0.0
 27
1.0
 37
0.0
 76
     0
330
D1
331
14A6
  0
LAYOUT
  5
14A0
102
{ACAD_REACTORS
330
149D
102
}
330
149D
100
AcDbPlotSettings
  1

  2
iR C4580
  4

  6

 40
0.0
 41
0.0
 42
0.0
 43
0.0
 44
0.0
 45
0.0
 46
0.0
 47
0.0
 48
0.0
 49
0.0
140
0.0
141
0.0
142
1.0
143
1.0
 70
   688
 72
     0
 73
     0
 74
     5
  7

 75
    16
147
1.0
 76
     0
 77
     2
 78
   300
148
0.0
149
0.0
100
AcDbLayout
  1
レイアウト1
 70
     1
 71
     1
 10
-2550.0
 20
0.0
 11
0.0
 21
1800.0
 12
0.0
 22
0.0
 32
0.0
 14
-2550.0
 24
0.0
 34
0.0
 15
0.0
 25
1800.0
 35
0.0
146
0.0
 13
0.0
 23
0.0
 33
0.0
 16
1.0
 26
0.0
 36
0.0
 17
0.0
 27
1.0
 37
0.0
 76
     0
330
D2
  0
MATERIAL
  5
145C
102
{ACAD_XDICTIONARY
360
145D
102
}
102
{ACAD_REACTORS
330
1453
102
}
330
1453
100
AcDbMaterial
  1
ByBlock
 72
     0
 43
0.0208333333333333
 43
0.0
 43
0.0
 43
0.0
 43
0.0
 43
0.0208333333333333
 43
0.0
 43
0.0
 43
0.0
 43
0.0
 43
1.0
 43
0.0
 43
0.0
 43
0.0
 43
0.0
 43
1.0
 77
     0
 47
0.0208333333333333
 47
0.0
 47
0.0
 47
0.0
 47
0.0
 47
0.0208333333333333
 47
0.0
 47
0.0
 47
0.0
 47
0.0
 47
1.0
 47
0.0
 47
0.0
 47
0.0
 47
0.0
 47
1.0
171
     0
 49
0.0208333333333333
 49
0.0
 49
0.0
 49
0.0
 49
0.0
 49
0.0208333333333333
 49
0.0
 49
0.0
 49
0.0
 49
0.0
 49
1.0
 49
0.0
 49
0.0
 49
0.0
 49
0.0
 49
1.0
175
     0
142
0.0208333333333333
142
0.0
142
0.0
142
0.0
142
0.0
142
0.0208333333333333
142
0.0
142
0.0
142
0.0
142
0.0
142
1.0
142
0.0
142
0.0
142
0.0
142
0.0
142
1.0
179
     0
144
0.0208333333333333
144
0.0
144
0.0
144
0.0
144
0.0
144
0.0208333333333333
144
0.0
144
0.0
144
0.0
144
0.0
144
1.0
144
0.0
144
0.0
144
0.0
144
0.0
144
1.0
147
0.0208333333333333
147
0.0
147
0.0
147
0.0
147
0.0
147
0.0208333333333333
147
0.0
147
0.0
147
0.0
147
0.0
147
1.0
147
0.0
147
0.0
147
0.0
147
0.0
147
1.0
  0
MATERIAL
  5
1454
102
{ACAD_XDICTIONARY
360
1455
102
}
102
{ACAD_REACTORS
330
1453
102
}
330
1453
100
AcDbMaterial
  1
ByLayer
 72
     0
 43
0.0208333333333333
 43
0.0
 43
0.0
 43
0.0
 43
0.0
 43
0.0208333333333333
 43
0.0
 43
0.0
 43
0.0
 43
0.0
 43
1.0
 43
0.0
 43
0.0
 43
0.0
 43
0.0
 43
1.0
 77
     0
 47
0.0208333333333333
 47
0.0
 47
0.0
 47
0.0
 47
0.0
 47
0.0208333333333333
 47
0.0
 47
0.0
 47
0.0
 47
0.0
 47
1.0
 47
0.0
 47
0.0
 47
0.0
 47
0.0
 47
1.0
171
     0
 49
0.0208333333333333
 49
0.0
 49
0.0
 49
0.0
 49
0.0
 49
0.0208333333333333
 49
0.0
 49
0.0
 49
0.0
 49
0.0
 49
1.0
 49
0.0
 49
0.0
 49
0.0
 49
0.0
 49
1.0
175
     0
142
0.0208333333333333
142
0.0
142
0.0
142
0.0
142
0.0
142
0.0208333333333333
142
0.0
142
0.0
142
0.0
142
0.0
142
1.0
142
0.0
142
0.0
142
0.0
142
0.0
142
1.0
179
     0
144
0.0208333333333333
144
0.0
144
0.0
144
0.0
144
0.0
144
0.0208333333333333
144
0.0
144
0.0
144
0.0
144
0.0
144
1.0
144
0.0
144
0.0
144
0.0
144
0.0
144
1.0
147
0.0208333333333333
147
0.0
147
0.0
147
0.0
147
0.0
147
0.0208333333333333
147
0.0
147
0.0
147
0.0
147
0.0
147
1.0
147
0.0
147
0.0
147
0.0
147
0.0
147
1.0
  0
MATERIAL
  5
1464
102
{ACAD_XDICTIONARY
360
1465
102
}
102
{ACAD_REACTORS
330
1453
102
}
330
1453
100
AcDbMaterial
  1
Global
 72
     0
 43
0.0208333333333333
 43
0.0
 43
0.0
 43
0.0
 43
0.0
 43
0.0208333333333333
 43
0.0
 43
0.0
 43
0.0
 43
0.0
 43
1.0
 43
0.0
 43
0.0
 43
0.0
 43
0.0
 43
1.0
 77
     0
 47
0.0208333333333333
 47
0.0
 47
0.0
 47
0.0
 47
0.0
 47
0.0208333333333333
 47
0.0
 47
0.0
 47
0.0
 47
0.0
 47
1.0
 47
0.0
 47
0.0
 47
0.0
 47
0.0
 47
1.0
171
     0
 49
0.0208333333333333
 49
0.0
 49
0.0
 49
0.0
 49
0.0
 49
0.0208333333333333
 49
0.0
 49
0.0
 49
0.0
 49
0.0
 49
1.0
 49
0.0
 49
0.0
 49
0.0
 49
0.0
 49
1.0
175
     0
142
0.0208333333333333
142
0.0
142
0.0
142
0.0
142
0.0
142
0.0208333333333333
142
0.0
142
0.0
142
0.0
142
0.0
142
1.0
142
0.0
142
0.0
142
0.0
142
0.0
142
1.0
179
     0
144
0.0208333333333333
144
0.0
144
0.0
144
0.0
144
0.0
144
0.0208333333333333
144
0.0
144
0.0
144
0.0
144
0.0
144
1.0
144
0.0
144
0.0
144
0.0
144
0.0
144
1.0
147
0.0208333333333333
147
0.0
147
0.0
147
0.0
147
0.0
147
0.0208333333333333
147
0.0
147
0.0
147
0.0
147
0.0
147
1.0
147
0.0
147
0.0
147
0.0
147
0.0
147
1.0
  0
MLEADERSTYLE
  5
149B
102
{ACAD_XDICTIONARY
360
2546
102
}
102
{ACAD_REACTORS
330
149A
102
}
330
149A
100
AcDbMLeaderStyle
179
     2
170
     2
171
     1
172
     0
 90
        2
 40
0.0
 41
0.0
173
     1
 91
-1056964608
340
26
 92
       -2
290
     1
 42
2.0
291
     1
 43
0.36
  3
Standard
 44
4.0
300

342
23
174
     1
178
     6
175
     1
176
     0
 93
-1056964608
 45
4.0
292
     0
297
     0
 46
4.0
 94
-1056964608
 47
1.0
 49
1.0
140
1.0
293
     1
141
0.0
294
     1
177
     0
142
1.0
295
     0
296
     0
143
0.125
271
     0
272
     9
273
     9
1001
ACAD_MLEADERVER
1070
     2
  0
MLINESTYLE
  5
144E
102
{ACAD_REACTORS
330
144D
102
}
330
144D
100
AcDbMlineStyle
  2
STANDARD
 70
     0
  3

 62
     0
 51
90.0
 52
90.0
 71
     2
 49
0.5
 62
   256
  6
BYLAYER
 49
-0.5
 62
   256
  6
BYLAYER
  0
ACDBPLACEHOLDER
  5
1452
102
{ACAD_REACTORS
330
1451
102
}
330
1451
  0
SCALE
  5
1489
102
{ACAD_REACTORS
330
1488
102
}
330
1488
100
AcDbScale
 70
     0
300
1:1
140
1.0
141
1.0
290
     1
  0
SCALE
  5
148A
102
{ACAD_REACTORS
330
1488
102
}
330
1488
100
AcDbScale
 70
     0
300
1:2
140
1.0
141
2.0
290
     0
  0
SCALE
  5
148B
102
{ACAD_REACTORS
330
1488
102
}
330
1488
100
AcDbScale
 70
     0
300
1:4
140
1.0
141
4.0
290
     0
  0
SCALE
  5
148C
102
{ACAD_REACTORS
330
1488
102
}
330
1488
100
AcDbScale
 70
     0
300
1:5
140
1.0
141
5.0
290
     0
  0
SCALE
  5
148D
102
{ACAD_REACTORS
330
1488
102
}
330
1488
100
AcDbScale
 70
     0
300
1:8
140
1.0
141
8.0
290
     0
  0
SCALE
  5
148E
102
{ACAD_REACTORS
330
1488
102
}
330
1488
100
AcDbScale
 70
     0
300
1:10
140
1.0
141
10.0
290
     0
  0
SCALE
  5
148F
102
{ACAD_REACTORS
330
1488
102
}
330
1488
100
AcDbScale
 70
     0
300
1:16
140
1.0
141
16.0
290
     0
  0
SCALE
  5
1490
102
{ACAD_REACTORS
330
1488
102
}
330
1488
100
AcDbScale
 70
     0
300
1:20
140
1.0
141
20.0
290
     0
  0
SCALE
  5
1491
102
{ACAD_REACTORS
330
1488
102
}
330
1488
100
AcDbScale
 70
     0
300
1:30
140
1.0
141
30.0
290
     0
  0
SCALE
  5
1492
102
{ACAD_REACTORS
330
1488
102
}
330
1488
100
AcDbScale
 70
     0
300
1:40
140
1.0
141
40.0
290
     0
  0
SCALE
  5
1493
102
{ACAD_REACTORS
330
1488
102
}
330
1488
100
AcDbScale
 70
     0
300
1:50
140
1.0
141
50.0
290
     0
  0
SCALE
  5
1494
102
{ACAD_REACTORS
330
1488
102
}
330
1488
100
AcDbScale
 70
     0
300
1:100
140
1.0
141
100.0
290
     0
  0
SCALE
  5
1495
102
{ACAD_REACTORS
330
1488
102
}
330
1488
100
AcDbScale
 70
     0
300
2:1
140
2.0
141
1.0
290
     0
  0
SCALE
  5
1496
102
{ACAD_REACTORS
330
1488
102
}
330
1488
100
AcDbScale
 70
     0
300
4:1
140
4.0
141
1.0
290
     0
  0
SCALE
  5
1497
102
{ACAD_REACTORS
330
1488
102
}
330
1488
100
AcDbScale
 70
     0
300
8:1
140
8.0
141
1.0
290
     0
  0
SCALE
  5
1498
102
{ACAD_REACTORS
330
1488
102
}
330
1488
100
AcDbScale
 70
     0
300
10:1
140
10.0
141
1.0
290
     0
  0
SCALE
  5
1499
102
{ACAD_REACTORS
330
1488
102
}
330
1488
100
AcDbScale
 70
     0
300
100:1
140
100.0
141
1.0
290
     0
  0
ACDBSECTIONVIEWSTYLE
  5
24E2
102
{ACAD_XDICTIONARY
360
254C
102
}
102
{ACAD_REACTORS
330
24E1
102
}
330
24E1
100
AcDbModelDocViewStyle
 70
     0
  3
Metric50
290
     0
100
AcDbSectionViewStyle
 70
     0
 71
     0
 90
      102
 71
     1
340
23
 62
   256
 40
5.0
340
0
340
0
 62
   256
 40
5.0
300
I, O, Q, S, X, Z
 40
10.0
 90
        0
 40
2.5
 90
        0
 71
     2
340
28
 90
       25
 62
   256
340
28
 90
       50
 62
   256
 40
5.0
 40
2.5
 40
5.0
 71
     3
340
23
 62
   256
 40
5.0
 90
        0
 40
15.0
 90
        1
300
%<\AcVar ViewSectionStartId>%-%<\AcVar ViewSectionEndId>% (%<\AcVar ViewScale \f "%sn">%)
 71
     4
 62
   256
 62
   257
300
ANSI31
 40
1.0
 90
        0
290
     0
290
     0
 90
        6
 40
0.0
 40
1.570796326794896
 40
0.2617993877991494
 40
1.308996938995747
 40
-0.2617993877991494
 40
1.832595714594046
  0
TABLESTYLE
  5
1487
102
{ACAD_XDICTIONARY
360
1A27
102
}
102
{ACAD_REACTORS
330
1486
102
}
330
1486
100
AcDbTableStyle
280
     0
  3
Standard
 70
     0
 71
     0
 40
1.5
 41
1.5
280
     0
281
     0
  7
STANDARD
140
4.5
170
     2
 62
     0
 63
     7
283
     0
 90
      512
 91
        0
  1

274
    -2
284
     1
 64
     0
275
    -2
285
     1
 65
     0
276
    -2
286
     1
 66
     0
277
    -2
287
     1
 67
     0
278
    -2
288
     1
 68
     0
279
    -2
289
     1
 69
     0
  7
STANDARD
140
6.0
170
     5
 62
     0
 63
     7
283
     0
 90
      512
 91
        0
  1

274
    -2
284
     1
 64
     0
275
    -2
285
     1
 65
     0
276
    -2
286
     1
 66
     0
277
    -2
287
     1
 67
     0
278
    -2
288
     1
 68
     0
279
    -2
289
     1
 69
     0
  7
STANDARD
140
4.5
170
     5
 62
     0
 63
     7
283
     0
 90
      512
 91
        0
  1

274
    -2
284
     1
 64
     0
275
    -2
285
     1
 65
     0
276
    -2
286
     1
 66
     0
277
    -2
287
     1
 67
     0
278
    -2
288
     1
 68
     0
279
    -2
289
     1
 69
     0
  0
VISUALSTYLE
  5
1472
102
{ACAD_XDICTIONARY
360
2520
102
}
102
{ACAD_REACTORS
330
146C
102
}
330
146C
100
AcDbVisualStyle
  2

 70
     4
177
     2
291
     0
 71
     0
176
     1
 72
     2
176
     1
 73
     0
176
     1
 90
        0
176
     1
 40
0.6
176
     1
 41
30.0
176
     1
 63
     7
176
     1
 74
     1
176
     1
 91
        4
176
     1
 64
     7
176
     1
 65
   257
176
     1
 75
     1
176
     1
175
     1
176
     1
 42
1.0
176
     1
 92
        0
176
     1
 66
   257
176
     1
 43
1.0
176
     1
 76
     1
176
     1
 77
     6
176
     1
 78
     2
176
     1
 67
     7
176
     1
 79
     5
176
     1
170
     0
176
     1
171
     0
176
     1
290
     0
176
     1
 93
        1
176
     1
 44
0.0
176
     1
173
     0
176
     1
1001
ACAD
1000
AcDbSavedByObjectVersion
1070
     0
  0
VISUALSTYLE
  5
2470
102
{ACAD_XDICTIONARY
360
254A
102
}
102
{ACAD_REACTORS
330
146C
102
}
330
146C
100
AcDbVisualStyle
  2

 70
     6
177
     2
291
     0
 71
     1
176
     1
 72
     2
176
     1
 73
     2
176
     1
 90
        0
176
     1
 40
0.6
176
     1
 41
30.0
176
     1
 63
     7
421
 16777215
176
     1
 74
     2
176
     1
 91
        2
176
     1
 64
     7
176
     1
 65
   257
176
     1
 75
     2
176
     1
175
     1
176
     1
 42
179.0
176
     1
 92
        0
176
     1
 66
   257
176
     1
 43
1.0
176
     1
 76
     1
176
     1
 77
     6
176
     1
 78
     2
176
     1
 67
     7
176
     1
 79
     3
176
     1
170
     0
176
     1
171
     0
176
     1
290
     0
176
     1
 93
        1
176
     1
 44
0.0
176
     1
173
     0
176
     1
1001
ACAD
1000
AcDbSavedByObjectVersion
1070
     0
  0
VISUALSTYLE
  5
246F
102
{ACAD_XDICTIONARY
360
2548
102
}
102
{ACAD_REACTORS
330
146C
102
}
330
146C
100
AcDbVisualStyle
  2

 70
     5
177
     2
291
     0
 71
     0
176
     1
 72
     2
176
     1
 73
     0
176
     1
 90
        0
176
     1
 40
0.6
176
     1
 41
30.0
176
     1
 63
     7
421
 16777215
176
     1
 74
     1
176
     1
 91
        4
176
     1
 64
     7
176
     1
 65
   257
176
     1
 75
     1
176
     1
175
     1
176
     1
 42
1.0
176
     1
 92
        0
176
     1
 66
   257
176
     1
 43
1.0
176
     1
 76
     1
176
     1
 77
     6
176
     1
 78
     2
176
     1
 67
     7
176
     1
 79
     5
176
     1
170
     0
176
     1
171
     0
176
     1
290
     0
176
     1
 93
        1
176
     1
 44
0.0
176
     1
173
     0
176
     1
1001
ACAD
1000
AcDbSavedByObjectVersion
1070
     0
  0
VISUALSTYLE
  5
1471
102
{ACAD_XDICTIONARY
360
251E
102
}
102
{ACAD_REACTORS
330
146C
102
}
330
146C
100
AcDbVisualStyle
  2

 70
     7
177
     2
291
     1
 71
     1
176
     1
 72
     0
176
     1
 73
     1
176
     1
 90
        0
176
     1
 40
0.6
176
     1
 41
30.0
176
     1
 63
     7
176
     1
 74
     0
176
     1
 91
        4
176
     1
 64
     7
176
     1
 65
   257
176
     1
 75
     1
176
     1
175
     1
176
     1
 42
1.0
176
     1
 92
        8
176
     1
 66
     7
176
     1
 43
1.0
176
     1
 76
     1
176
     1
 77
     6
176
     1
 78
     2
176
     1
 67
     7
176
     1
 79
     5
176
     1
170
     0
176
     1
171
     0
176
     1
290
     0
176
     1
 93
        1
176
     1
 44
0.0
176
     1
173
     0
176
     1
1001
ACAD
1000
AcDbSavedByObjectVersion
1070
     0
  0
VISUALSTYLE
  5
1478
102
{ACAD_XDICTIONARY
360
252C
102
}
102
{ACAD_REACTORS
330
146C
102
}
330
146C
100
AcDbVisualStyle
  2

 70
    12
177
     2
291
     1
 71
     2
176
     1
 72
     2
176
     1
 73
     0
176
     1
 90
        0
176
     1
 40
0.6
176
     1
 41
30.0
176
     1
 63
     7
176
     1
 74
     1
176
     1
 91
        4
176
     1
 64
     7
176
     1
 65
   257
176
     1
 75
     1
176
     1
175
     1
176
     1
 42
1.0
176
     1
 92
        8
176
     1
 66
     7
176
     1
 43
1.0
176
     1
 76
     1
176
     1
 77
     6
176
     1
 78
     2
176
     1
 67
     7
176
     1
 79
     5
176
     1
170
     0
176
     1
171
     0
176
     1
290
     0
176
     1
 93
        1
176
     1
 44
50.0
176
     1
173
     0
176
     1
1001
ACAD
1000
AcDbSavedByObjectVersion
1070
     0
  0
VISUALSTYLE
  5
147C
102
{ACAD_XDICTIONARY
360
2534
102
}
102
{ACAD_REACTORS
330
146C
102
}
330
146C
100
AcDbVisualStyle
  2

 70
    16
177
     2
291
     1
 71
     2
176
     1
 72
     2
176
     1
 73
     3
176
     1
 90
        0
176
     1
 40
0.6
176
     1
 41
30.0
176
     1
 63
     8
176
     1
 74
     1
176
     1
 91
        4
176
     1
 64
     7
176
     1
 65
   257
176
     1
 75
     1
176
     1
175
     1
176
     1
 42
1.0
176
     1
 92
        8
176
     1
 66
     8
176
     1
 43
1.0
176
     1
 76
     1
176
     1
 77
     6
176
     1
 78
     2
176
     1
 67
     7
176
     1
 79
     5
176
     1
170
     0
176
     1
171
     0
176
     1
290
     0
176
     1
 93
        1
176
     1
 44
0.0
176
     1
173
     0
176
     1
1001
ACAD
1000
AcDbSavedByObjectVersion
1070
     0
  0
VISUALSTYLE
  5
1475
102
{ACAD_XDICTIONARY
360
2526
102
}
102
{ACAD_REACTORS
330
146C
102
}
330
146C
100
AcDbVisualStyle
  2

 70
     9
177
     2
291
     0
 71
     3
176
     1
 72
     2
176
     1
 73
     0
176
     1
 90
        0
176
     1
 40
0.6
176
     1
 41
30.0
176
     1
 63
     7
176
     1
 74
     2
176
     1
 91
        2
176
     1
 64
     7
176
     1
 65
   257
176
     1
 75
     1
176
     1
175
     1
176
     1
 42
179.0
176
     1
 92
        8
176
     1
 66
     7
176
     1
 43
1.0
176
     1
 76
     1
176
     1
 77
     6
176
     1
 78
     2
176
     1
 67
     7
176
     1
 79
     3
176
     1
170
     0
176
     1
171
     0
176
     1
290
     0
176
     1
 93
        1
176
     1
 44
0.0
176
     1
173
     0
176
     1
1001
ACAD
1000
AcDbSavedByObjectVersion
1070
     0
  0
VISUALSTYLE
  5
1477
102
{ACAD_XDICTIONARY
360
252A
102
}
102
{ACAD_REACTORS
330
146C
102
}
330
146C
100
AcDbVisualStyle
  2

 70
    11
177
     2
291
     1
 71
     2
176
     1
 72
     2
176
     1
 73
     0
176
     1
 90
        0
176
     1
 40
0.6
176
     1
 41
30.0
176
     1
 63
     7
176
     1
 74
     1
176
     1
 91
        4
176
     1
 64
     7
176
     1
 65
   257
176
     1
 75
     1
176
     1
175
     1
176
     1
 42
1.0
176
     1
 92
        8
176
     1
 66
     7
176
     1
 43
1.0
176
     1
 76
     1
176
     1
 77
     6
176
     1
 78
     2
176
     1
 67
     7
176
     1
 79
     5
176
     1
170
     0
176
     1
171
     0
176
     1
290
     0
176
     1
 93
        1
176
     1
 44
-50.0
176
     1
173
     0
176
     1
1001
ACAD
1000
AcDbSavedByObjectVersion
1070
     0
  0
VISUALSTYLE
  5
1484
102
{ACAD_XDICTIONARY
360
2544
102
}
102
{ACAD_REACTORS
330
146C
102
}
330
146C
100
AcDbVisualStyle
  2

 70
    22
177
     2
291
     1
 71
     2
176
     0
 72
     2
176
     0
 73
     0
176
     0
 90
        0
176
     0
 40
0.6
176
     0
 41
30.0
176
     0
 63
     7
176
     0
 74
     1
176
     0
 91
        4
176
     0
 64
     7
176
     0
 65
   257
176
     0
 75
     1
176
     0
175
     1
176
     0
 42
1.0
176
     0
 92
        8
176
     2
 66
     7
176
     0
 43
1.0
176
     0
 76
     1
176
     0
 77
     6
176
     0
 78
     2
176
     0
 67
     7
176
     0
 79
     5
176
     0
170
     0
176
     0
171
     0
176
     0
290
     0
176
     0
 93
        1
176
     0
 44
0.0
176
     0
173
     0
176
     0
1001
ACAD
1000
AcDbSavedByObjectVersion
1070
     0
  0
VISUALSTYLE
  5
147B
102
{ACAD_XDICTIONARY
360
2532
102
}
102
{ACAD_REACTORS
330
146C
102
}
330
146C
100
AcDbVisualStyle
  2

 70
    15
177
     2
291
     1
 71
     2
176
     1
 72
     2
176
     1
 73
     0
176
     1
 90
        0
176
     1
 40
0.6
176
     1
 41
30.0
176
     1
 63
     7
176
     1
 74
     1
176
     1
 91
        4
176
     1
 64
     7
176
     1
 65
   257
176
     1
 75
     1
176
     1
175
     1
176
     1
 42
1.0
176
     1
 92
        8
176
     1
 66
     7
176
     1
 43
1.0
176
     1
 76
     1
176
     1
 77
     6
176
     1
 78
     2
176
     1
 67
     7
176
     1
 79
     5
176
     1
170
     0
176
     1
171
     0
176
     1
290
     0
176
     1
 93
        1
176
     1
 44
0.0
176
     1
173
     0
176
     1
1001
ACAD
1000
AcDbSavedByObjectVersion
1070
     0
  0
VISUALSTYLE
  5
146D
102
{ACAD_XDICTIONARY
360
2516
102
}
102
{ACAD_REACTORS
330
146C
102
}
330
146C
100
AcDbVisualStyle
  2

 70
     0
177
     2
291
     1
 71
     2
176
     1
 72
     1
176
     1
 73
     1
176
     1
 90
        2
176
     1
 40
0.6
176
     1
 41
30.0
176
     1
 63
     7
176
     1
 74
     0
176
     1
 91
        0
176
     1
 64
     7
176
     1
 65
   257
176
     1
 75
     1
176
     1
175
     1
176
     1
 42
1.0
176
     1
 92
        8
176
     1
 66
     7
176
     1
 43
1.0
176
     1
 76
     1
176
     1
 77
     6
176
     1
 78
     2
176
     1
 67
     7
176
     1
 79
     5
176
     1
170
     0
176
     1
171
     0
176
     1
290
     0
176
     1
 93
       13
176
     1
 44
0.0
176
     1
173
     0
176
     1
1001
ACAD
1000
AcDbSavedByObjectVersion
1070
     0
  0
VISUALSTYLE
  5
146E
102
{ACAD_XDICTIONARY
360
2518
102
}
102
{ACAD_REACTORS
330
146C
102
}
330
146C
100
AcDbVisualStyle
  2

 70
     1
177
     2
291
     1
 71
     2
176
     1
 72
     1
176
     1
 73
     1
176
     1
 90
        2
176
     1
 40
0.6
176
     1
 41
30.0
176
     1
 63
     7
176
     1
 74
     1
176
     1
 91
        0
176
     1
 64
     7
176
     1
 65
   257
176
     1
 75
     1
176
     1
175
     1
176
     1
 42
1.0
176
     1
 92
        0
176
     1
 66
   257
176
     1
 43
1.0
176
     1
 76
     1
176
     1
 77
     6
176
     1
 78
     2
176
     1
 67
     7
176
     1
 79
     5
176
     1
170
     0
176
     1
171
     0
176
     1
290
     0
176
     1
 93
       13
176
     1
 44
0.0
176
     1
173
     0
176
     1
1001
ACAD
1000
AcDbSavedByObjectVersion
1070
     0
  0
VISUALSTYLE
  5
146F
102
{ACAD_XDICTIONARY
360
251A
102
}
102
{ACAD_REACTORS
330
146C
102
}
330
146C
100
AcDbVisualStyle
  2

 70
     2
177
     2
291
     1
 71
     2
176
     1
 72
     2
176
     1
 73
     1
176
     1
 90
        2
176
     1
 40
0.6
176
     1
 41
30.0
176
     1
 63
     7
176
     1
 74
     0
176
     1
 91
        0
176
     1
 64
     7
176
     1
 65
   257
176
     1
 75
     1
176
     1
175
     1
176
     1
 42
1.0
176
     1
 92
        0
176
     1
 66
     7
176
     1
 43
1.0
176
     1
 76
     1
176
     1
 77
     6
176
     1
 78
     2
176
     1
 67
     7
176
     1
 79
     5
176
     1
170
     0
176
     1
171
     0
176
     1
290
     0
176
     1
 93
       13
176
     1
 44
0.0
176
     1
173
     0
176
     1
1001
ACAD
1000
AcDbSavedByObjectVersion
1070
     0
  0
VISUALSTYLE
  5
1470
102
{ACAD_XDICTIONARY
360
251C
102
}
102
{ACAD_REACTORS
330
146C
102
}
330
146C
100
AcDbVisualStyle
  2

 70
     3
177
     2
291
     1
 71
     2
176
     1
 72
     2
176
     1
 73
     1
176
     1
 90
        2
176
     1
 40
0.6
176
     1
 41
30.0
176
     1
 63
     7
176
     1
 74
     1
176
     1
 91
        0
176
     1
 64
     7
176
     1
 65
   257
176
     1
 75
     1
176
     1
175
     1
176
     1
 42
1.0
176
     1
 92
        0
176
     1
 66
   257
176
     1
 43
1.0
176
     1
 76
     1
176
     1
 77
     6
176
     1
 78
     2
176
     1
 67
     7
176
     1
 79
     5
176
     1
170
     0
176
     1
171
     0
176
     1
290
     0
176
     1
 93
       13
176
     1
 44
0.0
176
     1
173
     0
176
     1
1001
ACAD
1000
AcDbSavedByObjectVersion
1070
     0
  0
VISUALSTYLE
  5
1474
102
{ACAD_XDICTIONARY
360
2524
102
}
102
{ACAD_REACTORS
330
146C
102
}
330
146C
100
AcDbVisualStyle
  2

 70
     6
177
     2
291
     0
 71
     1
176
     1
 72
     2
176
     1
 73
     2
176
     1
 90
        0
176
     1
 40
0.6
176
     1
 41
30.0
176
     1
 63
     7
176
     1
 74
     2
176
     1
 91
        2
176
     1
 64
     7
176
     1
 65
   257
176
     1
 75
     2
176
     1
175
     1
176
     1
 42
40.0
176
     1
 92
        0
176
     1
 66
   257
176
     1
 43
1.0
176
     1
 76
     1
176
     1
 77
     6
176
     1
 78
     2
176
     1
 67
     7
176
     1
 79
     3
176
     1
170
     0
176
     1
171
     0
176
     1
290
     0
176
     1
 93
        1
176
     1
 44
0.0
176
     1
173
     0
176
     1
1001
ACAD
1000
AcDbSavedByObjectVersion
1070
     0
  0
VISUALSTYLE
  5
1482
102
{ACAD_XDICTIONARY
360
2540
102
}
102
{ACAD_REACTORS
330
146C
102
}
330
146C
100
AcDbVisualStyle
  2

 70
    20
177
     2
291
     1
 71
     2
176
     0
 72
     2
176
     0
 73
     0
176
     0
 90
        0
176
     0
 40
0.6
176
     0
 41
30.0
176
     0
 63
     7
176
     0
 74
     1
176
     0
 91
        4
176
     0
 64
     7
176
     0
 65
   257
176
     0
 75
     1
176
     0
175
     1
176
     0
 42
1.0
176
     0
 92
       10
176
     2
 66
     7
176
     0
 43
1.0
176
     0
 76
     1
176
     0
 77
     6
176
     0
 78
     2
176
     0
 67
     7
176
     0
 79
     5
176
     0
170
     0
176
     0
171
     0
176
     0
290
     0
176
     0
 93
        1
176
     0
 44
0.0
176
     0
173
     0
176
     0
1001
ACAD
1000
AcDbSavedByObjectVersion
1070
     0
  0
VISUALSTYLE
  5
147A
102
{ACAD_XDICTIONARY
360
2530
102
}
102
{ACAD_REACTORS
330
146C
102
}
330
146C
100
AcDbVisualStyle
  2

 70
    14
177
     2
291
     1
 71
     2
176
     1
 72
     2
176
     1
 73
     0
176
     1
 90
        0
176
     1
 40
0.6
176
     1
 41
30.0
176
     1
 63
     7
176
     1
 74
     1
176
     1
 91
        4
176
     1
 64
     7
176
     1
 65
   257
176
     1
 75
     7
176
     1
175
     7
176
     1
 42
1.0
176
     1
 92
        8
176
     1
 66
     7
176
     1
 43
1.0
176
     1
 76
     1
176
     1
 77
     6
176
     1
 78
     2
176
     1
 67
     7
176
     1
 79
     5
176
     1
170
     0
176
     1
171
     0
176
     1
290
     0
176
     1
 93
        1
176
     1
 44
0.0
176
     1
173
     0
176
     1
1001
ACAD
1000
AcDbSavedByObjectVersion
1070
     0
  0
VISUALSTYLE
  5
1483
102
{ACAD_XDICTIONARY
360
2542
102
}
102
{ACAD_REACTORS
330
146C
102
}
330
146C
100
AcDbVisualStyle
  2

 70
    21
177
     2
291
     1
 71
     2
176
     0
 72
     2
176
     0
 73
     0
176
     0
 90
        0
176
     0
 40
0.6
176
     0
 41
30.0
176
     0
 63
     7
176
     0
 74
     1
176
     0
 91
        4
176
     0
 64
     7
176
     0
 65
   257
176
     0
 75
     1
176
     0
175
     1
176
     0
 42
1.0
176
     0
 92
        9
176
     2
 66
     7
176
     0
 43
1.0
176
     0
 76
     1
176
     0
 77
     6
176
     0
 78
     2
176
     0
 67
     7
176
     0
 79
     5
176
     0
170
     0
176
     0
171
     0
176
     0
290
     0
176
     0
 93
        1
176
     0
 44
0.0
176
     0
173
     0
176
     0
1001
ACAD
1000
AcDbSavedByObjectVersion
1070
     0
  0
VISUALSTYLE
  5
1476
102
{ACAD_XDICTIONARY
360
2528
102
}
102
{ACAD_REACTORS
330
146C
102
}
330
146C
100
AcDbVisualStyle
  2

 70
     8
177
     2
291
     0
 71
     2
176
     1
 72
     2
176
     1
 73
     0
176
     1
 90
        2
176
     1
 40
0.6
176
     1
 41
30.0
176
     1
 63
     7
176
     1
 74
     0
176
     1
 91
        0
176
     1
 64
     7
176
     1
 65
   257
176
     1
 75
     1
176
     1
175
     1
176
     1
 42
1.0
176
     1
 92
        8
176
     1
 66
   257
176
     1
 43
1.0
176
     1
 76
     1
176
     1
 77
     6
176
     1
 78
     2
176
     1
 67
     7
176
     1
 79
     3
176
     1
170
     0
176
     1
171
     0
176
     1
290
     0
176
     1
 93
       13
176
     1
 44
0.0
176
     1
173
     0
176
     1
1001
ACAD
1000
AcDbSavedByObjectVersion
1070
     0
  0
VISUALSTYLE
  5
1481
102
{ACAD_XDICTIONARY
360
253E
102
}
102
{ACAD_REACTORS
330
146C
102
}
330
146C
100
AcDbVisualStyle
  2

 70
    27
177
     2
291
     0
 71
     2
176
     1
 72
     2
176
     1
 73
     1
176
     1
 90
        2
176
     1
 40
0.6
176
     1
 41
30.0
176
     1
 63
     7
176
     1
 74
     0
176
     1
 91
        4
176
     1
 64
     7
176
     1
 65
   257
176
     1
 75
     1
176
     1
175
     1
176
     1
 42
1.0
176
     1
 92
        8
176
     1
 66
   257
176
     1
 43
1.0
176
     1
 76
     1
176
     1
 77
     6
176
     1
 78
     2
176
     1
 67
     8
176
     1
 79
     3
176
     1
170
     0
176
     1
171
     0
176
     1
290
     0
176
     1
 93
        5
176
     1
 44
0.0
176
     1
173
     0
176
     1
1001
ACAD
1000
AcDbSavedByObjectVersion
1070
     0
  0
VISUALSTYLE
  5
1480
102
{ACAD_XDICTIONARY
360
253C
102
}
102
{ACAD_REACTORS
330
146C
102
}
330
146C
100
AcDbVisualStyle
  2

 70
    26
177
     2
291
     0
 71
     2
176
     1
 72
     2
176
     1
 73
     1
176
     1
 90
        2
176
     1
 40
0.6
176
     1
 41
30.0
176
     1
 63
     7
176
     1
 74
     1
176
     1
 91
       10
176
     1
 64
     7
176
     1
 65
   257
176
     1
 75
     2
176
     1
175
     1
176
     1
 42
1.0
176
     1
 92
        8
176
     1
 66
   257
176
     1
 43
1.0
176
     1
 76
     1
176
     1
 77
     6
176
     1
 78
     2
176
     1
 67
     7
176
     1
 79
     3
176
     1
170
     0
176
     1
171
     0
176
     1
290
     0
176
     1
 93
        5
176
     1
 44
0.0
176
     1
173
     0
176
     1
1001
ACAD
1000
AcDbSavedByObjectVersion
1070
     0
  0
VISUALSTYLE
  5
147D
102
{ACAD_XDICTIONARY
360
2536
102
}
102
{ACAD_REACTORS
330
146C
102
}
330
146C
100
AcDbVisualStyle
  2

 70
    23
177
     2
291
     0
 71
     2
176
     1
 72
     2
176
     1
 73
     3
176
     1
 90
        0
176
     1
 40
0.6
176
     1
 41
30.0
176
     1
 63
     7
176
     1
 74
     2
176
     1
 91
        2
176
     1
 64
     7
176
     1
 65
     7
176
     1
 75
     1
176
     1
175
     1
176
     1
 42
40.0
176
     1
 92
        8
176
     1
 66
     7
176
     1
 43
1.0
176
     1
 76
     1
176
     1
 77
     6
176
     1
 78
     2
176
     1
 67
     7
176
     1
 79
     3
176
     1
170
     0
176
     1
171
     0
176
     1
290
     0
176
     1
 93
        1
176
     1
 44
0.0
176
     1
173
     0
176
     1
1001
ACAD
1000
AcDbSavedByObjectVersion
1070
     0
  0
VISUALSTYLE
  5
147E
102
{ACAD_XDICTIONARY
360
2538
102
}
102
{ACAD_REACTORS
330
146C
102
}
330
146C
100
AcDbVisualStyle
  2

 70
    24
177
     2
291
     0
 71
     1
176
     1
 72
     2
176
     1
 73
     2
176
     1
 90
        0
176
     1
 40
0.6
176
     1
 41
30.0
176
     1
 63
     7
176
     1
 74
     2
176
     1
 91
        2
176
     1
 64
     7
176
     1
 65
     7
176
     1
 75
     1
176
     1
175
     1
176
     1
 42
40.0
176
     1
 92
       11
176
     1
 66
     7
176
     1
 43
1.0
176
     1
 76
     1
176
     1
 77
     6
176
     1
 78
     2
176
     1
 67
     7
176
     1
 79
     6
176
     1
170
     0
176
     1
171
     0
176
     1
290
     0
176
     1
 93
        1
176
     1
 44
0.0
176
     1
173
     0
176
     1
1001
ACAD
1000
AcDbSavedByObjectVersion
1070
     0
  0
VISUALSTYLE
  5
1479
102
{ACAD_XDICTIONARY
360
252E
102
}
102
{ACAD_REACTORS
330
146C
102
}
330
146C
100
AcDbVisualStyle
  2

 70
    13
177
     2
291
     1
 71
     2
176
     1
 72
     2
176
     1
 73
     0
176
     1
 90
        0
176
     1
 40
0.6
176
     1
 41
30.0
176
     1
 63
     7
176
     1
 74
     1
176
     1
 91
        4
176
     1
 64
     7
176
     1
 65
   257
176
     1
 75
     1
176
     1
175
     1
176
     1
 42
1.0
176
     1
 92
       12
176
     1
 66
     7
176
     1
 43
1.0
176
     1
 76
     1
176
     1
 77
     6
176
     1
 78
     2
176
     1
 67
     7
176
     1
 79
     5
176
     1
170
     0
176
     1
171
     0
176
     1
290
     0
176
     1
 93
        1
176
     1
 44
0.0
176
     1
173
     0
176
     1
1001
ACAD
1000
AcDbSavedByObjectVersion
1070
     0
  0
VISUALSTYLE
  5
1473
102
{ACAD_XDICTIONARY
360
2522
102
}
102
{ACAD_REACTORS
330
146C
102
}
330
146C
100
AcDbVisualStyle
  2

 70
     5
177
     2
291
     0
 71
     0
176
     1
 72
     2
176
     1
 73
     0
176
     1
 90
        0
176
     1
 40
0.6
176
     1
 41
30.0
176
     1
 63
     7
176
     1
 74
     1
176
     1
 91
        4
176
     1
 64
     7
176
     1
 65
   257
176
     1
 75
     1
176
     1
175
     1
176
     1
 42
1.0
176
     1
 92
        0
176
     1
 66
   257
176
     1
 43
1.0
176
     1
 76
     1
176
     1
 77
     6
176
     1
 78
     2
176
     1
 67
     7
176
     1
 79
     3
176
     1
170
     0
176
     1
171
     0
176
     1
290
     0
176
     1
 93
        1
176
     1
 44
0.0
176
     1
173
     0
176
     1
1001
ACAD
1000
AcDbSavedByObjectVersion
1070
     0
  0
VISUALSTYLE
  5
147F
102
{ACAD_XDICTIONARY
360
253A
102
}
102
{ACAD_REACTORS
330
146C
102
}
330
146C
100
AcDbVisualStyle
  2

 70
    25
177
     2
291
     0
 71
     2
176
     1
 72
     2
176
     1
 73
     1
176
     1
 90
        1
176
     1
 40
0.5
176
     1
 41
30.0
176
     1
 63
     7
176
     1
 74
     1
176
     1
 91
        0
176
     1
 64
     7
176
     1
 65
   257
176
     1
 75
     1
176
     1
175
     1
176
     1
 42
1.0
176
     1
 92
        8
176
     1
 66
     7
176
     1
 43
1.0
176
     1
 76
     1
176
     1
 77
     6
176
     1
 78
     2
176
     1
 67
     7
176
     1
 79
     3
176
     1
170
     0
176
     1
171
     0
176
     1
290
     0
176
     1
 93
       13
176
     1
 44
0.0
176
     1
173
     0
176
     1
1001
ACAD
1000
AcDbSavedByObjectVersion
1070
     0
  0
DICTIONARYVAR
  5
15FF
102
{ACAD_REACTORS
330
15FB
102
}
330
15FB
100
DictionaryVariables
280
     0
  1
1:1
  0
DICTIONARYVAR
  5
15FD
102
{ACAD_REACTORS
330
15FB
102
}
330
15FB
100
DictionaryVariables
280
     0
  1
STANDARD
  0
DICTIONARYVAR
  5
15FC
102
{ACAD_REACTORS
330
15FB
102
}
330
15FB
100
DictionaryVariables
280
     0
  1
STANDARD
  0
DICTIONARYVAR
  5
24F9
102
{ACAD_REACTORS
330
15FB
102
}
330
15FB
100
DictionaryVariables
280
     0
  1
Metric50
  0
DICTIONARYVAR
  5
24FA
102
{ACAD_REACTORS
330
15FB
102
}
330
15FB
100
DictionaryVariables
280
     0
  1
Metric50
  0
DICTIONARYVAR
  5
1A67
102
{ACAD_REACTORS
330
15FB
102
}
330
15FB
100
DictionaryVariables
280
     0
  1
1
  0
DICTIONARYVAR
  5
1A66
102
{ACAD_REACTORS
330
15FB
102
}
330
15FB
100
DictionaryVariables
280
     0
  1
0
  0
DICTIONARYVAR
  5
1601
102
{ACAD_REACTORS
330
15FB
102
}
330
15FB
100
DictionaryVariables
280
     0
  1
1
  0
DICTIONARYVAR
  5
1602
102
{ACAD_REACTORS
330
15FB
102
}
330
15FB
100
DictionaryVariables
280
     0
  1
15
  0
DICTIONARYVAR
  5
1600
102
{ACAD_REACTORS
330
15FB
102
}
330
15FB
100
DictionaryVariables
280
     0
  1
0
  0
DICTIONARYVAR
  5
15FE
102
{ACAD_REACTORS
330
15FB
102
}
330
15FB
100
DictionaryVariables
280
     0
  1
0
  0
DICTIONARYVAR
  5
24FB
102
{ACAD_REACTORS
330
15FB
102
}
330
15FB
100
DictionaryVariables
280
     0
  1
1
  0
DICTIONARYVAR
  5
1A65
102
{ACAD_REACTORS
330
15FB
102
}
330
15FB
100
DictionaryVariables
280
     0
  1
127
  0
DICTIONARY
  5
151B
102
{ACAD_REACTORS
330
151A
102
}
330
151A
100
AcDbDictionary
281
     1
  0
DICTIONARY
  5
254E
330
24E4
100
AcDbDictionary
280
     1
281
     1
  3
ACAD_XREC_ROUNDTRIP
360
254F
  0
DICTIONARY
  5
24B3
330
149F
100
AcDbDictionary
280
     1
281
     1
  3
ADSK_XREC_LAYOUTTHUMBNAIL
360
24B4
  0
DICTIONARY
  5
145D
330
145C
100
AcDbDictionary
280
     1
281
     1
  3
ACAD_XREC_ROUNDTRIP
360
250B
  3
BUMPTILE
360
145F
  3
DIFFUSETILE
360
145E
  3
OPACITYTILE
360
1462
  3
REFLECTIONTILE
360
1461
  3
REFRACTIONTILE
360
1463
  3
SPECULARTILE
360
1460
  0
DICTIONARY
  5
1455
330
1454
100
AcDbDictionary
280
     1
281
     1
  3
ACAD_XREC_ROUNDTRIP
360
250A
  3
BUMPTILE
360
1457
  3
DIFFUSETILE
360
1456
  3
OPACITYTILE
360
145A
  3
REFLECTIONTILE
360
1459
  3
REFRACTIONTILE
360
145B
  3
SPECULARTILE
360
1458
  0
DICTIONARY
  5
1465
330
1464
100
AcDbDictionary
280
     1
281
     1
  3
ACAD_XREC_ROUNDTRIP
360
250C
  3
BUMPTILE
360
1467
  3
DIFFUSETILE
360
1466
  3
OPACITYTILE
360
146A
  3
REFLECTIONTILE
360
1469
  3
REFRACTIONTILE
360
146B
  3
SPECULARTILE
360
1468
  0
DICTIONARY
  5
2546
330
149B
100
AcDbDictionary
280
     1
281
     1
  3
ACAD_XREC_ROUNDTRIP
360
2547
  0
DICTIONARY
  5
254C
330
24E2
100
AcDbDictionary
280
     1
281
     1
  3
ACAD_XREC_ROUNDTRIP
360
254D
  0
DICTIONARY
  5
1A27
330
1487
100
AcDbDictionary
280
     1
281
     1
  3
ACAD_ROUNDTRIP_2008_TABLESTYLE_CELLSTYLEMAP
360
2514
  0
DICTIONARY
  5
2520
330
1472
100
AcDbDictionary
280
     1
281
     1
  3
ACAD_XREC_ROUNDTRIP
360
2521
  0
DICTIONARY
  5
254A
330
2470
100
AcDbDictionary
280
     1
281
     1
  3
ACAD_XREC_ROUNDTRIP
360
254B
  0
DICTIONARY
  5
2548
330
246F
100
AcDbDictionary
280
     1
281
     1
  3
ACAD_XREC_ROUNDTRIP
360
2549
  0
DICTIONARY
  5
251E
330
1471
100
AcDbDictionary
280
     1
281
     1
  3
ACAD_XREC_ROUNDTRIP
360
251F
  0
DICTIONARY
  5
252C
330
1478
100
AcDbDictionary
280
     1
281
     1
  3
ACAD_XREC_ROUNDTRIP
360
252D
  0
DICTIONARY
  5
2534
330
147C
100
AcDbDictionary
280
     1
281
     1
  3
ACAD_XREC_ROUNDTRIP
360
2535
  0
DICTIONARY
  5
2526
330
1475
100
AcDbDictionary
280
     1
281
     1
  3
ACAD_XREC_ROUNDTRIP
360
2527
  0
DICTIONARY
  5
252A
330
1477
100
AcDbDictionary
280
     1
281
     1
  3
ACAD_XREC_ROUNDTRIP
360
252B
  0
DICTIONARY
  5
2544
330
1484
100
AcDbDictionary
280
     1
281
     1
  3
ACAD_XREC_ROUNDTRIP
360
2545
  0
DICTIONARY
  5
2532
330
147B
100
AcDbDictionary
280
     1
281
     1
  3
ACAD_XREC_ROUNDTRIP
360
2533
  0
DICTIONARY
  5
2516
330
146D
100
AcDbDictionary
280
     1
281
     1
  3
ACAD_XREC_ROUNDTRIP
360
2517
  0
DICTIONARY
  5
2518
330
146E
100
AcDbDictionary
280
     1
281
     1
  3
ACAD_XREC_ROUNDTRIP
360
2519
  0
DICTIONARY
  5
251A
330
146F
100
AcDbDictionary
280
     1
281
     1
  3
ACAD_XREC_ROUNDTRIP
360
251B
  0
DICTIONARY
  5
251C
330
1470
100
AcDbDictionary
280
     1
281
     1
  3
ACAD_XREC_ROUNDTRIP
360
251D
  0
DICTIONARY
  5
2524
330
1474
100
AcDbDictionary
280
     1
281
     1
  3
ACAD_XREC_ROUNDTRIP
360
2525
  0
DICTIONARY
  5
2540
330
1482
100
AcDbDictionary
280
     1
281
     1
  3
ACAD_XREC_ROUNDTRIP
360
2541
  0
DICTIONARY
  5
2530
330
147A
100
AcDbDictionary
280
     1
281
     1
  3
ACAD_XREC_ROUNDTRIP
360
2531
  0
DICTIONARY
  5
2542
330
1483
100
AcDbDictionary
280
     1
281
     1
  3
ACAD_XREC_ROUNDTRIP
360
2543
  0
DICTIONARY
  5
2528
330
1476
100
AcDbDictionary
280
     1
281
     1
  3
ACAD_XREC_ROUNDTRIP
360
2529
  0
DICTIONARY
  5
253E
330
1481
100
AcDbDictionary
280
     1
281
     1
  3
ACAD_XREC_ROUNDTRIP
360
253F
  0
DICTIONARY
  5
253C
330
1480
100
AcDbDictionary
280
     1
281
     1
  3
ACAD_XREC_ROUNDTRIP
360
253D
  0
DICTIONARY
  5
2536
330
147D
100
AcDbDictionary
280
     1
281
     1
  3
ACAD_XREC_ROUNDTRIP
360
2537
  0
DICTIONARY
  5
2538
330
147E
100
AcDbDictionary
280
     1
281
     1
  3
ACAD_XREC_ROUNDTRIP
360
2539
  0
DICTIONARY
  5
252E
330
1479
100
AcDbDictionary
280
     1
281
     1
  3
ACAD_XREC_ROUNDTRIP
360
252F
  0
DICTIONARY
  5
2522
330
1473
100
AcDbDictionary
280
     1
281
     1
  3
ACAD_XREC_ROUNDTRIP
360
2523
  0
DICTIONARY
  5
253A
330
147F
100
AcDbDictionary
280
     1
281
     1
  3
ACAD_XREC_ROUNDTRIP
360
253B
  0
XRECORD
  5
254F
102
{ACAD_REACTORS
330
254E
102
}
330
254E
100
AcDbXrecord
280
     1
102
DISPLAYNAME
  1
Metric50
102
FLAGS
 90
        0
  0
XRECORD
  5
24B4
102
{ACAD_REACTORS
330
24B3
102
}
330
24B3
100
AcDbXrecord
280
     1
310
280000000001000072000000010008000000000000720000000000000000000000010000000000000000000000000000FFFFFF000000000000000000000000000000000000000000000000000000000000000000330000006600000099000000CC000000FF00000000330000333300006633000099330000CC330000FF3300
310
0000660000336600006666000099660000CC660000FF66000000990000339900006699000099990000CC990000FF99000000CC000033CC000066CC000099CC0000CCCC0000FFCC000000FF000033FF000066FF000099FF0000CCFF0000FFFF000000003300330033006600330099003300CC003300FF003300003333003333
310
33006633330099333300CC333300FF33330000663300336633006666330099663300CC663300FF66330000993300339933006699330099993300CC993300FF99330000CC330033CC330066CC330099CC3300CCCC3300FFCC330000FF330033FF330066FF330099FF3300CCFF3300FFFF330000006600330066006600660099
310
006600CC006600FF00660000336600333366006633660099336600CC336600FF33660000666600336666006666660099666600CC666600FF66660000996600339966006699660099996600CC996600FF99660000CC660033CC660066CC660099CC6600CCCC6600FFCC660000FF660033FF660066FF660099FF6600CCFF6600
310
FFFF660000009900330099006600990099009900CC009900FF00990000339900333399006633990099339900CC339900FF33990000669900336699006666990099669900CC669900FF66990000999900339999006699990099999900CC999900FF99990000CC990033CC990066CC990099CC9900CCCC9900FFCC990000FF99
310
0033FF990066FF990099FF9900CCFF9900FFFF99000000CC003300CC006600CC009900CC00CC00CC00FF00CC000033CC003333CC006633CC009933CC00CC33CC00FF33CC000066CC003366CC006666CC009966CC00CC66CC00FF66CC000099CC003399CC006699CC009999CC00CC99CC00FF99CC0000CCCC0033CCCC0066CC
310
CC0099CCCC00CCCCCC00FFCCCC0000FFCC0033FFCC0066FFCC0099FFCC00CCFFCC00FFFFCC000000FF003300FF006600FF009900FF00CC00FF00FF00FF000033FF003333FF006633FF009933FF00CC33FF00FF33FF000066FF003366FF006666FF009966FF00CC66FF00FF66FF000099FF003399FF006699FF009999FF00CC
310
99FF00FF99FF0000CCFF0033CCFF0066CCFF0099CCFF00CCCCFF00FFCCFF0000FFFF0033FFFF0066FFFF0099FFFF00CCFFFF00FFFFFF00000000000D0D0D001A1A1A00282828003535350043434300505050005D5D5D006B6B6B00787878008686860093939300A1A1A100AEAEAE00BBBBBB00C9C9C900D6D6D600E4E4E400
310
F1F1F100FFFFFF0000000000000000000000000000000000000000000000000000000000000000000000000000000000E2E2E2E2E2E2E2E2E2E2E2E2E2E2E2E2E2E2E2E2E2E2E2E2E2E2E2E2E2E2E2E2E2E2E2E2E2E2E2E2E2E2E2E2E2E2E2E2E2E2E2E2E2E2E2E2E2E2E2E2E2E2E2E2E2E2E2E2E2E2E2E2E2E2E2E2E2E2E2
310
E2E2E2E2E2E2E2E2E2E2E2E2E2E2E2E2E2E2E2E2E2E2E2E2E2E2E2E2E2E2E2E2E2E2E2E2E2E2E2E2E2E2E2E2E2E2E2E2E2E2E2E2E2E2E2E2E2E2E2E2E2E2E2E2E2E2E2E2E2E2E2E2E2E2E2E2E2E2E2E2E2E2E2E2E2E2E2E2E2E2E2E2E2E2E2E2E2E2E2E2E2E2E2E2E2E2E2E2E2E2E2E2E2E2E2E2E2E2E2E2E2E2E2E2E2E2E2
310
E2E2E2E2E2E2E2E2E2E2E2E2E2E2E2E2E2E2E2E2E2E2E2E2E2E2E2E2E2E2E2E2E2E2E2E2E2E2E2E2E2E2E2E2E2E2E2E2E2E2E2E2E2E2E2E2E2E2E2E2E2E2E2E2E2E2E2E2E2E2E2E2E2E2E2E2E2E2E2E2E2E2E2E2E2E2E2E2E2E2E2E2E2E2E2E2E2E2E2E2E2E2E2E2E2E2E2E2E2E2E2E2E2E2E2E2E2E2E2E2E2E2E2E2E2E2E2
310
E2E2E2E2E2E2E2E2E2E2E2E2E2E2E2E2E2E2E2E2E2E2E2E2E2E2E2E2E2E2E2E2E2E2E2E2E2E2E2E2E2E2E2E2E2E2E2E2E2E2E2E2E2E2E2E2E2E2E2E2E2E2E2E2E2E2E2E2E2E2E2E2E2E2E2E2E2E2E2E2E2E2E2E2E2E2E2E2E2E2E2E2E2E2E2E2E2E2E2E2E2E2E2E2E2E2E2E2E2E2E2E2E2E2E2E2E2E2E2E2E2E2E2E2E2E2E2
310
E2E2E2E2E2E2E2E2E2E2E2E2E2E2E2E2E2E2E2E2E2E2E2E2E2E2E2E2E2E2E2E2E2E2E2E2E2E2E2E2E2E2E2E2E2E2E2E2E2E2E2E2E2E2E2E2E2E2E2E2E2E2E2E2E2E2E2E2E2E2E2E2E2E2E2E2E2E2E2E2E2E2E2E2E2E2E2E2E2E2E2E2E2E2E2E2E2E2E2E2E2E2E2E2E2E2E2E2E2E2E2E2E2E2E2E2E2E2E2E2E2E2E2E2E2E2E2
310
E2E2E2E2E2E2E2E2E2E2E2E2E2E2E2E2E2E2E2E2E2E2E2E2E2E2E2E2E2E2E2E2E2E2E2E2E2E2E2E2E2E2E2E2E2E2E2E2E2E2E2E2E2E2E2E2E2E2E2E2E2E2E2E2E2E2E2E2E2E2E2E2E2E2E2E2E2E2E2E2E2E2E2E2E2E2E2E2E2E2E2E2E2E2E2E2E2E2E2E2E2E2E2E2E2E2E2E2E2E2E2E2E2E2E2E2E2E2E2E2E2E2E2E2E2E2E2
310
E2E2E2E2E2E2E2E2E2E2E2E2E2E2E2E2E2E2E2E2E2E2E2E2E2E2E2E2E2E2E2E2E2E2E2E2E2E2E2E2E2E2E2E2E2E2E2E2E2E2E2E2E2E2E2E2E2E2E2E2E2E2E2E2E2E2E2E2E2E2E2E2E2E2E2E2E2E2E2E2E2E2E2E2E2E2E2E2E2E2E2E2E2E2E2E2E2E2E2E2E2E2E2E2E2E2E2E2E2E2E2E2E2E2E2E2E2E2E2E2E2E2E2E2E2E2E2
310
E2E2E2E2E2E2E2E2E2E2E2E2E2E2E2E2E2E2E2E2E2E2E2E2E2E2E2E2E2E2E2E2E2E2E2E2E2E2E2E2E2E2E2E2E2E2E2E2E2E2E2E2E2E2E2E2E2E2E2E2E2E2E2E2E2E2E2E2E2E2E2E2E2E2E2E2E2E2E2E2E2E2E2E2E2E2E2E2E2E2E2E2E2E2E2E2E2E2E2E2E2E2E2E2E2E2E2E2E2E2E2E2E2E2E2E2E2E2E2E2E2E2E2E2E2E2E2
310
E2E2E2E2E2E2E2E2E2E2E2E2E2E2E2E2E2E2E2E2E2E2E2E2E2E2E2E2E2E2E2E2E2E2E2E2E2E2E2E2E2E2E2E2E2E2E2E2E2E2E2E2E2E2E2E2E2E2E2E2E2E2E2E2E2E2E2E2E2E2E2E2E2E2E2E2E2E2E2E2E2E2E2E2E2E2E2E2E2E2E2E2E2E2E2E2E2E2E2E2E2E2E2E2E2E2E2E2E2E2E2E2E2E2E2E2E2E2E2E2E2E2E2E2E2E2E2
310
E2E2E2E2E2E2E2E2E2E2E2E2E2E2E2E2E2E2E2E2E2E2E2E2E2E2E2E2E2E2E2E2E2E2E2E2E2E2E2E2E2E2E2E2E2E2E2E2E2E2E2E2E2E2E2E2E2E2E2E2E2E2E2E2E2E2E2E2E2E2E2E2E2E2E2E2E2E2E2E2E2E2E2E2E2E2E2E2E2E2E2E2E2E2E2E2E2E2E2E2E2E2E2E2E2E2E2E2E2E2E2E2E2E2E2E2E2E2E2E2E2E2E2E2E2E2E2
310
E2E2E2E2E2E2E2E2E2E2E2E2E2E2E2E2E2E2E2E2E2E2E2E2E2E2E2E2E2E2E2E2E2E2E2E2E2E2E2E2E2E2E2E2E2E2E2E2E2E2E2E2E2E2E2E2E2E2E2E2E2E2E2E2E2E2E2E2E2E2E2E2E2E2E2E2E2E2E2E2E2E2E2E2E2E2E2E2E2E2E2E2E2E2E2E2E2E2E2E2E2E2E2E2E2E2E2E2E2E2E2E2E2E2E2E2E2E2E2E2E2E2E2E2E2E2E2
310
E2E2E2E2E2E2E2E2E2E2E2E2E2E2E2E2E2E2E2E2E2E2E2E2E2E2E2E2E2E2E2E2E2E2E2E2E2E2E2E2E2E2E2E2E2E2E2E2E2E2E2E2E2E2E2E2E2E2E2E2E2E2E2E2E2E2E2E2E2E2E2E2E2E2E2E2E2E2E2E2E2E2E2E2E2E2E2E2E2E2E2E2E2E2E2E2E2E2E2E2E2E2E2E2E2E2E2E2E2E2E2E2E2E2E2E2E2E2E2E2E2E2E2E2E2E2E2
310
E2E2E2E2E2E2E2E2E2E2E2E2E2E2E2E2E2E2E2E2E2E2E2E2E2E2E2E2E2E2E2E2E2E2E2E2E2E2E2E2E2E2E2E2E2E2E2E2E2E2E2E2E2E2E2E2E2E2E2E2E2E2E2E2E2E2E2E2E2E2E2E2E2E2E2E2E2E2E2E2E2E2E2E2E2E2E2E2E2E2E2E2E2E2E2E2E2E2E2E2E2E2E2E2E2E2E2E2E2E2E2E2E2E2E2E2E2E2E2E2F5E2E2E2E2E2E2
310
E2E2E2E2E2E2E2E2E2E2E2E2E2E2E2E2E2E2E2E2E2E2E2E2E2E2E2E2E2E2E2E2E2E2E2E2E2F5E2E2E2E2E2E2E2E2E2E2E2E2E2E2E2E2E2E2E2E2E2E2E2E2E2E2E2E2E2E2E2E2E2E2E2E2E2E2E2E2E2E2E2E2E2E2E2E2E2E2E2E2E2E2E2E2E2E2E2E2E2E2E2E2E2E2E2E2E2E2E2E2E2E2E2E2E2E2E2E2E2E2E2E2E2E2E2E2E2
310
E2E2E2E2E2E2E2E2E2E2E2E2E2E2E2E2E2E2E2E2E2E2E2E2E2E2E2E2E2E2E2E2E2E2E2E2E2E2E2E2E2E2E2E2E2E2E2E2E2E2E2E2E2E2E2E2E2E2E2E2E2E2E2E2E2E2E2E2E2E2E2E2E2E2E2E2E2E2E2E2E2E2E2E2E2E2E2E2E2E2E2E2E2E2E2E2E2E2E2E2E2E2E2E2E2E2E2E2E2E2E2E2E2E2E2E2E2E2E2E2E2E2F5E2E2E2E2
310
E2E2E2E2E2E2E2E2E2E2E2E2E2E2E2E2E2E2E2E2E2E2E2E2E2E2E2E2E2E2E2E2E2E2E2E2E2E2E2F5E2E2E2E2E2E2E2E2E2E2E2E2E2E2E2E2E2E2E2E2E2E2E2E2E2E2E2E2E2E2E2E2E2E2E2E2E2E2E2E2E2E2E2E2E2E2E2E2E2E2E2E2E2E2E2E2E2E2E2E2E2E2E2E2E2E2E2E2E2E2E2E2E2E2E2E2E2E2E2E2E2E2E2E2E2E2E2
310
E2E2E2E2E2E2E2E2E2E2E2E2E2E2E2E2E2E2E2E2E2E2E2E2E2E2E2E2E2E2E2E2E2E2E2E2E2E2E2E2E2E2E2E2E2E2E2E2E2E2E2E2E2E2E2E2E2E2E2E2E2E2E2E2E2E2E2E2E2E2E2E2E2E2E2E2E2E2E2E2E2E2E2E2E2E2E2E2E2E2E2E2E2E2E2E2E2E2E2E2E2E2E2E2E2E2E2E2E2E2E2E2E2E2E2E2E2E2E2E2E2E2F5F5F5F5F5
310
F5E2E2E2E2E2E2E2E2E2E2E2E2E2E2E2E2E2E2E2E2E2E2E2E2E2E2E2E2E2E2E2E2E2E2E2E2E2E2F5F5F5F5F5E2E2E2E2E2E2E2E2E2E2E2E2E2E2E2E2E2E2E2E2E2E2E2E2E2E2E2E2E2E2E2E2E2E2E2E2E2E2E2E2E2E2E2E2E2E2E2E2E2E2E2E2E2E2E2E2E2E2E2E2E2E2E2E2E2E2E2E2E2E2E2E2E2E2E2E2E2E2E2E2E2E2E2
310
E2E2E2E2E2E2E2E2E2E2E2E2E2E2E2E2E2E2E2E2E2E2E2E2E2E2E2E2E2E2E2E2E2E2E2E2E2E2E2E2E2E2E2E2E2E2E2E2E2E2E2E2E2E2E2E2E2E2E2E2E2E2E2E2E2E2E2E2E2E2E2E2E2E2E2E2E2E2E2E2E2E2E2E2E2E2E2E2E2E2E2E2E2E2E2E2E2E2E2E2E2E2E2E2E2E2E2E2E2E2E2E2E2E2E2E2E2E2E2E2E2E2E2E2F5F5F5
310
F5F5F5E2E2F5F5F5F5F5E2E2E2E2E2E2E2E2E2E2E2E2E2E2E2E2E2E2E2E2E2E2E2E2E2E2E2E2F5F5E2F5F5F5F5F5F5E2E2E2E2E2E2E2E2E2E2E2E2E2E2E2E2E2E2E2E2E2E2E2E2E2E2E2E2E2E2E2E2E2E2E2E2E2E2E2E2E2E2E2E2E2E2E2E2E2E2E2E2E2E2E2E2E2E2E2E2E2E2E2E2E2E2E2E2E2E2E2E2E2E2E2E2E2E2E2E2
310
E2E2E2E2E2E2E2E2E2E2E2E2E2E2E2E2E2E2E2E2E2E2E2E2E2E2E2E2E2E2E2E2E2E2E2E2E2E2E2E2E2E2E2E2E2E2E2E2E2E2E2E2E2E2E2E2E2E2E2E2E2E2E2E2E2E2E2E2E2E2E2E2E2E2E2E2E2E2E2E2E2E2E2E2E2E2E2E2E2E2E2E2E2E2E2E2E2E2E2E2E2E2E2E2E2E2E2E2E2E2E2E2E2E2E2E2E2E2E2E2E2E2E2E2E2F5F5
310
F5F5F5F5F5F5E2F5F5F5F5F5E2E2E2E2E2E2E2E2E2E2E2E2E2E2E2E2E2E2E2E2E2E2E2E2E2E2E2F5F5F5F5F5F5F5F5F5F5E2E2E2E2E2E2E2E2E2E2E2E2E2E2E2E2E2E2E2E2E2E2E2E2E2E2E2E2E2E2E2E2E2E2E2E2E2E2E2E2E2E2E2E2E2E2E2E2E2E2E2E2E2E2E2E2E2E2E2E2E2E2E2E2E2E2E2E2E2E2E2E2E2E2E2E2E2E2
310
E2E2E2E2E2E2E2E2E2E2E2E2E2E2E2E2E2E2E2E2E2E2E2E2E2E2E2E2E2E2E2E2E2E2E2E2E2E2E2E2E2E2E2E2E2E2E2E2E2E2E2E2E2E2E2E2E2E2E2E2E2E2E2E2E2E2E2E2E2E2E2E2E2E2E2E2E2E2E2E2E2E2E2E2E2E2E2E2E2E2E2E2E2E2E2E2E2E2E2E2E2E2E2E2E2E2E2E2E2E2E2E2E2E2E2E2E2E2E2E2E2E2E2E2E2E2F5
310
F5E2F5F5F5F5E2F5F5F5F5F5F5F5E2E2E2E2E2E2E2E2E2E2E2E2E2E2E2E2E2E2E2E2E2E2E2E2E2E2E2F5F5F5F5F5F5F5F5F5E2E2E2E2E2E2E2E2E2E2E2E2E2E2E2E2E2E2E2E2E2E2E2E2E2E2E2E2E2E2E2E2E2E2E2E2E2E2E2E2E2E2E2E2E2E2E2E2E2E2E2E2E2E2E2E2E2E2E2E2E2E2E2E2E2E2E2E2E2E2E2E2E2E2E2E2E2
310
E2E2E2E2E2E2E2E2E2E2E2E2E2E2E2E2E2E2E2E2E2E2E2E2E2E2E2E2E2E2E2E2E2E2E2E2E2E2E2E2E2E2E2E2E2E2E2E2E2E2E2E2E2E2E2E2E2E2E2E2E2E2E2E2E2E2E2E2E2E2E2E2E2E2E2E2E2E2E2E2E2E2E2E2E2E2E2E2E2E2E2E2E2E2E2E2E2E2E2E2E2E2E2E2E2E2E2E2E2E2E2E2E2E2E2E2E2E2E2E2E2E2E2E2E2E2E2
310
F5F5F5F5F5F5F5F5F5F5F5F5F5F5F5F5E2E2E2E2E2E2E2E2E2E2E2E2E2E2E2E2E2E2E2E2E2E2E2E2E2E2E2F5F5F5F5F5E2F5E2F5F5F5F5E2E2E2E2E2E2E2E2E2E2E2E2E2E2E2E2E2E2E2E2E2E2E2E2E2E2E2E2E2E2E2E2E2E2E2E2E2E2E2E2E2E2E2E2E2E2E2E2E2E2E2E2E2E2E2E2E2E2E2E2E2E2E2E2E2E2E2E2E2E2E2E2
310
E2E2E2E2E2E2E2E2E2E2E2E2E2E2E2E2E2E2E2E2E2E2E2E2E2E2E2E2E2E2E2E2E2E2E2E2E2E2E2E2E2E2E2E2E2E2E2E2E2E2E2E2E2E2E2E2E2E2E2E2E2E2E2E2E2E2E2E2E2E2E2E2E2E2E2E2E2E2E2E2E2E2E2E2E2E2E2E2E2E2E2E2E2E2E2E2E2E2E2E2E2E2E2E2E2E2E2E2E2E2E2E2E2E2E2E2E2E2E2E2E2E2E2E2E2E2E2
310
E2F5F5F5F5F5F5F5F5F5F5F5F5F5F5E2F5E2E2E2E2E2E2E2E2E2E2E2E2E2E2E2E2E2E2E2E2E2E2E2E2E2F5F5E2F5F5E2F5E2E2F5E2E2F5E2F5E2E2E2F5E2E2E2E2E2E2E2E2E2E2E2E2E2E2E2E2E2E2E2E2E2E2E2E2E2E2E2E2E2E2E2E2E2E2E2E2E2E2E2E2E2E2E2E2E2E2E2E2E2E2E2E2E2E2E2E2E2E2E2E2E2E2E2E2E2E2
310
E2E2E2E2E2E2E2E2E2E2E2E2E2E2E2E2E2E2E2E2E2E2E2E2E2E2E2E2E2E2E2E2E2E2E2E2E2E2E2E2E2E2E2E2E2E2E2E2E2E2E2E2E2E2E2E2E2E2E2E2E2E2E2E2E2E2E2E2E2E2E2E2E2E2E2E2E2E2E2E2E2E2E2E2E2E2E2E2E2E2E2E2E2E2E2E2E2E2E2E2E2E2E2E2E2E2E2E2E2E2E2E2E2E2E2E2E2E2E2E2E2E2E2E2E2E2E2
310
E2E2F5F5E2F5F5F5F5F5F5F5F5F5F5E2F5F5F5E2E2E2E2E2E2E2E2E2E2E2E2E2E2E2E2E2E2E2E2E2E2E2E2E2F5F5F5F5F5F5F5E2E2F5E2E2F5E2F5F5F5F5F5E2E2E2E2E2E2E2E2E2E2E2E2E2E2E2E2E2E2E2E2E2E2E2E2E2E2E2E2E2E2E2E2E2E2E2E2E2E2E2E2E2E2E2E2E2E2E2E2E2E2E2E2E2E2E2E2E2E2E2E2E2E2E2E2
310
E2E2E2E2E2E2E2E2E2E2E2E2E2E2E2E2E2E2E2E2E2E2E2E2E2E2E2E2E2E2E2E2E2E2E2E2E2E2E2E2E2E2E2E2E2E2E2E2E2E2E2E2E2E2E2E2E2E2E2E2E2E2E2E2E2E2E2E2E2E2E2E2E2E2E2E2E2E2E2E2E2E2E2E2E2E2E2E2E2E2E2E2E2E2E2E2E2E2E2E2E2E2E2E2E2E2E2E2E2E2E2E2E2E2E2E2E2E2E2E2E2E2E2E2E2E2E2
310
E2E2E2E2F5F5F5F5F5F5E2F5E2F5F5F5F5F5E2E2F5E2E2E2E2E2E2E2E2E2E2E2E2E2E2E2E2E2E2E2E2E2E2E2E2E2F5F5E2F5F5F5F5E2E2F5E2E2F5E2F5E2E2F5F5E2E2E2E2E2E2E2E2E2E2E2E2E2E2E2E2E2E2E2E2E2E2E2E2E2E2E2E2E2E2E2E2E2E2E2E2E2E2E2E2E2E2E2E2E2E2E2E2E2E2E2E2E2E2E2E2E2E2E2E2E2E2
310
E2E2E2E2E2E2E2E2E2E2E2E2E2E2E2E2E2E2E2E2E2E2E2E2E2E2E2E2E2E2E2E2E2E2E2E2E2E2E2E2E2E2E2E2E2E2E2E2E2E2E2E2E2E2E2E2E2E2E2E2E2E2E2E2E2E2E2E2E2E2E2E2E2E2E2E2E2E2E2E2E2E2E2E2E2E2E2E2E2E2E2E2E2E2E2E2E2E2E2E2E2E2E2E2E2E2E2E2E2E2E2E2E2E2E2E2E2E2E2E2E2E2E2E2E2E2E2
310
E2E2E2E2F5F5F5F5F5F5F5F5F5F5F5F5F5F5F5F5F5F5F5F5F5E2E2E2E2E2E2E2E2E2E2E2E2E2E2E2E2E2E2E2E2F5F5F5F5F5F5F5F5F5F5F5F5F5F5F5F5F5F5F5F5F5F5F5F5F5F5E2E2E2E2E2E2E2E2E2E2E2E2E2E2E2E2E2E2E2E2E2E2E2E2E2E2E2E2E2E2E2E2E2E2E2E2E2E2E2E2E2E2E2E2E2E2E2E2E2E2E2E2E2E2E2E2
310
E2E2E2E2E2E2E2E2E2E2E2E2E2E2E2E2E2E2E2E2E2E2E2E2E2E2E2E2E2E2E2E2E2E2E2E2E2E2E2E2E2E2E2E2E2E2E2E2E2E2E2E2E2E2E2E2E2E2E2E2E2E2E2E2E2E2E2E2E2E2E2E2E2E2E2E2E2E2E2E2E2E2E2E2E2E2E2E2E2E2E2E2E2E2E2E2E2E2E2E2E2E2E2E2E2E2E2E2E2E2E2E2E2E2E2E2E2E2E2E2E2E2E2E2E2E2E2
310
E2E2E2E2E2E2E2E2F5F5F5F5F5F5E2F5E2E2F5F5F5F5F5F5F5E2E2E2E2E2E2E2E2E2E2E2E2E2E2E2E2E2E2E2E2E2E2E2E2E2F5F5E2F5F5F5F5E2E2F5E2E2F5E2F5E2E2F5F5E2E2E2E2E2E2E2E2E2E2E2E2E2E2E2E2E2E2E2E2E2E2E2E2E2E2E2E2E2E2E2E2E2E2E2E2E2E2E2E2E2E2E2E2E2E2E2E2E2E2E2E2E2E2E2E2E2E2
310
E2E2E2E2E2E2E2E2E2E2E2E2E2E2E2E2E2E2E2E2E2E2E2E2E2E2E2E2E2E2E2E2E2E2E2E2E2E2E2E2E2E2E2E2E2E2E2E2E2E2E2E2E2E2E2E2E2E2E2E2E2E2E2E2E2E2E2E2E2E2E2E2E2E2E2E2E2E2E2E2E2E2E2E2E2E2E2E2E2E2E2E2E2E2E2E2E2E2E2E2E2E2E2E2E2E2E2E2E2E2E2E2E2E2E2E2E2E2E2E2E2E2E2E2E2E2E2
310
E2E2E2E2E2E2E2E2E2E2F5F5F5F5F5F5F5F5E2F5F5F5F5E2F5F5F5E2E2E2E2E2E2E2E2E2E2E2E2E2E2E2E2E2E2E2E2E2E2E2E2E2F5F5E2F5F5F5F5E2E2F5E2E2F5E2F5E2E2F5F5E2E2E2E2E2E2E2E2E2E2E2E2E2E2E2E2E2E2E2E2E2E2E2E2E2E2E2E2E2E2E2E2E2E2E2E2E2E2E2E2E2E2E2E2E2E2E2E2E2E2E2E2E2E2E2E2
310
E2E2E2E2E2E2E2E2E2E2E2E2E2E2E2E2E2E2E2E2E2E2E2E2E2E2E2E2E2E2E2E2E2E2E2E2E2E2E2E2E2E2E2E2E2E2E2E2E2E2E2E2E2E2E2E2E2E2E2E2E2E2E2E2E2E2E2E2E2E2E2E2E2E2E2E2E2E2E2E2E2E2E2E2E2E2E2E2E2E2E2E2E2E2E2E2E2E2E2E2E2E2E2E2E2E2E2E2E2E2E2E2E2E2E2E2E2E2E2E2E2E2E2E2E2E2E2
310
E2E2E2E2E2E2E2E2E2E2E2E2E2F5E2F5F5F5F5F5F5F5F5F5F5E2F5F5E2E2E2E2E2E2E2E2E2E2E2E2E2E2E2E2E2E2E2E2E2E2E2E2E2E2F5F5F5F5F5F5F5E2E2F5E2E2F5E2F5F5F5F5F5E2E2E2E2E2E2E2E2E2E2E2E2E2E2E2E2E2E2E2E2E2E2E2E2E2E2E2E2E2E2E2E2E2E2E2E2E2E2E2E2E2E2E2E2E2E2E2E2E2E2E2E2E2E2
310
E2E2E2E2E2E2E2E2E2E2E2E2E2E2E2E2E2E2E2E2E2E2E2E2E2E2E2E2E2E2E2E2E2E2E2E2E2E2E2E2E2E2E2E2E2E2E2E2E2E2E2E2E2E2E2E2E2E2E2E2E2E2E2E2E2E2E2E2E2E2E2E2E2E2E2E2E2E2E2E2E2E2E2E2E2E2E2E2E2E2E2E2E2E2E2E2E2E2E2E2E2E2E2E2E2E2E2E2E2E2E2E2E2E2E2E2E2E2E2E2E2E2E2E2E2E2E2
310
E2E2E2E2E2E2E2E2E2E2E2E2E2E2E2E2F5E2F5F5F5F5F5F5F5F5F5F5E2E2E2E2E2E2E2E2E2E2E2E2E2E2E2E2E2E2E2E2E2E2E2E2E2E2E2E2F5E2E2F5E2E2F5E2E2F5E2E2F5F5F5E2E2E2F5E2E2E2E2E2E2E2E2E2E2E2E2E2E2E2E2E2E2E2E2E2E2E2E2E2E2E2E2E2E2E2E2E2E2E2E2E2E2E2E2E2E2E2E2E2E2E2E2E2E2E2E2
310
E2E2E2E2E2E2E2E2E2E2E2E2E2E2E2E2E2E2E2E2E2E2E2E2E2E2E2E2E2E2E2E2E2E2E2E2E2E2E2E2E2E2E2E2E2E2E2E2E2E2E2E2E2E2E2E2E2E2E2E2E2E2E2E2E2E2E2E2E2E2E2E2E2E2E2E2E2E2E2E2E2E2E2E2E2E2E2E2E2E2E2E2E2E2E2E2E2E2E2E2E2E2E2E2E2E2E2E2E2E2E2E2E2E2E2E2E2E2E2E2E2E2E2E2E2E2E2
310
E2E2E2E2E2E2E2E2E2E2E2E2E2E2E2E2E2E2E2F5E2F5F5F5F5F5F5E2F5F5E2E2E2E2E2E2E2E2E2E2E2E2E2E2E2E2E2E2E2E2E2E2E2E2E2E2E2E2E2E2E2F5E2E2F5E2E2F5E2E2F5E2E2E2E2E2E2E2E2E2E2E2E2E2E2E2E2E2E2E2E2E2E2E2E2E2E2E2E2E2E2E2E2E2E2E2E2E2E2E2E2E2E2E2E2E2E2E2E2E2E2E2E2E2E2E2E2
310
E2E2E2E2E2E2E2E2E2E2E2E2E2E2E2E2E2E2E2E2E2E2E2E2E2E2E2E2E2E2E2E2E2E2E2E2E2E2E2E2E2E2E2E2E2E2E2E2E2E2E2E2E2E2E2E2E2E2E2E2E2E2E2E2E2E2E2E2E2E2E2E2E2E2E2E2E2E2E2E2E2E2E2E2E2E2E2E2E2E2E2E2E2E2E2E2E2E2E2E2E2E2E2E2E2E2E2E2E2E2E2E2E2E2E2E2E2E2E2E2E2E2E2E2E2E2E2
310
E2E2E2E2E2E2E2E2E2E2E2E2E2E2E2E2E2E2E2E2E2E2F5F5E2F5E2E2F5F5F5E2E2E2E2E2E2E2E2E2E2E2E2E2E2E2E2E2E2E2E2E2E2E2E2E2E2E2E2E2E2E2E2F5E2E2F5F5F5F5F5F5F5E2E2E2E2E2E2E2E2E2E2E2E2E2E2E2E2E2E2E2E2E2E2E2E2E2E2E2E2E2E2E2E2E2E2E2E2E2E2E2E2E2E2E2E2E2E2E2E2E2E2E2E2E2E2
310
E2E2E2E2E2E2E2E2E2E2E2E2E2E2E2E2E2E2E2E2E2E2E2E2E2E2E2E2E2E2E2E2E2E2E2E2E2E2E2E2E2E2E2E2E2E2E2E2E2E2E2E2E2E2E2E2E2E2E2E2E2E2E2E2E2E2E2E2E2E2E2E2E2E2E2E2E2E2E2E2E2E2E2E2E2E2E2E2E2E2E2E2E2E2E2E2E2E2E2E2E2E2E2E2E2E2E2E2E2E2E2E2E2E2E2E2E2E2E2E2E2E2E2E2E2E2E2
310
E2E2E2E2E2E2E2E2E2E2E2E2E2E2E2E2E2E2E2E2E2E2E2E2F5F5F5F5F5F5F5F5E2E2E2E2E2E2E2E2E2E2E2E2E2E2E2E2E2E2E2E2E2E2E2E2E2E2E2E2E2E2E2E2E2F5F5F5F5F5E2F5F5F5F5E2E2E2E2E2E2E2E2E2E2E2E2E2E2E2E2E2E2E2E2E2E2E2E2E2E2E2E2E2E2E2E2E2E2E2E2E2E2E2E2E2E2E2E2E2E2E2E2E2E2E2E2
310
E2E2E2E2E2E2E2E2E2E2E2E2E2E2E2E2E2E2E2E2E2E2E2E2E2E2E2E2E2E2E2E2E2E2E2E2E2E2E2E2E2E2E2E2E2E2E2E2E2E2E2E2E2E2E2E2E2E2E2E2E2E2E2E2E2E2E2E2E2E2E2E2E2E2E2E2E2E2E2E2E2E2E2E2E2E2E2E2E2E2E2E2E2E2E2E2E2E2E2E2E2E2E2E2E2E2E2E2E2E2E2E2E2E2E2E2E2E2E2E2E2E2E2E2E2E2E2
310
E2E2E2E2E2E2E2E2E2E2E2E2E2E2E2E2E2E2E2E2E2E2E2E2E2F5F5F5F5F5F5F5F5F5E2E2E2E2E2E2E2E2E2E2E2E2E2E2E2E2E2E2E2E2E2E2E2E2E2E2E2E2E2E2E2E2E2E2E2E2F5F5E2F5F5F5F5F5F5F5E2E2E2E2E2E2E2E2E2E2E2E2E2E2E2E2E2E2E2E2E2E2E2E2E2E2E2E2E2E2E2E2E2E2E2E2E2E2E2E2E2E2E2E2E2E2E2
310
E2E2E2E2E2E2E2E2E2E2E2E2E2E2E2E2E2E2E2E2E2E2E2E2E2E2E2E2E2E2E2E2E2E2E2E2E2E2E2E2E2E2E2E2E2E2E2E2E2E2E2E2E2E2E2E2E2E2E2E2E2E2E2E2E2E2E2E2E2E2E2E2E2E2E2E2E2E2E2E2E2E2E2E2E2E2E2E2E2E2E2E2E2E2E2E2E2E2E2E2E2E2E2E2E2E2E2E2E2E2E2E2E2E2E2E2E2E2E2E2E2E2E2E2E2E2E2
310
E2E2E2E2E2E2E2E2E2E2E2E2E2E2E2E2E2E2E2E2E2E2E2E2E2E2E2F5E2F5E2F5E2E2F5F5E2E2E2E2E2E2E2E2E2E2E2E2E2E2E2E2E2E2E2E2E2E2E2E2E2E2E2E2E2E2E2E2E2E2E2E2E2F5E2F5E2F5E2E2E2E2E2E2E2E2E2E2E2E2E2E2E2E2E2E2E2E2E2E2E2E2E2E2E2E2E2E2E2E2E2E2E2E2E2E2E2E2E2E2E2E2E2E2E2E2E2
310
E2E2E2E2E2E2E2E2E2E2E2E2E2E2E2E2E2E2E2E2E2E2E2E2E2E2E2E2E2E2E2E2E2E2E2E2E2E2E2E2E2E2E2E2E2E2E2E2E2E2E2E2E2E2E2E2E2E2E2E2E2E2E2E2E2E2E2E2E2E2E2E2E2E2E2E2E2E2E2E2E2E2E2E2E2E2E2E2E2E2E2E2E2E2E2E2E2E2E2E2E2E2E2E2E2E2E2E2E2E2E2E2E2E2E2E2E2E2E2E2E2E2E2E2E2E2E2
310
E2E2E2E2E2E2E2E2E2E2E2E2E2E2E2E2E2E2E2E2E2E2E2E2E2E2E2E2E2F5E2F5E2F5E2E2F5F5E2E2E2E2E2E2E2E2E2E2E2E2E2E2E2E2E2E2E2E2E2E2E2E2E2E2E2E2E2E2E2E2E2E2E2E2E2F5E2F5E2F5E2E2E2E2E2E2E2E2E2E2E2E2E2E2E2E2E2E2E2E2E2E2E2E2E2E2E2E2E2E2E2E2E2E2E2E2E2E2E2E2E2E2E2E2E2E2E2
310
E2E2E2E2E2E2E2E2E2E2E2E2E2E2E2E2E2E2E2E2E2E2E2E2E2E2E2E2E2E2E2E2E2E2E2E2E2E2E2E2E2E2E2E2E2E2E2E2E2E2E2E2E2E2E2E2E2E2E2E2E2E2E2E2E2E2E2E2E2E2E2E2E2E2E2E2E2E2E2E2E2E2E2E2E2E2E2E2E2E2E2E2E2E2E2E2E2E2E2E2E2E2E2E2E2E2E2E2E2E2E2E2E2E2E2E2E2E2E2E2E2E2E2E2E2E2E2
310
E2E2E2E2E2E2E2E2E2E2E2E2E2E2E2E2E2E2E2E2E2E2E2E2E2E2E2E2E2E2E2F5F5F5E2F5E2E2F5F5F5E2E2E2E2E2E2E2E2E2E2E2E2E2E2E2E2E2E2E2E2E2E2E2E2E2E2E2E2E2E2E2E2E2E2F5F5F5E2F5E2F5F5F5F5E2E2E2E2E2E2E2E2E2E2E2E2E2E2E2E2E2E2E2E2E2E2E2E2E2E2E2E2E2E2E2E2E2E2E2E2E2E2E2E2E2E2
310
E2E2E2E2E2E2E2E2E2E2E2E2E2E2E2E2E2E2E2E2E2E2E2E2E2E2E2E2E2E2E2E2E2E2E2E2E2E2E2E2E2E2E2E2E2E2E2E2E2E2E2E2E2E2E2E2E2E2E2E2E2E2E2E2E2E2E2E2E2E2E2E2E2E2E2E2E2E2E2E2E2E2E2E2E2E2E2E2E2E2E2E2E2E2E2E2E2E2E2E2E2E2E2E2E2E2E2E2E2E2E2E2E2E2E2E2E2E2E2E2E2E2E2E2E2E2E2
310
E2E2E2E2E2E2E2E2E2E2E2E2E2E2E2E2E2E2E2E2E2E2E2E2E2E2E2E2E2E2E2E2E2F5F5F5E2F5E2E2F5F5F5E2E2E2E2E2E2E2E2E2E2E2E2E2E2E2E2E2E2E2E2E2E2E2E2E2E2E2E2E2E2E2E2E2E2F5F5F5E2F5E2F5F5F5F5E2E2E2E2E2E2E2E2E2E2E2E2E2E2E2E2E2E2E2E2E2E2E2E2E2E2E2E2E2E2E2E2E2E2E2E2E2E2E2E2
310
E2E2E2E2E2E2E2E2E2E2E2E2E2E2E2E2E2E2E2E2E2E2E2E2E2E2E2E2E2E2E2E2E2E2E2E2E2E2E2E2E2E2E2E2E2E2E2E2E2E2E2E2E2E2E2E2E2E2E2E2E2E2E2E2E2E2E2E2E2E2E2E2E2E2E2E2E2E2E2E2E2E2E2E2E2E2E2E2E2E2E2E2E2E2E2E2E2E2E2E2E2E2E2E2E2E2E2E2E2E2E2E2E2E2E2E2E2E2E2E2E2E2E2E2E2E2E2
310
E2E2E2E2E2E2E2E2E2E2E2E2E2E2E2E2E2E2E2E2E2E2E2E2E2E2E2E2E2E2E2E2E2E2E2F5F5F5F5F5F5F5F5F5F5E2E2E2E2E2E2E2E2E2E2E2E2E2E2E2E2E2E2E2E2E2E2E2E2E2E2E2E2E2E2E2E2E2F5F5F5F5F5F5F5F5F5F5F5E2E2E2E2E2E2E2E2E2E2E2E2E2E2E2E2E2E2E2E2E2E2E2E2E2E2E2E2E2E2E2E2E2E2E2E2E2E2
310
E2E2E2E2E2E2E2E2E2E2E2E2E2E2E2E2E2E2E2E2E2E2E2E2E2E2E2E2E2E2E2E2E2E2E2E2E2E2E2E2E2E2E2E2E2E2E2E2E2E2E2E2E2E2E2E2E2E2E2E2E2E2E2E2E2E2E2E2E2E2E2E2E2E2E2E2E2E2E2E2E2E2E2E2E2E2E2E2E2E2E2E2E2E2E2E2E2E2E2E2E2E2E2E2E2E2E2E2E2E2E2E2E2E2E2E2E2E2E2E2E2E2E2E2E2E2E2
310
E2E2E2E2E2E2E2E2E2E2E2E2E2E2E2E2E2E2E2E2E2E2E2E2E2E2E2E2E2E2E2E2E2E2E2E2E2F5F5E2E2F5E2E2E2F5F5E2E2E2E2E2E2E2E2E2E2E2E2E2E2E2E2E2E2E2E2E2E2E2E2E2E2E2E2E2E2E2E2E2F5F5E2E2E2F5E2E2E2F5F5E2E2E2E2E2E2E2E2E2E2E2E2E2E2E2E2E2E2E2E2E2E2E2E2E2E2E2E2E2E2E2E2E2E2E2E2
310
E2E2E2E2E2E2E2E2E2E2E2E2E2E2E2E2E2E2E2E2E2E2E2E2E2E2E2E2E2E2E2E2E2E2E2E2E2E2E2E2E2E2E2E2E2E2E2E2E2E2E2E2E2E2E2E2E2E2E2E2E2E2E2E2E2E2E2E2E2E2E2E2E2E2E2E2E2E2E2E2E2E2E2E2E2E2E2E2E2E2E2E2E2E2E2E2E2E2E2E2E2E2E2E2E2E2E2E2E2E2E2E2E2E2E2E2E2E2E2E2E2E2E2E2E2E2E2
310
E2E2E2E2E2E2E2E2E2E2E2E2E2E2E2E2E2E2E2E2E2E2E2E2E2E2E2E2E2E2E2E2E2E2E2E2E2E2E2F5F5F5F5F5F5F5F5F5F5E2E2E2E2E2E2E2E2E2E2E2E2E2E2E2E2E2E2E2E2E2E2E2E2E2E2E2E2E2E2E2E2E2F5F5F5F5F5F5F5F5F5F5F5E2E2E2E2E2E2E2E2E2E2E2E2E2E2E2E2E2E2E2E2E2E2E2E2E2E2E2E2E2E2E2E2E2E2
310
E2E2E2E2E2E2E2E2E2E2E2E2E2E2E2E2E2E2E2E2E2E2E2E2E2E2E2E2E2E2E2E2E2E2E2E2E2E2E2E2E2E2E2E2E2E2E2E2E2E2E2E2E2E2E2E2E2E2E2E2E2E2E2E2E2E2E2E2E2E2E2E2E2E2E2E2E2E2E2E2E2E2E2E2E2E2E2E2E2E2E2E2E2E2E2E2E2E2E2E2E2E2E2E2E2E2E2E2E2E2E2E2E2E2E2E2E2E2E2E2E2E2E2E2E2E2E2
310
E2E2E2E2E2E2E2E2E2E2E2E2E2E2E2E2E2E2E2E2E2E2E2E2E2E2E2E2E2E2E2E2E2E2E2E2E2E2E2E2E2F5E2E2E2F5E2E2E2E2F5E2E2E2E2E2E2E2E2E2E2E2E2E2E2E2E2E2E2E2E2E2E2E2E2E2E2E2E2E2E2E2E2E2F5E2E2E2E2F5E2E2E2E2F5E2E2E2E2E2E2E2E2E2E2E2E2E2E2E2E2E2E2E2E2E2E2E2E2E2E2E2E2E2E2E2E2
310
E2E2E2E2E2E2E2E2E2E2E2E2E2E2E2E2E2E2E2E2E2E2E2E2E2E2E2E2E2E2E2E2E2E2E2E2E2E2E2E2E2E2E2E2E2E2E2E2E2E2E2E2E2E2E2E2E2E2E2E2E2E2E2E2E2E2E2E2E2E2E2E2E2E2E2E2E2E2E2E2E2E2E2E2E2E2E2E2E2E2E2E2E2E2E2E2E2E2E2E2E2E2E2E2E2E2E2E2E2E2E2E2E2E2E2E2E2E2E2E2E2E2E2E2E2E2E2
310
E2E2E2E2E2E2E2E2E2E2E2E2E2E2E2E2E2E2E2E2E2E2E2E2E2E2E2E2E2E2E2E2E2E2E2E2E2E2E2E2E2E2E2F5E2E2E2F5E2E2E2E2F5E2E2E2E2E2E2E2E2E2E2E2E2E2E2E2E2E2E2E2E2E2E2E2E2E2E2E2E2E2E2E2E2E2F5E2E2E2E2F5F5E2E2E2F5E2E2E2E2E2E2E2E2E2E2E2E2E2E2E2E2E2E2E2E2E2E2E2E2E2E2E2E2E2E2
310
E2E2E2E2E2E2E2E2E2E2E2E2E2E2E2E2E2E2E2E2E2E2E2E2E2E2E2E2E2E2E2E2E2E2E2E2E2E2E2E2E2E2E2E2E2E2E2E2E2E2E2E2E2E2E2E2E2E2E2E2E2E2E2E2E2E2E2E2E2E2E2E2E2E2E2E2E2E2E2E2E2E2E2E2E2E2E2E2E2E2E2E2E2E2E2E2E2E2E2E2E2E2E2E2E2E2E2E2E2E2E2E2E2E2E2E2E2E2E2E2E2E2E2E2E2E2E2
310
E2E2E2E2E2E2E2E2E2E2E2E2E2E2E2E2E2E2E2E2E2E2E2E2E2E2E2E2E2E2E2E2E2E2E2E2E2E2E2E2E2E2E2E2E2F5E2E2E2F5E2E2E2E2F5E2E2E2E2E2E2E2E2E2E2E2E2E2E2E2E2E2E2E2E2E2E2E2E2E2E2E2E2E2E2E2E2E2F5E2E2E2F5F5F5E2E2E2F5E2E2E2E2E2E2E2E2E2E2E2E2E2E2E2E2E2E2E2E2E2E2E2E2E2E2E2E2
310
E2E2E2E2E2E2E2E2E2E2E2E2E2E2E2E2E2E2E2E2E2E2E2E2E2E2E2E2E2E2E2E2E2E2E2E2E2E2E2E2E2E2E2E2E2E2E2E2E2E2E2E2E2E2E2E2E2E2E2E2E2E2E2E2E2E2E2E2E2E2E2E2E2E2E2E2E2E2E2E2E2E2E2E2E2E2E2E2E2E2E2E2E2E2E2E2E2E2E2E2E2E2E2E2E2E2E2E2E2E2E2E2E2E2E2E2E2E2E2E2E2E2E2E2E2E2E2
310
E2E2E2E2E2E2E2E2E2E2E2E2E2E2E2E2E2E2E2E2E2E2E2E2E2E2E2E2E2E2E2E2E2E2E2E2E2E2E2E2E2E2E2E2E2E2E2F5F5F5F5F5F5F5F5F5F5E2E2E2E2E2E2E2E2E2E2E2E2E2E2E2E2E2E2E2E2E2E2E2E2E2E2E2E2E2E2E2E2E2F5F5F5F5F5F5F5F5F5F5F5E2E2E2E2E2E2E2E2E2E2E2E2E2E2E2E2E2E2E2E2E2E2E2E2E2E2
310
E2E2E2E2E2E2E2E2E2E2E2E2E2E2E2E2E2E2E2E2E2E2E2E2E2E2E2E2E2E2E2E2E2E2E2E2E2E2E2E2E2E2E2E2E2E2E2E2E2E2E2E2E2E2E2E2E2E2E2E2E2E2E2E2E2E2E2E2E2E2E2E2E2E2E2E2E2E2E2E2E2E2E2E2E2E2E2E2E2E2E2E2E2E2E2E2E2E2E2E2E2E2E2E2E2E2E2E2E2E2E2E2E2E2E2E2E2E2E2E2E2E2E2E2E2E2E2
310
E2E2E2E2E2E2E2E2E2E2E2E2E2E2E2E2E2E2E2E2E2E2E2E2E2E2E2E2E2E2E2E2E2E2E2E2E2E2E2E2E2E2E2E2E2E2E2E2E2F5E2E2E2F5E2E2E2E2F5E2E2E2E2E2E2E2E2E2E2E2E2E2E2E2E2E2E2E2E2E2E2E2E2E2E2E2E2E2E2E2E2E2F5E2E2E2E2F5E2E2E2E2F5E2E2E2E2E2E2E2E2E2E2E2E2E2E2E2E2E2E2E2E2E2E2E2E2
310
E2E2E2E2E2E2E2E2E2E2E2E2E2E2E2E2E2E2E2E2E2E2E2E2E2E2E2E2E2E2E2E2E2E2E2E2E2E2E2E2E2E2E2E2E2E2E2E2E2E2E2E2E2E2E2E2E2E2E2E2E2E2E2E2E2E2E2E2E2E2E2E2E2E2E2E2E2E2E2E2E2E2E2E2E2E2E2E2E2E2E2E2E2E2E2E2E2E2E2E2E2E2E2E2E2E2E2E2E2E2E2E2E2E2E2E2E2E2E2E2E2E2E2E2E2E2E2
310
E2E2E2E2E2E2E2E2E2E2E2E2E2E2E2E2E2E2E2E2E2E2E2E2E2E2E2E2E2E2E2E2E2E2E2E2E2E2E2E2E2E2E2E2E2E2E2E2E2E2E2F5E2E2E2F5E2E2E2E2F5E2E2E2E2E2E2E2E2E2E2E2E2E2E2E2E2E2E2E2E2E2E2E2E2E2E2E2E2E2E2E2E2E2E2F5E2E2E2F5E2E2E2E2F5E2E2E2E2E2E2E2E2E2E2E2E2E2E2E2E2E2E2E2E2E2E2
310
E2E2E2E2E2E2E2E2E2E2E2E2E2E2E2E2E2E2E2E2E2E2E2E2E2E2E2E2E2E2E2E2E2E2E2E2E2E2E2E2E2E2E2E2E2E2E2E2E2E2E2E2E2E2E2E2E2E2E2E2E2E2E2E2E2E2E2E2E2E2E2E2E2E2E2E2E2E2E2E2E2E2E2E2E2E2E2E2E2E2E2E2E2E2E2E2E2E2E2E2E2E2E2E2E2E2E2E2E2E2E2E2E2E2E2E2E2E2E2E2E2E2E2E2E2E2E2
310
E2E2E2E2E2E2E2E2E2E2E2E2E2E2E2E2E2E2E2E2E2E2E2E2E2E2E2E2E2E2E2E2E2E2E2E2E2E2E2E2E2E2E2E2E2E2E2E2E2E2E2E2E2F5F5F5F5F5F5F5F5F5F5E2E2E2E2E2E2E2E2E2E2E2E2E2E2E2E2E2E2E2E2E2E2E2E2E2E2E2E2E2E2E2E2E2E2F5F5F5F5F5F5F5F5F5F5E2E2E2E2E2E2E2E2E2E2E2E2E2E2E2E2E2E2E2E2
310
E2E2E2E2E2E2E2E2E2E2E2E2E2E2E2E2E2E2E2E2E2E2E2E2E2E2E2E2E2E2E2E2E2E2E2E2E2E2E2E2E2E2E2E2E2E2E2E2E2E2E2E2E2E2E2E2E2E2E2E2E2E2E2E2E2E2E2E2E2E2E2E2E2E2E2E2E2E2E2E2E2E2E2E2E2E2E2E2E2E2E2E2E2E2E2E2E2E2E2E2E2E2E2E2E2E2E2E2E2E2E2E2E2E2E2E2E2E2E2E2E2E2E2E2E2E2E2
310
E2E2E2E2E2E2E2E2E2E2E2E2E2E2E2E2E2E2E2E2E2E2E2E2E2E2E2E2E2E2E2E2E2E2E2E2E2E2E2E2E2E2E2E2E2E2E2E2E2E2E2E2E2E2E2F5E2E2E2F5E2E2E2E2F5E2E2E2E2E2E2E2E2E2E2E2E2E2E2E2E2E2E2E2E2E2E2E2E2E2E2E2E2E2E2E2E2E2E2F5E2E2E2F5E2E2E2E2F5E2E2E2E2E2E2E2E2E2E2E2E2E2E2E2E2E2E2
310
E2E2E2E2E2E2E2E2E2E2E2E2E2E2E2E2E2E2E2E2E2E2E2E2E2E2E2E2E2E2E2E2E2E2E2E2E2E2E2E2E2E2E2E2E2E2E2E2E2E2E2E2E2E2E2E2E2E2E2E2E2E2E2E2E2E2E2E2E2E2E2E2E2E2E2E2E2E2E2E2E2E2E2E2E2E2E2E2E2E2E2E2E2E2E2E2E2E2E2E2E2E2E2E2E2E2E2E2E2E2E2E2E2E2E2E2E2E2E2E2E2E2E2E2E2E2E2
310
E2E2E2E2E2E2E2E2E2E2E2E2E2E2E2E2E2E2E2E2E2E2E2E2E2E2E2E2E2E2E2E2E2E2E2E2E2E2E2E2E2E2E2E2E2E2E2E2E2E2E2E2E2E2E2E2E2F5E2E2E2F5E2E2E2E2F5E2E2E2E2E2E2E2E2E2E2E2E2E2E2E2E2E2E2E2E2E2E2E2E2E2E2E2E2E2E2E2E2E2E2F5E2E2E2F5E2E2E2E2F5E2E2E2E2E2E2E2E2E2E2E2E2E2E2E2E2
310
E2E2E2E2E2E2E2E2E2E2E2E2E2E2E2E2E2E2E2E2E2E2E2E2E2E2E2E2E2E2E2E2E2E2E2E2E2E2E2E2E2E2E2E2E2E2E2E2E2E2E2E2E2E2E2E2E2E2E2E2E2E2E2E2E2E2E2E2E2E2E2E2E2E2E2E2E2E2E2E2E2E2E2E2E2E2E2E2E2E2E2E2E2E2E2E2E2E2E2E2E2E2E2E2E2E2E2E2E2E2E2E2E2E2E2E2E2E2E2E2E2E2E2E2E2E2E2
310
E2E2E2E2E2E2E2E2E2E2E2E2E2E2E2E2E2E2E2E2E2E2E2E2E2E2E2E2E2E2E2E2E2E2E2E2E2E2E2E2E2E2E2E2E2E2E2E2E2E2E2E2E2E2E2E2E2E2E2F5E2E2E2F5E2E2E2E2F5E2E2E2E2E2E2E2E2E2E2E2E2E2E2E2E2E2E2E2E2E2E2E2E2E2E2E2E2E2E2E2E2E2E2F5E2E2E2F5E2E2E2E2F5E2E2E2E2E2E2E2E2E2E2E2E2E2E2
310
E2E2E2E2E2E2E2E2E2E2E2E2E2E2E2E2E2E2E2E2E2E2E2E2E2E2E2E2E2E2E2E2E2E2E2E2E2E2E2E2E2E2E2E2E2E2E2E2E2E2E2E2E2E2E2E2E2E2E2E2E2E2E2E2E2E2E2E2E2E2E2E2E2E2E2E2E2E2E2E2E2E2E2E2E2E2E2E2E2E2E2E2E2E2E2E2E2E2E2E2E2E2E2E2E2E2E2E2E2E2E2E2E2E2E2E2E2E2E2E2E2E2E2E2E2E2E2
310
E2E2E2E2E2E2E2E2E2E2E2E2E2E2E2E2E2E2E2E2E2E2E2E2E2E2E2E2E2E2E2E2E2E2E2E2E2E2E2E2E2E2E2E2E2E2E2E2E2E2E2E2E2E2E2E2E2E2E2E2E2F5E2E2E2F5E2E2E2E2F5E2E2E2E2E2E2E2E2E2E2E2E2E2E2E2E2E2E2E2E2E2E2E2E2E2E2E2E2E2E2E2E2E2E2F5E2E2E2F5E2E2E2E2F5E2E2E2E2E2E2E2E2E2E2E2E2
310
E2E2E2E2E2E2E2E2E2E2E2E2E2E2E2E2E2E2E2E2E2E2E2E2E2E2E2E2E2E2E2E2E2E2E2E2E2E2E2E2E2E2E2E2E2E2E2E2E2E2E2E2E2E2E2E2E2E2E2E2E2E2E2E2E2E2E2E2E2E2E2E2E2E2E2E2E2E2E2E2E2E2E2E2E2E2E2E2E2E2E2E2E2E2E2E2E2E2E2E2E2E2E2E2E2E2E2E2E2E2E2E2E2E2E2E2E2E2E2E2E2E2E2E2E2E2E2
310
E2E2E2E2E2E2E2E2E2E2E2E2E2E2E2E2E2E2E2E2E2E2E2E2E2E2E2E2E2E2E2E2E2E2E2E2E2E2E2E2E2E2E2E2E2E2E2E2E2E2E2E2E2E2E2E2E2E2E2E2E2E2E2F5E2E2E2F5E2E2E2E2F5E2E2E2E2E2E2E2E2E2E2E2E2E2E2E2E2E2E2E2E2E2E2E2E2E2E2E2E2E2E2E2E2E2E2F5E2E2E2F5E2E2E2E2F5E2E2E2E2E2E2E2E2E2E2
310
E2E2E2E2E2E2E2E2E2E2E2E2E2E2E2E2E2E2E2E2E2E2E2E2E2E2E2E2E2E2E2E2E2E2E2E2E2E2E2E2E2E2E2E2E2E2E2E2E2E2E2E2E2E2E2E2E2E2E2E2E2E2E2E2E2E2E2E2E2E2E2E2E2E2E2E2E2E2E2E2E2E2E2E2E2E2E2E2E2E2E2E2E2E2E2E2E2E2E2E2E2E2E2E2E2E2E2E2E2E2E2E2E2E2E2E2E2E2E2E2E2E2E2E2E2E2E2
310
E2E2E2E2E2E2E2E2E2E2E2E2E2E2E2E2E2E2E2E2E2E2E2E2E2E2E2E2E2E2E2E2E2E2E2E2E2E2E2E2E2E2E2E2E2E2E2E2E2E2E2E2E2E2E2E2E2E2E2E2E2E2E2E2E2F5E2E2E2F5E2E2E2E2F5E2E2E2E2E2E2E2E2E2E2E2E2E2E2E2E2E2E2E2E2E2E2E2E2E2E2E2E2E2E2E2E2E2E2F5E2E2E2F5E2E2E2E2F5E2E2E2E2E2E2E2E2
310
E2E2E2E2E2E2E2E2E2E2E2E2E2E2E2E2E2E2E2E2E2E2E2E2E2E2E2E2E2E2E2E2E2E2E2E2E2E2E2E2E2E2E2E2E2E2E2E2E2E2E2E2E2E2E2E2E2E2E2E2E2E2E2E2E2E2E2E2E2E2E2E2E2E2E2E2E2E2E2E2E2E2E2E2E2E2E2E2E2E2E2E2E2E2E2E2E2E2E2E2E2E2E2E2E2E2E2E2E2E2E2E2E2E2E2E2E2E2E2E2E2E2E2E2E2E2E2
310
E2E2E2E2E2E2E2E2E2E2E2E2E2E2E2E2E2E2E2E2E2E2E2E2E2E2E2E2E2E2E2E2E2E2E2E2E2E2E2E2E2E2E2E2E2E2E2E2E2E2E2E2E2E2E2E2E2E2E2E2E2E2E2E2E2E2E2F5E2E2E2F5E2E2E2E2F5E2E2E2E2E2E2E2E2E2E2E2E2E2E2E2E2E2E2E2E2E2E2E2E2E2E2E2E2E2E2E2E2E2E2F5E2E2E2F5E2E2E2E2F5E2E2E2E2E2E2
310
E2E2E2E2E2E2E2E2E2E2E2E2E2E2E2E2E2E2E2E2E2E2E2E2E2E2E2E2E2E2E2E2E2E2E2E2E2E2E2E2E2E2E2E2E2E2E2E2E2E2E2E2E2E2E2E2E2E2E2E2E2E2E2E2E2E2E2E2E2E2E2E2E2E2E2E2E2E2E2E2E2E2E2E2E2E2E2E2E2E2E2E2E2E2E2E2E2E2E2E2E2E2E2E2E2E2E2E2E2E2E2E2E2E2E2E2E2E2E2E2E2E2E2E2E2E2E2
310
E2E2E2E2E2E2E2E2E2E2E2E2E2E2E2E2E2E2E2E2E2E2E2E2E2E2E2E2E2E2E2E2E2E2E2E2E2E2E2E2E2E2E2E2E2E2E2E2E2E2E2E2E2E2E2E2E2E2E2E2E2E2E2E2E2E2E2E2E2F5E2E2E2F5E2E2E2E2F5E2E2E2E2E2E2E2E2E2E2E2E2E2E2E2E2E2E2E2E2E2E2E2E2E2E2E2E2E2E2E2E2E2E2F5E2E2E2F5E2E2E2E2F5E2E2E2E2
310
E2E2E2E2E2E2E2E2E2E2E2E2E2E2E2E2E2E2E2E2E2E2E2E2E2E2E2E2E2E2E2E2E2E2E2E2E2E2E2E2E2E2E2E2E2E2E2E2E2E2E2E2E2E2E2E2E2E2E2E2E2E2E2E2E2E2E2E2E2E2E2E2E2E2E2E2E2E2E2E2E2E2E2E2E2E2E2E2E2E2E2E2E2E2E2E2E2E2E2E2E2E2E2E2E2E2E2E2E2E2E2E2E2E2E2E2E2E2E2E2E2E2E2E2E2E2E2
310
E2E2E2E2E2E2E2E2E2E2E2E2E2E2E2E2E2E2E2E2E2E2E2E2E2E2E2E2E2E2E2E2E2E2E2E2E2E2E2E2E2E2E2E2E2E2E2E2E2E2E2E2E2E2E2E2E2E2E2E2E2E2E2E2E2E2E2E2E2E2E2F5E2E2E2F5E2E2E2E2F5E2E2E2E2E2E2E2E2E2E2E2E2E2E2E2E2E2E2E2E2E2E2E2E2E2E2E2E2E2E2E2E2E2E2F5E2E2E2F5E2E2E2E2F5E2E2
310
E2E2E2E2E2E2E2E2E2E2E2E2E2E2E2E2E2E2E2E2E2E2E2E2E2E2E2E2E2E2E2E2E2E2E2E2E2E2E2E2E2E2E2E2E2E2E2E2E2E2E2E2E2E2E2E2E2E2E2E2E2E2E2E2E2E2E2E2E2E2E2E2E2E2E2E2E2E2E2E2E2E2E2E2E2E2E2E2E2E2E2E2E2E2E2E2E2E2E2E2E2E2E2E2E2E2E2E2E2E2E2E2E2E2E2E2E2E2E2E2E2E2E2E2E2E2E2
310
E2E2E2E2E2E2E2E2E2E2E2E2E2E2E2E2E2E2E2E2E2E2E2E2E2E2E2E2E2E2E2E2E2E2E2E2E2E2E2E2E2E2E2E2E2E2E2E2E2E2E2E2E2E2E2E2E2E2E2E2E2E2E2E2E2E2E2E2E2E2E2E2E2F5E2E2E2F5E2E2E2E2F5E2E2E2E2E2E2E2E2E2E2E2E2E2E2E2E2E2E2E2E2E2E2E2E2E2E2E2E2E2E2E2E2E2E2F5E2E2E2F5E2E2E2E2F5
310
E2E2E2E2E2E2E2E2E2E2E2E2E2E2E2E2E2E2E2E2E2E2E2E2E2E2E2E2E2E2E2E2E2E2E2E2E2E2E2E2E2E2E2E2E2E2E2E2E2E2E2E2E2E2E2E2E2E2E2E2E2E2E2E2E2E2E2E2E2E2E2E2E2E2E2E2E2E2E2E2E2E2E2E2E2E2E2E2E2E2E2E2E2E2E2E2E2E2E2E2E2E2E2E2E2E2E2E2E2E2E2E2E2E2E2E2E2E2E2E2E2E2E2E2E2E2E2
310
E2E2E2E2E2E2E2E2E2E2E2E2E2E2E2E2E2E2E2E2E2E2E2E2E2E2E2E2E2E2E2E2E2E2E2E2E2E2E2E2E2E2E2E2E2E2E2E2E2E2E2E2E2E2E2E2E2E2E2E2E2E2E2E2E2E2E2E2E2E2E2E2E2E2E2F5E2E2E2F5E2E2E2E2F5E2E2E2E2E2E2E2E2E2E2E2E2E2E2E2E2E2E2E2E2E2E2E2E2E2E2E2E2E2E2E2E2E2E2F5E2E2E2F5E2E2E2
310
E2F5E2E2E2E2E2E2E2E2E2E2E2E2E2E2E2E2E2E2E2E2E2E2E2E2E2E2E2E2E2E2E2E2E2E2E2E2E2E2E2E2E2E2E2E2E2E2E2E2E2E2E2E2E2E2E2E2E2E2E2E2E2E2E2E2E2E2E2E2E2E2E2E2E2E2E2E2E2E2E2E2E2E2E2E2E2E2E2E2E2E2E2E2E2E2E2E2E2E2E2E2E2E2E2E2E2E2E2E2E2E2E2E2E2E2E2E2E2E2E2E2E2E2E2E2E2
310
E2E2E2E2E2E2E2E2E2E2E2E2E2E2E2E2E2E2E2E2E2E2E2E2E2E2E2E2E2E2E2E2E2E2E2E2E2E2E2E2E2E2E2E2E2E2E2E2E2E2E2E2E2E2E2E2E2E2E2E2E2E2E2E2E2E2E2E2E2E2E2E2E2E2E2E2E2F5E2E2E2F5E2E2E2E2F5E2E2E2E2E2E2E2E2E2E2E2E2E2E2E2E2E2E2E2E2E2E2E2E2E2E2E2E2E2E2E2E2E2E2F5E2E2F5F5F5
310
E2E2E2F5E2E2E2E2E2E2E2E2E2E2E2E2E2E2E2E2E2E2E2E2E2E2E2E2E2E2E2E2E2E2E2E2E2E2E2E2E2E2E2E2E2E2E2E2E2E2E2E2E2E2E2E2E2E2E2E2E2E2E2E2E2E2E2E2E2E2E2E2E2E2E2E2E2E2E2E2E2E2E2E2E2E2E2E2E2E2E2E2E2E2E2E2E2E2E2E2E2E2E2E2E2E2E2E2E2E2E2E2E2E2E2E2E2E2E2E2E2E2E2E2E2E2E2
310
E2E2E2E2E2E2E2E2E2E2E2E2E2E2E2E2E2E2E2E2E2E2E2E2E2E2E2E2E2E2E2E2E2E2E2E2E2E2E2E2E2E2E2E2E2E2E2E2E2E2E2E2E2E2E2E2E2E2E2E2E2E2E2E2E2E2E2E2E2E2E2E2E2E2E2E2E2E2E2F5F5F5F5F5F5F5F5F5F5E2E2E2E2E2E2E2E2E2E2E2E2E2E2E2E2E2E2E2E2E2E2E2E2E2E2E2E2E2E2E2E2E2E2F5F5F5F5
310
F5F5F5F5F5F5E2E2E2E2E2E2E2E2E2E2E2E2E2E2E2E2E2E2E2E2E2E2E2E2E2E2E2E2E2E2E2E2E2E2E2E2E2E2E2E2E2E2E2E2E2E2E2E2E2E2E2E2E2E2E2E2E2E2E2E2E2E2E2E2E2E2E2E2E2E2E2E2E2E2E2E2E2E2E2E2E2E2E2E2E2E2E2E2E2E2E2E2E2E2E2E2E2E2E2E2E2E2E2E2E2E2E2E2E2E2E2E2E2E2E2E2E2E2E2E2E2
310
E2E2E2E2E2E2E2E2E2E2E2E2E2E2E2E2E2E2E2E2E2E2E2E2E2E2E2E2E2E2E2E2E2E2E2E2E2E2E2E2E2E2E2E2E2E2E2E2E2E2E2E2E2E2E2E2E2E2E2E2E2E2E2E2E2E2E2E2E2E2E2E2E2E2E2E2E2E2E2E2E2E2E2E2F5F5F5F5E2E2E2E2E2E2E2E2E2E2E2E2E2E2E2E2E2E2E2E2E2E2E2E2E2E2E2E2E2E2E2E2E2E2E2E2E2E2F5
310
F5F5F5F5F5F5F5E2E2E2E2E2E2E2E2E2E2E2E2E2E2E2E2E2E2E2E2E2E2E2E2E2E2E2E2E2E2E2E2E2E2E2E2E2E2E2E2E2E2E2E2E2E2E2E2E2E2E2E2E2E2E2E2E2E2E2E2E2E2E2E2E2E2E2E2E2E2E2E2E2E2E2E2E2E2E2E2E2E2E2E2E2E2E2E2E2E2E2E2E2E2E2E2E2E2E2E2E2E2E2E2E2E2E2E2E2E2E2E2E2E2E2E2E2E2E2E2
310
E2E2E2E2E2E2E2E2E2E2E2E2E2E2E2E2E2E2E2E2E2E2E2E2E2E2E2E2E2E2E2E2E2E2E2E2E2E2E2E2E2E2E2E2E2E2E2E2E2E2E2E2E2E2E2E2E2E2E2E2E2E2E2E2E2E2E2E2E2E2E2E2E2E2E2E2E2E2E2E2E2E2E2E2E2E2F5F5F5F5E2E2E2E2E2E2E2E2E2E2E2E2E2E2E2E2E2E2E2E2E2E2E2E2E2E2E2E2E2E2E2E2E2E2E2E2E2
310
E2F5F5E2F5E2F5F5E2E2E2E2E2E2E2E2E2E2E2E2E2E2E2E2E2E2E2E2E2E2E2E2E2E2E2E2E2E2E2E2E2E2E2E2E2E2E2E2E2E2E2E2E2E2E2E2E2E2E2E2E2E2E2E2E2E2E2E2E2E2E2E2E2E2E2E2E2E2E2E2E2E2E2E2E2E2E2E2E2E2E2E2E2E2E2E2E2E2E2E2E2E2E2E2E2E2E2E2E2E2E2E2E2E2E2E2E2E2E2E2E2E2E2E2E2E2E2
310
E2E2E2E2E2E2E2E2E2E2E2E2E2E2E2E2E2E2E2E2E2E2E2E2E2E2E2E2E2E2E2E2E2E2E2E2E2E2E2E2E2E2E2E2E2E2E2E2E2E2E2E2E2E2E2E2E2E2E2E2E2E2E2E2E2E2E2E2E2E2E2E2E2E2E2E2E2E2E2E2E2E2E2E2E2E2E2E2F5F5E2F5E2E2E2E2E2E2E2E2E2E2E2E2E2E2E2E2E2E2E2E2E2E2E2E2E2E2E2E2E2E2E2E2E2E2E2
310
E2E2E2E2F5E2F5E2F5E2E2E2E2E2E2E2E2E2E2E2E2E2E2E2E2E2E2E2E2E2E2E2E2E2E2E2E2E2E2E2E2E2E2E2E2E2E2E2E2E2E2E2E2E2E2E2E2E2E2E2E2E2E2E2E2E2E2E2E2E2E2E2E2E2E2E2E2E2E2E2E2E2E2E2E2E2E2E2E2E2E2E2E2E2E2E2E2E2E2E2E2E2E2E2E2E2E2E2E2E2E2E2E2E2E2E2E2E2E2E2E2E2E2E2E2E2E2
310
E2E2E2E2E2E2E2E2E2E2E2E2E2E2E2E2E2E2E2E2E2E2E2E2E2E2E2E2E2E2E2E2E2E2E2E2E2E2E2E2E2E2E2E2E2E2E2E2E2E2E2E2E2E2E2E2E2E2E2E2E2E2E2E2E2E2E2E2E2E2E2E2E2E2E2E2E2E2E2E2E2E2E2E2E2E2E2E2E2E2F5F5F5F5E2E2E2E2E2E2E2E2E2E2E2E2E2E2E2E2E2E2E2E2E2E2E2E2E2E2E2E2E2E2E2E2E2
310
E2E2E2E2E2E2F5F5F5F5F5E2E2E2E2E2E2E2E2E2E2E2E2E2E2E2E2E2E2E2E2E2E2E2E2E2E2E2E2E2E2E2E2E2E2E2E2E2E2E2E2E2E2E2E2E2E2E2E2E2E2E2E2E2E2E2E2E2E2E2E2E2E2E2E2E2E2E2E2E2E2E2E2E2E2E2E2E2E2E2E2E2E2E2E2E2E2E2E2E2E2E2E2E2E2E2E2E2E2E2E2E2E2E2E2E2E2E2E2E2E2E2E2E2E2E2E2
310
E2E2E2E2E2E2E2E2E2E2E2E2E2E2E2E2E2E2E2E2E2E2E2E2E2E2E2E2E2E2E2E2E2E2E2E2E2E2E2E2E2E2E2E2E2E2E2E2E2E2E2E2E2E2E2E2E2E2E2E2E2E2E2E2E2E2E2E2E2E2E2E2E2E2E2E2E2E2E2E2E2E2E2E2E2E2E2E2E2E2E2E2E2F5E2E2E2E2E2E2E2E2E2E2E2E2E2E2E2E2E2E2E2E2E2E2E2E2E2E2E2E2E2E2E2E2E2
310
E2E2E2E2E2E2E2E2E2E2F5E2E2E2E2E2E2E2E2E2E2E2E2E2E2E2E2E2E2E2E2E2E2E2E2E2E2E2E2E2E2E2E2E2E2E2E2E2E2E2E2E2E2E2E2E2E2E2E2E2E2E2E2E2E2E2E2E2E2E2E2E2E2E2E2E2E2E2E2E2E2E2E2E2E2E2E2E2E2E2E2E2E2E2E2E2E2E2E2E2E2E2E2E2E2E2E2E2E2E2E2E2E2E2E2E2E2E2E2E2E2E2E2E2E2E2E2
310
E2E2E2E2E2E2E2E2E2E2E2E2E2E2E2E2E2E2E2E2E2E2E2E2E2E2E2E2E2E2E2E2E2E2E2E2E2E2E2E2E2E2E2E2E2E2E2E2E2E2E2E2E2E2E2E2E2E2E2E2E2E2E2E2E2E2E2E2E2E2E2E2E2E2E2E2E2E2E2E2E2E2E2E2E2E2E2E2E2E2E2E2E2E2E2F5E2E2E2E2E2E2E2E2E2E2E2E2E2E2E2E2E2E2E2E2E2E2E2E2E2E2E2E2E2E2E2
310
E2E2E2E2E2E2E2E2E2E2E2E2F5E2E2E2E2E2E2E2E2E2E2E2E2E2E2E2E2E2E2E2E2E2E2E2E2E2E2E2E2E2E2E2E2E2E2E2E2E2E2E2E2E2E2E2E2E2E2E2E2E2E2E2E2E2E2E2E2E2E2E2E2E2E2E2E2E2E2E2E2E2E2E2E2E2E2E2E2E2E2E2E2E2E2E2E2E2E2E2E2E2E2E2E2E2E2E2E2E2E2E2E2E2E2E2E2E2E2E2E2E2E2E2E2E2E2
310
E2E2E2E2E2E2E2E2E2E2E2E2E2E2E2E2E2E2E2E2E2E2E2E2E2E2E2E2E2E2E2E2E2E2E2E2E2E2E2E2E2E2E2E2E2E2E2E2E2E2E2E2E2E2E2E2E2E2E2E2E2E2E2E2E2E2E2E2E2E2E2E2E2E2E2E2E2E2E2E2E2E2E2E2E2E2E2E2E2E2E2E2E2E2E2E2E2E2E2E2E2E2E2E2E2E2E2E2E2E2E2E2E2E2E2E2E2E2E2E2E2E2E2E2E2E2E2
310
E2E2E2E2E2E2E2E2E2E2E2E2E2E2E2E2E2E2E2E2E2E2E2E2E2E2E2E2E2E2E2E2E2E2E2E2E2E2E2E2E2E2E2E2E2E2E2E2E2E2E2E2E2E2E2E2E2E2E2E2E2E2E2E2E2E2E2E2E2E2E2E2E2E2E2E2E2E2E2E2E2E2E2E2E2E2E2E2E2E2E2E2E2E2E2E2E2E2E2E2E2E2E2E2E2E2E2E2E2E2E2E2E2E2E2E2E2E2E2E2E2E2E2E2E2E2E2
310
E2E2E2E2E2E2E2E2E2E2E2E2E2E2E2E2E2E2E2E2E2E2E2E2E2E2E2E2E2E2E2E2E2E2E2E2E2E2E2E2E2E2E2E2E2E2E2E2E2E2E2E2E2E2E2E2E2E2E2E2E2E2E2E2E2E2E2E2E2E2E2E2E2E2E2E2E2E2E2E2E2E2E2E2E2E2E2E2E2E2E2E2E2E2E2E2E2E2E2E2E2E2E2E2E2E2E2E2E2E2E2E2E2E2E2E2E2E2E2E2E2E2E2E2E2E2E2
310
E2E2E2E2E2E2E2E2E2E2E2E2E2E2E2E2E2E2E2E2E2E2E2E2E2E2E2E2E2E2E2E2E2E2E2E2E2E2E2E2E2E2E2E2E2E2E2E2E2E2E2E2E2E2E2E2E2E2E2E2E2E2E2E2E2E2E2E2E2E2E2E2E2E2E2E2E2E2E2E2E2E2E2E2E2E2E2E2E2E2E2E2E2E2E2E2E2E2E2E2E2E2E2E2E2E2E2E2E2E2E2E2E2E2E2E2E2E2E2E2E2E2E2E2E2E2E2
310
E2E2E2E2E2E2E2E2E2E2E2E2E2E2E2E2E2E2E2E2E2E2E2E2E2E2E2E2E2E2E2E2E2E2E2E2E2E2E2E2E2E2E2E2E2E2E2E2E2E2E2E2E2E2E2E2E2E2E2E2E2E2E2E2E2E2E2E2E2E2E2E2E2E2E2E2E2E2E2E2E2E2E2E2E2E2E2E2E2E2E2E2E2E2E2E2E2E2E2E2E2E2E2E2E2E2E2E2E2E2E2E2E2E2E2E2E2E2E2E2E2E2E2E2E2E2E2
310
E2E2E2E2E2E2E2E2E2E2E2E2E2E2E2E2E2E2E2E2E2E2E2E2E2E2E2E2E2E2E2E2E2E2E2E2E2E2E2E2E2E2E2E2E2E2E2E2E2E2E2E2E2E2E2E2E2E2E2E2E2E2E2E2E2E2E2E2E2E2E2E2E2E2E2E2E2E2E2E2E2E2E2E2E2E2E2E2E2E2E2E2E2E2E2E2E2E2E2E2E2E2E2E2E2E2E2E2E2E2E2E2E2E2E2E2E2E2E2E2E2E2E2E2E2E2E2
310
E2E2E2E2E2E2E2E2E2E2E2E2E2E2E2E2E2E2E2E2E2E2E2E2E2E2E2E2E2E2E2E2E2E2E2E2E2E2E2E2E2E2E2E2E2E2E2E2E2E2E2E2E2E2E2E2E2E2E2E2E2E2E2E2E2E2E2E2E2E2E2E2E2E2E2E2E2E2E2E2E2E2E2E2E2E2E2E2E2E2E2E2E2E2E2E2E2E2E2E2E2E2E2E2E2E2E2E2E2E2E2E2E2E2E2E2E2E2E2E2E2E2E2E2E2E2E2
310
E2E2E2E2E2E2E2E2E2E2E2E2E2E2E2E2E2E2E2E2E2E2E2E2E2E2E2E2E2E2E2E2E2E2E2E2E2E2E2E2E2E2E2E2E2E2E2E2E2E2E2E2E2E2E2E2E2E2E2E2E2E2E2E2E2E2E2E2E2E2E2E2E2E2E2E2E2E2E2E2E2E2E2E2E2E2E2E2E2E2E2E2E2E2E2E2E2E2E2E2E2E2E2E2E2E2E2E2E2E2E2E2E2E2E2E2E2E2E2E2E2E2E2E2E2E2E2
310
E2E2E2E2E2E2E2E2E2E2E2E2E2E2E2E2E2E2E2E2E2E2E2E2E2E2E2E2E2E2E2E2E2E2E2E2E2E2E2E2E2E2E2E2E2E2E2E2E2E2E2E2E2E2E2E2E2E2E2E2E2E2E2E2E2E2E2E2E2E2E2E2E2E2E2E2E2E2E2E2E2E2E2E2E2E2E2E2E2E2E2E2E2E2E2E2E2E2E2E2E2E2E2E2E2E2E2E2E2E2E2E2E2E2E2E2E2E2E2E2E2E2E2E2E2E2E2
310
E2E2E2E2E2E2E2E2E2E2E2E2E2E2E2E2E2E2E2E2E2E2E2E2E2E2E2E2E2E2E2E2E2E2E2E2E2E2E2E2E2E2E2E2E2E2E2E2E2E2E2E2E2E2E2E2E2E2E2E2E2E2E2E2E2E2E2E2E2E2E2E2E2E2E2E2E2E2E2E2E2E2E2E2E2E2E2E2E2E2E2E2E2E2E2E2E2E2E2E2E2E2E2E2E2E2E2E2E2E2E2E2E2E2E2E2E2E2E2E2E2E2E2E2E2E2E2
310
E2E2E2E2E2E2E2E2E2E2E2E2E2E2E2E2E2E2E2E2E2E2E2E2E2E2E2E2E2E2E2E2E2E2E2E2E2E2E2E2E2E2E2E2E2E2E2E2E2E2E2E2E2E2E2E2E2E2E2E2E2E2E2E2E2E2E2E2E2E2E2E2E2E2E2E2E2E2E2E2E2E2E2E2E2E2E2E2E2E2E2E2E2E2E2E2E2E2E2E2E2E2E2E2E2E2E2E2E2E2E2E2E2E2E2E2E2E2E2E2E2E2E2E2E2E2E2
310
E2E2E2E2E2E2E2E2E2E2E2E2E2E2E2E2E2E2E2E2E2E2E2E2E2E2E2E2E2E2E2E2E2E2E2E2E2E2E2E2E2E2E2E2E2E2E2E2E2E2E2E2E2E2E2E2E2E2E2E2E2E2E2E2E2E2E2E2E2E2E2E2E2E2E2E2E2E2E2E2E2E2E2E2E2E2E2E2E2E2E2E2E2E2E2E2E2E2E2E2E2E2E2E2E2E2E2E2E2E2E2E2E2E2E2E2E2E2E2E2E2E2E2E2E2E2E2
310
E2E2E2E2E2E2E2E2E2E2E2E2E2E2E2E2E2E2E2E2E2E2E2E2E2E2E2E2E2E2E2E2E2E2E2E2E2E2E2E2E2E2E2E2E2E2E2E2E2E2E2E2E2E2E2E2E2E2E2E2E2E2E2E2E2E2E2E2E2E2E2E2E2E2E2E2E2E2E2E2E2E2E2E2E2E2E2E2E2E2E2E2E2E2E2E2E2E2E2E2E2E2E2E2E2E2E2E2E2E2E2E2E2E2E2E2E2E2E2E2E2E2E2E2E2E2E2
310
E2E2E2E2E2E2E2E2E2E2E2E2E2E2E2E2E2E2E2E2E2E2E2E2E2E2E2E2E2E2E2E2E2E2E2E2E2E2E2E2E2E2E2E2E2E2E2E2E2E2E2E2E2E2E2E2E2E2E2E2E2E2E2E2E2E2E2E2E2E2E2E2E2E2E2E2E2E2E2E2E2E2E2E2E2E2E2E2E2E2E2E2E2E2E2E2E2E2E2E2E2E2E2E2E2E2E2E2E2E2E2E2E2E2E2E2E2E2E2E2E2E2E2E2E2E2E2
310
E2E2E2E2E2E2E2E2E2E2E2E2E2E2E2E2E2E2E2E2E2E2E2E2E2E2E2E2E2E2E2E2E2E2E2E2E2E2E2E2E2E2E2E2E2E2E2E2E2E2E2E2E2E2E2E2E2E2E2E2E2E2E2E2E2E2E2E2E2E2E2E2E2E2E2E2E2E2E2E2E2E2E2E2E2E2E2E2E2E2E2E2E2E2E2E2E2E2E2E2E2E2E2E2E2E2E2E2E2E2E2E2E2E2E2E2E2E2E2E2E2E2E2E2E2E2E2
310
E2E2E2E2E2E2E2E2E2E2E2E2E2E2E2E2E2E2E2E2E2E2E2F5F5E2E2E2E2E2E2E2E2E2E2E2E2E2E2E2E2E2E2E2E2E2E2E2E2E2E2E2E2E2E2E2E2E2E2E2E2E2E2E2E2E2E2E2E2E2E2E2E2E2E2E2E2E2E2E2E2E2E2E2E2E2E2E2E2E2E2E2E2E2E2E2E2E2E2E2E2E2E2E2E2E2E2E2E2E2E2E2E2E2E2E2E2E2E2E2E2E2E2E2E2E2E2
310
E2E2E2E2E2E2E2E2E2E2E2E2E2E2E2E2E2E2E2E2E2E2E2E2E2E2E2E2E2E2E2E2E2E2E2E2E2E2E2E2E2E2E2E2E2E2E2E2E2E2E2E2E2E2E2E2E2E2E2E2E2E2E2E2E2E2E2E2E2E2E2E2E2E2E2E2E2E2E2E2E2E2E2E2E2E2E2E2E2E2E2E2E2E2E2E2E2E2E2E2E2E2E2E2E2E2E2E2E2E2E2E2E2E2E2E2E2E2E2E2E2E2E2E2E2E2E2
310
E2E2E2E2E2E2E2E2E2E2E2E2E2E2E2E2E2E2E2E2E2E2E2E2E2F5F5E2E2E2E2E2E2E2E2E2E2E2E2E2E2E2E2E2E2E2E2E2E2E2E2E2E2E2E2E2E2E2E2E2E2E2E2E2E2E2E2E2E2E2E2E2E2E2E2E2E2E2E2E2E2E2E2E2E2E2E2E2E2E2E2E2E2E2E2E2E2E2E2E2E2E2E2E2E2E2E2E2E2E2E2E2E2E2E2E2E2E2E2E2E2E2E2E2E2E2E2
310
E2E2E2E2E2E2E2E2E2E2E2E2E2E2E2E2E2E2E2E2E2E2E2E2E2E2E2E2E2E2E2E2E2E2E2E2E2E2E2E2E2E2E2E2E2E2E2E2E2E2E2E2E2E2E2E2E2E2E2E2E2E2E2E2E2E2E2E2E2E2E2E2E2E2E2E2E2E2E2E2E2E2E2E2E2E2E2E2E2E2E2E2E2E2E2E2E2E2E2E2E2E2E2E2E2E2E2E2E2E2E2E2E2E2E2E2E2E2E2E2E2E2E2E2E2E2E2
310
E2E2E2E2E2E2E2E2E2E2E2E2E2E2E2E2E2E2E2E2E2E2E2E2E2E2F5F5F5F5E2E2E2E2E2E2E2E2E2E2E2E2E2E2E2E2E2E2E2E2E2E2E2E2E2E2E2E2E2E2E2E2E2E2E2E2E2E2E2E2E2E2E2E2E2E2E2E2E2E2E2E2E2E2E2E2E2E2E2E2E2E2E2E2E2E2E2E2E2E2E2E2E2E2E2E2E2E2E2E2E2E2E2E2E2E2E2E2E2E2E2E2E2E2E2E2E2
310
E2E2E2E2E2E2E2E2E2E2E2E2E2E2E2E2E2E2E2E2E2E2E2E2E2E2E2E2E2E2E2E2E2E2E2E2E2E2E2E2E2E2E2E2E2E2E2E2E2E2E2E2E2E2E2E2E2E2E2E2E2E2E2E2E2E2E2E2E2E2E2E2E2E2E2E2E2E2E2E2E2E2E2E2E2E2E2E2E2E2E2E2E2E2E2E2E2E2E2E2E2E2E2E2E2E2E2E2E2E2E2E2E2E2E2E2E2E2E2E2E2E2E2E2E2E2E2
310
E2E2E2E2E2E2E2E2E2E2E2E2E2E2E2E2E2E2E2E2E2E2E2E2E2E2E2E2F5F5F5F5E2E2E2E2E2E2E2E2E2E2E2E2E2E2E2E2E2E2E2E2E2E2E2E2E2E2E2E2E2E2E2E2E2E2E2E2E2E2E2E2E2E2E2E2E2E2E2E2E2E2E2E2E2E2E2E2E2E2E2E2E2E2E2E2E2E2E2E2E2E2E2E2E2E2E2E2E2E2E2E2E2E2E2E2E2E2E2E2E2E2E2E2E2E2E2
310
E2E2E2E2E2E2E2E2E2E2E2E2E2E2E2E2E2E2E2E2E2E2E2E2E2E2E2E2E2E2E2E2E2E2E2E2E2E2E2E2E2E2E2E2E2E2E2E2E2E2E2E2E2E2E2E2E2E2E2E2E2E2E2E2E2E2E2E2E2E2E2E2E2E2E2E2E2E2E2E2E2E2E2E2E2E2E2E2E2E2E2E2E2E2E2E2E2E2E2E2E2E2E2E2E2E2E2E2E2E2E2E2E2E2E2E2E2E2E2E2E2E2E2E2E2E2E2
310
E2E2E2E2E2E2E2E2E2E2E2E2E2E2E2E2E2E2E2E2E2E2E2E2E2E2E2E2E2E2F5F5F5F5E2E2F5E2E2E2E2E2E2E2E2E2E2E2E2E2E2E2E2E2E2E2E2E2E2E2E2E2E2E2E2E2E2E2E2E2E2E2E2E2E2E2E2E2E2E2E2E2E2E2E2E2E2E2E2E2E2E2E2E2E2E2E2E2E2E2E2E2E2E2E2E2E2E2E2E2E2E2E2E2E2E2E2E2E2E2E2E2E2E2E2E2E2
310
E2E2E2E2E2E2E2E2E2E2E2E2E2E2E2E2E2E2E2E2E2E2E2E2E2E2E2E2E2E2E2E2E2E2E2E2E2E2E2E2E2E2E2E2E2E2E2E2E2E2E2E2E2E2E2E2E2E2E2E2E2E2E2E2E2E2E2E2E2E2E2E2E2E2E2E2E2E2E2E2E2E2E2E2E2E2E2E2E2E2E2E2E2E2E2E2E2E2E2E2E2E2E2E2E2E2E2E2E2E2E2E2E2E2E2E2E2E2E2E2E2E2E2E2E2E2E2
310
E2E2E2E2E2E2E2E2E2E2E2E2E2E2E2E2E2E2E2E2E2E2E2E2E2E2E2E2E2E2E2E2F5E2E2F5E2E2F5F5E2E2E2E2E2E2E2E2E2E2E2E2E2E2E2E2E2E2E2E2E2E2E2E2E2E2E2E2E2E2E2E2E2E2E2E2E2E2E2E2E2E2E2E2E2E2E2E2E2E2E2E2E2E2E2E2E2E2E2E2E2E2E2E2E2E2E2E2E2E2E2E2E2E2E2E2E2E2E2E2E2E2E2E2E2E2E2
310
E2E2E2E2E2E2E2E2E2E2E2E2E2E2E2E2E2E2E2E2E2E2E2E2E2E2E2E2E2E2E2E2E2E2E2E2E2E2E2E2E2E2E2E2E2E2E2E2E2E2E2E2E2E2E2E2E2E2E2E2E2E2E2E2E2E2E2E2E2E2E2E2E2E2E2E2E2E2E2E2E2E2E2E2E2E2E2E2E2E2E2E2E2E2E2E2E2E2E2E2E2E2E2E2E2E2E2E2E2E2E2E2E2E2E2E2E2E2E2E2E2E2E2E2E2E2E2
310
E2E2E2E2E2E2E2E2E2E2E2E2E2E2E2E2E2E2E2E2E2E2E2E2E2E2E2E2E2E2E2E2E2E2F5E2E2F5F5F5F5F5F5F5F5F5E2E2E2E2E2E2E2E2E2E2E2E2E2E2E2E2E2E2E2E2E2E2E2E2E2E2E2E2E2E2E2E2E2E2E2E2E2E2E2E2E2E2E2E2E2E2E2E2E2E2E2E2E2E2E2E2E2E2E2E2E2E2E2E2E2E2E2E2E2E2E2E2E2E2E2E2E2E2E2E2E2
310
E2E2E2E2E2E2E2E2E2E2E2E2E2E2E2E2E2E2E2E2E2E2E2E2E2E2E2E2E2E2E2E2E2E2E2E2E2E2E2E2E2E2E2E2E2E2E2E2E2E2E2E2E2E2E2E2E2E2E2E2E2E2E2E2E2E2E2E2E2E2E2E2E2E2E2E2E2E2E2E2E2E2E2E2E2E2E2E2E2E2E2E2E2E2E2E2E2E2E2E2E2E2E2E2E2E2E2E2E2E2E2E2E2E2E2E2E2E2E2E2E2E2E2E2E2E2E2
310
E2E2E2E2E2E2E2E2E2E2E2E2E2E2E2E2E2E2E2E2E2E2E2E2E2E2E2E2E2E2E2E2E2F5F5E2F5E2F5F5E2E2F5E2E2F5F5F5E2E2F5F5E2E2E2E2E2E2E2E2E2E2E2E2E2E2E2E2E2E2E2E2E2E2E2E2E2E2E2E2E2E2E2E2E2E2E2E2E2E2E2E2E2E2E2E2E2E2E2E2E2E2E2E2E2E2E2E2E2E2E2E2E2E2E2E2E2E2E2E2E2E2E2E2E2E2E2
310
E2E2E2E2E2E2E2E2E2E2E2E2E2E2E2E2E2E2E2E2E2E2E2E2E2E2E2E2E2E2E2E2E2E2E2E2E2E2E2E2E2E2E2E2E2E2E2E2E2E2E2E2E2E2E2E2E2E2E2E2E2E2E2E2E2E2E2E2E2E2E2E2E2E2E2E2E2E2E2E2E2E2E2E2E2E2E2E2E2E2E2E2E2E2E2E2E2E2E2E2E2E2E2E2E2E2E2E2E2E2E2E2E2E2E2E2E2E2E2E2E2E2E2E2E2E2E2
310
E2E2E2E2E2E2E2E2E2E2E2E2E2E2E2E2E2E2E2E2E2E2E2E2E2E2E2E2E2E2E2E2E2E2E2F5F5F5F5E2F5E2F5F5F5E2F5E2F5F5F5F5F5F5E2E2E2E2E2E2E2E2E2E2E2E2E2E2E2E2E2E2E2E2E2E2E2E2E2E2E2E2E2E2E2E2E2E2E2E2E2E2E2E2E2E2E2E2E2E2E2E2E2E2E2E2E2E2E2E2E2E2E2E2E2E2E2E2E2E2E2E2E2E2E2E2E2
310
E2E2E2E2E2E2E2E2E2E2E2E2E2E2E2E2E2E2E2E2E2E2E2E2E2E2E2E2E2E2E2E2E2E2E2E2E2E2E2E2E2E2E2E2E2E2E2E2E2E2E2E2E2E2E2E2E2E2E2E2E2E2E2E2E2E2E2E2E2E2E2E2E2E2E2E2E2E2E2E2E2E2E2E2E2E2E2E2E2E2E2E2E2E2E2E2E2E2E2E2E2E2E2E2E2E2E2E2E2E2E2E2E2E2E2E2E2E2E2E2E2E2E2E2E2E2E2
310
E2E2E2E2E2E2E2E2E2E2E2E2E2E2E2E2E2E2E2E2E2E2E2E2E2E2E2E2E2E2E2E2E2E2E2E2E2F5F5E2F5F5F5E2F5F5F5F5F5E2F5F5F5E2F5F5E2E2E2E2E2E2E2E2E2E2E2E2E2E2E2E2E2E2E2E2E2E2E2E2E2E2E2E2E2E2E2E2E2E2E2E2E2E2E2E2E2E2E2E2E2E2E2E2E2E2E2E2E2E2E2E2E2E2E2E2E2E2E2E2E2E2E2E2E2E2E2
310
E2E2E2E2E2E2E2E2E2E2E2E2E2E2E2E2E2E2E2E2E2E2E2E2E2E2E2E2E2E2E2E2E2E2E2E2E2E2E2E2E2E2E2E2E2E2E2E2E2E2E2E2E2E2E2E2E2E2E2E2E2E2E2E2E2E2E2E2E2E2E2E2E2E2E2E2E2E2E2E2E2E2E2E2E2E2E2E2E2E2E2E2E2E2E2E2E2E2E2E2E2E2E2E2E2E2E2E2E2E2E2E2E2E2E2E2E2E2E2E2E2E2E2E2E2E2E2
310
E2E2E2E2E2E2E2E2E2E2E2E2E2E2E2E2E2E2E2E2E2E2E2E2E2E2E2E2E2E2E2E2E2E2E2E2F5F5F5F5F5F5F5F5F5F5F5F5F5F5F5F5F5F5F5F5F5F5F5F5F5F5E2E2E2E2E2E2E2E2E2E2E2E2E2E2E2E2E2E2E2E2E2E2E2E2E2E2E2E2E2E2E2E2E2E2E2E2E2E2E2E2E2E2E2E2E2E2E2E2E2E2E2E2E2E2E2E2E2E2E2E2E2E2E2E2E2
310
E2E2E2E2E2E2E2E2E2E2E2E2E2E2E2E2E2E2E2E2E2E2E2E2E2E2E2E2E2E2E2E2E2E2E2E2E2E2E2E2E2E2E2E2E2E2E2E2E2E2E2E2E2E2E2E2E2E2E2E2E2E2E2E2E2E2E2E2E2E2E2E2E2E2E2E2E2E2E2E2E2E2E2E2E2E2E2E2E2E2E2E2E2E2E2E2E2E2E2E2E2E2E2E2E2E2E2E2E2E2E2E2E2E2E2E2E2E2E2E2E2E2E2E2E2E2E2
310
E2E2E2E2E2E2E2E2E2E2E2E2E2E2E2E2E2E2E2E2E2E2E2E2E2E2E2E2E2E2E2E2E2E2E2E2E2E2E2E2E2F5F5E2F5F5F5F5F5F5F5F5F5F5E2F5F5E2F5F5E2E2E2E2E2E2E2E2E2E2E2E2E2E2E2E2E2E2E2E2E2E2E2E2E2E2E2E2E2E2E2E2E2E2E2E2E2E2E2E2E2E2E2E2E2E2E2E2E2E2E2E2E2E2E2E2E2E2E2E2E2E2E2E2E2E2E2
310
E2E2E2E2E2E2E2E2E2E2E2E2E2E2E2E2E2E2E2E2E2E2E2E2E2E2E2E2E2E2E2E2E2E2E2E2E2E2E2E2E2E2E2E2E2E2E2E2E2E2E2E2E2E2E2E2E2E2E2E2E2E2E2E2E2E2E2E2E2E2E2E2E2E2E2E2E2E2E2E2E2E2E2E2E2E2E2E2E2E2E2E2E2E2E2E2E2E2E2E2E2E2E2E2E2E2E2E2E2E2E2E2E2E2E2E2E2E2E2E2E2E2E2E2E2E2E2
310
E2E2E2E2E2E2E2E2E2E2E2E2E2E2E2E2E2E2E2E2E2E2E2E2E2E2E2E2E2E2E2E2E2E2E2E2E2E2E2E2E2E2E2F5F5E2F5F5F5E2F5F5F5F5F5E2F5F5F5E2F5F5E2E2E2E2E2E2E2E2E2E2E2E2E2E2E2E2E2E2E2E2E2E2E2E2E2E2E2E2E2E2E2E2E2E2E2E2E2E2E2E2E2E2E2E2E2E2E2E2E2E2E2E2E2E2E2E2E2E2E2E2E2E2E2E2E2
310
E2E2E2E2E2E2E2E2E2E2E2E2E2E2E2E2E2E2E2E2E2E2E2E2E2E2E2E2E2E2E2E2E2E2E2E2E2E2E2E2E2E2E2E2E2E2E2E2E2E2E2E2E2E2E2E2E2E2E2E2E2E2E2E2E2E2E2E2E2E2E2E2E2E2E2E2E2E2E2E2E2E2E2E2E2E2E2E2E2E2E2E2E2E2E2E2E2E2E2E2E2E2E2E2E2E2E2E2E2E2E2E2E2E2E2E2E2E2E2E2E2E2E2E2E2E2E2
310
E2E2E2E2E2E2E2E2E2E2E2E2E2E2E2E2E2E2E2E2E2E2E2E2E2E2E2E2E2E2E2E2E2E2E2E2E2E2E2E2E2E2E2E2E2F5F5F5F5E2F5F5F5E2F5E2F5F5F5F5F5F5F5F5E2E2E2E2E2E2E2E2E2E2E2E2E2E2E2E2E2E2E2E2E2E2E2E2E2E2E2E2E2E2E2E2E2E2E2E2E2E2E2E2E2E2E2E2E2E2E2E2E2E2E2E2E2E2E2E2E2E2E2E2E2E2E2
310
E2E2E2E2E2E2E2E2E2E2E2E2E2E2E2E2E2E2E2E2E2E2E2E2E2E2E2E2E2E2E2E2E2E2E2E2E2E2E2E2E2E2E2E2E2E2E2E2E2E2E2E2E2E2E2E2E2E2E2E2E2E2E2E2E2E2E2E2E2E2E2E2E2E2E2E2E2E2E2E2E2E2E2E2E2E2E2E2E2E2E2E2E2E2E2E2E2E2E2E2E2E2E2E2E2E2E2E2E2E2E2E2E2E2E2E2E2E2E2E2E2E2E2E2E2E2E2
310
E2E2E2E2E2E2E2E2E2E2E2E2E2E2E2E2E2E2E2E2E2E2E2E2E2E2E2E2E2E2E2E2E2E2E2E2E2E2E2E2E2E2E2E2E2E2E2F5E2E2F5E2E2F5F5E2F5E2F5F5F5F5E2E2E2F5E2E2E2E2E2E2E2E2E2E2E2E2E2E2E2E2E2E2E2E2E2E2E2E2E2E2E2E2E2E2E2E2E2E2E2E2E2E2E2E2E2E2E2E2E2E2E2E2E2E2E2E2E2E2E2E2E2E2E2E2E2
310
E2E2E2E2E2E2E2E2E2E2E2E2E2E2E2E2E2E2E2E2E2E2E2E2E2E2E2E2E2E2E2E2E2E2E2E2E2E2E2E2E2E2E2E2E2E2E2E2E2E2E2E2E2E2E2E2E2E2E2E2E2E2E2E2E2E2E2E2E2E2E2E2E2E2E2E2E2E2E2E2E2E2E2E2E2E2E2E2E2E2E2E2E2E2E2E2E2E2E2E2E2E2E2E2E2E2E2E2E2E2E2E2E2E2E2E2E2E2E2E2E2E2E2E2E2E2E2
310
E2E2E2E2E2E2E2E2E2E2E2E2E2E2E2E2E2E2E2E2E2E2E2E2E2E2E2E2E2E2E2E2E2E2E2E2E2E2E2E2E2E2E2E2E2E2E2E2E2E2E2E2F5E2E2F5F5F5F5F5F5F5E2E2E2E2E2E2E2E2E2E2E2E2E2E2E2E2E2E2E2E2E2E2E2E2E2E2E2E2E2E2E2E2E2E2E2E2E2E2E2E2E2E2E2E2E2E2E2E2E2E2E2E2E2E2E2E2E2E2E2E2E2E2E2E2E2
310
E2E2E2E2E2E2E2E2E2E2E2E2E2E2E2E2E2E2E2E2E2E2E2E2E2E2E2E2E2E2E2E2E2E2E2E2E2E2E2E2E2E2E2E2E2E2E2E2E2E2E2E2E2E2E2E2E2E2E2E2E2E2E2E2E2E2E2E2E2E2E2E2E2E2E2E2E2E2E2E2E2E2E2E2E2E2E2E2E2E2E2E2E2E2E2E2E2E2E2E2E2E2E2E2E2E2E2E2E2E2E2E2E2E2E2E2E2E2E2E2E2E2E2E2E2E2E2
310
E2E2E2E2E2E2E2E2E2E2E2E2E2E2E2E2E2E2E2E2E2E2E2E2E2E2E2E2E2E2E2E2E2E2E2E2E2E2E2E2E2E2E2E2E2E2E2E2E2E2E2E2E2E2F5E2E2F5E2E2F5E2E2E2E2E2E2E2E2E2E2E2E2E2E2E2E2E2E2E2E2E2E2E2E2E2E2E2E2E2E2E2E2E2E2E2E2E2E2E2E2E2E2E2E2E2E2E2E2E2E2E2E2E2E2E2E2E2E2E2E2E2E2E2E2E2E2
310
E2E2E2E2E2E2E2E2E2E2E2E2E2E2E2E2E2E2E2E2E2E2E2E2E2E2E2E2E2E2E2E2E2E2E2E2E2E2E2E2E2E2E2E2E2E2E2E2E2E2E2E2E2E2E2E2E2E2E2E2E2E2E2E2E2E2E2E2E2E2E2E2E2E2E2E2E2E2E2E2E2E2E2E2E2E2E2E2E2E2E2E2E2E2E2E2E2E2E2E2E2E2E2E2E2E2E2E2E2E2E2E2E2E2E2E2E2E2E2E2E2E2E2E2E2E2E2
310
E2E2E2E2E2E2E2E2E2E2E2E2E2E2E2E2E2E2E2E2E2E2E2E2E2E2E2E2E2E2E2E2E2E2E2E2E2E2E2E2E2E2E2E2E2E2E2E2E2E2E2E2E2E2E2E2F5F5F5F5E2E2E2E2E2E2E2E2E2E2E2E2E2E2E2E2E2E2E2E2E2E2E2E2E2E2E2E2E2E2E2E2E2E2E2E2E2E2E2E2E2E2E2E2E2E2E2E2E2E2E2E2E2E2E2E2E2E2E2E2E2E2E2E2E2E2E2
310
E2E2E2E2E2E2E2E2E2E2E2E2E2E2E2E2E2E2E2E2E2E2E2E2E2E2E2E2E2E2E2E2E2E2E2E2E2E2E2E2E2E2E2E2E2E2E2E2E2E2E2E2E2E2E2E2E2E2E2E2E2E2E2E2E2E2E2E2E2E2E2E2E2E2E2E2E2E2E2E2E2E2E2E2E2E2E2E2E2E2E2E2E2E2E2E2E2E2E2E2E2E2E2E2E2E2E2E2E2E2E2E2E2E2E2E2E2E2E2E2E2E2E2E2E2E2E2
310
E2E2E2E2E2E2E2E2E2E2E2E2E2E2E2E2E2E2E2E2E2E2E2E2E2E2E2E2E2E2E2E2E2E2E2E2E2E2E2E2E2E2E2E2E2E2E2E2E2E2E2E2E2E2E2E2E2E2F5F5F5F5E2E2E2E2E2E2E2E2E2E2E2E2E2E2E2E2E2E2E2E2E2E2E2E2E2E2E2E2E2E2E2E2E2E2E2E2E2E2E2E2E2E2E2E2E2E2E2E2E2E2E2E2E2E2E2E2E2E2E2E2E2E2E2E2E2
310
E2E2E2E2E2E2E2E2E2E2E2E2E2E2E2E2E2E2E2E2E2E2E2E2E2E2E2E2E2E2E2E2E2E2E2E2E2E2E2E2E2E2E2E2E2E2E2E2E2E2E2E2E2E2E2E2E2E2E2E2E2E2E2E2E2E2E2E2E2E2E2E2E2E2E2E2E2E2E2E2E2E2E2E2E2E2E2E2E2E2E2E2E2E2E2E2E2E2E2E2E2E2E2E2E2E2E2E2E2E2E2E2E2E2E2E2E2E2E2E2E2E2E2E2E2E2E2
310
E2E2E2E2E2E2E2E2E2E2E2E2E2E2E2E2E2E2E2E2E2E2E2E2E2E2E2E2E2E2E2E2E2E2E2E2E2E2E2E2E2E2E2E2E2E2E2E2E2E2E2E2E2E2E2E2E2E2E2E2E2E2E2E2E2E2E2E2E2E2E2E2E2E2E2E2E2E2E2E2E2E2E2E2E2E2E2E2E2E2E2E2E2E2E2E2E2E2E2E2E2E2E2E2E2E2E2E2E2E2E2E2E2E2E2E2E2E2E2E2E2E2E2E2E2E2E2
310
E2E2E2E2E2E2E2E2E2E2E2E2E2E2E2E2E2E2E2E2E2E2E2E2E2E2E2E2E2E2E2E2E2E2E2E2E2E2E2E2E2E2E2E2E2E2E2E2E2E2E2E2E2E2E2E2E2E2E2E2E2E2E2E2E2E2E2E2E2E2E2E2E2E2E2E2E2E2E2E2E2E2E2E2E2E2E2E2E2E2E2E2E2E2E2E2E2E2E2E2E2E2E2E2E2E2E2E2E2E2E2E2E2E2E2E2E2E2E2E2E2E2E2E2E2E2E2
310
E2E2E2E2E2E2E2E2E2E2E2E2E2E2E2E2E2E2E2E2E2E2E2E2E2E2E2E2E2E2E2E2E2E2E2E2E2E2E2E2E2E2E2E2E2E2E2E2E2E2E2E2E2E2E2E2E2E2E2E2E2E2E2E2E2E2E2E2E2E2E2E2E2E2E2E2E2E2E2E2E2E2E2E2E2E2E2E2E2E2E2E2E2E2E2E2E2E2E2E2E2E2E2E2E2E2E2E2E2E2E2E2E2E2E2E2E2E2E2E2E2E2E2E2E2E2E2
310
E2E2E2E2E2E2E2E2E2E2E2E2E2E2E2E2E2E2E2E2E2E2E2E2E2E2E2E2E2E2E2E2E2E2E2E2E2E2E2E2E2E2E2E2E2E2E2E2E2E2E2E2E2E2E2E2E2E2E2E2E2E2E2E2E2E2E2E2E2E2E2E2E2E2E2E2E2E2E2E2E2E2E2E2E2E2E2E2E2E2E2E2E2E2E2E2E2E2E2E2E2E2E2E2E2E2E2E2E2E2E2E2E2E2E2E2E2E2E2E2E2E2E2E2E2E2E2
310
E2E2E2E2E2E2E2E2E2E2E2E2E2E2E2E2E2E2E2E2E2E2E2E2E2E2E2E2E2E2E2E2E2E2E2E2E2E2E2E2E2E2E2E2E2E2E2E2E2E2E2E2E2E2E2E2E2E2E2E2E2E2E2E2E2E2E2E2E2E2E2E2E2E2E2E2E2E2E2E2E2E2E2E2E2E2E2E2E2E2E2E2E2E2E2E2E2E2E2E2E2E2E2E2E2E2E2E2E2E2E2E2E2E2E2E2E2E2E2E2E2E2E2E2E2E2E2
310
E2E2E2E2E2E2E2E2E2E2E2E2E2E2E2E2E2E2E2E2E2E2E2E2E2E2E2E2E2E2E2E2E2E2E2E2E2E2E2E2E2E2E2E2E2E2E2E2E2E2E2E2E2E2E2E2E2E2E2E2E2E2E2E2E2E2E2E2E2E2E2E2E2E2E2E2E2E2E2E2E2E2E2E2E2E2E2E2E2E2E2E2E2E2E2E2E2E2E2E2E2E2E2E2E2E2E2E2E2E2E2E2E2E2E2E2E2E2E2E2E2E2E2E2E2E2E2
310
E2E2E2E2E2E2E2E2E2E2E2E2E2E2E2E2E2E2E2E2E2E2E2E2E2E2E2E2E2E2E2E2E2E2E2E2E2E2E2E2E2E2E2E2E2E2E2E2E2E2E2E2E2E2E2E2E2E2E2E2E2E2E2E2E2E2E2E2E2E2E2E2E2E2E2E2E2E2E2E2E2E2E2E2E2E2E2E2E2E2E2E2E2E2E2E2E2E2E2E2E2E2E2E2E2E2E2E2E2E2E2E2E2E2E2E2E2E2E2E2E2E2E2E2E2E2E2
310
E2E2E2E2E2E2E2E2E2E2E2E2E2E2E2E2E2E2E2E2E2E2E2E2E2E2E2E2E2E2E2E2E2E2E2E2E2E2E2E2E2E2E2E2E2E2E2E2E2E2E2E2E2E2E2E2E2E2E2E2E2E2E2E2E2E2E2E2E2E2E2E2E2E2E2E2E2E2E2E2E2E2E2E2E2E2E2E2E2E2E2E2E2E2E2E2E2E2E2E2E2E2E2E2E2E2E2E2E2E2E2E2E2E2E2E2E2E2E2E2E2E2E2E2E2E2E2
310
E2E2E2E2E2E2E2E2E2E2E2E2E2E2E2E2E2E2E2E2E2E2E2E2E2E2E2E2E2E2E2E2E2E2E2E2E2E2E2E2E2E2E2E2E2E2E2E2E2E2E2E2E2E2E2E2E2E2E2E2E2E2E2E2E2E2E2E2E2E2E2E2E2E2E2E2E2E2E2E2E2E2E2E2E2E2E2E2E2E2E2E2E2E2E2E2E2E2E2E2E2E2E2E2E2E2E2E2E2E2E2E2E2E2E2E2E2E2E2E2E2E2E2E2E2E2E2
310
E2E2E2E2E2E2E2E2E2E2E2E2E2E2E2E2E2E2E2E2E2E2E2E2E2E2E2E2E2E2E2E2E2E2E2E2E2E2E2E2E2E2E2E2E2E2E2E2E2E2E2E2E2E2E2E2E2E2E2E2E2E2E2E2E2E2E2E2E2E2E2E2E2E2E2E2E2E2E2E2E2E2E2E2E2E2E2E2E2E2E2E2E2E2E2E2E2E2E2E2E2E2E2E2E2E2E2E2E2E2E2E2E2E2E2E2E2E2E2E2E2E2E2E2E2E2E2
310
E2E2E2E2E2E2E2E2E2E2E2E2E2E2E2E2E2E2E2E2E2E2E2E2E2E2E2E2E2E2E2E2E2E2E2E2E2E2E2E2E2E2E2E2E2E2E2E2E2E2E2E2E2E2E2E2E2E2E2E2E2E2E2E2E2E2E2E2E2E2E2E2E2E2E2E2E2E2E2E2E2E2E2E2E2E2E2E2E2E2E2E2E2E2E2E2E2E2E2E2E2E2E2E2E2E2E2E2E2E2E2E2E2E2E2E2E2E2E2E2E2E2E2E2E2E2E2
310
E2E2E2E2E2E2E2E2E2E2E2E2E2E2E2E2E2E2E2E2E2E2E2E2E2E2E2E2E2E2E2E2E2E2E2E2E2E2E2E2E2E2E2E2E2E2E2E2E2E2E2E2E2E2E2E2E2E2E2E2E2E2E2E2E2E2E2E2E2E2E2E2E2E2E2E2E2E2E2E2E2E2E2E2E2E2E2E2E2E2E2E2E2E2E2E2E2E2E2E2E2E2E2E2E2E2E2E2E2E2E2E2E2E2E2E2E2E2E2E2E2E2E2E2E2E2E2
310
E2E2E2E2E2E2E2E2E2E2E2E2E2E2E2E2E2E2E2E2E2E2E2E2E2E2E2E2E2E2E2E2E2E2E2E2E2E2E2E2E2E2E2E2E2E2E2E2E2E2E2E2E2E2E2E2E2E2E2E2E2E2E2E2E2E2E2E2E2E2E2E2E2E2E2E2E2E2E2E2E2E2E2E2E2E2E2E2E2E2E2E2E2E2E2E2E2E2E2E2E2E2E2E2E2E2E2E2E2E2E2E2E2E2E2E2E2E2E2E2E2E2E2E2E2E2E2
310
E2E2E2E2E2E2E2E2E2E2E2E2E2E2E2E2E2E2E2E2E2E2E2E2E2E2E2E2E2E2E2E2E2E2E2E2E2E2E2E2E2E2E2E2E2E2E2E2E2E2E2E2E2E2E2E2E2E2E2E2E2E2E2E2E2E2E2E2E2E2E2E2E2E2E2E2E2E2E2E2E2E2E2E2E2E2E2E2E2E2E2E2E2E2E2E2E2E2E2E2E2E2E2E2E2E2E2E2E2E2E2E2E2E2E2E2E2E2E2E2E2E2E2E2E2E2E2
310
E2E2E2E2E2E2E2E2E2E2E2E2E2E2E2E2E2E2E2E2E2E2E2E2E2E2E2E2E2E2E2E2E2E2E2E2E2E2E2E2E2E2E2E2E2E2E2E2E2E2E2E2E2E2E2E2E2E2E2E2E2E2E2E2E2E2E2E2E2E2E2E2E2E2E2E2E2E2E2E2E2E2E2E2E2E2E2E2E2E2E2E2E2E2E2E2E2E2E2E2E2E2E2E2E2E2E2E2E2E2E2E2E2E2E2E2E2E2E2E2E2E2E2E2E2E2E2
310
E2E2E2E2E2E2E2E2E2E2E2E2E2E2E2E2E2E2E2E2E2E2E2E2E2E2E2E2E2E2E2E2E2E2E2E2E2E2E2E2E2E2E2E2E2E2E2E2E2E2E2E2E2E2E2E2E2E2E2E2E2E2E2E2E2E2E2E2E2E2E2E2E2E2E2E2E2E2E2E2E2E2E2E2E2E2E2E2E2E2E2E2E2E2E2E2E2E2E2E2E2E2E2E2E2E2E2E2E2E2E2E2E2E2E2E2E2E2E2E2E2E2E2E2E2E2E2
310
E2E2E2E2E2E2E2E2E2E2E2E2E2E2E2E2E2E2E2E2E2E2E2E2E2E2E2E2E2E2E2E2E2E2E2E2E2E2E2E2E2E2E2E2E2E2E2E2E2E2E2E2E2E2E2E2E2E2E2E2E2E2E2E2E2E2E2E2E2E2E2E2E2E2E2E2E2E2E2E2E2E2E2E2E2E2E2E2E2E2E2E2E2E2E2E2E2E2E2E2E2E2E2E2E2E2E2E2E2E2E2E2E2E2E2E2E2E2E2E2E2E2E2E2E2E2E2
310
E2E2E2E2E2E2E2E2E2E2E2E2E2E2E2E2E2E2E2E2E2E2E2E2E2E2E2E2E2E2E2E2E2E2E2E2E2E2E2E2E2E2E2E2E2E2E2E2E2E2E2E2E2E2E2E2E2E2E2E2E2E2E2E2E2E2E2E2E2E2E2E2E2E2E2E2E2E2E2E2E2E2E2E2E2E2E2E2E2E2E2E2E2E2E2E2E2E2E2E2E2E2E2E2E2E2E2E2E2E2E2E2E2E2E2E2E2E2E2E2E2E2E2E2E2E2E2
310
E2E2E2E2E2E2E2E2E2E2E2E2E2E2E2E2E2E2E2E2E2E2E2E2E2E2E2E2E2E2E2E2E2E2E2E2E2E2E2E2E2E2E2E2E2E2E2E2E2E2E2E2E2E2E2E2E2E2E2E2E2E2E2E2E2E2E2E2E2E2E2E2E2E2E2E2E2E2E2E2E2E2E2E2E2E2E2E2E2E2E2E2E2E2E2E2E2E2E2E2E2E2E2E2E2E2E2E2E2E2E2E2E2E2E2E2E2E2E2E2E2E2E2E2E2E2E2
310
E2E2E2E2E2E2E2E2E2E2E2E2E2E2E2E2E2E2E2E2E2E2E2E2E2E2E2E2E2E2E2E2E2E2E2E2E2E2E2E2E2E2E2E2E2E2E2E2E2E2E2E2E2E2E2E2E2E2E2E2E2E2E2E2E2E2E2E2E2E2E2E2E2E2E2E2E2E2E2E2E2E2E2E2E2E2E2E2E2E2E2E2E2E2E2E2E2E2E2E2E2E2E2E2E2E2E2E2E2E2E2E2E2E2E2E2E2E2E2E2E2E2E2E2E2E2E2
310
E2E2E2E2E2E2E2E2E2E2E2E2E2E2E2E2E2E2E2E2E2E2E2E2E2E2E2E2E2E2E2E2E2E2E2E2E2E2E2E2E2E2E2E2E2E2E2E2E2E2E2E2E2E2E2E2E2E2E2E2E2E2E2E2E2E2E2E2E2E2E2E2E2E2E2E2E2E2E2E2E2E2E2E2E2E2E2E2E2E2E2E2E2E2E2E2E2E2E2E2E2E2E2E2E2E2E2E2E2E2E2E2E2E2E2E2E2E2E2E2E2E2E2E2E2E2E2
310
E2E2E2E2E2E2E2E2E2E2E2E2E2E2E2E2E2E2E2E2E2E2E2E2E2E2E2E2E2E2E2E2E2E2E2E2E2E2E2E2E2E2E2E2E2E2E2E2E2E2E2E2E2E2E2E2E2E2E2E2E2E2E2E2E2E2E2E2E2E2E2E2E2E2E2E2E2E2E2E2E2E2E2E2E2E2E2E2E2E2E2E2E2E2E2E2E2E2E2E2E2E2E2E2E2E2E2E2E2E2E2E2E2E2E2E2E2E2E2E2E2E2E2E2E2E2E2
310
E2E2E2E2E2E2E2E2E2E2E2E2E2E2E2E2E2E2E2E2E2E2E2E2E2E2E2E2E2E2E2E2E2E2E2E2E2E2E2E2E2E2E2E2E2E2E2E2E2E2E2E2E2E2E2E2E2E2E2E2E2E2E2E2E2E2E2E2E2E2E2E2E2E2E2E2E2E2E2E2E2E2E2E2E2E2E2E2E2E2E2E2E2E2E2E2E2E2E2E2E2E2E2E2E2E2E2E2E2E2E2E2E2E2E2E2E2E2E2E2E2E2E2E2E2E2E2
310
E2E2E2E2E2E2E2E2E2E2E2E2E2E2E2E2E2E2E2E2E2E2E2E2E2E2E2E2E2E2E2E2E2E2E2E2E2E2E2E2E2E2E2E2E2E2E2E2E2E2E2E2E2E2E2E2E2E2E2E2E2E2E2E2E2E2E2E2E2E2E2E2E2E2E2E2E2E2E2E2E2E2E2E2E2E2E2E2E2E2E2E2E2E2E2E2E2E2E2E2E2E2E2E2E2E2E2E2E2E2E2E2E2E2E2E2E2E2E2E2E2E2E2E2E2E2E2
310
E2E2E2E2E2E2E2E2E2E2E2E2E2E2E2E2E2E2E2E2E2E2E2E2E2E2E2E2E2E2E2E2E2E2E2E2E2E2E2E2E2E2E2E2E2E2E2E2E2E2E2E2E2E2E2E2E2E2E2E2F5F5F5F5F5F5E2F5F5F5F5F5F5E2E2E2E2E2E2E2E2E2E2E2E2E2E2E2E2E2E2E2E2E2E2E2E2E2E2E2E2E2E2E2E2E2E2E2E2E2E2E2E2E2E2E2E2E2E2E2E2E2E2E2E2E2E2
310
E2E2E2E2E2E2E2E2E2E2E2E2E2E2E2E2E2E2E2E2E2E2E2E2E2E2E2E2E2E2E2E2E2E2E2E2E2E2E2E2E2E2E2E2E2E2E2E2E2E2E2E2E2E2E2E2E2E2E2E2E2E2E2E2E2E2E2E2E2E2E2E2E2E2E2E2E2E2E2E2E2E2E2E2E2E2E2E2E2E2E2E2E2E2E2E2E2E2E2E2E2E2E2E2E2E2E2E2E2E2E2E2E2E2E2E2E2E2E2E2E2E2E2E2E2E2E2
310
E2E2E2E2E2E2E2E2E2E2E2E2E2E2E2E2E2E2E2E2E2E2E2E2E2E2E2E2E2E2E2E2E2E2E2E2E2E2E2E2F5F5F5F5F5F5E2F5F5F5F5F5E2E2E2F5E2E2E2F5E2E2E2E2E2E2E2E2E2E2E2E2E2E2E2E2E2E2E2E2F5E2E2E2E2E2E2F5F5F5E2E2E2F5F5F5F5E2E2E2E2F5F5E2E2E2E2F5F5E2E2E2E2F5F5E2E2E2E2E2E2E2E2E2E2F5F5
310
F5E2E2F5E2E2F5F5F5F5E2E2E2E2F5F5F5E2E2E2E2E2E2E2E2E2E2E2E2E2E2E2E2E2E2E2E2E2E2E2E2E2E2E2E2E2E2E2E2E2E2E2E2E2E2E2E2E2E2E2E2E2E2E2E2E2E2E2E2E2E2E2E2E2E2E2E2E2E2E2E2E2E2E2E2E2E2E2E2E2E2E2E2E2E2E2E2E2E2E2E2E2E2E2E2E2E2E2E2E2E2E2E2E2E2E2E2E2E2E2E2E2E2E2E2E2E2
310
E2E2E2E2E2E2E2E2E2E2E2E2E2E2E2E2E2E2E2E2E2E2E2E2E2E2E2E2E2E2E2E2E2E2E2E2E2E2E2E2E2E2F5E2E2E2E2E2E2E2F5E2E2E2F5E2E2F5E2E2E2F5E2E2E2E2E2E2E2E2E2E2E2E2E2E2E2E2E2E2E2F5E2F5E2E2E2E2F5E2E2E2F5E2F5E2E2E2E2F5E2F5F5E2E2F5E2F5F5E2E2F5E2E2F5E2E2F5E2E2E2E2E2E2E2E2E2
310
E2F5E2E2E2F5E2F5E2E2E2E2F5E2F5F5E2E2E2F5E2E2E2E2E2E2E2E2E2E2E2E2E2E2E2E2E2E2E2E2E2E2E2E2E2E2E2E2E2E2E2E2E2E2E2E2E2E2E2E2E2E2E2E2E2E2E2E2E2E2E2E2E2E2E2E2E2E2E2E2E2E2E2E2E2E2E2E2E2E2E2E2E2E2E2E2E2E2E2E2E2E2E2E2E2E2E2E2E2E2E2E2E2E2E2E2E2E2E2E2E2E2E2E2E2E2E2
310
E2E2E2E2E2E2E2E2E2E2E2E2E2E2E2E2E2E2E2E2E2E2E2E2E2E2E2E2E2E2E2E2E2E2E2E2E2E2E2E2E2E2E2E2F5E2E2E2E2E2E2E2F5E2E2E2F5E2E2F5F5F5F5F5E2E2E2E2E2E2E2E2E2E2E2E2E2E2E2E2E2E2E2F5E2F5E2E2E2E2F5E2E2E2F5E2F5E2E2E2E2F5E2F5E2E2E2F5E2F5E2E2E2F5E2E2F5E2E2F5E2E2E2E2E2E2E2
310
E2E2E2F5E2E2E2E2E2E2E2E2E2E2F5E2E2E2E2E2F5E2E2E2E2E2E2E2E2E2E2E2E2E2E2E2E2E2E2E2E2E2E2E2E2E2E2E2E2E2E2E2E2E2E2E2E2E2E2E2E2E2E2E2E2E2E2E2E2E2E2E2E2E2E2E2E2E2E2E2E2E2E2E2E2E2E2E2E2E2E2E2E2E2E2E2E2E2E2E2E2E2E2E2E2E2E2E2E2E2E2E2E2E2E2E2E2E2E2E2E2E2E2E2E2E2E2
310
E2E2E2E2E2E2E2E2E2E2E2E2E2E2E2E2E2E2E2E2E2E2E2E2E2E2E2E2E2E2E2E2E2E2E2E2E2E2E2E2E2E2E2E2E2E2E2F5F5F5F5E2E2E2F5F5F5F5E2E2E2F5E2E2E2F5E2E2E2E2E2E2E2E2E2E2E2E2E2E2E2E2E2E2F5E2E2E2F5E2E2E2F5E2E2E2F5E2F5F5F5F5F5E2E2F5E2E2E2F5E2F5E2E2E2F5E2E2F5E2E2F5E2E2E2E2E2
310
E2E2E2E2E2F5E2E2E2E2E2E2E2E2E2E2F5E2E2E2E2F5E2E2E2E2E2E2E2E2E2E2E2E2E2E2E2E2E2E2E2E2E2E2E2E2E2E2E2E2E2E2E2E2E2E2E2E2E2E2E2E2E2E2E2E2E2E2E2E2E2E2E2E2E2E2E2E2E2E2E2E2E2E2E2E2E2E2E2E2E2E2E2E2E2E2E2E2E2E2E2E2E2E2E2E2E2E2E2E2E2E2E2E2E2E2E2E2E2E2E2E2E2E2E2E2E2
310
E2E2E2E2E2E2E2E2E2E2E2E2E2E2E2E2E2E2E2E2E2E2E2E2E2E2E2E2E2E2E2E2E2E2E2E2E2E2E2E2E2E2E2E2E2E2E2E2E2E2E2E2E2F5E2E2F5E2E2E2F5E2E2E2F5E2F5E2E2E2E2E2E2E2E2E2E2E2E2E2E2E2E2E2E2E2F5E2E2E2F5E2E2E2F5E2E2E2F5E2F5E2E2E2E2E2E2F5E2E2E2F5E2F5E2E2E2F5E2E2F5E2E2F5E2E2E2
310
E2E2E2E2E2E2E2F5E2E2E2E2E2E2E2E2E2E2F5E2E2E2F5E2E2E2E2E2E2E2E2E2E2E2E2E2E2E2E2E2E2E2E2E2E2E2E2E2E2E2E2E2E2E2E2E2E2E2E2E2E2E2E2E2E2E2E2E2E2E2E2E2E2E2E2E2E2E2E2E2E2E2E2E2E2E2E2E2E2E2E2E2E2E2E2E2E2E2E2E2E2E2E2E2E2E2E2E2E2E2E2E2E2E2E2E2E2E2E2E2E2E2E2E2E2E2E2
310
E2E2E2E2E2E2E2E2E2E2E2E2E2E2E2E2E2E2E2E2E2E2E2E2E2E2E2E2E2E2E2E2E2E2E2E2E2E2E2E2E2E2E2E2E2E2E2E2E2E2E2E2E2E2E2F5E2E2F5E2E2E2F5E2E2E2F5E2F5E2E2E2E2E2E2E2E2E2E2E2E2E2E2E2E2E2E2F5E2E2E2E2E2F5E2E2F5E2E2E2F5E2F5E2E2E2E2E2E2F5E2E2E2F5E2F5E2E2E2F5E2E2F5E2E2F5E2
310
E2E2E2E2E2E2E2E2E2F5E2E2E2E2E2F5F5F5F5F5E2E2E2F5E2E2E2E2E2E2E2E2E2E2E2E2E2E2E2E2E2E2E2E2E2E2E2E2E2E2E2E2E2E2E2E2E2E2E2E2E2E2E2E2E2E2E2E2E2E2E2E2E2E2E2E2E2E2E2E2E2E2E2E2E2E2E2E2E2E2E2E2E2E2E2E2E2E2E2E2E2E2E2E2E2E2E2E2E2E2E2E2E2E2E2E2E2E2E2E2E2E2E2E2E2E2E2
310
E2E2E2E2E2E2E2E2E2E2E2E2E2E2E2E2E2E2E2E2E2E2E2E2E2E2E2E2E2E2E2E2E2E2E2E2E2E2E2E2E2E2E2E2E2E2E2E2E2E2E2E2F5E2E2E2E2F5E2E2F5E2E2E2F5E2E2E2E2F5E2E2E2E2E2E2E2E2E2E2E2E2E2E2E2E2E2E2E2F5E2E2E2E2E2F5E2E2F5E2E2E2F5E2E2F5F5E2E2E2E2F5E2E2E2F5E2F5E2E2E2F5E2E2F5E2E2
310
F5E2E2E2E2E2E2E2E2E2F5F5E2E2E2E2E2F5E2E2E2E2E2E2F5E2E2E2E2F5E2E2E2E2E2E2E2E2E2E2E2E2E2E2E2E2E2E2E2E2E2E2E2E2E2E2E2E2E2E2E2E2E2E2E2E2E2E2E2E2E2E2E2E2E2E2E2E2E2E2E2E2E2E2E2E2E2E2E2E2E2E2E2E2E2E2E2E2E2E2E2E2E2E2E2E2E2E2E2E2E2E2E2E2E2E2E2E2E2E2E2E2E2E2E2E2E2
310
E2E2E2E2E2E2E2E2E2E2E2E2E2E2E2E2E2E2E2E2E2E2E2E2E2E2E2E2E2E2E2E2E2E2E2E2E2E2E2E2E2E2E2E2E2E2E2E2E2E2E2E2E2E2E2F5F5F5F5E2E2F5F5F5F5F5E2E2E2E2E2F5E2E2E2E2E2E2E2E2E2E2E2E2E2E2E2E2E2E2F5E2E2E2E2E2E2E2F5E2E2F5F5F5E2E2E2E2E2F5F5E2E2E2F5F5F5E2E2E2F5F5F5E2E2E2E2
310
F5F5E2E2E2E2E2E2E2E2E2E2E2F5E2E2E2E2E2F5F5F5F5F5F5E2E2F5F5F5F5E2E2E2E2E2E2E2E2E2E2E2E2E2E2E2E2E2E2E2E2E2E2E2E2E2E2E2E2E2E2E2E2E2E2E2E2E2E2E2E2E2E2E2E2E2E2E2E2E2E2E2E2E2E2E2E2E2E2E2E2E2E2E2E2E2E2E2E2E2E2E2E2E2E2E2E2E2E2E2E2E2E2E2E2E2E2E2E2E2E2E2E2E2E2E2E2
310
E2E2E2E2E2E2E2E2E2E2E2E2E2E2E2E2E2E2E2E2E2E2E2E2E2E2E2E2E2E2E2E2E2E2E2E2E2E2E2E2E2E2E2E2E2E2E2E2E2E2E2E2E2E2E2E2E2E2E2E2E2E2E2E2E2E2E2E2E2E2E2E2E2E2E2E2E2E2E2E2E2E2E2E2E2E2E2E2E2E2E2E2E2E2E2E2E2E2E2E2E2E2E2E2E2E2E2E2E2E2E2E2E2E2E2E2E2E2E2E2E2E2E2E2E2E2E2
310
E2E2E2E2E2E2E2E2E2E2E2E2E2E2E2E2E2E2E2E2E2E2E2E2E2E2E2E2E2E2E2E2E2E2E2E2E2E2E2E2E2E2E2E2E2E2E2E2E2E2E2E2E2E2E2E2E2E2E2E2E2E2E2E2E2E2E2E2E2E2E2E2E2E2E2E2E2E2E2E2E2E2E2E2E2E2E2E2E2E2E2E2E2E2E2E2E2E2E2E2E2E2E2E2E2E2E2E2E2E2E2E2E2E2E2E2E2E2E2E2E2E2E2E2E2E2E2
310
E2E2E2E2E2E2E2E2E2E2E2E2E2E2E2E2E2E2E2E2E2E2E2E2E2E2E2E2E2E2E2E2E2E2E2E2E2E2E2E2E2E2E2E2E2E2E2E2E2E2E2E2E2E2E2E2E2E2E2E2E2E2E2E2E2E2E2E2E2E2E2E2E2E2E2E2E2E2E2E2E2E2E2E2E2E2E2E2E2E2E2E2E2E2E2E2E2E2E2E2E2E2E2E2E2E2E2E2E2E2E2E2E2E2E2E2E2E2E2E2E2E2E2E2E2E2E2
310
E2E2E2E2E2E2E2E2E2E2E2E2E2E2E2E2E2E2E2E2E2E2E2E2E2E2E2E2E2E2E2E2E2E2E2E2E2E2E2E2E2E2E2E2E2E2E2E2E2E2E2E2E2E2E2E2E2E2E2E2E2E2E2E2E2E2E2E2E2E2E2E2E2E2E2E2E2E2E2E2E2E2E2E2E2E2E2E2E2E2E2E2E2E2E2E2E2E2E2E2E2E2E2E2E2E2E2E2E2E2E2E2E2E2E2E2E2E2E2E2E2E2E2E2E2E2E2
310
E2E2E2E2E2E2E2E2E2E2E2E2E2E2E2E2E2E2E2E2E2E2E2E2E2E2E2E2E2E2E2E2E2E2E2E2E2E2E2E2E2E2E2E2E2E2E2E2E2E2E2E2E2E2E2E2E2E2E2E2E2E2E2E2E2E2E2E2E2E2E2E2E2E2E2E2E2E2E2E2E2E2E2E2E2E2E2E2E2E2E2E2E2E2E2E2E2E2E2E2E2E2E2E2E2E2E2E2E2E2E2E2E2E2E2E2E2E2E2E2E2E2E2E2E2E2E2
310
E2E2E2E2E2E2E2E2E2E2E2E2E2E2E2E2E2E2E2E2E2E2E2E2E2E2E2E2E2E2E2E2E2E2E2E2E2E2E2E2E2E2E2E2E2E2E2E2E2E2E2E2E2E2E2E2E2E2E2E2E2E2E2E2E2E2E2E2E2E2E2E2E2E2E2E2E2E2E2E2E2E2E2E2E2E2E2E2E2E2E2E2E2E2E2E2E2E2E2E2E2E2E2E2E2E2E2E2E2E2E2E2E2E2E2E2E2E2E2E2E2E2E2E2E2E2E2
310
E2E2E2E2E2E2E2E2E2E2E2E2E2E2E2E2E2E2E2E2E2E2E2E2E2E2E2E2E2E2E2E2E2E2E2E2E2E2E2E2E2E2E2E2E2E2E2E2E2E2E2E2E2E2E2E2E2E2E2E2E2E2E2E2E2E2E2E2E2E2E2E2E2E2E2E2E2E2E2E2E2E2E2E2E2E2E2E2E2E2E2E2E2E2E2E2E2E2E2E2E2E2E2E2E2E2E2E2E2E2E2E2E2E2E2E2E2E2E2E2E2E2E2E2E2E2E2
310
E2E2E2E2E2E2E2E2E2E2E2E2E2E2E2E2E2E2E2E2E2E2E2E2E2E2E2E2E2E2E2E2E2E2E2E2E2E2E2E2E2E2E2E2E2E2E2E2E2E2E2E2E2E2E2E2E2E2E2E2E2E2E2E2E2E2E2E2E2E2E2E2E2E2E2E2E2E2E2E2E2E2E2E2E2E2E2E2E2E2E2E2E2E2E2E2E2E2E2E2E2E2E2E2E2E2E2E2E2E2E2E2E2E2E2E2E2E2E2E2E2E2E2E2E2E2E2
310
E2E2E2E2E2E2E2E2E2E2E2E2E2E2E2E2E2E2E2E2E2E2E2E2E2E2E2E2E2E2E2E2E2E2E2E2E2E2E2E2E2E2E2E2E2E2E2E2E2E2E2E2E2E2E2E2E2E2E2E2E2E2E2E2E2E2E2E2E2E2E2E2E2E2E2E2E2E2E2E2E2E2E2E2E2E2E2E2E2E2E2E2E2E2E2E2E2E2E2E2E2E2E2E2E2E2E2E2E2E2E2E2E2E2E2E2E2E2E2E2E2E2E2E2E2E2E2
310
E2E2E2E2E2E2E2E2E2E2E2E2E2E2E2E2E2E2E2E2E2E2E2E2E2E2E2E2E2E2E2E2E2E2E2E2E2E2E2E2E2E2E2E2E2E2E2E2E2E2E2E2E2E2E2E2E2E2E2E2E2E2E2E2E2E2E2E2E2E2E2E2E2E2E2E2E2E2E2E2E2E2E2E2E2E2E2E2E2E2E2E2E2E2E2E2E2E2E2E2E2E2E2E2E2E2E2E2E2E2E2E2E2E2E2E2E2E2E2E2E2E2E2E2E2E2E2
310
E2E2E2E2E2E2E2E2E2E2E2E2E2E2E2E2E2E2E2E2E2E2E2E2E2E2E2E2E2E2E2E2E2E2E2E2E2E2E2E2E2E2E2E2E2E2E2E2E2E2E2E2E2E2E2E2E2E2E2E2E2E2E2E2E2E2E2E2E2E2E2E2E2E2E2E2E2E2E2E2E2E2E2E2E2E2E2E2E2E2E2E2E2E2E2E2E2E2E2E2E2E2E2E2E2E2E2E2E2E2E2E2E2E2E2E2E2E2E2E2E2E2E2E2E2E2E2
310
E2E2E2E2E2E2E2E2E2E2E2E2E2E2E2E2E2E2E2E2E2E2E2E2E2E2E2E2E2E2E2E2E2E2E2E2E2E2E2E2E2E2E2E2E2E2E2E2E2E2E2E2E2E2E2E2E2E2E2E2E2E2E2E2E2E2E2E2E2E2E2E2E2E2E2E2E2E2E2E2E2E2E2E2E2E2E2E2E2E2E2E2E2E2E2E2E2E2E2E2E2E2E2E2E2E2E2E2E2E2E2E2E2E2E2E2E2E2E2E2E2E2E2E2E2E2E2
310
E2E2E2E2E2E2E2E2E2E2E2E2E2E2E2E2E2E2E2E2E2E2E2E2E2E2E2E2E2E2E2E2E2E2E2E2E2E2E2E2E2E2E2E2E2E2E2E2E2E2E2E2E2E2E2E2E2E2E2E2E2E2E2E2E2E2E2E2E2E2E2E2E2E2E2E2E2E2E2E2E2E2E2E2E2E2E2E2E2E2E2E2E2E2E2E2E2E2E2E2E2E2E2E2E2E2E2E2E2E2E2E2E2E2E2E2E2E2E2E2E2E2E2E2E2E2E2
310
E2E2E2E2E2E2E2E2E2E2E2E2E2E2E2E2E2E2E2E2E2E2E2E2E2E2E2E2E2E2E2E2E2E2E2E2E2E2E2E2E2E2E2E2E2E2E2E2E2E2E2E2E2E2E2E2E2E2E2E2E2E2E2E2E2E2E2E2E2E2E2E2E2E2E2E2E2E2E2E2E2E2E2E2E2E2E2E2E2E2E2E2E2E2E2E2E2E2E2E2E2E2E2E2E2E2E2E2E2E2E2E2E2E2E2E2E2E2E2E2E2E2E2E2E2E2E2
310
E2E2E2E2E2E2E2E2E2E2E2E2E2E2E2E2E2E2E2E2E2E2E2E2E2E2E2E2E2E2E2E2E2E2E2E2E2E2E2E2E2E2E2E2E2E2E2E2E2E2E2E2E2E2E2E2E2E2E2E2E2E2E2E2E2E2E2E2E2E2E2E2E2E2E2E2E2E2E2E2E2E2E2E2E2E2E2E2E2E2E2E2E2E2E2E2E2E2E2E2E2E2E2E2E2E2E2E2E2E2E2E2E2E2E2E2E2E2E2E2E2E2E2E2E2E2E2
310
E2E2E2E2E2E2E2E2E2E2E2E2E2E2E2E2E2E2E2E2E2E2E2E2E2E2E2E2E2E2E2E2E2E2E2E2E2E2E2E2E2E2E2E2E2E2E2E2E2E2E2E2E2E2E2E2E2E2E2E2E2E2E2E2E2E2E2E2E2E2E2E2E2E2E2E2E2E2E2E2E2E2E2E2E2E2E2E2E2E2E2E2E2E2E2E2E2E2E2E2E2E2E2E2E2E2E2E2E2E2E2E2E2E2E2E2E2E2E2E2E2E2E2E2E2E2E2
310
E2E2E2E2E2E2E2E2E2E2E2E2E2E2E2E2E2E2E2E2E2E2E2E2E2E2E2E2E2E2E2E2E2E2E2E2E2E2E2E2E2E2E2E2E2E2E2E2E2E2E2E2E2E2E2E2E2E2E2E2E2E2E2E2E2E2E2E2E2E2E2E2E2E2E2E2E2E2E2E2E2E2E2E2E2E2E2E2E2E2E2E2E2E2E2E2E2E2E2E2E2E2E2E2E2E2E2E2E2E2E2E2E2E2E2E2E2E2E2E2E2E2E2E2E2E2E2
310
E2E2E2E2E2E2E2E2E2E2E2E2E2E2E2E2E2E2E2E2E2E2E2E2E2E2E2E2E2E2E2E2E2E2E2E2E2E2E2E2E2E2E2E2E2E2E2E2E2E2E2E2E2E2E2E2E2E2E2E2E2E2E2E2E2E2E2E2E2E2E2E2E2E2E2E2E2E2E2E2E2E2E2E2E2E2E2E2E2E2E2E2E2E2E2E2E2E2E2E2E2E2E2E2E2E2E2E2E2E2E2E2E2E2E2E2E2E2E2E2E2E2E2E2E2E2E2
310
E2E2E2E2E2E2E2E2E2E2E2E2E2E2E2E2E2E2E2E2E2E2
  0
XRECORD
  5
250B
102
{ACAD_REACTORS
330
145D
102
}
330
145D
100
AcDbXrecord
280
     1
102
MATERIAL
148
0.0
149
0.0
149
0.0
 93
        0
 94
      127
282
     0
 72
     0
 77
     0
171
     0
175
     0
179
     0
273
     0
  0
XRECORD
  5
145F
102
{ACAD_REACTORS
330
145D
102
}
330
145D
100
AcDbXrecord
280
     1
270
     1
271
     1
  0
XRECORD
  5
145E
102
{ACAD_REACTORS
330
145D
102
}
330
145D
100
AcDbXrecord
280
     1
270
     1
271
     1
  0
XRECORD
  5
1462
102
{ACAD_REACTORS
330
145D
102
}
330
145D
100
AcDbXrecord
280
     1
270
     1
271
     1
  0
XRECORD
  5
1461
102
{ACAD_REACTORS
330
145D
102
}
330
145D
100
AcDbXrecord
280
     1
270
     1
271
     1
  0
XRECORD
  5
1463
102
{ACAD_REACTORS
330
145D
102
}
330
145D
100
AcDbXrecord
280
     1
270
     1
271
     1
  0
XRECORD
  5
1460
102
{ACAD_REACTORS
330
145D
102
}
330
145D
100
AcDbXrecord
280
     1
270
     1
271
     1
  0
XRECORD
  5
250A
102
{ACAD_REACTORS
330
1455
102
}
330
1455
100
AcDbXrecord
280
     1
102
MATERIAL
148
0.0
149
0.0
149
0.0
 93
        0
 94
      127
282
     0
 72
     0
 77
     0
171
     0
175
     0
179
     0
273
     0
  0
XRECORD
  5
1457
102
{ACAD_REACTORS
330
1455
102
}
330
1455
100
AcDbXrecord
280
     1
270
     1
271
     1
  0
XRECORD
  5
1456
102
{ACAD_REACTORS
330
1455
102
}
330
1455
100
AcDbXrecord
280
     1
270
     1
271
     1
  0
XRECORD
  5
145A
102
{ACAD_REACTORS
330
1455
102
}
330
1455
100
AcDbXrecord
280
     1
270
     1
271
     1
  0
XRECORD
  5
1459
102
{ACAD_REACTORS
330
1455
102
}
330
1455
100
AcDbXrecord
280
     1
270
     1
271
     1
  0
XRECORD
  5
145B
102
{ACAD_REACTORS
330
1455
102
}
330
1455
100
AcDbXrecord
280
     1
270
     1
271
     1
  0
XRECORD
  5
1458
102
{ACAD_REACTORS
330
1455
102
}
330
1455
100
AcDbXrecord
280
     1
270
     1
271
     1
  0
XRECORD
  5
250C
102
{ACAD_REACTORS
330
1465
102
}
330
1465
100
AcDbXrecord
280
     1
102
MATERIAL
148
0.0
149
0.0
149
0.0
 93
        0
 94
      127
282
     0
 72
     0
 77
     0
171
     0
175
     0
179
     0
273
     0
  0
XRECORD
  5
1467
102
{ACAD_REACTORS
330
1465
102
}
330
1465
100
AcDbXrecord
280
     1
270
     1
271
     1
  0
XRECORD
  5
1466
102
{ACAD_REACTORS
330
1465
102
}
330
1465
100
AcDbXrecord
280
     1
270
     1
271
     1
  0
XRECORD
  5
146A
102
{ACAD_REACTORS
330
1465
102
}
330
1465
100
AcDbXrecord
280
     1
270
     1
271
     1
  0
XRECORD
  5
1469
102
{ACAD_REACTORS
330
1465
102
}
330
1465
100
AcDbXrecord
280
     1
270
     1
271
     1
  0
XRECORD
  5
146B
102
{ACAD_REACTORS
330
1465
102
}
330
1465
100
AcDbXrecord
280
     1
270
     1
271
     1
  0
XRECORD
  5
1468
102
{ACAD_REACTORS
330
1465
102
}
330
1465
100
AcDbXrecord
280
     1
270
     1
271
     1
  0
XRECORD
  5
2547
102
{ACAD_REACTORS
330
2546
102
}
330
2546
100
AcDbXrecord
280
     1
102
ACAD_ROUNDTRIP_2012_MLEADER_STYLE
298
     1
  0
XRECORD
  5
254D
102
{ACAD_REACTORS
330
254C
102
}
330
254C
100
AcDbXrecord
280
     1
102
DISPLAYNAME
  1
Metric50
102
FLAGS
 90
        0
  0
CELLSTYLEMAP
  5
2514
102
{ACAD_REACTORS
330
1A27
102
}
330
1A27
100
AcDbCellStyleMap
 90
        3
300
CELLSTYLE
  1
TABLEFORMAT_BEGIN
 90
        5
170
     1
 91
        0
 92
    32768
 62
   257
 93
        1
300
CONTENTFORMAT
  1
CONTENTFORMAT_BEGIN
 90
        0
 91
        0
 92
      512
 93
        0
300

 40
0.0
140
1.0
 94
        5
 62
     0
340
23
144
6.0
309
CONTENTFORMAT_END
171
     1
301
MARGIN
  1
CELLMARGIN_BEGIN
 40
1.5
 40
1.5
 40
1.5
 40
1.5
 40
0.18
 40
0.18
309
CELLMARGIN_END
 94
        6
 95
        1
302
GRIDFORMAT
  1
GRIDFORMAT_BEGIN
 90
        0
 91
        1
 62
     0
 92
       -2
340
0
 93
        0
 40
1.125
309
GRIDFORMAT_END
 95
        2
302
GRIDFORMAT
  1
GRIDFORMAT_BEGIN
 90
        0
 91
        1
 62
     0
 92
       -2
340
0
 93
        0
 40
1.125
309
GRIDFORMAT_END
 95
        4
302
GRIDFORMAT
  1
GRIDFORMAT_BEGIN
 90
        0
 91
        1
 62
     0
 92
       -2
340
0
 93
        0
 40
1.125
309
GRIDFORMAT_END
 95
        8
302
GRIDFORMAT
  1
GRIDFORMAT_BEGIN
 90
        0
 91
        1
 62
     0
 92
       -2
340
0
 93
        0
 40
1.125
309
GRIDFORMAT_END
 95
       16
302
GRIDFORMAT
  1
GRIDFORMAT_BEGIN
 90
        0
 91
        1
 62
     0
 92
       -2
340
0
 93
        0
 40
1.125
309
GRIDFORMAT_END
 95
       32
302
GRIDFORMAT
  1
GRIDFORMAT_BEGIN
 90
        0
 91
        1
 62
     0
 92
       -2
340
0
 93
        0
 40
1.125
309
GRIDFORMAT_END
309
TABLEFORMAT_END
  1
CELLSTYLE_BEGIN
 90
        1
 91
        1
300
_TITLE
309
CELLSTYLE_END
300
CELLSTYLE
  1
TABLEFORMAT_BEGIN
 90
        5
170
     1
 91
        0
 92
        0
 62
   257
 93
        1
300
CONTENTFORMAT
  1
CONTENTFORMAT_BEGIN
 90
        0
 91
        0
 92
      512
 93
        0
300

 40
0.0
140
1.0
 94
        5
 62
     0
340
23
144
4.5
309
CONTENTFORMAT_END
171
     1
301
MARGIN
  1
CELLMARGIN_BEGIN
 40
1.5
 40
1.5
 40
1.5
 40
1.5
 40
0.18
 40
0.18
309
CELLMARGIN_END
 94
        6
 95
        1
302
GRIDFORMAT
  1
GRIDFORMAT_BEGIN
 90
        0
 91
        1
 62
     0
 92
       -2
340
0
 93
        0
 40
1.125
309
GRIDFORMAT_END
 95
        2
302
GRIDFORMAT
  1
GRIDFORMAT_BEGIN
 90
        0
 91
        1
 62
     0
 92
       -2
340
0
 93
        0
 40
1.125
309
GRIDFORMAT_END
 95
        4
302
GRIDFORMAT
  1
GRIDFORMAT_BEGIN
 90
        0
 91
        1
 62
     0
 92
       -2
340
0
 93
        0
 40
1.125
309
GRIDFORMAT_END
 95
        8
302
GRIDFORMAT
  1
GRIDFORMAT_BEGIN
 90
        0
 91
        1
 62
     0
 92
       -2
340
0
 93
        0
 40
1.125
309
GRIDFORMAT_END
 95
       16
302
GRIDFORMAT
  1
GRIDFORMAT_BEGIN
 90
        0
 91
        1
 62
     0
 92
       -2
340
0
 93
        0
 40
1.125
309
GRIDFORMAT_END
 95
       32
302
GRIDFORMAT
  1
GRIDFORMAT_BEGIN
 90
        0
 91
        1
 62
     0
 92
       -2
340
0
 93
        0
 40
1.125
309
GRIDFORMAT_END
309
TABLEFORMAT_END
  1
CELLSTYLE_BEGIN
 90
        2
 91
        1
300
_HEADER
309
CELLSTYLE_END
300
CELLSTYLE
  1
TABLEFORMAT_BEGIN
 90
        5
170
     1
 91
        0
 92
        0
 62
   257
 93
        1
300
CONTENTFORMAT
  1
CONTENTFORMAT_BEGIN
 90
        0
 91
        0
 92
      512
 93
        0
300

 40
0.0
140
1.0
 94
        2
 62
     0
340
23
144
4.5
309
CONTENTFORMAT_END
171
     1
301
MARGIN
  1
CELLMARGIN_BEGIN
 40
1.5
 40
1.5
 40
1.5
 40
1.5
 40
0.18
 40
0.18
309
CELLMARGIN_END
 94
        6
 95
        1
302
GRIDFORMAT
  1
GRIDFORMAT_BEGIN
 90
        0
 91
        1
 62
     0
 92
       -2
340
0
 93
        0
 40
1.125
309
GRIDFORMAT_END
 95
        2
302
GRIDFORMAT
  1
GRIDFORMAT_BEGIN
 90
        0
 91
        1
 62
     0
 92
       -2
340
0
 93
        0
 40
1.125
309
GRIDFORMAT_END
 95
        4
302
GRIDFORMAT
  1
GRIDFORMAT_BEGIN
 90
        0
 91
        1
 62
     0
 92
       -2
340
0
 93
        0
 40
1.125
309
GRIDFORMAT_END
 95
        8
302
GRIDFORMAT
  1
GRIDFORMAT_BEGIN
 90
        0
 91
        1
 62
     0
 92
       -2
340
0
 93
        0
 40
1.125
309
GRIDFORMAT_END
 95
       16
302
GRIDFORMAT
  1
GRIDFORMAT_BEGIN
 90
        0
 91
        1
 62
     0
 92
       -2
340
0
 93
        0
 40
1.125
309
GRIDFORMAT_END
 95
       32
302
GRIDFORMAT
  1
GRIDFORMAT_BEGIN
 90
        0
 91
        1
 62
     0
 92
       -2
340
0
 93
        0
 40
1.125
309
GRIDFORMAT_END
309
TABLEFORMAT_END
  1
CELLSTYLE_BEGIN
 90
        3
 91
        2
300
_DATA
309
CELLSTYLE_END
  0
XRECORD
  5
2521
102
{ACAD_REACTORS
330
2520
102
}
330
2520
100
AcDbXrecord
280
     1
102
RTVSPost2010Prop28
280
     1
102
RTVSPost2010PropOp28
 70
     1
102
RTVSPost2010Prop29
280
     1
102
RTVSPost2010PropOp29
 70
     1
102
RTVSPost2010Prop30
280
     0
102
RTVSPost2010PropOp30
 70
     1
102
RTVSPost2010Prop31
280
     0
102
RTVSPost2010PropOp31
 70
     1
102
RTVSPost2010Prop32
280
     0
102
RTVSPost2010PropOp32
 70
     1
102
RTVSPost2010Prop33
280
     0
102
RTVSPost2010PropOp33
 70
     1
102
RTVSPost2010Prop34
280
     0
102
RTVSPost2010PropOp34
 70
     1
102
RTVSPost2010Prop35
280
     0
102
RTVSPost2010PropOp35
 70
     1
102
RTVSPost2010Prop36
280
     0
102
RTVSPost2010PropOp36
 70
     1
102
RTVSPost2010Prop37
 90
       50
102
RTVSPost2010PropOp37
 70
     1
102
RTVSPost2010Prop38
140
0.0
102
RTVSPost2010PropOp38
 70
     1
102
RTVSPost2010Prop39
140
1.0
102
RTVSPost2010PropOp39
 70
     1
102
RTVSPost2010Prop40
 90
        0
102
RTVSPost2010PropOp40
 70
     1
102
RTVSPost2010Prop41ColorIndex
 90
       18
102
RTVSPost2010Prop41ColorRGB
 90
        0
102
RTVSPost2010PropOp41
 70
     1
102
RTVSPost2010Prop42
 90
       50
102
RTVSPost2010PropOp42
 70
     1
102
RTVSPost2010Prop43
 90
        3
102
RTVSPost2010PropOp43
 70
     1
102
RTVSPost2010Prop44ColorIndex
 90
        5
102
RTVSPost2010Prop44ColorRGB
 90
      255
102
RTVSPost2010PropOp44
 70
     1
102
RTVSPost2010Prop45
280
     0
102
RTVSPost2010PropOp45
 70
     1
102
RTVSPost2010Prop46
 90
       50
102
RTVSPost2010PropOp46
 70
     1
102
RTVSPost2010Prop47
 90
       50
102
RTVSPost2010PropOp47
 70
     1
102
RTVSPost2010Prop48
 90
       50
102
RTVSPost2010PropOp48
 70
     1
102
RTVSPost2010Prop49
280
     0
102
RTVSPost2010PropOp49
 70
     1
102
RTVSPost2010Prop50
 90
       50
102
RTVSPost2010PropOp50
 70
     1
102
RTVSPost2010Prop51ColorIndex
 90
      256
102
RTVSPost2010Prop51ColorRGB
 90
-16777216
102
RTVSPost2010PropOp51
 70
     0
102
RTVSPost2010Prop52
140
1.0
102
RTVSPost2010PropOp52
 70
     0
102
RTVSPost2010Prop53
 90
        2
102
RTVSPost2010PropOp53
 70
     1
102
RTVSPost2010Prop54
  1
strokes_ogs.tif
102
RTVSPost2010PropOp54
 70
     1
102
RTVSPost2010Prop55
280
     0
102
RTVSPost2010PropOp55
 70
     1
102
RTVSPost2010Prop56
140
1.0
102
RTVSPost2010PropOp56
 70
     1
102
RTVSPost2010Prop57
140
1.0
102
RTVSPost2010PropOp57
 70
     1
  0
XRECORD
  5
254B
102
{ACAD_REACTORS
330
254A
102
}
330
254A
100
AcDbXrecord
280
     1
102
RTVSPost2010Prop28
280
     0
102
RTVSPost2010PropOp28
 70
     1
102
RTVSPost2010Prop29
280
     1
102
RTVSPost2010PropOp29
 70
     1
102
RTVSPost2010Prop30
280
     1
102
RTVSPost2010PropOp30
 70
     1
102
RTVSPost2010Prop31
280
     0
102
RTVSPost2010PropOp31
 70
     1
102
RTVSPost2010Prop32
280
     0
102
RTVSPost2010PropOp32
 70
     1
102
RTVSPost2010Prop33
280
     0
102
RTVSPost2010PropOp33
 70
     1
102
RTVSPost2010Prop34
280
     0
102
RTVSPost2010PropOp34
 70
     1
102
RTVSPost2010Prop35
280
     0
102
RTVSPost2010PropOp35
 70
     1
102
RTVSPost2010Prop36
280
     0
102
RTVSPost2010PropOp36
 70
     1
102
RTVSPost2010Prop37
 90
       50
102
RTVSPost2010PropOp37
 70
     1
102
RTVSPost2010Prop38
140
0.0
102
RTVSPost2010PropOp38
 70
     1
102
RTVSPost2010Prop39
140
1.0
102
RTVSPost2010PropOp39
 70
     1
102
RTVSPost2010Prop40
 90
        0
102
RTVSPost2010PropOp40
 70
     1
102
RTVSPost2010Prop41ColorIndex
 90
       18
102
RTVSPost2010Prop41ColorRGB
 90
        0
102
RTVSPost2010PropOp41
 70
     1
102
RTVSPost2010Prop42
 90
       50
102
RTVSPost2010PropOp42
 70
     1
102
RTVSPost2010Prop43
 90
        3
102
RTVSPost2010PropOp43
 70
     1
102
RTVSPost2010Prop44ColorIndex
 90
        5
102
RTVSPost2010Prop44ColorRGB
 90
      255
102
RTVSPost2010PropOp44
 70
     1
102
RTVSPost2010Prop45
280
     0
102
RTVSPost2010PropOp45
 70
     1
102
RTVSPost2010Prop46
 90
       50
102
RTVSPost2010PropOp46
 70
     1
102
RTVSPost2010Prop47
 90
       50
102
RTVSPost2010PropOp47
 70
     1
102
RTVSPost2010Prop48
 90
       50
102
RTVSPost2010PropOp48
 70
     1
102
RTVSPost2010Prop49
280
     0
102
RTVSPost2010PropOp49
 70
     1
102
RTVSPost2010Prop50
 90
       50
102
RTVSPost2010PropOp50
 70
     1
102
RTVSPost2010Prop51ColorIndex
 90
      256
102
RTVSPost2010Prop51ColorRGB
 90
-16777216
102
RTVSPost2010PropOp51
 70
     0
102
RTVSPost2010Prop52
140
1.0
102
RTVSPost2010PropOp52
 70
     0
102
RTVSPost2010Prop53
 90
        2
102
RTVSPost2010PropOp53
 70
     1
102
RTVSPost2010Prop54
  1
strokes_ogs.tif
102
RTVSPost2010PropOp54
 70
     1
102
RTVSPost2010Prop55
280
     0
102
RTVSPost2010PropOp55
 70
     1
102
RTVSPost2010Prop56
140
1.0
102
RTVSPost2010PropOp56
 70
     1
102
RTVSPost2010Prop57
140
1.0
102
RTVSPost2010PropOp57
 70
     1
  0
XRECORD
  5
2549
102
{ACAD_REACTORS
330
2548
102
}
330
2548
100
AcDbXrecord
280
     1
102
RTVSPost2010Prop28
280
     0
102
RTVSPost2010PropOp28
 70
     1
102
RTVSPost2010Prop29
280
     1
102
RTVSPost2010PropOp29
 70
     1
102
RTVSPost2010Prop30
280
     1
102
RTVSPost2010PropOp30
 70
     1
102
RTVSPost2010Prop31
280
     0
102
RTVSPost2010PropOp31
 70
     1
102
RTVSPost2010Prop32
280
     0
102
RTVSPost2010PropOp32
 70
     1
102
RTVSPost2010Prop33
280
     0
102
RTVSPost2010PropOp33
 70
     1
102
RTVSPost2010Prop34
280
     0
102
RTVSPost2010PropOp34
 70
     1
102
RTVSPost2010Prop35
280
     0
102
RTVSPost2010PropOp35
 70
     1
102
RTVSPost2010Prop36
280
     0
102
RTVSPost2010PropOp36
 70
     1
102
RTVSPost2010Prop37
 90
       50
102
RTVSPost2010PropOp37
 70
     1
102
RTVSPost2010Prop38
140
0.0
102
RTVSPost2010PropOp38
 70
     1
102
RTVSPost2010Prop39
140
1.0
102
RTVSPost2010PropOp39
 70
     1
102
RTVSPost2010Prop40
 90
        0
102
RTVSPost2010PropOp40
 70
     1
102
RTVSPost2010Prop41ColorIndex
 90
       18
102
RTVSPost2010Prop41ColorRGB
 90
        0
102
RTVSPost2010PropOp41
 70
     1
102
RTVSPost2010Prop42
 90
       50
102
RTVSPost2010PropOp42
 70
     1
102
RTVSPost2010Prop43
 90
        3
102
RTVSPost2010PropOp43
 70
     1
102
RTVSPost2010Prop44ColorIndex
 90
        5
102
RTVSPost2010Prop44ColorRGB
 90
      255
102
RTVSPost2010PropOp44
 70
     1
102
RTVSPost2010Prop45
280
     0
102
RTVSPost2010PropOp45
 70
     1
102
RTVSPost2010Prop46
 90
       50
102
RTVSPost2010PropOp46
 70
     1
102
RTVSPost2010Prop47
 90
       50
102
RTVSPost2010PropOp47
 70
     1
102
RTVSPost2010Prop48
 90
       50
102
RTVSPost2010PropOp48
 70
     1
102
RTVSPost2010Prop49
280
     0
102
RTVSPost2010PropOp49
 70
     1
102
RTVSPost2010Prop50
 90
       50
102
RTVSPost2010PropOp50
 70
     1
102
RTVSPost2010Prop51ColorIndex
 90
      256
102
RTVSPost2010Prop51ColorRGB
 90
-16777216
102
RTVSPost2010PropOp51
 70
     0
102
RTVSPost2010Prop52
140
1.0
102
RTVSPost2010PropOp52
 70
     0
102
RTVSPost2010Prop53
 90
        2
102
RTVSPost2010PropOp53
 70
     1
102
RTVSPost2010Prop54
  1
strokes_ogs.tif
102
RTVSPost2010PropOp54
 70
     1
102
RTVSPost2010Prop55
280
     0
102
RTVSPost2010PropOp55
 70
     1
102
RTVSPost2010Prop56
140
1.0
102
RTVSPost2010PropOp56
 70
     1
102
RTVSPost2010Prop57
140
1.0
102
RTVSPost2010PropOp57
 70
     1
  0
XRECORD
  5
251F
102
{ACAD_REACTORS
330
251E
102
}
330
251E
100
AcDbXrecord
280
     1
102
RTVSPost2010Prop28
280
     0
102
RTVSPost2010PropOp28
 70
     1
102
RTVSPost2010Prop29
280
     1
102
RTVSPost2010PropOp29
 70
     1
102
RTVSPost2010Prop30
280
     1
102
RTVSPost2010PropOp30
 70
     1
102
RTVSPost2010Prop31
280
     0
102
RTVSPost2010PropOp31
 70
     1
102
RTVSPost2010Prop32
280
     0
102
RTVSPost2010PropOp32
 70
     1
102
RTVSPost2010Prop33
280
     0
102
RTVSPost2010PropOp33
 70
     1
102
RTVSPost2010Prop34
280
     0
102
RTVSPost2010PropOp34
 70
     1
102
RTVSPost2010Prop35
280
     0
102
RTVSPost2010PropOp35
 70
     1
102
RTVSPost2010Prop36
280
     0
102
RTVSPost2010PropOp36
 70
     1
102
RTVSPost2010Prop37
 90
       50
102
RTVSPost2010PropOp37
 70
     1
102
RTVSPost2010Prop38
140
0.0
102
RTVSPost2010PropOp38
 70
     1
102
RTVSPost2010Prop39
140
1.0
102
RTVSPost2010PropOp39
 70
     1
102
RTVSPost2010Prop40
 90
        0
102
RTVSPost2010PropOp40
 70
     1
102
RTVSPost2010Prop41ColorIndex
 90
       18
102
RTVSPost2010Prop41ColorRGB
 90
        0
102
RTVSPost2010PropOp41
 70
     1
102
RTVSPost2010Prop42
 90
       50
102
RTVSPost2010PropOp42
 70
     1
102
RTVSPost2010Prop43
 90
        3
102
RTVSPost2010PropOp43
 70
     1
102
RTVSPost2010Prop44ColorIndex
 90
        5
102
RTVSPost2010Prop44ColorRGB
 90
      255
102
RTVSPost2010PropOp44
 70
     1
102
RTVSPost2010Prop45
280
     0
102
RTVSPost2010PropOp45
 70
     1
102
RTVSPost2010Prop46
 90
       50
102
RTVSPost2010PropOp46
 70
     1
102
RTVSPost2010Prop47
 90
       50
102
RTVSPost2010PropOp47
 70
     1
102
RTVSPost2010Prop48
 90
       50
102
RTVSPost2010PropOp48
 70
     1
102
RTVSPost2010Prop49
280
     0
102
RTVSPost2010PropOp49
 70
     1
102
RTVSPost2010Prop50
 90
       50
102
RTVSPost2010PropOp50
 70
     1
102
RTVSPost2010Prop51ColorIndex
 90
      256
102
RTVSPost2010Prop51ColorRGB
 90
-16777216
102
RTVSPost2010PropOp51
 70
     0
102
RTVSPost2010Prop52
140
1.0
102
RTVSPost2010PropOp52
 70
     0
102
RTVSPost2010Prop53
 90
        2
102
RTVSPost2010PropOp53
 70
     1
102
RTVSPost2010Prop54
  1
strokes_ogs.tif
102
RTVSPost2010PropOp54
 70
     1
102
RTVSPost2010Prop55
280
     0
102
RTVSPost2010PropOp55
 70
     1
102
RTVSPost2010Prop56
140
1.0
102
RTVSPost2010PropOp56
 70
     1
102
RTVSPost2010Prop57
140
1.0
102
RTVSPost2010PropOp57
 70
     1
  0
XRECORD
  5
252D
102
{ACAD_REACTORS
330
252C
102
}
330
252C
100
AcDbXrecord
280
     1
102
RTVSPost2010Prop28
280
     0
102
RTVSPost2010PropOp28
 70
     1
102
RTVSPost2010Prop29
280
     1
102
RTVSPost2010PropOp29
 70
     1
102
RTVSPost2010Prop30
280
     1
102
RTVSPost2010PropOp30
 70
     1
102
RTVSPost2010Prop31
280
     0
102
RTVSPost2010PropOp31
 70
     1
102
RTVSPost2010Prop32
280
     0
102
RTVSPost2010PropOp32
 70
     1
102
RTVSPost2010Prop33
280
     0
102
RTVSPost2010PropOp33
 70
     1
102
RTVSPost2010Prop34
280
     0
102
RTVSPost2010PropOp34
 70
     1
102
RTVSPost2010Prop35
280
     0
102
RTVSPost2010PropOp35
 70
     1
102
RTVSPost2010Prop36
280
     0
102
RTVSPost2010PropOp36
 70
     1
102
RTVSPost2010Prop37
 90
       50
102
RTVSPost2010PropOp37
 70
     1
102
RTVSPost2010Prop38
140
0.0
102
RTVSPost2010PropOp38
 70
     1
102
RTVSPost2010Prop39
140
1.0
102
RTVSPost2010PropOp39
 70
     1
102
RTVSPost2010Prop40
 90
        0
102
RTVSPost2010PropOp40
 70
     1
102
RTVSPost2010Prop41ColorIndex
 90
       18
102
RTVSPost2010Prop41ColorRGB
 90
        0
102
RTVSPost2010PropOp41
 70
     1
102
RTVSPost2010Prop42
 90
       50
102
RTVSPost2010PropOp42
 70
     1
102
RTVSPost2010Prop43
 90
        3
102
RTVSPost2010PropOp43
 70
     1
102
RTVSPost2010Prop44ColorIndex
 90
        5
102
RTVSPost2010Prop44ColorRGB
 90
      255
102
RTVSPost2010PropOp44
 70
     1
102
RTVSPost2010Prop45
280
     0
102
RTVSPost2010PropOp45
 70
     1
102
RTVSPost2010Prop46
 90
       50
102
RTVSPost2010PropOp46
 70
     1
102
RTVSPost2010Prop47
 90
       50
102
RTVSPost2010PropOp47
 70
     1
102
RTVSPost2010Prop48
 90
       50
102
RTVSPost2010PropOp48
 70
     1
102
RTVSPost2010Prop49
280
     0
102
RTVSPost2010PropOp49
 70
     1
102
RTVSPost2010Prop50
 90
       50
102
RTVSPost2010PropOp50
 70
     1
102
RTVSPost2010Prop51ColorIndex
 90
      256
102
RTVSPost2010Prop51ColorRGB
 90
-16777216
102
RTVSPost2010PropOp51
 70
     0
102
RTVSPost2010Prop52
140
1.0
102
RTVSPost2010PropOp52
 70
     0
102
RTVSPost2010Prop53
 90
        2
102
RTVSPost2010PropOp53
 70
     1
102
RTVSPost2010Prop54
  1
strokes_ogs.tif
102
RTVSPost2010PropOp54
 70
     1
102
RTVSPost2010Prop55
280
     0
102
RTVSPost2010PropOp55
 70
     1
102
RTVSPost2010Prop56
140
1.0
102
RTVSPost2010PropOp56
 70
     1
102
RTVSPost2010Prop57
140
1.0
102
RTVSPost2010PropOp57
 70
     1
  0
XRECORD
  5
2535
102
{ACAD_REACTORS
330
2534
102
}
330
2534
100
AcDbXrecord
280
     1
102
RTVSPost2010Prop28
280
     0
102
RTVSPost2010PropOp28
 70
     1
102
RTVSPost2010Prop29
280
     1
102
RTVSPost2010PropOp29
 70
     1
102
RTVSPost2010Prop30
280
     1
102
RTVSPost2010PropOp30
 70
     1
102
RTVSPost2010Prop31
280
     0
102
RTVSPost2010PropOp31
 70
     1
102
RTVSPost2010Prop32
280
     0
102
RTVSPost2010PropOp32
 70
     1
102
RTVSPost2010Prop33
280
     0
102
RTVSPost2010PropOp33
 70
     1
102
RTVSPost2010Prop34
280
     0
102
RTVSPost2010PropOp34
 70
     1
102
RTVSPost2010Prop35
280
     0
102
RTVSPost2010PropOp35
 70
     1
102
RTVSPost2010Prop36
280
     0
102
RTVSPost2010PropOp36
 70
     1
102
RTVSPost2010Prop37
 90
       50
102
RTVSPost2010PropOp37
 70
     1
102
RTVSPost2010Prop38
140
0.0
102
RTVSPost2010PropOp38
 70
     1
102
RTVSPost2010Prop39
140
1.0
102
RTVSPost2010PropOp39
 70
     1
102
RTVSPost2010Prop40
 90
        0
102
RTVSPost2010PropOp40
 70
     1
102
RTVSPost2010Prop41ColorIndex
 90
       18
102
RTVSPost2010Prop41ColorRGB
 90
        0
102
RTVSPost2010PropOp41
 70
     1
102
RTVSPost2010Prop42
 90
       50
102
RTVSPost2010PropOp42
 70
     1
102
RTVSPost2010Prop43
 90
        3
102
RTVSPost2010PropOp43
 70
     1
102
RTVSPost2010Prop44ColorIndex
 90
        5
102
RTVSPost2010Prop44ColorRGB
 90
      255
102
RTVSPost2010PropOp44
 70
     1
102
RTVSPost2010Prop45
280
     0
102
RTVSPost2010PropOp45
 70
     1
102
RTVSPost2010Prop46
 90
       50
102
RTVSPost2010PropOp46
 70
     1
102
RTVSPost2010Prop47
 90
       50
102
RTVSPost2010PropOp47
 70
     1
102
RTVSPost2010Prop48
 90
       50
102
RTVSPost2010PropOp48
 70
     1
102
RTVSPost2010Prop49
280
     0
102
RTVSPost2010PropOp49
 70
     1
102
RTVSPost2010Prop50
 90
       50
102
RTVSPost2010PropOp50
 70
     1
102
RTVSPost2010Prop51ColorIndex
 90
      256
102
RTVSPost2010Prop51ColorRGB
 90
-16777216
102
RTVSPost2010PropOp51
 70
     0
102
RTVSPost2010Prop52
140
1.0
102
RTVSPost2010PropOp52
 70
     0
102
RTVSPost2010Prop53
 90
        2
102
RTVSPost2010PropOp53
 70
     1
102
RTVSPost2010Prop54
  1
strokes_ogs.tif
102
RTVSPost2010PropOp54
 70
     1
102
RTVSPost2010Prop55
280
     0
102
RTVSPost2010PropOp55
 70
     1
102
RTVSPost2010Prop56
140
1.0
102
RTVSPost2010PropOp56
 70
     1
102
RTVSPost2010Prop57
140
1.0
102
RTVSPost2010PropOp57
 70
     1
  0
XRECORD
  5
2527
102
{ACAD_REACTORS
330
2526
102
}
330
2526
100
AcDbXrecord
280
     1
102
RTVSPost2010Prop28
280
     0
102
RTVSPost2010PropOp28
 70
     1
102
RTVSPost2010Prop29
280
     1
102
RTVSPost2010PropOp29
 70
     1
102
RTVSPost2010Prop30
280
     1
102
RTVSPost2010PropOp30
 70
     1
102
RTVSPost2010Prop31
280
     0
102
RTVSPost2010PropOp31
 70
     1
102
RTVSPost2010Prop32
280
     0
102
RTVSPost2010PropOp32
 70
     1
102
RTVSPost2010Prop33
280
     0
102
RTVSPost2010PropOp33
 70
     1
102
RTVSPost2010Prop34
280
     0
102
RTVSPost2010PropOp34
 70
     1
102
RTVSPost2010Prop35
280
     0
102
RTVSPost2010PropOp35
 70
     1
102
RTVSPost2010Prop36
280
     0
102
RTVSPost2010PropOp36
 70
     1
102
RTVSPost2010Prop37
 90
       50
102
RTVSPost2010PropOp37
 70
     1
102
RTVSPost2010Prop38
140
0.0
102
RTVSPost2010PropOp38
 70
     1
102
RTVSPost2010Prop39
140
1.0
102
RTVSPost2010PropOp39
 70
     1
102
RTVSPost2010Prop40
 90
        0
102
RTVSPost2010PropOp40
 70
     1
102
RTVSPost2010Prop41ColorIndex
 90
       18
102
RTVSPost2010Prop41ColorRGB
 90
        0
102
RTVSPost2010PropOp41
 70
     1
102
RTVSPost2010Prop42
 90
       50
102
RTVSPost2010PropOp42
 70
     1
102
RTVSPost2010Prop43
 90
        3
102
RTVSPost2010PropOp43
 70
     1
102
RTVSPost2010Prop44ColorIndex
 90
        5
102
RTVSPost2010Prop44ColorRGB
 90
      255
102
RTVSPost2010PropOp44
 70
     1
102
RTVSPost2010Prop45
280
     0
102
RTVSPost2010PropOp45
 70
     1
102
RTVSPost2010Prop46
 90
       50
102
RTVSPost2010PropOp46
 70
     1
102
RTVSPost2010Prop47
 90
       50
102
RTVSPost2010PropOp47
 70
     1
102
RTVSPost2010Prop48
 90
       50
102
RTVSPost2010PropOp48
 70
     1
102
RTVSPost2010Prop49
280
     0
102
RTVSPost2010PropOp49
 70
     1
102
RTVSPost2010Prop50
 90
       50
102
RTVSPost2010PropOp50
 70
     1
102
RTVSPost2010Prop51ColorIndex
 90
      256
102
RTVSPost2010Prop51ColorRGB
 90
-16777216
102
RTVSPost2010PropOp51
 70
     0
102
RTVSPost2010Prop52
140
1.0
102
RTVSPost2010PropOp52
 70
     0
102
RTVSPost2010Prop53
 90
        2
102
RTVSPost2010PropOp53
 70
     1
102
RTVSPost2010Prop54
  1
strokes_ogs.tif
102
RTVSPost2010PropOp54
 70
     1
102
RTVSPost2010Prop55
280
     0
102
RTVSPost2010PropOp55
 70
     1
102
RTVSPost2010Prop56
140
1.0
102
RTVSPost2010PropOp56
 70
     1
102
RTVSPost2010Prop57
140
1.0
102
RTVSPost2010PropOp57
 70
     1
  0
XRECORD
  5
252B
102
{ACAD_REACTORS
330
252A
102
}
330
252A
100
AcDbXrecord
280
     1
102
RTVSPost2010Prop28
280
     0
102
RTVSPost2010PropOp28
 70
     1
102
RTVSPost2010Prop29
280
     1
102
RTVSPost2010PropOp29
 70
     1
102
RTVSPost2010Prop30
280
     1
102
RTVSPost2010PropOp30
 70
     1
102
RTVSPost2010Prop31
280
     0
102
RTVSPost2010PropOp31
 70
     1
102
RTVSPost2010Prop32
280
     0
102
RTVSPost2010PropOp32
 70
     1
102
RTVSPost2010Prop33
280
     0
102
RTVSPost2010PropOp33
 70
     1
102
RTVSPost2010Prop34
280
     0
102
RTVSPost2010PropOp34
 70
     1
102
RTVSPost2010Prop35
280
     0
102
RTVSPost2010PropOp35
 70
     1
102
RTVSPost2010Prop36
280
     0
102
RTVSPost2010PropOp36
 70
     1
102
RTVSPost2010Prop37
 90
       50
102
RTVSPost2010PropOp37
 70
     1
102
RTVSPost2010Prop38
140
0.0
102
RTVSPost2010PropOp38
 70
     1
102
RTVSPost2010Prop39
140
1.0
102
RTVSPost2010PropOp39
 70
     1
102
RTVSPost2010Prop40
 90
        0
102
RTVSPost2010PropOp40
 70
     1
102
RTVSPost2010Prop41ColorIndex
 90
       18
102
RTVSPost2010Prop41ColorRGB
 90
        0
102
RTVSPost2010PropOp41
 70
     1
102
RTVSPost2010Prop42
 90
       50
102
RTVSPost2010PropOp42
 70
     1
102
RTVSPost2010Prop43
 90
        3
102
RTVSPost2010PropOp43
 70
     1
102
RTVSPost2010Prop44ColorIndex
 90
        5
102
RTVSPost2010Prop44ColorRGB
 90
      255
102
RTVSPost2010PropOp44
 70
     1
102
RTVSPost2010Prop45
280
     0
102
RTVSPost2010PropOp45
 70
     1
102
RTVSPost2010Prop46
 90
       50
102
RTVSPost2010PropOp46
 70
     1
102
RTVSPost2010Prop47
 90
       50
102
RTVSPost2010PropOp47
 70
     1
102
RTVSPost2010Prop48
 90
       50
102
RTVSPost2010PropOp48
 70
     1
102
RTVSPost2010Prop49
280
     0
102
RTVSPost2010PropOp49
 70
     1
102
RTVSPost2010Prop50
 90
       50
102
RTVSPost2010PropOp50
 70
     1
102
RTVSPost2010Prop51ColorIndex
 90
      256
102
RTVSPost2010Prop51ColorRGB
 90
-16777216
102
RTVSPost2010PropOp51
 70
     0
102
RTVSPost2010Prop52
140
1.0
102
RTVSPost2010PropOp52
 70
     0
102
RTVSPost2010Prop53
 90
        2
102
RTVSPost2010PropOp53
 70
     1
102
RTVSPost2010Prop54
  1
strokes_ogs.tif
102
RTVSPost2010PropOp54
 70
     1
102
RTVSPost2010Prop55
280
     0
102
RTVSPost2010PropOp55
 70
     1
102
RTVSPost2010Prop56
140
1.0
102
RTVSPost2010PropOp56
 70
     1
102
RTVSPost2010Prop57
140
1.0
102
RTVSPost2010PropOp57
 70
     1
  0
XRECORD
  5
2545
102
{ACAD_REACTORS
330
2544
102
}
330
2544
100
AcDbXrecord
280
     1
102
RTVSPost2010Prop28
280
     0
102
RTVSPost2010PropOp28
 70
     1
102
RTVSPost2010Prop29
280
     1
102
RTVSPost2010PropOp29
 70
     1
102
RTVSPost2010Prop30
280
     1
102
RTVSPost2010PropOp30
 70
     1
102
RTVSPost2010Prop31
280
     0
102
RTVSPost2010PropOp31
 70
     1
102
RTVSPost2010Prop32
280
     0
102
RTVSPost2010PropOp32
 70
     1
102
RTVSPost2010Prop33
280
     0
102
RTVSPost2010PropOp33
 70
     1
102
RTVSPost2010Prop34
280
     0
102
RTVSPost2010PropOp34
 70
     1
102
RTVSPost2010Prop35
280
     0
102
RTVSPost2010PropOp35
 70
     1
102
RTVSPost2010Prop36
280
     0
102
RTVSPost2010PropOp36
 70
     1
102
RTVSPost2010Prop37
 90
       50
102
RTVSPost2010PropOp37
 70
     1
102
RTVSPost2010Prop38
140
0.0
102
RTVSPost2010PropOp38
 70
     1
102
RTVSPost2010Prop39
140
1.0
102
RTVSPost2010PropOp39
 70
     1
102
RTVSPost2010Prop40
 90
        0
102
RTVSPost2010PropOp40
 70
     1
102
RTVSPost2010Prop41ColorIndex
 90
       18
102
RTVSPost2010Prop41ColorRGB
 90
        0
102
RTVSPost2010PropOp41
 70
     1
102
RTVSPost2010Prop42
 90
       50
102
RTVSPost2010PropOp42
 70
     1
102
RTVSPost2010Prop43
 90
        3
102
RTVSPost2010PropOp43
 70
     1
102
RTVSPost2010Prop44ColorIndex
 90
        5
102
RTVSPost2010Prop44ColorRGB
 90
      255
102
RTVSPost2010PropOp44
 70
     1
102
RTVSPost2010Prop45
280
     0
102
RTVSPost2010PropOp45
 70
     1
102
RTVSPost2010Prop46
 90
       50
102
RTVSPost2010PropOp46
 70
     1
102
RTVSPost2010Prop47
 90
       50
102
RTVSPost2010PropOp47
 70
     1
102
RTVSPost2010Prop48
 90
       50
102
RTVSPost2010PropOp48
 70
     1
102
RTVSPost2010Prop49
280
     0
102
RTVSPost2010PropOp49
 70
     1
102
RTVSPost2010Prop50
 90
       50
102
RTVSPost2010PropOp50
 70
     1
102
RTVSPost2010Prop51ColorIndex
 90
      256
102
RTVSPost2010Prop51ColorRGB
 90
-16777216
102
RTVSPost2010PropOp51
 70
     0
102
RTVSPost2010Prop52
140
1.0
102
RTVSPost2010PropOp52
 70
     0
102
RTVSPost2010Prop53
 90
        2
102
RTVSPost2010PropOp53
 70
     1
102
RTVSPost2010Prop54
  1
strokes_ogs.tif
102
RTVSPost2010PropOp54
 70
     1
102
RTVSPost2010Prop55
280
     0
102
RTVSPost2010PropOp55
 70
     1
102
RTVSPost2010Prop56
140
1.0
102
RTVSPost2010PropOp56
 70
     1
102
RTVSPost2010Prop57
140
1.0
102
RTVSPost2010PropOp57
 70
     1
  0
XRECORD
  5
2533
102
{ACAD_REACTORS
330
2532
102
}
330
2532
100
AcDbXrecord
280
     1
102
RTVSPost2010Prop28
280
     0
102
RTVSPost2010PropOp28
 70
     1
102
RTVSPost2010Prop29
280
     1
102
RTVSPost2010PropOp29
 70
     1
102
RTVSPost2010Prop30
280
     1
102
RTVSPost2010PropOp30
 70
     1
102
RTVSPost2010Prop31
280
     0
102
RTVSPost2010PropOp31
 70
     1
102
RTVSPost2010Prop32
280
     0
102
RTVSPost2010PropOp32
 70
     1
102
RTVSPost2010Prop33
280
     0
102
RTVSPost2010PropOp33
 70
     1
102
RTVSPost2010Prop34
280
     0
102
RTVSPost2010PropOp34
 70
     1
102
RTVSPost2010Prop35
280
     0
102
RTVSPost2010PropOp35
 70
     1
102
RTVSPost2010Prop36
280
     0
102
RTVSPost2010PropOp36
 70
     1
102
RTVSPost2010Prop37
 90
       50
102
RTVSPost2010PropOp37
 70
     1
102
RTVSPost2010Prop38
140
0.0
102
RTVSPost2010PropOp38
 70
     1
102
RTVSPost2010Prop39
140
1.0
102
RTVSPost2010PropOp39
 70
     1
102
RTVSPost2010Prop40
 90
        0
102
RTVSPost2010PropOp40
 70
     1
102
RTVSPost2010Prop41ColorIndex
 90
       18
102
RTVSPost2010Prop41ColorRGB
 90
        0
102
RTVSPost2010PropOp41
 70
     1
102
RTVSPost2010Prop42
 90
       50
102
RTVSPost2010PropOp42
 70
     1
102
RTVSPost2010Prop43
 90
        3
102
RTVSPost2010PropOp43
 70
     1
102
RTVSPost2010Prop44ColorIndex
 90
        5
102
RTVSPost2010Prop44ColorRGB
 90
      255
102
RTVSPost2010PropOp44
 70
     1
102
RTVSPost2010Prop45
280
     0
102
RTVSPost2010PropOp45
 70
     1
102
RTVSPost2010Prop46
 90
       50
102
RTVSPost2010PropOp46
 70
     1
102
RTVSPost2010Prop47
 90
       50
102
RTVSPost2010PropOp47
 70
     1
102
RTVSPost2010Prop48
 90
       50
102
RTVSPost2010PropOp48
 70
     1
102
RTVSPost2010Prop49
280
     0
102
RTVSPost2010PropOp49
 70
     1
102
RTVSPost2010Prop50
 90
       50
102
RTVSPost2010PropOp50
 70
     1
102
RTVSPost2010Prop51ColorIndex
 90
      256
102
RTVSPost2010Prop51ColorRGB
 90
-16777216
102
RTVSPost2010PropOp51
 70
     0
102
RTVSPost2010Prop52
140
1.0
102
RTVSPost2010PropOp52
 70
     0
102
RTVSPost2010Prop53
 90
        2
102
RTVSPost2010PropOp53
 70
     1
102
RTVSPost2010Prop54
  1
strokes_ogs.tif
102
RTVSPost2010PropOp54
 70
     1
102
RTVSPost2010Prop55
280
     0
102
RTVSPost2010PropOp55
 70
     1
102
RTVSPost2010Prop56
140
1.0
102
RTVSPost2010PropOp56
 70
     1
102
RTVSPost2010Prop57
140
1.0
102
RTVSPost2010PropOp57
 70
     1
  0
XRECORD
  5
2517
102
{ACAD_REACTORS
330
2516
102
}
330
2516
100
AcDbXrecord
280
     1
102
RTVSPost2010Prop28
280
     0
102
RTVSPost2010PropOp28
 70
     1
102
RTVSPost2010Prop29
280
     1
102
RTVSPost2010PropOp29
 70
     1
102
RTVSPost2010Prop30
280
     1
102
RTVSPost2010PropOp30
 70
     1
102
RTVSPost2010Prop31
280
     0
102
RTVSPost2010PropOp31
 70
     1
102
RTVSPost2010Prop32
280
     0
102
RTVSPost2010PropOp32
 70
     1
102
RTVSPost2010Prop33
280
     0
102
RTVSPost2010PropOp33
 70
     1
102
RTVSPost2010Prop34
280
     0
102
RTVSPost2010PropOp34
 70
     1
102
RTVSPost2010Prop35
280
     0
102
RTVSPost2010PropOp35
 70
     1
102
RTVSPost2010Prop36
280
     0
102
RTVSPost2010PropOp36
 70
     1
102
RTVSPost2010Prop37
 90
       50
102
RTVSPost2010PropOp37
 70
     1
102
RTVSPost2010Prop38
140
0.0
102
RTVSPost2010PropOp38
 70
     1
102
RTVSPost2010Prop39
140
1.0
102
RTVSPost2010PropOp39
 70
     1
102
RTVSPost2010Prop40
 90
        0
102
RTVSPost2010PropOp40
 70
     1
102
RTVSPost2010Prop41ColorIndex
 90
       18
102
RTVSPost2010Prop41ColorRGB
 90
        0
102
RTVSPost2010PropOp41
 70
     1
102
RTVSPost2010Prop42
 90
       50
102
RTVSPost2010PropOp42
 70
     1
102
RTVSPost2010Prop43
 90
        3
102
RTVSPost2010PropOp43
 70
     1
102
RTVSPost2010Prop44ColorIndex
 90
        5
102
RTVSPost2010Prop44ColorRGB
 90
      255
102
RTVSPost2010PropOp44
 70
     1
102
RTVSPost2010Prop45
280
     0
102
RTVSPost2010PropOp45
 70
     1
102
RTVSPost2010Prop46
 90
       50
102
RTVSPost2010PropOp46
 70
     1
102
RTVSPost2010Prop47
 90
       50
102
RTVSPost2010PropOp47
 70
     1
102
RTVSPost2010Prop48
 90
       50
102
RTVSPost2010PropOp48
 70
     1
102
RTVSPost2010Prop49
280
     0
102
RTVSPost2010PropOp49
 70
     1
102
RTVSPost2010Prop50
 90
       50
102
RTVSPost2010PropOp50
 70
     1
102
RTVSPost2010Prop51ColorIndex
 90
      256
102
RTVSPost2010Prop51ColorRGB
 90
-16777216
102
RTVSPost2010PropOp51
 70
     0
102
RTVSPost2010Prop52
140
1.0
102
RTVSPost2010PropOp52
 70
     0
102
RTVSPost2010Prop53
 90
        2
102
RTVSPost2010PropOp53
 70
     1
102
RTVSPost2010Prop54
  1
strokes_ogs.tif
102
RTVSPost2010PropOp54
 70
     1
102
RTVSPost2010Prop55
280
     0
102
RTVSPost2010PropOp55
 70
     1
102
RTVSPost2010Prop56
140
1.0
102
RTVSPost2010PropOp56
 70
     1
102
RTVSPost2010Prop57
140
1.0
102
RTVSPost2010PropOp57
 70
     1
  0
XRECORD
  5
2519
102
{ACAD_REACTORS
330
2518
102
}
330
2518
100
AcDbXrecord
280
     1
102
RTVSPost2010Prop28
280
     0
102
RTVSPost2010PropOp28
 70
     1
102
RTVSPost2010Prop29
280
     1
102
RTVSPost2010PropOp29
 70
     1
102
RTVSPost2010Prop30
280
     1
102
RTVSPost2010PropOp30
 70
     1
102
RTVSPost2010Prop31
280
     0
102
RTVSPost2010PropOp31
 70
     1
102
RTVSPost2010Prop32
280
     0
102
RTVSPost2010PropOp32
 70
     1
102
RTVSPost2010Prop33
280
     0
102
RTVSPost2010PropOp33
 70
     1
102
RTVSPost2010Prop34
280
     0
102
RTVSPost2010PropOp34
 70
     1
102
RTVSPost2010Prop35
280
     0
102
RTVSPost2010PropOp35
 70
     1
102
RTVSPost2010Prop36
280
     0
102
RTVSPost2010PropOp36
 70
     1
102
RTVSPost2010Prop37
 90
       50
102
RTVSPost2010PropOp37
 70
     1
102
RTVSPost2010Prop38
140
0.0
102
RTVSPost2010PropOp38
 70
     1
102
RTVSPost2010Prop39
140
1.0
102
RTVSPost2010PropOp39
 70
     1
102
RTVSPost2010Prop40
 90
        0
102
RTVSPost2010PropOp40
 70
     1
102
RTVSPost2010Prop41ColorIndex
 90
       18
102
RTVSPost2010Prop41ColorRGB
 90
        0
102
RTVSPost2010PropOp41
 70
     1
102
RTVSPost2010Prop42
 90
       50
102
RTVSPost2010PropOp42
 70
     1
102
RTVSPost2010Prop43
 90
        3
102
RTVSPost2010PropOp43
 70
     1
102
RTVSPost2010Prop44ColorIndex
 90
        5
102
RTVSPost2010Prop44ColorRGB
 90
      255
102
RTVSPost2010PropOp44
 70
     1
102
RTVSPost2010Prop45
280
     0
102
RTVSPost2010PropOp45
 70
     1
102
RTVSPost2010Prop46
 90
       50
102
RTVSPost2010PropOp46
 70
     1
102
RTVSPost2010Prop47
 90
       50
102
RTVSPost2010PropOp47
 70
     1
102
RTVSPost2010Prop48
 90
       50
102
RTVSPost2010PropOp48
 70
     1
102
RTVSPost2010Prop49
280
     0
102
RTVSPost2010PropOp49
 70
     1
102
RTVSPost2010Prop50
 90
       50
102
RTVSPost2010PropOp50
 70
     1
102
RTVSPost2010Prop51ColorIndex
 90
      256
102
RTVSPost2010Prop51ColorRGB
 90
-16777216
102
RTVSPost2010PropOp51
 70
     0
102
RTVSPost2010Prop52
140
1.0
102
RTVSPost2010PropOp52
 70
     0
102
RTVSPost2010Prop53
 90
        2
102
RTVSPost2010PropOp53
 70
     1
102
RTVSPost2010Prop54
  1
strokes_ogs.tif
102
RTVSPost2010PropOp54
 70
     1
102
RTVSPost2010Prop55
280
     0
102
RTVSPost2010PropOp55
 70
     1
102
RTVSPost2010Prop56
140
1.0
102
RTVSPost2010PropOp56
 70
     1
102
RTVSPost2010Prop57
140
1.0
102
RTVSPost2010PropOp57
 70
     1
  0
XRECORD
  5
251B
102
{ACAD_REACTORS
330
251A
102
}
330
251A
100
AcDbXrecord
280
     1
102
RTVSPost2010Prop28
280
     0
102
RTVSPost2010PropOp28
 70
     1
102
RTVSPost2010Prop29
280
     1
102
RTVSPost2010PropOp29
 70
     1
102
RTVSPost2010Prop30
280
     1
102
RTVSPost2010PropOp30
 70
     1
102
RTVSPost2010Prop31
280
     0
102
RTVSPost2010PropOp31
 70
     1
102
RTVSPost2010Prop32
280
     0
102
RTVSPost2010PropOp32
 70
     1
102
RTVSPost2010Prop33
280
     0
102
RTVSPost2010PropOp33
 70
     1
102
RTVSPost2010Prop34
280
     0
102
RTVSPost2010PropOp34
 70
     1
102
RTVSPost2010Prop35
280
     0
102
RTVSPost2010PropOp35
 70
     1
102
RTVSPost2010Prop36
280
     0
102
RTVSPost2010PropOp36
 70
     1
102
RTVSPost2010Prop37
 90
       50
102
RTVSPost2010PropOp37
 70
     1
102
RTVSPost2010Prop38
140
0.0
102
RTVSPost2010PropOp38
 70
     1
102
RTVSPost2010Prop39
140
1.0
102
RTVSPost2010PropOp39
 70
     1
102
RTVSPost2010Prop40
 90
        0
102
RTVSPost2010PropOp40
 70
     1
102
RTVSPost2010Prop41ColorIndex
 90
       18
102
RTVSPost2010Prop41ColorRGB
 90
        0
102
RTVSPost2010PropOp41
 70
     1
102
RTVSPost2010Prop42
 90
       50
102
RTVSPost2010PropOp42
 70
     1
102
RTVSPost2010Prop43
 90
        3
102
RTVSPost2010PropOp43
 70
     1
102
RTVSPost2010Prop44ColorIndex
 90
        5
102
RTVSPost2010Prop44ColorRGB
 90
      255
102
RTVSPost2010PropOp44
 70
     1
102
RTVSPost2010Prop45
280
     0
102
RTVSPost2010PropOp45
 70
     1
102
RTVSPost2010Prop46
 90
       50
102
RTVSPost2010PropOp46
 70
     1
102
RTVSPost2010Prop47
 90
       50
102
RTVSPost2010PropOp47
 70
     1
102
RTVSPost2010Prop48
 90
       50
102
RTVSPost2010PropOp48
 70
     1
102
RTVSPost2010Prop49
280
     0
102
RTVSPost2010PropOp49
 70
     1
102
RTVSPost2010Prop50
 90
       50
102
RTVSPost2010PropOp50
 70
     1
102
RTVSPost2010Prop51ColorIndex
 90
      256
102
RTVSPost2010Prop51ColorRGB
 90
-16777216
102
RTVSPost2010PropOp51
 70
     0
102
RTVSPost2010Prop52
140
1.0
102
RTVSPost2010PropOp52
 70
     0
102
RTVSPost2010Prop53
 90
        2
102
RTVSPost2010PropOp53
 70
     1
102
RTVSPost2010Prop54
  1
strokes_ogs.tif
102
RTVSPost2010PropOp54
 70
     1
102
RTVSPost2010Prop55
280
     0
102
RTVSPost2010PropOp55
 70
     1
102
RTVSPost2010Prop56
140
1.0
102
RTVSPost2010PropOp56
 70
     1
102
RTVSPost2010Prop57
140
1.0
102
RTVSPost2010PropOp57
 70
     1
  0
XRECORD
  5
251D
102
{ACAD_REACTORS
330
251C
102
}
330
251C
100
AcDbXrecord
280
     1
102
RTVSPost2010Prop28
280
     0
102
RTVSPost2010PropOp28
 70
     1
102
RTVSPost2010Prop29
280
     1
102
RTVSPost2010PropOp29
 70
     1
102
RTVSPost2010Prop30
280
     1
102
RTVSPost2010PropOp30
 70
     1
102
RTVSPost2010Prop31
280
     0
102
RTVSPost2010PropOp31
 70
     1
102
RTVSPost2010Prop32
280
     0
102
RTVSPost2010PropOp32
 70
     1
102
RTVSPost2010Prop33
280
     0
102
RTVSPost2010PropOp33
 70
     1
102
RTVSPost2010Prop34
280
     0
102
RTVSPost2010PropOp34
 70
     1
102
RTVSPost2010Prop35
280
     0
102
RTVSPost2010PropOp35
 70
     1
102
RTVSPost2010Prop36
280
     0
102
RTVSPost2010PropOp36
 70
     1
102
RTVSPost2010Prop37
 90
       50
102
RTVSPost2010PropOp37
 70
     1
102
RTVSPost2010Prop38
140
0.0
102
RTVSPost2010PropOp38
 70
     1
102
RTVSPost2010Prop39
140
1.0
102
RTVSPost2010PropOp39
 70
     1
102
RTVSPost2010Prop40
 90
        0
102
RTVSPost2010PropOp40
 70
     1
102
RTVSPost2010Prop41ColorIndex
 90
       18
102
RTVSPost2010Prop41ColorRGB
 90
        0
102
RTVSPost2010PropOp41
 70
     1
102
RTVSPost2010Prop42
 90
       50
102
RTVSPost2010PropOp42
 70
     1
102
RTVSPost2010Prop43
 90
        3
102
RTVSPost2010PropOp43
 70
     1
102
RTVSPost2010Prop44ColorIndex
 90
        5
102
RTVSPost2010Prop44ColorRGB
 90
      255
102
RTVSPost2010PropOp44
 70
     1
102
RTVSPost2010Prop45
280
     0
102
RTVSPost2010PropOp45
 70
     1
102
RTVSPost2010Prop46
 90
       50
102
RTVSPost2010PropOp46
 70
     1
102
RTVSPost2010Prop47
 90
       50
102
RTVSPost2010PropOp47
 70
     1
102
RTVSPost2010Prop48
 90
       50
102
RTVSPost2010PropOp48
 70
     1
102
RTVSPost2010Prop49
280
     0
102
RTVSPost2010PropOp49
 70
     1
102
RTVSPost2010Prop50
 90
       50
102
RTVSPost2010PropOp50
 70
     1
102
RTVSPost2010Prop51ColorIndex
 90
      256
102
RTVSPost2010Prop51ColorRGB
 90
-16777216
102
RTVSPost2010PropOp51
 70
     0
102
RTVSPost2010Prop52
140
1.0
102
RTVSPost2010PropOp52
 70
     0
102
RTVSPost2010Prop53
 90
        2
102
RTVSPost2010PropOp53
 70
     1
102
RTVSPost2010Prop54
  1
strokes_ogs.tif
102
RTVSPost2010PropOp54
 70
     1
102
RTVSPost2010Prop55
280
     0
102
RTVSPost2010PropOp55
 70
     1
102
RTVSPost2010Prop56
140
1.0
102
RTVSPost2010PropOp56
 70
     1
102
RTVSPost2010Prop57
140
1.0
102
RTVSPost2010PropOp57
 70
     1
  0
XRECORD
  5
2525
102
{ACAD_REACTORS
330
2524
102
}
330
2524
100
AcDbXrecord
280
     1
102
RTVSPost2010Prop28
280
     0
102
RTVSPost2010PropOp28
 70
     1
102
RTVSPost2010Prop29
280
     1
102
RTVSPost2010PropOp29
 70
     1
102
RTVSPost2010Prop30
280
     1
102
RTVSPost2010PropOp30
 70
     1
102
RTVSPost2010Prop31
280
     0
102
RTVSPost2010PropOp31
 70
     1
102
RTVSPost2010Prop32
280
     0
102
RTVSPost2010PropOp32
 70
     1
102
RTVSPost2010Prop33
280
     0
102
RTVSPost2010PropOp33
 70
     1
102
RTVSPost2010Prop34
280
     0
102
RTVSPost2010PropOp34
 70
     1
102
RTVSPost2010Prop35
280
     0
102
RTVSPost2010PropOp35
 70
     1
102
RTVSPost2010Prop36
280
     0
102
RTVSPost2010PropOp36
 70
     1
102
RTVSPost2010Prop37
 90
       50
102
RTVSPost2010PropOp37
 70
     1
102
RTVSPost2010Prop38
140
0.0
102
RTVSPost2010PropOp38
 70
     1
102
RTVSPost2010Prop39
140
1.0
102
RTVSPost2010PropOp39
 70
     1
102
RTVSPost2010Prop40
 90
        0
102
RTVSPost2010PropOp40
 70
     1
102
RTVSPost2010Prop41ColorIndex
 90
       18
102
RTVSPost2010Prop41ColorRGB
 90
        0
102
RTVSPost2010PropOp41
 70
     1
102
RTVSPost2010Prop42
 90
       50
102
RTVSPost2010PropOp42
 70
     1
102
RTVSPost2010Prop43
 90
        3
102
RTVSPost2010PropOp43
 70
     1
102
RTVSPost2010Prop44ColorIndex
 90
        5
102
RTVSPost2010Prop44ColorRGB
 90
      255
102
RTVSPost2010PropOp44
 70
     1
102
RTVSPost2010Prop45
280
     0
102
RTVSPost2010PropOp45
 70
     1
102
RTVSPost2010Prop46
 90
       50
102
RTVSPost2010PropOp46
 70
     1
102
RTVSPost2010Prop47
 90
       50
102
RTVSPost2010PropOp47
 70
     1
102
RTVSPost2010Prop48
 90
       50
102
RTVSPost2010PropOp48
 70
     1
102
RTVSPost2010Prop49
280
     0
102
RTVSPost2010PropOp49
 70
     1
102
RTVSPost2010Prop50
 90
       50
102
RTVSPost2010PropOp50
 70
     1
102
RTVSPost2010Prop51ColorIndex
 90
      256
102
RTVSPost2010Prop51ColorRGB
 90
-16777216
102
RTVSPost2010PropOp51
 70
     0
102
RTVSPost2010Prop52
140
1.0
102
RTVSPost2010PropOp52
 70
     0
102
RTVSPost2010Prop53
 90
        2
102
RTVSPost2010PropOp53
 70
     1
102
RTVSPost2010Prop54
  1
strokes_ogs.tif
102
RTVSPost2010PropOp54
 70
     1
102
RTVSPost2010Prop55
280
     0
102
RTVSPost2010PropOp55
 70
     1
102
RTVSPost2010Prop56
140
1.0
102
RTVSPost2010PropOp56
 70
     1
102
RTVSPost2010Prop57
140
1.0
102
RTVSPost2010PropOp57
 70
     1
  0
XRECORD
  5
2541
102
{ACAD_REACTORS
330
2540
102
}
330
2540
100
AcDbXrecord
280
     1
102
RTVSPost2010Prop28
280
     0
102
RTVSPost2010PropOp28
 70
     1
102
RTVSPost2010Prop29
280
     1
102
RTVSPost2010PropOp29
 70
     1
102
RTVSPost2010Prop30
280
     1
102
RTVSPost2010PropOp30
 70
     1
102
RTVSPost2010Prop31
280
     0
102
RTVSPost2010PropOp31
 70
     1
102
RTVSPost2010Prop32
280
     0
102
RTVSPost2010PropOp32
 70
     1
102
RTVSPost2010Prop33
280
     0
102
RTVSPost2010PropOp33
 70
     1
102
RTVSPost2010Prop34
280
     0
102
RTVSPost2010PropOp34
 70
     1
102
RTVSPost2010Prop35
280
     0
102
RTVSPost2010PropOp35
 70
     1
102
RTVSPost2010Prop36
280
     0
102
RTVSPost2010PropOp36
 70
     1
102
RTVSPost2010Prop37
 90
       50
102
RTVSPost2010PropOp37
 70
     1
102
RTVSPost2010Prop38
140
0.0
102
RTVSPost2010PropOp38
 70
     1
102
RTVSPost2010Prop39
140
1.0
102
RTVSPost2010PropOp39
 70
     1
102
RTVSPost2010Prop40
 90
        0
102
RTVSPost2010PropOp40
 70
     1
102
RTVSPost2010Prop41ColorIndex
 90
       18
102
RTVSPost2010Prop41ColorRGB
 90
        0
102
RTVSPost2010PropOp41
 70
     1
102
RTVSPost2010Prop42
 90
       50
102
RTVSPost2010PropOp42
 70
     1
102
RTVSPost2010Prop43
 90
        3
102
RTVSPost2010PropOp43
 70
     1
102
RTVSPost2010Prop44ColorIndex
 90
        5
102
RTVSPost2010Prop44ColorRGB
 90
      255
102
RTVSPost2010PropOp44
 70
     1
102
RTVSPost2010Prop45
280
     0
102
RTVSPost2010PropOp45
 70
     1
102
RTVSPost2010Prop46
 90
       50
102
RTVSPost2010PropOp46
 70
     1
102
RTVSPost2010Prop47
 90
       50
102
RTVSPost2010PropOp47
 70
     1
102
RTVSPost2010Prop48
 90
       50
102
RTVSPost2010PropOp48
 70
     1
102
RTVSPost2010Prop49
280
     0
102
RTVSPost2010PropOp49
 70
     1
102
RTVSPost2010Prop50
 90
       50
102
RTVSPost2010PropOp50
 70
     1
102
RTVSPost2010Prop51ColorIndex
 90
      256
102
RTVSPost2010Prop51ColorRGB
 90
-16777216
102
RTVSPost2010PropOp51
 70
     0
102
RTVSPost2010Prop52
140
1.0
102
RTVSPost2010PropOp52
 70
     0
102
RTVSPost2010Prop53
 90
        2
102
RTVSPost2010PropOp53
 70
     1
102
RTVSPost2010Prop54
  1
strokes_ogs.tif
102
RTVSPost2010PropOp54
 70
     1
102
RTVSPost2010Prop55
280
     0
102
RTVSPost2010PropOp55
 70
     1
102
RTVSPost2010Prop56
140
1.0
102
RTVSPost2010PropOp56
 70
     1
102
RTVSPost2010Prop57
140
1.0
102
RTVSPost2010PropOp57
 70
     1
  0
XRECORD
  5
2531
102
{ACAD_REACTORS
330
2530
102
}
330
2530
100
AcDbXrecord
280
     1
102
RTVSPost2010Prop28
280
     0
102
RTVSPost2010PropOp28
 70
     1
102
RTVSPost2010Prop29
280
     1
102
RTVSPost2010PropOp29
 70
     1
102
RTVSPost2010Prop30
280
     1
102
RTVSPost2010PropOp30
 70
     1
102
RTVSPost2010Prop31
280
     0
102
RTVSPost2010PropOp31
 70
     1
102
RTVSPost2010Prop32
280
     0
102
RTVSPost2010PropOp32
 70
     1
102
RTVSPost2010Prop33
280
     0
102
RTVSPost2010PropOp33
 70
     1
102
RTVSPost2010Prop34
280
     0
102
RTVSPost2010PropOp34
 70
     1
102
RTVSPost2010Prop35
280
     0
102
RTVSPost2010PropOp35
 70
     1
102
RTVSPost2010Prop36
280
     0
102
RTVSPost2010PropOp36
 70
     1
102
RTVSPost2010Prop37
 90
       50
102
RTVSPost2010PropOp37
 70
     1
102
RTVSPost2010Prop38
140
0.0
102
RTVSPost2010PropOp38
 70
     1
102
RTVSPost2010Prop39
140
1.0
102
RTVSPost2010PropOp39
 70
     1
102
RTVSPost2010Prop40
 90
        0
102
RTVSPost2010PropOp40
 70
     1
102
RTVSPost2010Prop41ColorIndex
 90
       18
102
RTVSPost2010Prop41ColorRGB
 90
        0
102
RTVSPost2010PropOp41
 70
     1
102
RTVSPost2010Prop42
 90
       50
102
RTVSPost2010PropOp42
 70
     1
102
RTVSPost2010Prop43
 90
        3
102
RTVSPost2010PropOp43
 70
     1
102
RTVSPost2010Prop44ColorIndex
 90
        5
102
RTVSPost2010Prop44ColorRGB
 90
      255
102
RTVSPost2010PropOp44
 70
     1
102
RTVSPost2010Prop45
280
     0
102
RTVSPost2010PropOp45
 70
     1
102
RTVSPost2010Prop46
 90
       50
102
RTVSPost2010PropOp46
 70
     1
102
RTVSPost2010Prop47
 90
       50
102
RTVSPost2010PropOp47
 70
     1
102
RTVSPost2010Prop48
 90
       50
102
RTVSPost2010PropOp48
 70
     1
102
RTVSPost2010Prop49
280
     0
102
RTVSPost2010PropOp49
 70
     1
102
RTVSPost2010Prop50
 90
       50
102
RTVSPost2010PropOp50
 70
     1
102
RTVSPost2010Prop51ColorIndex
 90
      256
102
RTVSPost2010Prop51ColorRGB
 90
-16777216
102
RTVSPost2010PropOp51
 70
     0
102
RTVSPost2010Prop52
140
1.0
102
RTVSPost2010PropOp52
 70
     0
102
RTVSPost2010Prop53
 90
        2
102
RTVSPost2010PropOp53
 70
     1
102
RTVSPost2010Prop54
  1
strokes_ogs.tif
102
RTVSPost2010PropOp54
 70
     1
102
RTVSPost2010Prop55
280
     0
102
RTVSPost2010PropOp55
 70
     1
102
RTVSPost2010Prop56
140
1.0
102
RTVSPost2010PropOp56
 70
     1
102
RTVSPost2010Prop57
140
1.0
102
RTVSPost2010PropOp57
 70
     1
  0
XRECORD
  5
2543
102
{ACAD_REACTORS
330
2542
102
}
330
2542
100
AcDbXrecord
280
     1
102
RTVSPost2010Prop28
280
     0
102
RTVSPost2010PropOp28
 70
     1
102
RTVSPost2010Prop29
280
     1
102
RTVSPost2010PropOp29
 70
     1
102
RTVSPost2010Prop30
280
     1
102
RTVSPost2010PropOp30
 70
     1
102
RTVSPost2010Prop31
280
     0
102
RTVSPost2010PropOp31
 70
     1
102
RTVSPost2010Prop32
280
     0
102
RTVSPost2010PropOp32
 70
     1
102
RTVSPost2010Prop33
280
     0
102
RTVSPost2010PropOp33
 70
     1
102
RTVSPost2010Prop34
280
     0
102
RTVSPost2010PropOp34
 70
     1
102
RTVSPost2010Prop35
280
     0
102
RTVSPost2010PropOp35
 70
     1
102
RTVSPost2010Prop36
280
     0
102
RTVSPost2010PropOp36
 70
     1
102
RTVSPost2010Prop37
 90
       50
102
RTVSPost2010PropOp37
 70
     1
102
RTVSPost2010Prop38
140
0.0
102
RTVSPost2010PropOp38
 70
     1
102
RTVSPost2010Prop39
140
1.0
102
RTVSPost2010PropOp39
 70
     1
102
RTVSPost2010Prop40
 90
        0
102
RTVSPost2010PropOp40
 70
     1
102
RTVSPost2010Prop41ColorIndex
 90
       18
102
RTVSPost2010Prop41ColorRGB
 90
        0
102
RTVSPost2010PropOp41
 70
     1
102
RTVSPost2010Prop42
 90
       50
102
RTVSPost2010PropOp42
 70
     1
102
RTVSPost2010Prop43
 90
        3
102
RTVSPost2010PropOp43
 70
     1
102
RTVSPost2010Prop44ColorIndex
 90
        5
102
RTVSPost2010Prop44ColorRGB
 90
      255
102
RTVSPost2010PropOp44
 70
     1
102
RTVSPost2010Prop45
280
     0
102
RTVSPost2010PropOp45
 70
     1
102
RTVSPost2010Prop46
 90
       50
102
RTVSPost2010PropOp46
 70
     1
102
RTVSPost2010Prop47
 90
       50
102
RTVSPost2010PropOp47
 70
     1
102
RTVSPost2010Prop48
 90
       50
102
RTVSPost2010PropOp48
 70
     1
102
RTVSPost2010Prop49
280
     0
102
RTVSPost2010PropOp49
 70
     1
102
RTVSPost2010Prop50
 90
       50
102
RTVSPost2010PropOp50
 70
     1
102
RTVSPost2010Prop51ColorIndex
 90
      256
102
RTVSPost2010Prop51ColorRGB
 90
-16777216
102
RTVSPost2010PropOp51
 70
     0
102
RTVSPost2010Prop52
140
1.0
102
RTVSPost2010PropOp52
 70
     0
102
RTVSPost2010Prop53
 90
        2
102
RTVSPost2010PropOp53
 70
     1
102
RTVSPost2010Prop54
  1
strokes_ogs.tif
102
RTVSPost2010PropOp54
 70
     1
102
RTVSPost2010Prop55
280
     0
102
RTVSPost2010PropOp55
 70
     1
102
RTVSPost2010Prop56
140
1.0
102
RTVSPost2010PropOp56
 70
     1
102
RTVSPost2010Prop57
140
1.0
102
RTVSPost2010PropOp57
 70
     1
  0
XRECORD
  5
2529
102
{ACAD_REACTORS
330
2528
102
}
330
2528
100
AcDbXrecord
280
     1
102
RTVSPost2010Prop28
280
     0
102
RTVSPost2010PropOp28
 70
     1
102
RTVSPost2010Prop29
280
     1
102
RTVSPost2010PropOp29
 70
     1
102
RTVSPost2010Prop30
280
     1
102
RTVSPost2010PropOp30
 70
     1
102
RTVSPost2010Prop31
280
     0
102
RTVSPost2010PropOp31
 70
     1
102
RTVSPost2010Prop32
280
     0
102
RTVSPost2010PropOp32
 70
     1
102
RTVSPost2010Prop33
280
     0
102
RTVSPost2010PropOp33
 70
     1
102
RTVSPost2010Prop34
280
     0
102
RTVSPost2010PropOp34
 70
     1
102
RTVSPost2010Prop35
280
     0
102
RTVSPost2010PropOp35
 70
     1
102
RTVSPost2010Prop36
280
     0
102
RTVSPost2010PropOp36
 70
     1
102
RTVSPost2010Prop37
 90
       50
102
RTVSPost2010PropOp37
 70
     1
102
RTVSPost2010Prop38
140
0.0
102
RTVSPost2010PropOp38
 70
     1
102
RTVSPost2010Prop39
140
1.0
102
RTVSPost2010PropOp39
 70
     1
102
RTVSPost2010Prop40
 90
        0
102
RTVSPost2010PropOp40
 70
     1
102
RTVSPost2010Prop41ColorIndex
 90
       18
102
RTVSPost2010Prop41ColorRGB
 90
        0
102
RTVSPost2010PropOp41
 70
     1
102
RTVSPost2010Prop42
 90
       50
102
RTVSPost2010PropOp42
 70
     1
102
RTVSPost2010Prop43
 90
        3
102
RTVSPost2010PropOp43
 70
     1
102
RTVSPost2010Prop44ColorIndex
 90
        5
102
RTVSPost2010Prop44ColorRGB
 90
      255
102
RTVSPost2010PropOp44
 70
     1
102
RTVSPost2010Prop45
280
     0
102
RTVSPost2010PropOp45
 70
     1
102
RTVSPost2010Prop46
 90
       50
102
RTVSPost2010PropOp46
 70
     1
102
RTVSPost2010Prop47
 90
       50
102
RTVSPost2010PropOp47
 70
     1
102
RTVSPost2010Prop48
 90
       50
102
RTVSPost2010PropOp48
 70
     1
102
RTVSPost2010Prop49
280
     0
102
RTVSPost2010PropOp49
 70
     1
102
RTVSPost2010Prop50
 90
       50
102
RTVSPost2010PropOp50
 70
     1
102
RTVSPost2010Prop51ColorIndex
 90
      256
102
RTVSPost2010Prop51ColorRGB
 90
-16777216
102
RTVSPost2010PropOp51
 70
     0
102
RTVSPost2010Prop52
140
1.0
102
RTVSPost2010PropOp52
 70
     0
102
RTVSPost2010Prop53
 90
        2
102
RTVSPost2010PropOp53
 70
     1
102
RTVSPost2010Prop54
  1
strokes_ogs.tif
102
RTVSPost2010PropOp54
 70
     1
102
RTVSPost2010Prop55
280
     0
102
RTVSPost2010PropOp55
 70
     1
102
RTVSPost2010Prop56
140
1.0
102
RTVSPost2010PropOp56
 70
     1
102
RTVSPost2010Prop57
140
1.0
102
RTVSPost2010PropOp57
 70
     1
  0
XRECORD
  5
253F
102
{ACAD_REACTORS
330
253E
102
}
330
253E
100
AcDbXrecord
280
     1
102
RTVSPost2010Prop28
280
     0
102
RTVSPost2010PropOp28
 70
     1
102
RTVSPost2010Prop29
280
     1
102
RTVSPost2010PropOp29
 70
     1
102
RTVSPost2010Prop30
280
     1
102
RTVSPost2010PropOp30
 70
     1
102
RTVSPost2010Prop31
280
     0
102
RTVSPost2010PropOp31
 70
     1
102
RTVSPost2010Prop32
280
     0
102
RTVSPost2010PropOp32
 70
     1
102
RTVSPost2010Prop33
280
     0
102
RTVSPost2010PropOp33
 70
     1
102
RTVSPost2010Prop34
280
     0
102
RTVSPost2010PropOp34
 70
     1
102
RTVSPost2010Prop35
280
     0
102
RTVSPost2010PropOp35
 70
     1
102
RTVSPost2010Prop36
280
     0
102
RTVSPost2010PropOp36
 70
     1
102
RTVSPost2010Prop37
 90
       50
102
RTVSPost2010PropOp37
 70
     1
102
RTVSPost2010Prop38
140
0.0
102
RTVSPost2010PropOp38
 70
     1
102
RTVSPost2010Prop39
140
1.0
102
RTVSPost2010PropOp39
 70
     1
102
RTVSPost2010Prop40
 90
        0
102
RTVSPost2010PropOp40
 70
     1
102
RTVSPost2010Prop41ColorIndex
 90
       18
102
RTVSPost2010Prop41ColorRGB
 90
        0
102
RTVSPost2010PropOp41
 70
     1
102
RTVSPost2010Prop42
 90
       50
102
RTVSPost2010PropOp42
 70
     1
102
RTVSPost2010Prop43
 90
        3
102
RTVSPost2010PropOp43
 70
     1
102
RTVSPost2010Prop44ColorIndex
 90
        5
102
RTVSPost2010Prop44ColorRGB
 90
      255
102
RTVSPost2010PropOp44
 70
     1
102
RTVSPost2010Prop45
280
     0
102
RTVSPost2010PropOp45
 70
     1
102
RTVSPost2010Prop46
 90
       50
102
RTVSPost2010PropOp46
 70
     1
102
RTVSPost2010Prop47
 90
       50
102
RTVSPost2010PropOp47
 70
     1
102
RTVSPost2010Prop48
 90
       50
102
RTVSPost2010PropOp48
 70
     1
102
RTVSPost2010Prop49
280
     0
102
RTVSPost2010PropOp49
 70
     1
102
RTVSPost2010Prop50
 90
       50
102
RTVSPost2010PropOp50
 70
     1
102
RTVSPost2010Prop51ColorIndex
 90
      256
102
RTVSPost2010Prop51ColorRGB
 90
-16777216
102
RTVSPost2010PropOp51
 70
     0
102
RTVSPost2010Prop52
140
1.0
102
RTVSPost2010PropOp52
 70
     0
102
RTVSPost2010Prop53
 90
        2
102
RTVSPost2010PropOp53
 70
     1
102
RTVSPost2010Prop54
  1
strokes_ogs.tif
102
RTVSPost2010PropOp54
 70
     1
102
RTVSPost2010Prop55
280
     0
102
RTVSPost2010PropOp55
 70
     1
102
RTVSPost2010Prop56
140
1.0
102
RTVSPost2010PropOp56
 70
     1
102
RTVSPost2010Prop57
140
1.0
102
RTVSPost2010PropOp57
 70
     1
  0
XRECORD
  5
253D
102
{ACAD_REACTORS
330
253C
102
}
330
253C
100
AcDbXrecord
280
     1
102
RTVSPost2010Prop28
280
     0
102
RTVSPost2010PropOp28
 70
     1
102
RTVSPost2010Prop29
280
     1
102
RTVSPost2010PropOp29
 70
     1
102
RTVSPost2010Prop30
280
     1
102
RTVSPost2010PropOp30
 70
     1
102
RTVSPost2010Prop31
280
     0
102
RTVSPost2010PropOp31
 70
     1
102
RTVSPost2010Prop32
280
     0
102
RTVSPost2010PropOp32
 70
     1
102
RTVSPost2010Prop33
280
     0
102
RTVSPost2010PropOp33
 70
     1
102
RTVSPost2010Prop34
280
     0
102
RTVSPost2010PropOp34
 70
     1
102
RTVSPost2010Prop35
280
     0
102
RTVSPost2010PropOp35
 70
     1
102
RTVSPost2010Prop36
280
     0
102
RTVSPost2010PropOp36
 70
     1
102
RTVSPost2010Prop37
 90
       50
102
RTVSPost2010PropOp37
 70
     1
102
RTVSPost2010Prop38
140
0.0
102
RTVSPost2010PropOp38
 70
     1
102
RTVSPost2010Prop39
140
1.0
102
RTVSPost2010PropOp39
 70
     1
102
RTVSPost2010Prop40
 90
        0
102
RTVSPost2010PropOp40
 70
     1
102
RTVSPost2010Prop41ColorIndex
 90
       18
102
RTVSPost2010Prop41ColorRGB
 90
        0
102
RTVSPost2010PropOp41
 70
     1
102
RTVSPost2010Prop42
 90
       50
102
RTVSPost2010PropOp42
 70
     1
102
RTVSPost2010Prop43
 90
        3
102
RTVSPost2010PropOp43
 70
     1
102
RTVSPost2010Prop44ColorIndex
 90
        5
102
RTVSPost2010Prop44ColorRGB
 90
      255
102
RTVSPost2010PropOp44
 70
     1
102
RTVSPost2010Prop45
280
     0
102
RTVSPost2010PropOp45
 70
     1
102
RTVSPost2010Prop46
 90
       50
102
RTVSPost2010PropOp46
 70
     1
102
RTVSPost2010Prop47
 90
       50
102
RTVSPost2010PropOp47
 70
     1
102
RTVSPost2010Prop48
 90
       50
102
RTVSPost2010PropOp48
 70
     1
102
RTVSPost2010Prop49
280
     0
102
RTVSPost2010PropOp49
 70
     1
102
RTVSPost2010Prop50
 90
       50
102
RTVSPost2010PropOp50
 70
     1
102
RTVSPost2010Prop51ColorIndex
 90
      256
102
RTVSPost2010Prop51ColorRGB
 90
-16777216
102
RTVSPost2010PropOp51
 70
     0
102
RTVSPost2010Prop52
140
1.0
102
RTVSPost2010PropOp52
 70
     0
102
RTVSPost2010Prop53
 90
        2
102
RTVSPost2010PropOp53
 70
     1
102
RTVSPost2010Prop54
  1
strokes_ogs.tif
102
RTVSPost2010PropOp54
 70
     1
102
RTVSPost2010Prop55
280
     0
102
RTVSPost2010PropOp55
 70
     1
102
RTVSPost2010Prop56
140
1.0
102
RTVSPost2010PropOp56
 70
     1
102
RTVSPost2010Prop57
140
1.0
102
RTVSPost2010PropOp57
 70
     1
  0
XRECORD
  5
2537
102
{ACAD_REACTORS
330
2536
102
}
330
2536
100
AcDbXrecord
280
     1
102
RTVSPost2010Prop28
280
     0
102
RTVSPost2010PropOp28
 70
     1
102
RTVSPost2010Prop29
280
     1
102
RTVSPost2010PropOp29
 70
     1
102
RTVSPost2010Prop30
280
     1
102
RTVSPost2010PropOp30
 70
     1
102
RTVSPost2010Prop31
280
     0
102
RTVSPost2010PropOp31
 70
     1
102
RTVSPost2010Prop32
280
     0
102
RTVSPost2010PropOp32
 70
     1
102
RTVSPost2010Prop33
280
     0
102
RTVSPost2010PropOp33
 70
     1
102
RTVSPost2010Prop34
280
     0
102
RTVSPost2010PropOp34
 70
     1
102
RTVSPost2010Prop35
280
     0
102
RTVSPost2010PropOp35
 70
     1
102
RTVSPost2010Prop36
280
     0
102
RTVSPost2010PropOp36
 70
     1
102
RTVSPost2010Prop37
 90
       50
102
RTVSPost2010PropOp37
 70
     1
102
RTVSPost2010Prop38
140
0.0
102
RTVSPost2010PropOp38
 70
     1
102
RTVSPost2010Prop39
140
1.0
102
RTVSPost2010PropOp39
 70
     1
102
RTVSPost2010Prop40
 90
        0
102
RTVSPost2010PropOp40
 70
     1
102
RTVSPost2010Prop41ColorIndex
 90
       18
102
RTVSPost2010Prop41ColorRGB
 90
        0
102
RTVSPost2010PropOp41
 70
     1
102
RTVSPost2010Prop42
 90
       50
102
RTVSPost2010PropOp42
 70
     1
102
RTVSPost2010Prop43
 90
        3
102
RTVSPost2010PropOp43
 70
     1
102
RTVSPost2010Prop44ColorIndex
 90
        5
102
RTVSPost2010Prop44ColorRGB
 90
      255
102
RTVSPost2010PropOp44
 70
     1
102
RTVSPost2010Prop45
280
     0
102
RTVSPost2010PropOp45
 70
     1
102
RTVSPost2010Prop46
 90
       50
102
RTVSPost2010PropOp46
 70
     1
102
RTVSPost2010Prop47
 90
       50
102
RTVSPost2010PropOp47
 70
     1
102
RTVSPost2010Prop48
 90
       50
102
RTVSPost2010PropOp48
 70
     1
102
RTVSPost2010Prop49
280
     0
102
RTVSPost2010PropOp49
 70
     1
102
RTVSPost2010Prop50
 90
       50
102
RTVSPost2010PropOp50
 70
     1
102
RTVSPost2010Prop51ColorIndex
 90
      256
102
RTVSPost2010Prop51ColorRGB
 90
-16777216
102
RTVSPost2010PropOp51
 70
     0
102
RTVSPost2010Prop52
140
1.0
102
RTVSPost2010PropOp52
 70
     0
102
RTVSPost2010Prop53
 90
        2
102
RTVSPost2010PropOp53
 70
     1
102
RTVSPost2010Prop54
  1
strokes_ogs.tif
102
RTVSPost2010PropOp54
 70
     1
102
RTVSPost2010Prop55
280
     0
102
RTVSPost2010PropOp55
 70
     1
102
RTVSPost2010Prop56
140
1.0
102
RTVSPost2010PropOp56
 70
     1
102
RTVSPost2010Prop57
140
1.0
102
RTVSPost2010PropOp57
 70
     1
  0
XRECORD
  5
2539
102
{ACAD_REACTORS
330
2538
102
}
330
2538
100
AcDbXrecord
280
     1
102
RTVSPost2010Prop28
280
     0
102
RTVSPost2010PropOp28
 70
     1
102
RTVSPost2010Prop29
280
     1
102
RTVSPost2010PropOp29
 70
     1
102
RTVSPost2010Prop30
280
     1
102
RTVSPost2010PropOp30
 70
     1
102
RTVSPost2010Prop31
280
     0
102
RTVSPost2010PropOp31
 70
     1
102
RTVSPost2010Prop32
280
     0
102
RTVSPost2010PropOp32
 70
     1
102
RTVSPost2010Prop33
280
     0
102
RTVSPost2010PropOp33
 70
     1
102
RTVSPost2010Prop34
280
     0
102
RTVSPost2010PropOp34
 70
     1
102
RTVSPost2010Prop35
280
     0
102
RTVSPost2010PropOp35
 70
     1
102
RTVSPost2010Prop36
280
     0
102
RTVSPost2010PropOp36
 70
     1
102
RTVSPost2010Prop37
 90
       50
102
RTVSPost2010PropOp37
 70
     1
102
RTVSPost2010Prop38
140
0.0
102
RTVSPost2010PropOp38
 70
     1
102
RTVSPost2010Prop39
140
1.0
102
RTVSPost2010PropOp39
 70
     1
102
RTVSPost2010Prop40
 90
        0
102
RTVSPost2010PropOp40
 70
     1
102
RTVSPost2010Prop41ColorIndex
 90
       18
102
RTVSPost2010Prop41ColorRGB
 90
        0
102
RTVSPost2010PropOp41
 70
     1
102
RTVSPost2010Prop42
 90
       50
102
RTVSPost2010PropOp42
 70
     1
102
RTVSPost2010Prop43
 90
        3
102
RTVSPost2010PropOp43
 70
     1
102
RTVSPost2010Prop44ColorIndex
 90
        5
102
RTVSPost2010Prop44ColorRGB
 90
      255
102
RTVSPost2010PropOp44
 70
     1
102
RTVSPost2010Prop45
280
     0
102
RTVSPost2010PropOp45
 70
     1
102
RTVSPost2010Prop46
 90
       50
102
RTVSPost2010PropOp46
 70
     1
102
RTVSPost2010Prop47
 90
       50
102
RTVSPost2010PropOp47
 70
     1
102
RTVSPost2010Prop48
 90
       50
102
RTVSPost2010PropOp48
 70
     1
102
RTVSPost2010Prop49
280
     0
102
RTVSPost2010PropOp49
 70
     1
102
RTVSPost2010Prop50
 90
       50
102
RTVSPost2010PropOp50
 70
     1
102
RTVSPost2010Prop51ColorIndex
 90
      256
102
RTVSPost2010Prop51ColorRGB
 90
-16777216
102
RTVSPost2010PropOp51
 70
     0
102
RTVSPost2010Prop52
140
1.0
102
RTVSPost2010PropOp52
 70
     0
102
RTVSPost2010Prop53
 90
        2
102
RTVSPost2010PropOp53
 70
     1
102
RTVSPost2010Prop54
  1
strokes_ogs.tif
102
RTVSPost2010PropOp54
 70
     1
102
RTVSPost2010Prop55
280
     0
102
RTVSPost2010PropOp55
 70
     1
102
RTVSPost2010Prop56
140
1.0
102
RTVSPost2010PropOp56
 70
     1
102
RTVSPost2010Prop57
140
1.0
102
RTVSPost2010PropOp57
 70
     1
  0
XRECORD
  5
252F
102
{ACAD_REACTORS
330
252E
102
}
330
252E
100
AcDbXrecord
280
     1
102
RTVSPost2010Prop28
280
     0
102
RTVSPost2010PropOp28
 70
     1
102
RTVSPost2010Prop29
280
     1
102
RTVSPost2010PropOp29
 70
     1
102
RTVSPost2010Prop30
280
     1
102
RTVSPost2010PropOp30
 70
     1
102
RTVSPost2010Prop31
280
     0
102
RTVSPost2010PropOp31
 70
     1
102
RTVSPost2010Prop32
280
     0
102
RTVSPost2010PropOp32
 70
     1
102
RTVSPost2010Prop33
280
     0
102
RTVSPost2010PropOp33
 70
     1
102
RTVSPost2010Prop34
280
     0
102
RTVSPost2010PropOp34
 70
     1
102
RTVSPost2010Prop35
280
     0
102
RTVSPost2010PropOp35
 70
     1
102
RTVSPost2010Prop36
280
     0
102
RTVSPost2010PropOp36
 70
     1
102
RTVSPost2010Prop37
 90
       50
102
RTVSPost2010PropOp37
 70
     1
102
RTVSPost2010Prop38
140
0.0
102
RTVSPost2010PropOp38
 70
     1
102
RTVSPost2010Prop39
140
1.0
102
RTVSPost2010PropOp39
 70
     1
102
RTVSPost2010Prop40
 90
        0
102
RTVSPost2010PropOp40
 70
     1
102
RTVSPost2010Prop41ColorIndex
 90
       18
102
RTVSPost2010Prop41ColorRGB
 90
        0
102
RTVSPost2010PropOp41
 70
     1
102
RTVSPost2010Prop42
 90
       50
102
RTVSPost2010PropOp42
 70
     1
102
RTVSPost2010Prop43
 90
        3
102
RTVSPost2010PropOp43
 70
     1
102
RTVSPost2010Prop44ColorIndex
 90
        5
102
RTVSPost2010Prop44ColorRGB
 90
      255
102
RTVSPost2010PropOp44
 70
     1
102
RTVSPost2010Prop45
280
     0
102
RTVSPost2010PropOp45
 70
     1
102
RTVSPost2010Prop46
 90
       50
102
RTVSPost2010PropOp46
 70
     1
102
RTVSPost2010Prop47
 90
       50
102
RTVSPost2010PropOp47
 70
     1
102
RTVSPost2010Prop48
 90
       50
102
RTVSPost2010PropOp48
 70
     1
102
RTVSPost2010Prop49
280
     0
102
RTVSPost2010PropOp49
 70
     1
102
RTVSPost2010Prop50
 90
       50
102
RTVSPost2010PropOp50
 70
     1
102
RTVSPost2010Prop51ColorIndex
 90
      256
102
RTVSPost2010Prop51ColorRGB
 90
-16777216
102
RTVSPost2010PropOp51
 70
     0
102
RTVSPost2010Prop52
140
1.0
102
RTVSPost2010PropOp52
 70
     0
102
RTVSPost2010Prop53
 90
        2
102
RTVSPost2010PropOp53
 70
     1
102
RTVSPost2010Prop54
  1
strokes_ogs.tif
102
RTVSPost2010PropOp54
 70
     1
102
RTVSPost2010Prop55
280
     0
102
RTVSPost2010PropOp55
 70
     1
102
RTVSPost2010Prop56
140
1.0
102
RTVSPost2010PropOp56
 70
     1
102
RTVSPost2010Prop57
140
1.0
102
RTVSPost2010PropOp57
 70
     1
  0
XRECORD
  5
2523
102
{ACAD_REACTORS
330
2522
102
}
330
2522
100
AcDbXrecord
280
     1
102
RTVSPost2010Prop28
280
     0
102
RTVSPost2010PropOp28
 70
     1
102
RTVSPost2010Prop29
280
     1
102
RTVSPost2010PropOp29
 70
     1
102
RTVSPost2010Prop30
280
     1
102
RTVSPost2010PropOp30
 70
     1
102
RTVSPost2010Prop31
280
     0
102
RTVSPost2010PropOp31
 70
     1
102
RTVSPost2010Prop32
280
     0
102
RTVSPost2010PropOp32
 70
     1
102
RTVSPost2010Prop33
280
     0
102
RTVSPost2010PropOp33
 70
     1
102
RTVSPost2010Prop34
280
     0
102
RTVSPost2010PropOp34
 70
     1
102
RTVSPost2010Prop35
280
     0
102
RTVSPost2010PropOp35
 70
     1
102
RTVSPost2010Prop36
280
     0
102
RTVSPost2010PropOp36
 70
     1
102
RTVSPost2010Prop37
 90
       50
102
RTVSPost2010PropOp37
 70
     1
102
RTVSPost2010Prop38
140
0.0
102
RTVSPost2010PropOp38
 70
     1
102
RTVSPost2010Prop39
140
1.0
102
RTVSPost2010PropOp39
 70
     1
102
RTVSPost2010Prop40
 90
        0
102
RTVSPost2010PropOp40
 70
     1
102
RTVSPost2010Prop41ColorIndex
 90
       18
102
RTVSPost2010Prop41ColorRGB
 90
        0
102
RTVSPost2010PropOp41
 70
     1
102
RTVSPost2010Prop42
 90
       50
102
RTVSPost2010PropOp42
 70
     1
102
RTVSPost2010Prop43
 90
        3
102
RTVSPost2010PropOp43
 70
     1
102
RTVSPost2010Prop44ColorIndex
 90
        5
102
RTVSPost2010Prop44ColorRGB
 90
      255
102
RTVSPost2010PropOp44
 70
     1
102
RTVSPost2010Prop45
280
     0
102
RTVSPost2010PropOp45
 70
     1
102
RTVSPost2010Prop46
 90
       50
102
RTVSPost2010PropOp46
 70
     1
102
RTVSPost2010Prop47
 90
       50
102
RTVSPost2010PropOp47
 70
     1
102
RTVSPost2010Prop48
 90
       50
102
RTVSPost2010PropOp48
 70
     1
102
RTVSPost2010Prop49
280
     0
102
RTVSPost2010PropOp49
 70
     1
102
RTVSPost2010Prop50
 90
       50
102
RTVSPost2010PropOp50
 70
     1
102
RTVSPost2010Prop51ColorIndex
 90
      256
102
RTVSPost2010Prop51ColorRGB
 90
-16777216
102
RTVSPost2010PropOp51
 70
     0
102
RTVSPost2010Prop52
140
1.0
102
RTVSPost2010PropOp52
 70
     0
102
RTVSPost2010Prop53
 90
        2
102
RTVSPost2010PropOp53
 70
     1
102
RTVSPost2010Prop54
  1
strokes_ogs.tif
102
RTVSPost2010PropOp54
 70
     1
102
RTVSPost2010Prop55
280
     0
102
RTVSPost2010PropOp55
 70
     1
102
RTVSPost2010Prop56
140
1.0
102
RTVSPost2010PropOp56
 70
     1
102
RTVSPost2010Prop57
140
1.0
102
RTVSPost2010PropOp57
 70
     1
  0
XRECORD
  5
253B
102
{ACAD_REACTORS
330
253A
102
}
330
253A
100
AcDbXrecord
280
     1
102
RTVSPost2010Prop28
280
     0
102
RTVSPost2010PropOp28
 70
     1
102
RTVSPost2010Prop29
280
     1
102
RTVSPost2010PropOp29
 70
     1
102
RTVSPost2010Prop30
280
     1
102
RTVSPost2010PropOp30
 70
     1
102
RTVSPost2010Prop31
280
     0
102
RTVSPost2010PropOp31
 70
     1
102
RTVSPost2010Prop32
280
     0
102
RTVSPost2010PropOp32
 70
     1
102
RTVSPost2010Prop33
280
     0
102
RTVSPost2010PropOp33
 70
     1
102
RTVSPost2010Prop34
280
     0
102
RTVSPost2010PropOp34
 70
     1
102
RTVSPost2010Prop35
280
     0
102
RTVSPost2010PropOp35
 70
     1
102
RTVSPost2010Prop36
280
     0
102
RTVSPost2010PropOp36
 70
     1
102
RTVSPost2010Prop37
 90
       50
102
RTVSPost2010PropOp37
 70
     1
102
RTVSPost2010Prop38
140
0.0
102
RTVSPost2010PropOp38
 70
     1
102
RTVSPost2010Prop39
140
1.0
102
RTVSPost2010PropOp39
 70
     1
102
RTVSPost2010Prop40
 90
        0
102
RTVSPost2010PropOp40
 70
     1
102
RTVSPost2010Prop41ColorIndex
 90
       18
102
RTVSPost2010Prop41ColorRGB
 90
        0
102
RTVSPost2010PropOp41
 70
     1
102
RTVSPost2010Prop42
 90
       50
102
RTVSPost2010PropOp42
 70
     1
102
RTVSPost2010Prop43
 90
        3
102
RTVSPost2010PropOp43
 70
     1
102
RTVSPost2010Prop44ColorIndex
 90
        5
102
RTVSPost2010Prop44ColorRGB
 90
      255
102
RTVSPost2010PropOp44
 70
     1
102
RTVSPost2010Prop45
280
     0
102
RTVSPost2010PropOp45
 70
     1
102
RTVSPost2010Prop46
 90
       50
102
RTVSPost2010PropOp46
 70
     1
102
RTVSPost2010Prop47
 90
       50
102
RTVSPost2010PropOp47
 70
     1
102
RTVSPost2010Prop48
 90
       50
102
RTVSPost2010PropOp48
 70
     1
102
RTVSPost2010Prop49
280
     0
102
RTVSPost2010PropOp49
 70
     1
102
RTVSPost2010Prop50
 90
       50
102
RTVSPost2010PropOp50
 70
     1
102
RTVSPost2010Prop51ColorIndex
 90
      256
102
RTVSPost2010Prop51ColorRGB
 90
-16777216
102
RTVSPost2010PropOp51
 70
     0
102
RTVSPost2010Prop52
140
1.0
102
RTVSPost2010PropOp52
 70
     0
102
RTVSPost2010Prop53
 90
        2
102
RTVSPost2010PropOp53
 70
     1
102
RTVSPost2010Prop54
  1
strokes_ogs.tif
102
RTVSPost2010PropOp54
 70
     1
102
RTVSPost2010Prop55
280
     0
102
RTVSPost2010PropOp55
 70
     1
102
RTVSPost2010Prop56
140
1.0
102
RTVSPost2010PropOp56
 70
     1
102
RTVSPost2010Prop57
140
1.0
102
RTVSPost2010PropOp57
 70
     1
  0
ENDSEC
  0
EOF
