  0
SECTION
  2
HEADER
  9
$ACADVER
  1
AC1024
  9
$ACADMAINTVER
 70
   226
  9
$DWGCODEPAGE
  3
ANSI_932
  9
$LASTSAVEDBY
  1
t-kanatani
  9
$INSBASE
 10
0.0
 20
0.0
 30
0.0
  9
$EXTMIN
 10
-341.6666666666666
 20
-72.1321728398566
 30
0.0
  9
$EXTMAX
 10
392.0000610000002
 20
709.1666666666667
 30
0.0
  9
$LIMMIN
 10
-2550.0
 20
0.0
  9
$LIMMAX
 10
0.0
 20
1800.0
  9
$ORTHOMODE
 70
     1
  9
$REGENMODE
 70
     1
  9
$FILLMODE
 70
     1
  9
$QTEXTMODE
 70
     0
  9
$MIRRTEXT
 70
     0
  9
$LTSCALE
 40
1.0
  9
$ATTMODE
 70
     1
  9
$TEXTSIZE
 40
0.2
  9
$TRACEWID
 40
0.05
  9
$TEXTSTYLE
  7
STANDARD
  9
$CLAYER
  8
0
  9
$CELTYPE
  6
CONTINUOUS
  9
$CECOLOR
 62
   256
  9
$CELTSCALE
 40
1.0
  9
$DISPSILH
 70
     0
  9
$DIMSCALE
 40
1.0
  9
$DIMASZ
 40
0.18
  9
$DIMEXO
 40
0.0625
  9
$DIMDLI
 40
0.38
  9
$DIMRND
 40
0.0
  9
$DIMDLE
 40
0.0
  9
$DIMEXE
 40
0.18
  9
$DIMTP
 40
0.0
  9
$DIMTM
 40
0.0
  9
$DIMTXT
 40
0.18
  9
$DIMCEN
 40
0.09
  9
$DIMTSZ
 40
0.0
  9
$DIMTOL
 70
     0
  9
$DIMLIM
 70
     0
  9
$DIMTIH
 70
     1
  9
$DIMTOH
 70
     1
  9
$DIMSE1
 70
     0
  9
$DIMSE2
 70
     0
  9
$DIMTAD
 70
     0
  9
$DIMZIN
 70
     0
  9
$DIMBLK
  1

  9
$DIMASO
 70
     1
  9
$DIMSHO
 70
     0
  9
$DIMPOST
  1

  9
$DIMAPOST
  1

  9
$DIMALT
 70
     0
  9
$DIMALTD
 70
     2
  9
$DIMALTF
 40
25.4
  9
$DIMLFAC
 40
1.0
  9
$DIMTOFL
 70
     0
  9
$DIMTVP
 40
0.0
  9
$DIMTIX
 70
     0
  9
$DIMSOXD
 70
     0
  9
$DIMSAH
 70
     0
  9
$DIMBLK1
  1

  9
$DIMBLK2
  1

  9
$DIMSTYLE
  2
Standard
  9
$DIMCLRD
 70
     0
  9
$DIMCLRE
 70
     0
  9
$DIMCLRT
 70
     0
  9
$DIMTFAC
 40
1.0
  9
$DIMGAP
 40
0.09
  9
$DIMJUST
 70
     0
  9
$DIMSD1
 70
     0
  9
$DIMSD2
 70
     0
  9
$DIMTOLJ
 70
     1
  9
$DIMTZIN
 70
     0
  9
$DIMALTZ
 70
     0
  9
$DIMALTTZ
 70
     0
  9
$DIMUPT
 70
     0
  9
$DIMDEC
 70
     4
  9
$DIMTDEC
 70
     4
  9
$DIMALTU
 70
     2
  9
$DIMALTTD
 70
     2
  9
$DIMTXSTY
  7
STANDARD
  9
$DIMAUNIT
 70
     0
  9
$DIMADEC
 70
     0
  9
$DIMALTRND
 40
0.0
  9
$DIMAZIN
 70
     0
  9
$DIMDSEP
 70
    46
  9
$DIMATFIT
 70
     3
  9
$DIMFRAC
 70
     0
  9
$DIMLDRBLK
  1

  9
$DIMLUNIT
 70
     2
  9
$DIMLWD
 70
    -2
  9
$DIMLWE
 70
    -2
  9
$DIMTMOVE
 70
     0
  9
$DIMFXL
 40
1.0
  9
$DIMFXLON
 70
     0
  9
$DIMJOGANG
 40
0.7853981633974483
  9
$DIMTFILL
 70
     1
  9
$DIMTFILLCLR
 70
     0
  9
$DIMARCSYM
 70
     1
  9
$DIMLTYPE
  6
CONTINUOUS
  9
$DIMLTEX1
  6
CONTINUOUS
  9
$DIMLTEX2
  6
CONTINUOUS
  9
$DIMTXTDIRECTION
 70
     0
  9
$LUNITS
 70
     2
  9
$LUPREC
 70
     8
  9
$SKETCHINC
 40
0.1
  9
$FILLETRAD
 40
0.0
  9
$AUNITS
 70
     0
  9
$AUPREC
 70
     0
  9
$MENU
  1
.
  9
$ELEVATION
 40
0.0
  9
$PELEVATION
 40
0.0
  9
$THICKNESS
 40
0.0
  9
$LIMCHECK
 70
     0
  9
$CHAMFERA
 40
0.0
  9
$CHAMFERB
 40
0.0
  9
$CHAMFERC
 40
0.0
  9
$CHAMFERD
 40
0.0
  9
$SKPOLY
 70
     0
  9
$TDCREATE
 40
2456143.683831019
  9
$TDUCREATE
 40
2456143.308840602
  9
$TDUPDATE
 40
2458905.468680556
  9
$TDUUPDATE
 40
2458905.093680555
  9
$TDINDWG
 40
0.0263723843
  9
$TDUSRTIMER
 40
0.0263723843
  9
$USRTIMER
 70
     1
  9
$ANGBASE
 50
0.0
  9
$ANGDIR
 70
     0
  9
$PDMODE
 70
     0
  9
$PDSIZE
 40
0.0
  9
$PLINEWID
 40
0.0
  9
$SPLFRAME
 70
     0
  9
$SPLINETYPE
 70
     6
  9
$SPLINESEGS
 70
     8
  9
$HANDSEED
  5
1E3F
  9
$SURFTAB1
 70
     6
  9
$SURFTAB2
 70
     6
  9
$SURFTYPE
 70
     6
  9
$SURFU
 70
     6
  9
$SURFV
 70
     6
  9
$UCSBASE
  2

  9
$UCSNAME
  2

  9
$UCSORG
 10
0.0
 20
0.0
 30
0.0
  9
$UCSXDIR
 10
1.0
 20
0.0
 30
0.0
  9
$UCSYDIR
 10
0.0
 20
1.0
 30
0.0
  9
$UCSORTHOREF
  2

  9
$UCSORTHOVIEW
 70
     0
  9
$UCSORGTOP
 10
0.0
 20
0.0
 30
0.0
  9
$UCSORGBOTTOM
 10
0.0
 20
0.0
 30
0.0
  9
$UCSORGLEFT
 10
0.0
 20
0.0
 30
0.0
  9
$UCSORGRIGHT
 10
0.0
 20
0.0
 30
0.0
  9
$UCSORGFRONT
 10
0.0
 20
0.0
 30
0.0
  9
$UCSORGBACK
 10
0.0
 20
0.0
 30
0.0
  9
$PUCSBASE
  2

  9
$PUCSNAME
  2

  9
$PUCSORG
 10
0.0
 20
0.0
 30
0.0
  9
$PUCSXDIR
 10
1.0
 20
0.0
 30
0.0
  9
$PUCSYDIR
 10
0.0
 20
1.0
 30
0.0
  9
$PUCSORTHOREF
  2

  9
$PUCSORTHOVIEW
 70
     0
  9
$PUCSORGTOP
 10
0.0
 20
0.0
 30
0.0
  9
$PUCSORGBOTTOM
 10
0.0
 20
0.0
 30
0.0
  9
$PUCSORGLEFT
 10
0.0
 20
0.0
 30
0.0
  9
$PUCSORGRIGHT
 10
0.0
 20
0.0
 30
0.0
  9
$PUCSORGFRONT
 10
0.0
 20
0.0
 30
0.0
  9
$PUCSORGBACK
 10
0.0
 20
0.0
 30
0.0
  9
$USERI1
 70
     0
  9
$USERI2
 70
     0
  9
$USERI3
 70
     0
  9
$USERI4
 70
     0
  9
$USERI5
 70
     0
  9
$USERR1
 40
0.0
  9
$USERR2
 40
0.0
  9
$USERR3
 40
0.0
  9
$USERR4
 40
0.0
  9
$USERR5
 40
0.0
  9
$WORLDVIEW
 70
     1
  9
$SHADEDGE
 70
     3
  9
$SHADEDIF
 70
    70
  9
$TILEMODE
 70
     1
  9
$MAXACTVP
 70
    64
  9
$PINSBASE
 10
0.0
 20
0.0
 30
0.0
  9
$PLIMCHECK
 70
     0
  9
$PEXTMIN
 10
-2550.0
 20
0.0
 30
0.0
  9
$PEXTMAX
 10
0.0
 20
1800.0
 30
0.0
  9
$PLIMMIN
 10
-2550.0
 20
0.0
  9
$PLIMMAX
 10
0.0
 20
1800.0
  9
$UNITMODE
 70
     0
  9
$VISRETAIN
 70
     1
  9
$PLINEGEN
 70
     0
  9
$PSLTSCALE
 70
     1
  9
$TREEDEPTH
 70
  3020
  9
$CMLSTYLE
  2
STANDARD
  9
$CMLJUST
 70
     0
  9
$CMLSCALE
 40
1.0
  9
$PROXYGRAPHICS
 70
     1
  9
$MEASUREMENT
 70
     1
  9
$CELWEIGHT
370
    -1
  9
$ENDCAPS
280
     0
  9
$JOINSTYLE
280
     0
  9
$LWDISPLAY
290
     0
  9
$INSUNITS
 70
     0
  9
$HYPERLINKBASE
  1

  9
$STYLESHEET
  1

  9
$XEDIT
290
     1
  9
$CEPSNTYPE
380
     0
  9
$PSTYLEMODE
290
     1
  9
$FINGERPRINTGUID
  2
{BB9BFA00-F76C-44F8-8090-B0A6A8DEAECD}
  9
$VERSIONGUID
  2
{C13EDD76-783C-5E43-B2C2-193CD8F57051}
  9
$EXTNAMES
290
     1
  9
$PSVPSCALE
 40
0.0
  9
$OLESTARTUP
290
     0
  9
$SORTENTS
280
   127
  9
$INDEXCTL
280
     0
  9
$HIDETEXT
280
     0
  9
$XCLIPFRAME
280
     2
  9
$HALOGAP
280
     0
  9
$OBSCOLOR
 70
   257
  9
$OBSLTYPE
280
     0
  9
$INTERSECTIONDISPLAY
280
     0
  9
$INTERSECTIONCOLOR
 70
   257
  9
$DIMASSOC
280
     1
  9
$PROJECTNAME
  1

  9
$CAMERADISPLAY
290
     0
  9
$LENSLENGTH
 40
50.0
  9
$CAMERAHEIGHT
 40
0.0
  9
$STEPSPERSEC
 40
2.0
  9
$STEPSIZE
 40
6.0
  9
$3DDWFPREC
 40
2.0
  9
$PSOLWIDTH
 40
0.25
  9
$PSOLHEIGHT
 40
4.0
  9
$LOFTANG1
 40
1.570796326794896
  9
$LOFTANG2
 40
1.570796326794896
  9
$LOFTMAG1
 40
0.0
  9
$LOFTMAG2
 40
0.0
  9
$LOFTPARAM
 70
     7
  9
$LOFTNORMALS
280
     1
  9
$LATITUDE
 40
37.795
  9
$LONGITUDE
 40
-122.394
  9
$NORTHDIRECTION
 40
0.0
  9
$TIMEZONE
 70
 -8000
  9
$LIGHTGLYPHDISPLAY
280
     1
  9
$TILEMODELIGHTSYNCH
280
     1
  9
$CMATERIAL
347
1454
  9
$SOLIDHIST
280
     0
  9
$SHOWHIST
280
     1
  9
$DWFFRAME
280
     2
  9
$DGNFRAME
280
     0
  9
$REALWORLDSCALE
290
     1
  9
$INTERFERECOLOR
 62
     1
  9
$INTERFEREOBJVS
345
1476
  9
$INTERFEREVPVS
346
1473
  9
$CSHADOW
280
     0
  9
$SHADOWPLANELOCATION
 40
0.0
  0
ENDSEC
  0
SECTION
  2
CLASSES
  0
CLASS
  1
ACDBDICTIONARYWDFLT
  2
AcDbDictionaryWithDefault
  3
ObjectDBX Classes
 90
        0
 91
        1
280
     0
281
     0
  0
CLASS
  1
MATERIAL
  2
AcDbMaterial
  3
ObjectDBX Classes
 90
     1153
 91
        3
280
     0
281
     0
  0
CLASS
  1
VISUALSTYLE
  2
AcDbVisualStyle
  3
ObjectDBX Classes
 90
     4095
 91
       26
280
     0
281
     0
  0
CLASS
  1
TABLESTYLE
  2
AcDbTableStyle
  3
ObjectDBX Classes
 90
     4095
 91
        1
280
     0
281
     0
  0
CLASS
  1
SCALE
  2
AcDbScale
  3
ObjectDBX Classes
 90
     1153
 91
       17
280
     0
281
     0
  0
CLASS
  1
MLEADERSTYLE
  2
AcDbMLeaderStyle
  3
ACDB_MLEADERSTYLE_CLASS
 90
     4095
 91
        1
280
     0
281
     0
  0
CLASS
  1
ACMESCOPE
  2
AcMeScope
  3
AcMeServices
 90
     1024
 91
        0
280
     0
281
     0
  0
CLASS
  1
ACMECOMMANDHISTORY
  2
AcMeCommandHistory
  3
AcMeServices
 90
     1024
 91
        0
280
     0
281
     0
  0
CLASS
  1
ACIMSYSVARMAN
  2
AcImSysVarManager
  3
AcMeServices
 90
     1024
 91
        0
280
     0
281
     0
  0
CLASS
  1
ACIMINTSYSVAR
  2
AcImIntSysVar
  3
AcMeServices
 90
     1024
 91
        0
280
     0
281
     0
  0
CLASS
  1
ACMESTATEMGR
  2
AcMeStateMgr
  3
AcMeServices
 90
     1024
 91
        0
280
     0
281
     0
  0
CLASS
  1
AMGSETTINGSOBJ
  2
AmgSettingsObj
  3
"AcadM|Product Description: AutoCAD Mechanical|Company: Autodesk, Inc."
 90
     1024
 91
        0
280
     0
281
     0
  0
CLASS
  1
ACGREFMASTER
  2
AcGrefMaster
  3
AcAttribServices
 90
     1024
 91
        0
280
     0
281
     0
  0
CLASS
  1
AMGOBJPROPCFG
  2
AmgObjPropCfg
  3
"AmgLay|Product Description: AutoCAD Mechanical|Company: Autodesk, Inc."
 90
     1025
 91
        0
280
     0
281
     0
  0
CLASS
  1
ACME_DOCUMENT
  2
AcMeDbDoc
  3
AcMeServices
 90
     1024
 91
        0
280
     0
281
     0
  0
CLASS
  1
ACDBENTITYCACHE
  2
AcMeEntityCache
  3
AcMeServices
 90
     1024
 91
        0
280
     0
281
     0
  0
CLASS
  1
ACME_DATABASE
  2
AcMeDbDatabase
  3
AcMeServices
 90
     1024
 91
        0
280
     0
281
     0
  0
CLASS
  1
ACRFINSADJUSTERMGR
  2
AcRfInsAdjusterMgr
  3
AcMeServices
 90
     1024
 91
        0
280
     0
281
     0
  0
CLASS
  1
ACGREFACADMASTER
  2
AcGrefacadMaster
  3
AcGrefServices
 90
     1024
 91
        0
280
     0
281
     0
  0
CLASS
  1
AMDTMENUSTATEMGR
  2
AmdtMenuStateMgr
  3
McadcomServices
 90
     1024
 91
        0
280
     0
281
     0
  0
CLASS
  1
AMDTMCOMMENUSTATE
  2
AmdtMcomMenuState
  3
McadcomServices
 90
     1024
 91
        0
280
     0
281
     0
  0
CLASS
  1
AMIMASTER
  2
AmiMaster
  3
AmiServices
 90
     1024
 91
        0
280
     0
281
     0
  0
CLASS
  1
MAPIAMMOUDLE
  2
MApiAmModule
  3
MApiAmServices
 90
     1024
 91
        0
280
     0
281
     0
  0
CLASS
  1
ACMSTANDARDISO
  2
AcmStandardISO
  3
"Amdt_StdImp|Product Description: AutoCAD Mechanical|Company: Autodesk, Inc."
 90
     1024
 91
        0
280
     0
281
     0
  0
CLASS
  1
AMDTEDGESTANDARDISO
  2
AmdtEdgeStdISO
  3
"Amdt_StdImp|Product Description: AutoCAD Mechanical|Company: Autodesk, Inc."
 90
     1024
 91
        0
280
     0
281
     0
  0
CLASS
  1
ACMSURFSTANDARDISO
  2
AcmSurfTextStdISO
  3
"Amdt_StdImp|Product Description: AutoCAD Mechanical|Company: Autodesk, Inc."
 90
     1024
 91
        0
280
     0
281
     0
  0
CLASS
  1
ACMFCFSTANDARDISO
  2
AcmFCFStdISO
  3
"Amdt_StdImp|Product Description: AutoCAD Mechanical|Company: Autodesk, Inc."
 90
     1024
 91
        0
280
     0
281
     0
  0
CLASS
  1
ACMWELDSTANDARDISO
  2
AcmWeldingStdISO
  3
"Amdt_StdImp|Product Description: AutoCAD Mechanical|Company: Autodesk, Inc."
 90
     1024
 91
        0
280
     0
281
     0
  0
CLASS
  1
ACMIDSTANDARDISO
  2
AcmIdStdISO
  3
"Amdt_StdImp|Product Description: AutoCAD Mechanical|Company: Autodesk, Inc."
 90
     1024
 91
        0
280
     0
281
     0
  0
CLASS
  1
ACMDATUMSTANDARDISO
  2
AcmDatumStdISO
  3
"Amdt_StdImp|Product Description: AutoCAD Mechanical|Company: Autodesk, Inc."
 90
     1024
 91
        0
280
     0
281
     0
  0
CLASS
  1
ACMBOMSTANDARDISO
  2
AcmBOMStdISO
  3
"Amdt_StdImp|Product Description: AutoCAD Mechanical|Company: Autodesk, Inc."
 90
     1024
 91
        0
280
     0
281
     0
  0
CLASS
  1
ACMDETAILSTANDARDISO
  2
AmdtDetailSymStdISO
  3
"Amdt_StdImp|Product Description: AutoCAD Mechanical|Company: Autodesk, Inc."
 90
     1024
 91
        0
280
     0
281
     0
  0
CLASS
  1
ACMSECTIONSTANDARDISO
  2
AmdtSectionSymStdISO
  3
"Amdt_StdImp|Product Description: AutoCAD Mechanical|Company: Autodesk, Inc."
 90
     1024
 91
        0
280
     0
281
     0
  0
CLASS
  1
ACMCENTERLINESTANDARDISO
  2
AmdtCenterLineStdISO
  3
"Amdt_StdImp|Product Description: AutoCAD Mechanical|Company: Autodesk, Inc."
 90
     1024
 91
        0
280
     0
281
     0
  0
CLASS
  1
ACMNOTESTANDARDISO
  2
AmdtNoteStdISO
  3
"Amdt_StdImp|Product Description: AutoCAD Mechanical|Company: Autodesk, Inc."
 90
     1024
 91
        0
280
     0
281
     0
  0
CLASS
  1
AMDTNOTETEMPLATEDB
  2
AmdtNoteTemplateDB
  3
AcmSymBB|Product Description: AutoCAD Mechanical|Company: Autodesk, Inc.
 90
     1024
 91
        0
280
     0
281
     0
  0
CLASS
  1
ACAMGLAYSTD
  2
AcAmgLayStd
  3
"AmgLay|Product Description: AutoCAD Mechanical|Company: Autodesk, Inc."
 90
     1024
 91
        0
280
     0
281
     0
  0
CLASS
  1
ACAMGDIMSTD
  2
AcAmgDimStd
  3
"AmgDim|Product Description: AutoCAD Mechanical|Company: Autodesk, Inc."
 90
     1024
 91
        0
280
     0
281
     0
  0
CLASS
  1
ACAMGHOLECHARTSTDISO
  2
AcAmgHoleChartStdISO
  3
AmgDim|Product Description: AutoCAD Mechanical|Company: Autodesk, Inc.
 90
     1024
 91
        0
280
     0
281
     0
  0
CLASS
  1
ACAMGTITLESTD
  2
AcAmgTitleStd
  3
"AmgTitle|Product Description: AutoCAD Mechanical|Company: Autodesk, Inc."
 90
     4095
 91
        0
280
     0
281
     0
  0
CLASS
  1
ACMTHREADLINESTANDARDISO
  2
AmdtThreadLineStdISO
  3
"Amdt_StdImp|Product Description: AutoCAD Mechanical|Company: Autodesk, Inc."
 90
     1024
 91
        0
280
     0
281
     0
  0
CLASS
  1
ACMTAPERSTANDARDISO
  2
AcmTaperStdISO
  3
"Amdt_StdImp|Product Description: AutoCAD Mechanical|Company: Autodesk, Inc."
 90
     1024
 91
        0
280
     0
281
     0
  0
CLASS
  1
ACMANOOTATIONVIEWSTANDARDISO
  2
AmdtAnViewStdISO
  3
"Amdt_StdImp|Product Description: AutoCAD Mechanical|Company: Autodesk, Inc."
 90
     1024
 91
        0
280
     0
281
     0
  0
CLASS
  1
ACMSTANDARDJIS
  2
AcmStandardJIS
  3
"Amdt_StdImp|Product Description: AutoCAD Mechanical|Company: Autodesk, Inc."
 90
     1024
 91
        0
280
     0
281
     0
  0
CLASS
  1
ACMSURFSTANDARDJIS
  2
AcmSurfTextStdJIS
  3
"Amdt_StdImp|Product Description: AutoCAD Mechanical|Company: Autodesk, Inc."
 90
     1024
 91
        0
280
     0
281
     0
  0
CLASS
  1
ACMFCFSTANDARDJIS
  2
AcmFCFStdJIS
  3
"Amdt_StdImp|Product Description: AutoCAD Mechanical|Company: Autodesk, Inc."
 90
     1024
 91
        0
280
     0
281
     0
  0
CLASS
  1
ACMWELDSTANDARDJIS
  2
AcmWeldingStdJIS
  3
"Amdt_StdImp|Product Description: AutoCAD Mechanical|Company: Autodesk, Inc."
 90
     1024
 91
        0
280
     0
281
     0
  0
CLASS
  1
ACMIDSTANDARDJIS
  2
AcmIdStdJIS
  3
"Amdt_StdImp|Product Description: AutoCAD Mechanical|Company: Autodesk, Inc."
 90
     1024
 91
        0
280
     0
281
     0
  0
CLASS
  1
ACMDATUMSTANDARDJIS
  2
AcmDatumStdJIS
  3
"Amdt_StdImp|Product Description: AutoCAD Mechanical|Company: Autodesk, Inc."
 90
     1024
 91
        0
280
     0
281
     0
  0
CLASS
  1
ACMBOMSTANDARDJIS
  2
AcmBOMStdJIS
  3
"Amdt_StdImp|Product Description: AutoCAD Mechanical|Company: Autodesk, Inc."
 90
     1024
 91
        0
280
     0
281
     0
  0
CLASS
  1
ACMDETAILSTANDARDJIS
  2
AmdtDetailSymStdJIS
  3
"Amdt_StdImp|Product Description: AutoCAD Mechanical|Company: Autodesk, Inc."
 90
     1024
 91
        0
280
     0
281
     0
  0
CLASS
  1
ACMSECTIONSTANDARDJIS
  2
AmdtSectionSymStdJIS
  3
"Amdt_StdImp|Product Description: AutoCAD Mechanical|Company: Autodesk, Inc."
 90
     1024
 91
        0
280
     0
281
     0
  0
CLASS
  1
ACMCENTERLINESTANDARDJIS
  2
AmdtCenterLineStdJIS
  3
"Amdt_StdImp|Product Description: AutoCAD Mechanical|Company: Autodesk, Inc."
 90
     1024
 91
        0
280
     0
281
     0
  0
CLASS
  1
ACMTHREADLINESTANDARDJIS
  2
AmdtThreadLineStdJIS
  3
"Amdt_StdImp|Product Description: AutoCAD Mechanical|Company: Autodesk, Inc."
 90
     1024
 91
        0
280
     0
281
     0
  0
CLASS
  1
ACMNOTESTANDARDJIS
  2
AmdtNoteStdJIS
  3
"Amdt_StdImp|Product Description: AutoCAD Mechanical|Company: Autodesk, Inc."
 90
     1024
 91
        0
280
     0
281
     0
  0
CLASS
  1
ACAMGHOLECHARTSTDJIS
  2
AcAmgHoleChartStdJIS
  3
AmgDim|Product Description: AutoCAD Mechanical|Company: Autodesk, Inc.
 90
     1024
 91
        0
280
     0
281
     0
  0
CLASS
  1
ACMTAPERSTANDARDJIS
  2
AcmTaperStdJIS
  3
"Amdt_StdImp|Product Description: AutoCAD Mechanical|Company: Autodesk, Inc."
 90
     1024
 91
        0
280
     0
281
     0
  0
CLASS
  1
ACMANOOTATIONVIEWSTANDARDJIS
  2
AmdtAnViewStdJIS
  3
"Amdt_StdImp|Product Description: AutoCAD Mechanical|Company: Autodesk, Inc."
 90
     1024
 91
        0
280
     0
281
     0
  0
CLASS
  1
AMDTEDGESTANDARDJIS
  2
AmdtEdgeStdJIS
  3
"Amdt_StdImp|Product Description: AutoCAD Mechanical|Company: Autodesk, Inc."
 90
     1024
 91
        0
280
     0
281
     0
  0
CLASS
  1
ACMFCFSTANDARDJIS98
  2
AcmFCFStdJIS98
  3
"Amdt_StdImp|Product Description: AutoCAD Mechanical|Company: Autodesk, Inc."
 90
     1024
 91
        0
280
     0
281
     0
  0
CLASS
  1
ACIMSTRSYSVAR
  2
AcImStrSysVar
  3
AcMeServices
 90
     1024
 91
        0
280
     0
281
     0
  0
CLASS
  1
AMDTAMMENUSTATE
  2
AmdtAmMenuState
  3
DesignerAssemblies
 90
     1024
 91
        0
280
     0
281
     0
  0
CLASS
  1
ACAMPROJECT
  2
AcAmProject
  3
DesignerAssemblies
 90
     1024
 91
        0
280
     0
281
     0
  0
CLASS
  1
ACAMGRCOMPDEF
  2
AcAmGrCompDef
  3
DesignerAssemblies
 90
     1024
 91
        0
280
     0
281
     0
  0
CLASS
  1
ACAMCOMPDEF
  2
AcAmCompDef
  3
DesignerAssemblies
 90
     1024
 91
        0
280
     0
281
     0
  0
CLASS
  1
ACAMCOMPDEFMGR
  2
AcAmCompDefMgr
  3
DesignerAssemblies
 90
     1024
 91
        0
280
     0
281
     0
  0
CLASS
  1
AMCONTEXTMGR
  2
AcAmContextMgr
  3
DesignerAssemblies
 90
     1024
 91
        0
280
     0
281
     0
  0
CLASS
  1
ACAMCONTEXTMODELER
  2
AcAmContextModeler
  3
DesignerAssemblies
 90
     1024
 91
        0
280
     0
281
     0
  0
CLASS
  1
ACMDATADICTIONARY
  2
AcmDataDictionary
  3
"AcmSymBB|Product Description: AutoCAD Mechanical|Company: Autodesk, Inc."
 90
     1024
 91
        0
280
     0
281
     0
  0
CLASS
  1
ACAMGRCOMPDEFSET
  2
AcAmGrCompDefSet
  3
DesignerAssemblies
 90
     1024
 91
        0
280
     0
281
     0
  0
CLASS
  1
AMDTBROWSERDBTAB
  2
AmdtBrowserDbTab
  3
McadcomServices
 90
     1024
 91
        0
280
     0
281
     0
  0
CLASS
  1
CBROWSERAPPOBJECT
  2
CBrowserAppObject
  3
McadcomServices
 90
     1024
 91
        0
280
     0
281
     0
  0
CLASS
  1
DM_PLACEHOLDER
  2
AcDmSelsetPlaceholder
  3
McadcomServices
 90
     1024
 91
        0
280
     0
281
     0
  0
CLASS
  1
EXACXREFPANELOBJECT
  2
ExAcXREFPanelObject
  3
EXAC_ESW
 90
     1025
 91
        0
280
     0
281
     0
  0
CLASS
  1
NPOCOLLECTION
  2
AcDbImpNonPersistentObjectsCollection
  3
ObjectDBX Classes
 90
     1153
 91
        0
280
     0
281
     0
  0
CLASS
  1
ACAMGFILTERDAT
  2
AcAmgFilterDat
  3
"AcadM|Product Description: AutoCAD Mechanical|Company: Autodesk, Inc."
 90
     1024
 91
        0
280
     0
281
     0
  0
CLASS
  1
DIMASSOC
  2
AcDbDimAssoc
  3
"AcDbDimAssoc|Product Desc:     AcDim ARX App For Dimension|Company:          Autodesk, Inc.|WEB Address:      www.autodesk.com"
 90
        0
 91
        0
280
     0
281
     0
  0
CLASS
  1
SOLID_BACKGROUND
  2
AcDbSolidBackground
  3
SCENEOE
 90
     4095
 91
        0
280
     0
281
     0
  0
CLASS
  1
CAMSSTRUCTBTNSTATE
  2
StructBtnState
  3
DesignerAssemblies
 90
     1024
 91
        0
280
     0
281
     0
  0
CLASS
  1
DICTIONARYVAR
  2
AcDbDictionaryVar
  3
ObjectDBX Classes
 90
        0
 91
       13
280
     0
281
     0
  0
CLASS
  1
SORTENTSTABLE
  2
AcDbSortentsTable
  3
ObjectDBX Classes
 90
        0
 91
        1
280
     0
281
     0
  0
CLASS
  1
CELLSTYLEMAP
  2
AcDbCellStyleMap
  3
ObjectDBX Classes
 90
     1152
 91
        2
280
     0
281
     0
  0
CLASS
  1
ACDBPLACEHOLDER
  2
AcDbPlaceHolder
  3
ObjectDBX Classes
 90
        0
 91
        1
280
     0
281
     0
  0
CLASS
  1
LAYOUT
  2
AcDbLayout
  3
ObjectDBX Classes
 90
        0
 91
        2
280
     0
281
     0
  0
CLASS
  1
ACDBSECTIONVIEWSTYLE
  2
AcDbSectionViewStyle
  3
ObjectDBX Classes
 90
     1025
 91
        2
280
     0
281
     0
  0
CLASS
  1
ACDBDETAILVIEWSTYLE
  2
AcDbDetailViewStyle
  3
ObjectDBX Classes
 90
     1025
 91
        2
280
     0
281
     0
  0
ENDSEC
  0
SECTION
  2
TABLES
  0
TABLE
  2
VPORT
  5
E2
102
{ACAD_XDICTIONARY
360
1A2C
102
}
330
0
100
AcDbSymbolTable
 70
     1
  0
VPORT
  5
14A6
330
E2
100
AcDbSymbolTableRecord
100
AcDbViewportTableRecord
  2
*Active
 70
     0
 10
0.0
 20
0.0
 11
1.0
 21
1.0
 12
2175.109941259131
 22
-179.188180426633
 13
0.0
 23
0.0
 14
1.0
 24
1.0
 15
0.0
 25
0.0
 16
0.0
 26
0.0
 36
13589.73119704388
 17
-1533.185437899534
 27
463.7850657233811
 37
0.0
 40
1291.97664801595
 41
2.233748271092669
 42
50.0
 43
0.0
 44
0.0
 50
0.0
 51
0.0
 71
     0
 72
  1000
 73
     1
 74
     3
 75
     0
 76
     0
 77
     0
 78
     0
281
     0
 65
     1
110
0.0
120
0.0
130
0.0
111
1.0
121
0.0
131
0.0
112
0.0
122
1.0
132
0.0
 79
     0
146
0.0
348
1472
 60
     3
 61
     5
292
     1
282
     1
141
0.0
142
0.0
 63
   250
421
  3355443
1001
ACAD_NAV_VCDISPLAY
1070
     1
  0
ENDTAB
  0
TABLE
  2
LTYPE
  5
25
330
0
100
AcDbSymbolTable
 70
     3
  0
LTYPE
  5
26
330
25
100
AcDbSymbolTableRecord
100
AcDbLinetypeTableRecord
  2
BYBLOCK
 70
     0
  3

 72
    65
 73
     0
 40
0.0
  0
LTYPE
  5
27
330
25
100
AcDbSymbolTableRecord
100
AcDbLinetypeTableRecord
  2
BYLAYER
 70
     0
  3

 72
    65
 73
     0
 40
0.0
  0
LTYPE
  5
28
330
25
100
AcDbSymbolTableRecord
100
AcDbLinetypeTableRecord
  2
CONTINUOUS
 70
     0
  3
Solid line
 72
    65
 73
     0
 40
0.0
  0
LTYPE
  5
2A
330
25
100
AcDbSymbolTableRecord
100
AcDbLinetypeTableRecord
  2
CENTER
 70
     0
  3
__ . __
 72
    65
 73
     4
 40
7.0
 49
4.0
 74
     0
 49
-1.0
 74
     0
 49
1.0
 74
     0
 49
-1.0
 74
     0
  0
ENDTAB
  0
TABLE
  2
LAYER
  5
C8
102
{ACAD_XDICTIONARY
360
1A02
102
}
330
0
100
AcDbSymbolTable
 70
     1
  0
LAYER
  5
C9
102
{ACAD_XDICTIONARY
360
15EF
102
}
330
C8
100
AcDbSymbolTableRecord
100
AcDbLayerTableRecord
  2
0
 70
     0
 62
     7
  6
CONTINUOUS
370
    -3
390
1452
347
1464
  0
ENDTAB
  0
TABLE
  2
STYLE
  5
CA
330
0
100
AcDbSymbolTable
 70
     1
  0
STYLE
  5
23
330
CA
100
AcDbSymbolTableRecord
100
AcDbTextStyleTableRecord
  2
STANDARD
 70
     0
 40
0.0
 41
1.0
 50
0.0
 71
     0
 42
0.2
  3
txt.shx
  4

  0
ENDTAB
  0
TABLE
  2
VIEW
  5
CE
330
0
100
AcDbSymbolTable
 70
     0
  0
ENDTAB
  0
TABLE
  2
UCS
  5
CF
330
0
100
AcDbSymbolTable
 70
     0
  0
ENDTAB
  0
TABLE
  2
APPID
  5
CC
330
0
100
AcDbSymbolTable
 70
    85
  0
APPID
  5
CD
330
CC
100
AcDbSymbolTableRecord
100
AcDbRegAppTableRecord
  2
ACAD
 70
     0
  0
APPID
  5
14A5
330
CC
100
AcDbSymbolTableRecord
100
AcDbRegAppTableRecord
  2
ACAD_NAV_VCDISPLAY
 70
     0
  0
APPID
  5
14AC
330
CC
100
AcDbSymbolTableRecord
100
AcDbRegAppTableRecord
  2
MCAD_NO_VIS
 70
     0
  0
APPID
  5
14AD
330
CC
100
AcDbSymbolTableRecord
100
AcDbRegAppTableRecord
  2
ACAD_TEMP_GRAPHIC
 70
     0
  0
APPID
  5
14B3
330
CC
100
AcDbSymbolTableRecord
100
AcDbRegAppTableRecord
  2
ACATTRIBSERVICES
 70
     0
  0
APPID
  5
14B4
330
CC
100
AcDbSymbolTableRecord
100
AcDbRegAppTableRecord
  2
AD_DRAW
 70
     0
  0
APPID
  5
14B5
330
CC
100
AcDbSymbolTableRecord
100
AcDbRegAppTableRecord
  2
DESIGNERASSEMBLIES
 70
     0
  0
APPID
  5
14B6
330
CC
100
AcDbSymbolTableRecord
100
AcDbRegAppTableRecord
  2
ASURF_PCURVE_APPNAME
 70
     0
  0
APPID
  5
14B7
330
CC
100
AcDbSymbolTableRecord
100
AcDbRegAppTableRecord
  2
ACADM_DIM_EDIT
 70
     0
  0
APPID
  5
14B8
330
CC
100
AcDbSymbolTableRecord
100
AcDbRegAppTableRecord
  2
GENIUS_GENDIM_13
 70
     0
  0
APPID
  5
14B9
330
CC
100
AcDbSymbolTableRecord
100
AcDbRegAppTableRecord
  2
GENIUS_GENDTOL_13
 70
     0
  0
APPID
  5
14BA
330
CC
100
AcDbSymbolTableRecord
100
AcDbRegAppTableRecord
  2
GENIUS_GE3DTOL_13
 70
     0
  0
APPID
  5
14BB
330
CC
100
AcDbSymbolTableRecord
100
AcDbRegAppTableRecord
  2
AMG_3D2D_5.0
 70
     0
  0
APPID
  5
14BC
330
CC
100
AcDbSymbolTableRecord
100
AcDbRegAppTableRecord
  2
AMDT_DM_ADJ
 70
     0
  0
APPID
  5
14BD
330
CC
100
AcDbSymbolTableRecord
100
AcDbRegAppTableRecord
  2
CK_MATE-SERIES
 70
     0
  0
APPID
  5
14BE
330
CC
100
AcDbSymbolTableRecord
100
AcDbRegAppTableRecord
  2
GEVID1042077799
 70
     0
  0
APPID
  5
14BF
330
CC
100
AcDbSymbolTableRecord
100
AcDbRegAppTableRecord
  2
GEVMK
 70
     0
  0
APPID
  5
14C0
330
CC
100
AcDbSymbolTableRecord
100
AcDbRegAppTableRecord
  2
GEVDC
 70
     0
  0
APPID
  5
14C1
330
CC
100
AcDbSymbolTableRecord
100
AcDbRegAppTableRecord
  2
GENIUS_GENBH_13
 70
     0
  0
APPID
  5
14C2
330
CC
100
AcDbSymbolTableRecord
100
AcDbRegAppTableRecord
  2
GENIUS_GENOLIS_13
 70
     0
  0
APPID
  5
14C3
330
CC
100
AcDbSymbolTableRecord
100
AcDbRegAppTableRecord
  2
GENIUS_GENOENT_13
 70
     0
  0
APPID
  5
14C4
330
CC
100
AcDbSymbolTableRecord
100
AcDbRegAppTableRecord
  2
GENIUS_GENODEF_13
 70
     0
  0
APPID
  5
14C5
330
CC
100
AcDbSymbolTableRecord
100
AcDbRegAppTableRecord
  2
GENIUS_GENOBJ-NBEHI-BHF_13
 70
     0
  0
APPID
  5
14C6
330
CC
100
AcDbSymbolTableRecord
100
AcDbRegAppTableRecord
  2
GENIUS_GENOREF_13
 70
     0
  0
APPID
  5
14C7
330
CC
100
AcDbSymbolTableRecord
100
AcDbRegAppTableRecord
  2
GENIUS_GENOBJ-NBEHI-BHB_13
 70
     0
  0
APPID
  5
14C8
330
CC
100
AcDbSymbolTableRecord
100
AcDbRegAppTableRecord
  2
GEVID1042183772
 70
     0
  0
APPID
  5
14C9
330
CC
100
AcDbSymbolTableRecord
100
AcDbRegAppTableRecord
  2
GEVID1042183773
 70
     0
  0
APPID
  5
14CA
330
CC
100
AcDbSymbolTableRecord
100
AcDbRegAppTableRecord
  2
GEVID1042183774
 70
     0
  0
APPID
  5
14CB
330
CC
100
AcDbSymbolTableRecord
100
AcDbRegAppTableRecord
  2
DCO15
 70
     0
  0
APPID
  5
14CC
330
CC
100
AcDbSymbolTableRecord
100
AcDbRegAppTableRecord
  2
ACAD_DSTYLE_DIMARC_LENGTH_SYMBOL
 70
     0
  0
APPID
  5
14CD
330
CC
100
AcDbSymbolTableRecord
100
AcDbRegAppTableRecord
  2
ACAD_DSTYLE_DIMJOGGED_JOGANGLE_SYMBOL
 70
     0
  0
APPID
  5
14CE
330
CC
100
AcDbSymbolTableRecord
100
AcDbRegAppTableRecord
  2
ACAD_MLEADERVER
 70
     0
  0
APPID
  5
14CF
330
CC
100
AcDbSymbolTableRecord
100
AcDbRegAppTableRecord
  2
GENIUS_GENOBJ-N-FIL_13
 70
     0
  0
APPID
  5
14D0
330
CC
100
AcDbSymbolTableRecord
100
AcDbRegAppTableRecord
  2
AcadAnnoPO
 70
     0
  0
APPID
  5
14D1
330
CC
100
AcDbSymbolTableRecord
100
AcDbRegAppTableRecord
  2
GENIUS_GENOBJ-N-TIT_13
 70
     0
  0
APPID
  5
14D2
330
CC
100
AcDbSymbolTableRecord
100
AcDbRegAppTableRecord
  2
GENIUS_GENTITLE_13
 70
     0
  0
APPID
  5
14D3
330
CC
100
AcDbSymbolTableRecord
100
AcDbRegAppTableRecord
  2
GENIUS_GENSCREG_15
 70
     0
  0
APPID
  5
14D4
330
CC
100
AcDbSymbolTableRecord
100
AcDbRegAppTableRecord
  2
GENIUS_GENOBJ-N-SDF_13
 70
     0
  0
APPID
  5
14D5
330
CC
100
AcDbSymbolTableRecord
100
AcDbRegAppTableRecord
  2
ACAD_PSEXT
 70
     0
  0
APPID
  5
14D6
330
CC
100
AcDbSymbolTableRecord
100
AcDbRegAppTableRecord
  2
AcAecLayerStandard
 70
     0
  0
APPID
  5
14D7
330
CC
100
AcDbSymbolTableRecord
100
AcDbRegAppTableRecord
  2
ACAD_EXEMPT_FROM_CAD_STANDARDS
 70
     0
  0
APPID
  5
14D8
330
CC
100
AcDbSymbolTableRecord
100
AcDbRegAppTableRecord
  2
ACAD_DSTYLE_DIMINSPECT
 70
     0
  0
APPID
  5
14D9
330
CC
100
AcDbSymbolTableRecord
100
AcDbRegAppTableRecord
  2
GENIUS_GENDIMSH_14
 70
     0
  0
APPID
  5
14DA
330
CC
100
AcDbSymbolTableRecord
100
AcDbRegAppTableRecord
  2
GENIUS_GENOBJ-N-CEN_13
 70
     0
  0
APPID
  5
14DB
330
CC
100
AcDbSymbolTableRecord
100
AcDbRegAppTableRecord
  2
GENIUS_GENCEN_19
 70
     0
  0
APPID
  5
14DC
330
CC
100
AcDbSymbolTableRecord
100
AcDbRegAppTableRecord
  2
ACAD_DSTYLE_DIMJAG
 70
     0
  0
APPID
  5
14DD
330
CC
100
AcDbSymbolTableRecord
100
AcDbRegAppTableRecord
  2
ACAD_DSTYLE_DIMTALN
 70
     0
  0
APPID
  5
14DE
330
CC
100
AcDbSymbolTableRecord
100
AcDbRegAppTableRecord
  2
GENIUS_GENREC_14
 70
     0
  0
APPID
  5
14DF
330
CC
100
AcDbSymbolTableRecord
100
AcDbRegAppTableRecord
  2
GENIUS_GENOBJ-N-REC_13
 70
     0
  0
APPID
  5
14E0
330
CC
100
AcDbSymbolTableRecord
100
AcDbRegAppTableRecord
  2
ACAD_DIMASSOC_CALC_DIMLFAC
 70
     0
  0
APPID
  5
14E1
330
CC
100
AcDbSymbolTableRecord
100
AcDbRegAppTableRecord
  2
ACAD_DIMASSOC_DIMLFAC
 70
     0
  0
APPID
  5
14E2
330
CC
100
AcDbSymbolTableRecord
100
AcDbRegAppTableRecord
  2
ACAD_DIMASSOC_OVERRIDDEN_DIMLFAC
 70
     0
  0
APPID
  5
14E3
330
CC
100
AcDbSymbolTableRecord
100
AcDbRegAppTableRecord
  2
AcadAnnotative
 70
     0
  0
APPID
  5
14E4
330
CC
100
AcDbSymbolTableRecord
100
AcDbRegAppTableRecord
  2
ACAD_DSTYLE_DIMEXT_LENGTH
 70
     0
  0
APPID
  5
14E5
330
CC
100
AcDbSymbolTableRecord
100
AcDbRegAppTableRecord
  2
ACAD_DSTYLE_DIMEXT_ENABLED
 70
     0
  0
APPID
  5
14E6
330
CC
100
AcDbSymbolTableRecord
100
AcDbRegAppTableRecord
  2
ACAD_DSTYLE_DIMBREAK
 70
     0
  0
APPID
  5
14E7
330
CC
100
AcDbSymbolTableRecord
100
AcDbRegAppTableRecord
  2
ACAD_DSTYLE_DIMANGULAR_EXTENSION
 70
     0
  0
APPID
  5
14E8
330
CC
100
AcDbSymbolTableRecord
100
AcDbRegAppTableRecord
  2
ACCMTRANSPARENCY
 70
     0
  0
APPID
  5
14E9
330
CC
100
AcDbSymbolTableRecord
100
AcDbRegAppTableRecord
  2
GENIUS_GENBLLY_14
 70
     0
  0
APPID
  5
14EA
330
CC
100
AcDbSymbolTableRecord
100
AcDbRegAppTableRecord
  2
GENIUS_GENTRA_14
 70
     0
  0
APPID
  5
14EB
330
CC
100
AcDbSymbolTableRecord
100
AcDbRegAppTableRecord
  2
GENIUS_GENOBJ-N-REV_13
 70
     0
  0
APPID
  5
14EC
330
CC
100
AcDbSymbolTableRecord
100
AcDbRegAppTableRecord
  2
GENIUS_GENOBJ-N-RSSYM_13
 70
     0
  0
APPID
  5
14ED
330
CC
100
AcDbSymbolTableRecord
100
AcDbRegAppTableRecord
  2
GENIUS_GENSYMENT_13
 70
     0
  0
APPID
  5
14EE
330
CC
100
AcDbSymbolTableRecord
100
AcDbRegAppTableRecord
  2
GENIUS_GENSCSYM_13
 70
     0
  0
APPID
  5
14EF
330
CC
100
AcDbSymbolTableRecord
100
AcDbRegAppTableRecord
  2
AcDbBlockRepBTag
 70
     0
  0
APPID
  5
14F0
330
CC
100
AcDbSymbolTableRecord
100
AcDbRegAppTableRecord
  2
ACAUTHENVIRON
 70
     0
  0
APPID
  5
14F1
330
CC
100
AcDbSymbolTableRecord
100
AcDbRegAppTableRecord
  2
AcDbDynamicBlockTrueName
 70
     0
  0
APPID
  5
14F2
330
CC
100
AcDbSymbolTableRecord
100
AcDbRegAppTableRecord
  2
AcDbDynamicBlockGUID
 70
     0
  0
APPID
  5
14F3
330
CC
100
AcDbSymbolTableRecord
100
AcDbRegAppTableRecord
  2
AcDbBlockRepETag
 70
     0
  0
APPID
  5
14F4
330
CC
100
AcDbSymbolTableRecord
100
AcDbRegAppTableRecord
  2
GENIUS_GENOBJ-N-HTC_13
 70
     0
  0
APPID
  5
14F5
330
CC
100
AcDbSymbolTableRecord
100
AcDbRegAppTableRecord
  2
GENIUS_GENHATCH_13
 70
     0
  0
APPID
  5
14F6
330
CC
100
AcDbSymbolTableRecord
100
AcDbRegAppTableRecord
  2
GRADIENTCOLOR1ACI
 70
     0
  0
APPID
  5
14F7
330
CC
100
AcDbSymbolTableRecord
100
AcDbRegAppTableRecord
  2
GRADIENTCOLOR2ACI
 70
     0
  0
APPID
  5
14F8
330
CC
100
AcDbSymbolTableRecord
100
AcDbRegAppTableRecord
  2
GENIUS_GENFIL_13
 70
     0
  0
APPID
  5
14F9
330
CC
100
AcDbSymbolTableRecord
100
AcDbRegAppTableRecord
  2
GENIUS_GENOBJ-N-CHA_13
 70
     0
  0
APPID
  5
14FA
330
CC
100
AcDbSymbolTableRecord
100
AcDbRegAppTableRecord
  2
ACAD_DSTYLE_DIM_LINETYPE
 70
     0
  0
APPID
  5
14FB
330
CC
100
AcDbSymbolTableRecord
100
AcDbRegAppTableRecord
  2
ACAD_DSTYLE_DIM_EXT1_LINETYPE
 70
     0
  0
APPID
  5
14FC
330
CC
100
AcDbSymbolTableRecord
100
AcDbRegAppTableRecord
  2
ACAD_DSTYLE_DIM_EXT2_LINETYPE
 70
     0
  0
APPID
  5
14FD
330
CC
100
AcDbSymbolTableRecord
100
AcDbRegAppTableRecord
  2
AcDbAttr
 70
     0
  0
APPID
  5
14FE
330
CC
100
AcDbSymbolTableRecord
100
AcDbRegAppTableRecord
  2
ACAD_DSTYLE_DIMRADIAL_EXTENSION
 70
     0
  0
APPID
  5
14FF
330
CC
100
AcDbSymbolTableRecord
100
AcDbRegAppTableRecord
  2
ACADANNOAV
 70
     0
  0
APPID
  5
1500
330
CC
100
AcDbSymbolTableRecord
100
AcDbRegAppTableRecord
  2
ACAD_DSTYLE_DIMTEXT_FILL
 70
     0
  0
APPID
  5
1501
330
CC
100
AcDbSymbolTableRecord
100
AcDbRegAppTableRecord
  2
ACAD_DSTYLE_DIMFLIPARROW_WHICH_SYMBOL
 70
     0
  0
APPID
  5
1502
330
CC
100
AcDbSymbolTableRecord
100
AcDbRegAppTableRecord
  2
ACADBPTGRAPHNODEID
 70
     0
  0
APPID
  5
1503
330
CC
100
AcDbSymbolTableRecord
100
AcDbRegAppTableRecord
  2
PE_URL
 70
     0
  0
ENDTAB
  0
TABLE
  2
DIMSTYLE
  5
CB
330
0
100
AcDbSymbolTable
 70
     1
100
AcDbDimStyleTable
 71
     0
  0
DIMSTYLE
105
1A1F
330
CB
100
AcDbSymbolTableRecord
100
AcDbDimStyleTableRecord
  2
Standard
 70
     0
340
23
  0
ENDTAB
  0
TABLE
  2
BLOCK_RECORD
  5
D0
330
0
100
AcDbSymbolTable
 70
     0
  0
BLOCK_RECORD
  5
D1
102
{ACAD_XDICTIONARY
360
179F
102
}
330
D0
100
AcDbSymbolTableRecord
100
AcDbBlockTableRecord
  2
*MODEL_SPACE
340
149F
 70
     0
280
     1
281
     0
  0
BLOCK_RECORD
  5
D2
330
D0
100
AcDbSymbolTableRecord
100
AcDbBlockTableRecord
  2
*PAPER_SPACE
340
14A0
 70
     0
280
     1
281
     0
  0
ENDTAB
  0
ENDSEC
  0
SECTION
  2
BLOCKS
  0
BLOCK
  5
E3
330
D1
100
AcDbEntity
  8
0
100
AcDbBlockBegin
  2
*MODEL_SPACE
 70
     0
 10
0.0
 20
0.0
 30
0.0
  3
*MODEL_SPACE
  1

  0
ENDBLK
  5
E4
330
D1
100
AcDbEntity
  8
0
100
AcDbBlockEnd
  0
BLOCK
  5
E5
330
D2
100
AcDbEntity
 67
     1
  8
0
100
AcDbBlockBegin
  2
*PAPER_SPACE
 70
     0
 10
0.0
 20
0.0
 30
0.0
  3
*PAPER_SPACE
  1

  0
ENDBLK
  5
E6
330
D2
100
AcDbEntity
 67
     1
  8
0
100
AcDbBlockEnd
  0
ENDSEC
  0
SECTION
  2
ENTITIES
  0
LINE
  5
1619
330
D1
100
AcDbEntity
  8
0
  6
Continuous
100
AcDbLine
 10
282.0
 20
163.50002
 30
0.0
 11
318.0
 21
163.50002
 31
0.0
  0
LINE
  5
161A
330
D1
100
AcDbEntity
  8
0
  6
Continuous
100
AcDbLine
 10
243.0
 20
161.49998
 30
0.0
 11
243.0
 21
83.49999999999999
 31
0.0
  0
LINE
  5
161B
330
D1
100
AcDbEntity
  8
0
  6
Continuous
100
AcDbLine
 10
282.0
 20
188.50002
 30
0.0
 11
318.0
 21
188.50002
 31
0.0
  0
LINE
  5
161C
330
D1
100
AcDbEntity
  8
0
  6
Continuous
100
AcDbLine
 10
318.0
 20
188.50002
 30
0.0
 11
318.0
 21
163.50002
 31
0.0
  0
LINE
  5
161D
330
D1
100
AcDbEntity
  8
0
  6
Continuous
100
AcDbLine
 10
282.0
 20
188.50002
 30
0.0
 11
282.0
 21
163.50002
 31
0.0
  0
LINE
  5
161E
330
D1
100
AcDbEntity
  8
0
  6
Continuous
100
AcDbLine
 10
297.4689368999998
 20
188.50002
 30
0.0
 11
297.4689368999998
 21
163.50002
 31
0.0
  0
LINE
  5
161F
330
D1
100
AcDbEntity
  8
0
  6
Continuous
100
AcDbLine
 10
302.5310631000002
 20
188.50002
 30
0.0
 11
302.5310631000002
 21
163.50002
 31
0.0
  0
LINE
  5
1620
330
D1
100
AcDbEntity
  8
0
  6
Continuous
100
AcDbLine
 10
293.9000001
 20
190.00002
 30
0.0
 11
306.0999999000001
 21
190.00002
 31
0.0
  0
LINE
  5
1621
330
D1
100
AcDbEntity
  8
0
  6
Continuous
100
AcDbLine
 10
305.25
 20
191.52704
 30
0.0
 11
305.25
 21
190.00002
 31
0.0
  0
LINE
  5
1622
330
D1
100
AcDbEntity
  8
0
  6
Continuous
100
AcDbLine
 10
294.75
 20
191.52704
 30
0.0
 11
294.75
 21
190.00002
 31
0.0
  0
LINE
  5
1624
330
D1
100
AcDbEntity
  8
0
  6
Continuous
100
AcDbLine
 10
306.0999999000001
 20
190.00002
 30
0.0
 11
306.0999999000001
 21
188.50002
 31
0.0
  0
LINE
  5
1625
330
D1
100
AcDbEntity
  8
0
  6
Continuous
100
AcDbLine
 10
293.9000001
 20
190.00002
 30
0.0
 11
293.9000001
 21
188.50002
 31
0.0
  0
LINE
  5
1629
330
D1
100
AcDbEntity
  8
0
  6
Continuous
100
AcDbLine
 10
378.10006
 20
84.90001699999998
 30
0.0
 11
376.60006
 21
84.90001699999998
 31
0.0
  0
LINE
  5
162A
330
D1
100
AcDbEntity
  8
0
  6
Continuous
100
AcDbLine
 10
378.10006
 20
97.10001400000001
 30
0.0
 11
376.60006
 21
97.10001400000001
 31
0.0
  0
LINE
  5
162B
330
D1
100
AcDbEntity
  8
0
  6
Continuous
100
AcDbLine
 10
286.199951
 20
162.99998
 30
0.0
 11
286.199951
 21
161.49998
 31
0.0
  0
LINE
  5
162C
330
D1
100
AcDbEntity
  8
0
  6
Continuous
100
AcDbLine
 10
376.60006
 20
160.25002
 30
0.0
 11
375.000061
 21
160.25002
 31
0.0
  0
LINE
  5
162D
330
D1
100
AcDbEntity
  8
0
  6
Continuous
100
AcDbLine
 10
376.60006
 20
160.25002
 30
0.0
 11
376.60006
 21
147.75002
 31
0.0
  0
LINE
  5
162E
330
D1
100
AcDbEntity
  8
0
  6
Continuous
100
AcDbLine
 10
376.60006
 20
147.75002
 30
0.0
 11
375.000061
 21
147.75002
 31
0.0
  0
LINE
  5
162F
330
D1
100
AcDbEntity
  8
0
  6
Continuous
100
AcDbLine
 10
378.10006
 20
160.10001
 30
0.0
 11
378.10006
 21
147.9000199999999
 31
0.0
  0
LINE
  5
1631
330
D1
100
AcDbEntity
  8
0
  6
Continuous
100
AcDbLine
 10
239.9000019999999
 20
160.10001
 30
0.0
 11
241.4000019999999
 21
160.10001
 31
0.0
  0
LINE
  5
1632
330
D1
100
AcDbEntity
  8
0
  6
Continuous
100
AcDbLine
 10
239.9000019999999
 20
147.9000199999999
 30
0.0
 11
241.4000019999999
 21
147.9000199999999
 31
0.0
  0
LINE
  5
1633
330
D1
100
AcDbEntity
  8
0
  6
Continuous
100
AcDbLine
 10
241.4000019999999
 20
84.75001500000002
 30
0.0
 11
243.0
 21
84.75001500000002
 31
0.0
  0
LINE
  5
1634
330
D1
100
AcDbEntity
  8
0
  6
Continuous
100
AcDbLine
 10
241.4000019999999
 20
147.75002
 30
0.0
 11
243.0
 21
147.75002
 31
0.0
  0
LINE
  5
1635
330
D1
100
AcDbEntity
  8
0
  6
Continuous
100
AcDbLine
 10
241.4000019999999
 20
147.75002
 30
0.0
 11
241.4000019999999
 21
160.25002
 31
0.0
  0
LINE
  5
1636
330
D1
100
AcDbEntity
  8
0
  6
Continuous
100
AcDbLine
 10
241.4000019999999
 20
84.75001500000002
 30
0.0
 11
241.4000019999999
 21
97.25001500000002
 31
0.0
  0
LINE
  5
1637
330
D1
100
AcDbEntity
  8
0
  6
Continuous
100
AcDbLine
 10
241.4000019999999
 20
97.25001500000002
 30
0.0
 11
243.0
 21
97.25001500000002
 31
0.0
  0
LINE
  5
1638
330
D1
100
AcDbEntity
  8
0
  6
Continuous
100
AcDbLine
 10
239.9000019999999
 20
84.90001699999998
 30
0.0
 11
239.9000019999999
 21
97.10001400000001
 31
0.0
  0
LINE
  5
163B
330
D1
100
AcDbEntity
  8
0
  6
Continuous
100
AcDbLine
 10
239.9000019999999
 20
97.10001400000001
 30
0.0
 11
241.4000019999999
 21
97.10001400000001
 31
0.0
  0
LINE
  5
163C
330
D1
100
AcDbEntity
  8
0
  6
Continuous
100
AcDbLine
 10
239.9000019999999
 20
84.90001699999998
 30
0.0
 11
241.4000019999999
 21
84.90001699999998
 31
0.0
  0
LINE
  5
163D
330
D1
100
AcDbEntity
  8
0
  6
Continuous
100
AcDbLine
 10
376.60006
 20
97.25001500000002
 30
0.0
 11
375.000061
 21
97.25001500000002
 31
0.0
  0
LINE
  5
163F
330
D1
100
AcDbEntity
  8
0
  6
Continuous
100
AcDbLine
 10
243.0
 20
139.1241
 30
0.0
 11
375.000061
 21
139.1241
 31
0.0
  0
LINE
  5
1641
330
D1
100
AcDbEntity
  8
0
  6
Continuous
100
AcDbLine
 10
378.10006
 20
147.9000199999999
 30
0.0
 11
376.60006
 21
147.9000199999999
 31
0.0
  0
LINE
  5
1642
330
D1
100
AcDbEntity
  8
0
  6
Continuous
100
AcDbLine
 10
378.10006
 20
160.10001
 30
0.0
 11
376.60006
 21
160.10001
 31
0.0
  0
LINE
  5
1643
330
D1
100
AcDbEntity
  8
0
  6
Continuous
100
AcDbLine
 10
236.4043160000001
 20
148.2265
 30
0.0
 11
239.9000019999999
 21
148.2265
 31
0.0
  0
LINE
  5
1644
330
D1
100
AcDbEntity
  8
0
  6
Continuous
100
AcDbLine
 10
235.9000019999998
 20
158.33014
 30
0.0
 11
235.9000019999998
 21
149.66989
 31
0.0
  0
LINE
  5
1645
330
D1
100
AcDbEntity
  8
0
  6
Continuous
100
AcDbLine
 10
236.4043160000001
 20
159.77353
 30
0.0
 11
239.9000019999999
 21
159.77353
 31
0.0
  0
LINE
  5
1646
330
D1
100
AcDbEntity
  8
0
  6
Continuous
100
AcDbLine
 10
236.4043160000001
 20
156.88676
 30
0.0
 11
239.9000019999999
 21
156.88676
 31
0.0
  0
LINE
  5
1647
330
D1
100
AcDbEntity
  8
0
  6
Continuous
100
AcDbLine
 10
236.4043160000001
 20
151.11327
 30
0.0
 11
239.9000019999999
 21
151.11327
 31
0.0
  0
LINE
  5
1648
330
D1
100
AcDbEntity
  8
0
  6
Continuous
100
AcDbLine
 10
236.4043160000001
 20
85.22650899999995
 30
0.0
 11
239.9000019999999
 21
85.22650899999995
 31
0.0
  0
LINE
  5
1649
330
D1
100
AcDbEntity
  8
0
  6
Continuous
100
AcDbLine
 10
235.9000019999998
 20
95.33013900000003
 30
0.0
 11
235.9000019999998
 21
86.669891
 31
0.0
  0
LINE
  5
164A
330
D1
100
AcDbEntity
  8
0
  6
Continuous
100
AcDbLine
 10
236.4043160000001
 20
96.773514
 30
0.0
 11
239.9000019999999
 21
96.773514
 31
0.0
  0
LINE
  5
164B
330
D1
100
AcDbEntity
  8
0
  6
Continuous
100
AcDbLine
 10
236.4043160000001
 20
93.88676499999997
 30
0.0
 11
239.9000019999999
 21
93.88676499999997
 31
0.0
  0
LINE
  5
164C
330
D1
100
AcDbEntity
  8
0
  6
Continuous
100
AcDbLine
 10
236.4043160000001
 20
88.11326600000002
 30
0.0
 11
239.9000019999999
 21
88.11326600000002
 31
0.0
  0
LINE
  5
164D
330
D1
100
AcDbEntity
  8
0
  6
Continuous
100
AcDbLine
 10
375.000061
 20
161.49998
 30
0.0
 11
375.000061
 21
83.49999999999999
 31
0.0
  0
LINE
  5
164E
330
D1
100
AcDbEntity
  8
0
  6
Continuous
100
AcDbLine
 10
311.5
 20
162.99998
 30
0.0
 11
311.5
 21
163.50002
 31
0.0
  0
LINE
  5
164F
330
D1
100
AcDbEntity
  8
0
  6
Continuous
100
AcDbLine
 10
243.0
 20
105.87593
 30
0.0
 11
375.000061
 21
105.87593
 31
0.0
  0
LINE
  5
1650
330
D1
100
AcDbEntity
  8
0
  6
Continuous
100
AcDbLine
 10
370.5000609999999
 20
161.49998
 30
0.0
 11
370.5000609999999
 21
83.49999999999999
 31
0.0
  0
LINE
  5
1651
330
D1
100
AcDbEntity
  8
0
  6
Continuous
100
AcDbLine
 10
247.5
 20
161.49998
 30
0.0
 11
247.5
 21
83.49999999999999
 31
0.0
  0
LINE
  5
1652
330
D1
100
AcDbEntity
  8
0
  6
Continuous
100
AcDbLine
 10
381.5957410000001
 20
96.773514
 30
0.0
 11
378.10006
 21
96.773514
 31
0.0
  0
LINE
  5
1653
330
D1
100
AcDbEntity
  8
0
  6
Continuous
100
AcDbLine
 10
382.10006
 20
86.669891
 30
0.0
 11
382.10006
 21
95.33013900000003
 31
0.0
  0
LINE
  5
1654
330
D1
100
AcDbEntity
  8
0
  6
Continuous
100
AcDbLine
 10
381.5957410000001
 20
85.22650899999995
 30
0.0
 11
378.10006
 21
85.22650899999995
 31
0.0
  0
LINE
  5
1655
330
D1
100
AcDbEntity
  8
0
  6
Continuous
100
AcDbLine
 10
381.5957410000001
 20
88.11326600000002
 30
0.0
 11
378.10006
 21
88.11326600000002
 31
0.0
  0
LINE
  5
1656
330
D1
100
AcDbEntity
  8
0
  6
Continuous
100
AcDbLine
 10
381.5957410000001
 20
93.88676499999997
 30
0.0
 11
378.10006
 21
93.88676499999997
 31
0.0
  0
LINE
  5
1657
330
D1
100
AcDbEntity
  8
0
  6
Continuous
100
AcDbLine
 10
381.5957410000001
 20
159.77353
 30
0.0
 11
378.10006
 21
159.77353
 31
0.0
  0
LINE
  5
1658
330
D1
100
AcDbEntity
  8
0
  6
Continuous
100
AcDbLine
 10
382.10006
 20
149.66989
 30
0.0
 11
382.10006
 21
158.33014
 31
0.0
  0
LINE
  5
1659
330
D1
100
AcDbEntity
  8
0
  6
Continuous
100
AcDbLine
 10
381.5957410000001
 20
148.2265
 30
0.0
 11
378.10006
 21
148.2265
 31
0.0
  0
LINE
  5
165A
330
D1
100
AcDbEntity
  8
0
  6
Continuous
100
AcDbLine
 10
381.5957410000001
 20
151.11327
 30
0.0
 11
378.10006
 21
151.11327
 31
0.0
  0
LINE
  5
165B
330
D1
100
AcDbEntity
  8
0
  6
Continuous
100
AcDbLine
 10
381.5957410000001
 20
156.88676
 30
0.0
 11
378.10006
 21
156.88676
 31
0.0
  0
LINE
  5
165C
330
D1
100
AcDbEntity
  8
0
  6
Continuous
100
AcDbLine
 10
392.000061
 20
128.12918
 30
0.0
 11
392.000061
 21
116.87085
 31
0.0
  0
LINE
  5
165F
330
D1
100
AcDbEntity
  8
0
  6
Continuous
100
AcDbLine
 10
386.500061
 20
126.50002
 30
0.0
 11
381.60006
 21
126.50002
 31
0.0
  0
LINE
  5
1660
330
D1
100
AcDbEntity
  8
0
  6
Continuous
100
AcDbLine
 10
386.500061
 20
118.50002
 30
0.0
 11
381.60006
 21
118.50002
 31
0.0
  0
LINE
  5
1661
330
D1
100
AcDbEntity
  8
0
  6
Continuous
100
AcDbLine
 10
380.875168
 20
118.74724
 30
0.0
 11
377.324959
 21
118.74724
 31
0.0
  0
LINE
  5
1662
330
D1
100
AcDbEntity
  8
0
  6
Continuous
100
AcDbLine
 10
380.875168
 20
126.25279
 30
0.0
 11
377.324959
 21
126.25279
 31
0.0
  0
LINE
  5
1663
330
D1
100
AcDbEntity
  8
0
  6
Continuous
100
AcDbLine
 10
380.875168
 20
114.99446
 30
0.0
 11
377.324959
 21
114.99446
 31
0.0
  0
LINE
  5
1664
330
D1
100
AcDbEntity
  8
0
  6
Continuous
100
AcDbLine
 10
380.875168
 20
130.00557
 30
0.0
 11
377.324959
 21
130.00557
 31
0.0
  0
LINE
  5
1665
330
D1
100
AcDbEntity
  8
0
  6
Continuous
100
AcDbLine
 10
391.275169
 20
130.00557
 30
0.0
 11
386.500061
 21
130.00557
 31
0.0
  0
LINE
  5
1666
330
D1
100
AcDbEntity
  8
0
  6
Continuous
100
AcDbLine
 10
381.60006
 20
128.12918
 30
0.0
 11
381.60006
 21
116.87085
 31
0.0
  0
LINE
  5
1667
330
D1
100
AcDbEntity
  8
0
  6
Continuous
100
AcDbLine
 10
376.60006
 20
131.00002
 30
0.0
 11
375.000061
 21
131.00002
 31
0.0
  0
LINE
  5
1668
330
D1
100
AcDbEntity
  8
0
  6
Continuous
100
AcDbLine
 10
376.60006
 20
114.00002
 30
0.0
 11
375.000061
 21
114.00002
 31
0.0
  0
LINE
  5
1669
330
D1
100
AcDbEntity
  8
0
  6
Continuous
100
AcDbLine
 10
376.60006
 20
114.00002
 30
0.0
 11
376.60006
 21
131.00002
 31
0.0
  0
LINE
  5
166A
330
D1
100
AcDbEntity
  8
0
  6
Continuous
100
AcDbLine
 10
288.5
 20
162.99998
 30
0.0
 11
288.5
 21
163.50002
 31
0.0
  0
LINE
  5
166B
330
D1
100
AcDbEntity
  8
0
  6
Continuous
100
AcDbLine
 10
313.799927
 20
162.99998
 30
0.0
 11
313.799927
 21
161.49998
 31
0.0
  0
LINE
  5
166C
330
D1
100
AcDbEntity
  8
0
  6
Continuous
100
AcDbLine
 10
243.0
 20
161.49998
 30
0.0
 11
375.000061
 21
161.49998
 31
0.0
  0
LINE
  5
166D
330
D1
100
AcDbEntity
  8
0
  6
Continuous
100
AcDbLine
 10
243.0
 20
83.49999999999999
 30
0.0
 11
375.000061
 21
83.49999999999999
 31
0.0
  0
LINE
  5
166E
330
D1
100
AcDbEntity
  8
0
  6
Continuous
100
AcDbLine
 10
391.275169
 20
114.99446
 30
0.0
 11
386.500061
 21
114.99446
 31
0.0
  0
LINE
  5
166F
330
D1
100
AcDbEntity
  8
0
  6
Continuous
100
AcDbLine
 10
391.275169
 20
126.25279
 30
0.0
 11
386.500061
 21
126.25279
 31
0.0
  0
LINE
  5
1670
330
D1
100
AcDbEntity
  8
0
  6
Continuous
100
AcDbLine
 10
313.799927
 20
162.99998
 30
0.0
 11
286.199951
 21
162.99998
 31
0.0
  0
LINE
  5
1671
330
D1
100
AcDbEntity
  8
0
  6
Continuous
100
AcDbLine
 10
391.275169
 20
118.74724
 30
0.0
 11
386.500061
 21
118.74724
 31
0.0
  0
LINE
  5
1672
330
D1
100
AcDbEntity
  8
0
  6
Continuous
100
AcDbLine
 10
376.60006
 20
97.25001500000002
 30
0.0
 11
376.60006
 21
84.75001500000002
 31
0.0
  0
LINE
  5
1673
330
D1
100
AcDbEntity
  8
0
  6
Continuous
100
AcDbLine
 10
241.4000019999999
 20
160.25002
 30
0.0
 11
243.0
 21
160.25002
 31
0.0
  0
LINE
  5
1674
330
D1
100
AcDbEntity
  8
0
  6
Continuous
100
AcDbLine
 10
376.60006
 20
84.75001500000002
 30
0.0
 11
375.000061
 21
84.75001500000002
 31
0.0
  0
LINE
  5
1675
330
D1
100
AcDbEntity
  8
0
  6
Continuous
100
AcDbLine
 10
239.9000019999999
 20
147.9000199999999
 30
0.0
 11
239.9000019999999
 21
160.10001
 31
0.0
  0
LINE
  5
1676
330
D1
100
AcDbEntity
  8
0
  6
Continuous
100
AcDbLine
 10
386.500061
 20
130.00557
 30
0.0
 11
386.500061
 21
114.99446
 31
0.0
  0
LINE
  5
1677
330
D1
100
AcDbEntity
  8
0
  6
Continuous
100
AcDbLine
 10
226.0
 20
116.87085
 30
0.0
 11
226.0
 21
128.12918
 31
0.0
  0
LINE
  5
167A
330
D1
100
AcDbEntity
  8
0
  6
Continuous
100
AcDbLine
 10
231.5
 20
118.50002
 30
0.0
 11
236.3999979999999
 21
118.50002
 31
0.0
  0
LINE
  5
167B
330
D1
100
AcDbEntity
  8
0
  6
Continuous
100
AcDbLine
 10
231.5
 20
126.50002
 30
0.0
 11
236.3999979999999
 21
126.50002
 31
0.0
  0
LINE
  5
167C
330
D1
100
AcDbEntity
  8
0
  6
Continuous
100
AcDbLine
 10
378.10006
 20
97.10001400000001
 30
0.0
 11
378.10006
 21
84.90001699999998
 31
0.0
  0
LINE
  5
167D
330
D1
100
AcDbEntity
  8
0
  6
Continuous
100
AcDbLine
 10
237.1248930000001
 20
126.25279
 30
0.0
 11
240.6751060000001
 21
126.25279
 31
0.0
  0
LINE
  5
167E
330
D1
100
AcDbEntity
  8
0
  6
Continuous
100
AcDbLine
 10
237.1248930000001
 20
118.74724
 30
0.0
 11
240.6751060000001
 21
118.74724
 31
0.0
  0
LINE
  5
1680
330
D1
100
AcDbEntity
  8
0
  6
Continuous
100
AcDbLine
 10
237.1248930000001
 20
130.00557
 30
0.0
 11
240.6751060000001
 21
130.00557
 31
0.0
  0
LINE
  5
1681
330
D1
100
AcDbEntity
  8
0
  6
Continuous
100
AcDbLine
 10
237.1248930000001
 20
114.99446
 30
0.0
 11
240.6751060000001
 21
114.99446
 31
0.0
  0
LINE
  5
1682
330
D1
100
AcDbEntity
  8
0
  6
Continuous
100
AcDbLine
 10
241.4000019999999
 20
131.00002
 30
0.0
 11
243.0
 21
131.00002
 31
0.0
  0
LINE
  5
1683
330
D1
100
AcDbEntity
  8
0
  6
Continuous
100
AcDbLine
 10
241.4000019999999
 20
131.00002
 30
0.0
 11
241.4000019999999
 21
114.00002
 31
0.0
  0
LINE
  5
1684
330
D1
100
AcDbEntity
  8
0
  6
Continuous
100
AcDbLine
 10
226.7248920000002
 20
130.00557
 30
0.0
 11
231.5
 21
130.00557
 31
0.0
  0
LINE
  5
1685
330
D1
100
AcDbEntity
  8
0
  6
Continuous
100
AcDbLine
 10
226.7248920000002
 20
118.74724
 30
0.0
 11
231.5
 21
118.74724
 31
0.0
  0
LINE
  5
1686
330
D1
100
AcDbEntity
  8
0
  6
Continuous
100
AcDbLine
 10
226.7248920000002
 20
126.25279
 30
0.0
 11
231.5
 21
126.25279
 31
0.0
  0
LINE
  5
1687
330
D1
100
AcDbEntity
  8
0
  6
Continuous
100
AcDbLine
 10
231.5
 20
114.99446
 30
0.0
 11
231.5
 21
130.00557
 31
0.0
  0
LINE
  5
1688
330
D1
100
AcDbEntity
  8
0
  6
Continuous
100
AcDbLine
 10
236.3999979999999
 20
116.87085
 30
0.0
 11
236.3999979999999
 21
128.12918
 31
0.0
  0
LINE
  5
1689
330
D1
100
AcDbEntity
  8
0
  6
Continuous
100
AcDbLine
 10
226.7248920000002
 20
114.99446
 30
0.0
 11
231.5
 21
114.99446
 31
0.0
  0
LINE
  5
168A
330
D1
100
AcDbEntity
  8
0
  6
Continuous
100
AcDbLine
 10
241.4000019999999
 20
114.00002
 30
0.0
 11
243.0
 21
114.00002
 31
0.0
  0
LINE
  5
1690
330
D1
100
AcDbEntity
  8
0
  6
Continuous
100
AcDbLine
 10
285.8609860000001
 20
-37.417755
 30
0.0
 11
285.8609860000001
 21
-43.0
 31
0.0
  0
LINE
  5
1691
330
D1
100
AcDbEntity
  8
0
  6
Continuous
100
AcDbLine
 10
298.1390145999999
 20
-39.95668399999999
 30
0.0
 11
298.1390145999999
 21
-43.0
 31
0.0
  0
LINE
  5
1693
330
D1
100
AcDbEntity
  8
0
  6
Continuous
100
AcDbLine
 10
301.8609854000001
 20
-39.95668399999999
 30
0.0
 11
301.8609854000001
 21
-43.0
 31
0.0
  0
LINE
  5
1695
330
D1
100
AcDbEntity
  8
0
  6
Continuous
100
AcDbLine
 10
314.1390139999999
 20
-37.417755
 30
0.0
 11
314.1390139999999
 21
-43.0
 31
0.0
  0
LINE
  5
1697
330
D1
100
AcDbEntity
  8
0
  6
Continuous
100
AcDbLine
 10
285.0
 20
49.5
 30
0.0
 11
285.0
 21
47.5
 31
0.0
  0
LINE
  5
1698
330
D1
100
AcDbEntity
  8
0
  6
Continuous
100
AcDbLine
 10
315.0
 20
49.5
 30
0.0
 11
315.0
 21
47.5
 31
0.0
  0
LINE
  5
169B
330
D1
100
AcDbEntity
  8
0
  6
Continuous
100
AcDbLine
 10
321.27927
 20
41.39575599999999
 30
0.0
 11
323.6621879999998
 21
43.06428900000002
 31
0.0
  0
LINE
  5
169F
330
D1
100
AcDbEntity
  8
0
  6
Continuous
100
AcDbLine
 10
327.5
 20
69.5
 30
0.0
 11
327.5
 21
50.43666100000002
 31
0.0
  0
LINE
  5
16A0
330
D1
100
AcDbEntity
  8
0
  6
Continuous
100
AcDbLine
 10
281.291714
 20
69.5
 30
0.0
 11
281.291714
 21
45.90000199999997
 31
0.0
  0
LINE
  5
16A2
330
D1
100
AcDbEntity
  8
0
  6
Continuous
100
AcDbLine
 10
284.5
 20
47.5
 30
0.0
 11
315.5
 21
47.5
 31
0.0
  0
LINE
  5
16A4
330
D1
100
AcDbEntity
  8
0
  6
Continuous
100
AcDbLine
 10
283.9117930000002
 20
77.5
 30
0.0
 11
283.9117930000002
 21
79.5
 31
0.0
  0
LINE
  5
16A5
330
D1
100
AcDbEntity
  8
0
  6
Continuous
100
AcDbLine
 10
268.5117909999999
 20
77.5
 30
0.0
 11
283.9117930000002
 21
77.5
 31
0.0
  0
LINE
  5
16A8
330
D1
100
AcDbEntity
  8
0
  6
Continuous
100
AcDbLine
 10
267.5
 20
83.49999999999999
 30
0.0
 11
267.5
 21
79.5
 31
0.0
  0
LINE
  5
16A9
330
D1
100
AcDbEntity
  8
0
  6
Continuous
100
AcDbLine
 10
332.5
 20
83.49999999999999
 30
0.0
 11
332.5
 21
79.5
 31
0.0
  0
LINE
  5
16AA
330
D1
100
AcDbEntity
  8
0
  6
Continuous
100
AcDbLine
 10
320.0
 20
38.93830100000002
 30
0.0
 11
320.0
 21
34.64101800000003
 31
0.0
  0
LINE
  5
16AB
330
D1
100
AcDbEntity
  8
0
  6
Continuous
100
AcDbLine
 10
281.7747420000001
 20
45.49999999999999
 30
0.0
 11
318.225258
 21
45.49999999999999
 31
0.0
  0
LINE
  5
16AC
330
D1
100
AcDbEntity
  8
0
  6
Continuous
100
AcDbLine
 10
280.0
 20
41.994682
 30
0.0
 11
280.0
 21
34.64101800000003
 31
0.0
  0
LINE
  5
16B6
330
D1
100
AcDbEntity
  8
0
  6
Continuous
100
AcDbLine
 10
273.7000010000002
 20
45.93038599999998
 30
0.0
 11
274.0
 21
46.45000099999998
 31
0.0
  0
LINE
  5
16B8
330
D1
100
AcDbEntity
  8
0
  6
Continuous
100
AcDbLine
 10
274.0
 20
37.95000099999999
 30
0.0
 11
273.7000010000002
 21
38.46961599999998
 31
0.0
  0
LINE
  5
16B9
330
D1
100
AcDbEntity
  8
0
  6
Continuous
100
AcDbLine
 10
274.0
 20
46.45000099999998
 30
0.0
 11
274.0
 21
37.95000099999999
 31
0.0
  0
LINE
  5
16BA
330
D1
100
AcDbEntity
  8
0
  6
Continuous
100
AcDbLine
 10
278.0
 20
43.28418699999997
 30
0.0
 11
278.0
 21
37.95000099999999
 31
0.0
  0
LINE
  5
16BB
330
D1
100
AcDbEntity
  8
0
  6
Continuous
100
AcDbLine
 10
278.7000010000002
 20
37.59999800000004
 30
0.0
 11
280.0
 21
37.59999800000004
 31
0.0
  0
LINE
  5
16BC
330
D1
100
AcDbEntity
  8
0
  6
Continuous
100
AcDbLine
 10
274.0
 20
37.95000099999999
 30
0.0
 11
278.7000010000002
 21
37.95000099999999
 31
0.0
  0
LINE
  5
16BD
330
D1
100
AcDbEntity
  8
0
  6
Continuous
100
AcDbLine
 10
273.7000010000002
 20
45.93038599999998
 30
0.0
 11
273.7000010000002
 21
38.46961599999998
 31
0.0
  0
LINE
  5
16BE
330
D1
100
AcDbEntity
  8
0
  6
Continuous
100
AcDbLine
 10
278.7000010000002
 20
42.82662199999998
 30
0.0
 11
278.7000010000002
 21
37.59999800000004
 31
0.0
  0
LINE
  5
16BF
330
D1
100
AcDbEntity
  8
0
  6
Continuous
100
AcDbLine
 10
274.0
 20
46.45000099999998
 30
0.0
 11
275.1979270000002
 21
46.45000099999998
 31
0.0
  0
LINE
  5
16C0
330
D1
100
AcDbEntity
  8
0
  6
Continuous
100
AcDbLine
 10
285.0
 20
49.5
 30
0.0
 11
315.0
 21
49.5
 31
0.0
  0
LINE
  5
16C2
330
D1
100
AcDbEntity
  8
0
  6
Continuous
100
AcDbLine
 10
278.3286090000002
 20
43.06428900000002
 30
0.0
 11
280.0
 21
41.994682
 31
0.0
  0
LINE
  5
16C5
330
D1
100
AcDbEntity
  8
0
  6
Continuous
100
AcDbLine
 10
273.1021399999999
 20
47.20000099999999
 30
0.0
 11
274.8356439999998
 21
47.20000099999999
 31
0.0
  0
LINE
  5
16C6
330
D1
100
AcDbEntity
  8
0
  6
Continuous
100
AcDbLine
 10
314.3090860000002
 20
45.49999999999999
 30
0.0
 11
315.612494
 21
44.5
 31
0.0
  0
LINE
  5
16C8
330
D1
100
AcDbEntity
  8
0
  6
Continuous
100
AcDbLine
 10
315.6124949999999
 20
44.5
 30
0.0
 11
315.6124949999999
 21
38.93830100000002
 31
0.0
  0
LINE
  5
16CA
330
D1
100
AcDbEntity
  8
0
  6
Continuous
100
AcDbLine
 10
272.5
 20
69.5
 30
0.0
 11
272.5
 21
50.43666100000002
 31
0.0
  0
LINE
  5
16CD
330
D1
100
AcDbEntity
  8
0
  6
Continuous
100
AcDbLine
 10
285.6909139999998
 20
45.49999999999999
 30
0.0
 11
284.387506
 21
44.5
 31
0.0
  0
LINE
  5
16CF
330
D1
100
AcDbEntity
  8
0
  6
Continuous
100
AcDbLine
 10
318.708286
 20
69.5
 30
0.0
 11
318.708286
 21
45.90000199999997
 31
0.0
  0
LINE
  5
16D0
330
D1
100
AcDbEntity
  8
0
  6
Continuous
100
AcDbLine
 10
270.5778180000002
 20
69.5
 30
0.0
 11
281.8457659999999
 21
69.5
 31
0.0
  0
LINE
  5
16D1
330
D1
100
AcDbEntity
  8
0
  6
Continuous
100
AcDbLine
 10
269.7117920000001
 20
70.0
 30
0.0
 11
269.7117920000001
 21
77.5
 31
0.0
  0
LINE
  5
16D2
330
D1
100
AcDbEntity
  8
0
  6
Continuous
100
AcDbLine
 10
282.711792
 20
70.0
 30
0.0
 11
282.711792
 21
77.5
 31
0.0
  0
LINE
  5
16D9
330
D1
100
AcDbEntity
  8
0
  6
Continuous
100
AcDbLine
 10
284.3875050000002
 20
44.5
 30
0.0
 11
284.3875050000002
 21
38.93830100000002
 31
0.0
  0
LINE
  5
16DF
330
D1
100
AcDbEntity
  8
0
  6
Continuous
100
AcDbLine
 10
269.7117920000001
 20
76.25
 30
0.0
 11
282.711792
 21
76.25
 31
0.0
  0
LINE
  5
16E0
330
D1
100
AcDbEntity
  8
0
  6
Continuous
100
AcDbLine
 10
269.7117920000001
 20
70.0
 30
0.0
 11
282.711792
 21
70.0
 31
0.0
  0
LINE
  5
16E1
330
D1
100
AcDbEntity
  8
0
  6
Continuous
100
AcDbLine
 10
270.577816
 20
69.5
 30
0.0
 11
269.7117920000001
 21
70.0
 31
0.0
  0
LINE
  5
16E2
330
D1
100
AcDbEntity
  8
0
  6
Continuous
100
AcDbLine
 10
316.0
 20
-36.660606
 30
0.0
 11
316.0
 21
-47.66368899999999
 31
0.0
  0
LINE
  5
16E3
330
D1
100
AcDbEntity
  8
0
  6
Continuous
100
AcDbLine
 10
284.0
 20
-36.660606
 30
0.0
 11
284.0
 21
-47.66368899999999
 31
0.0
  0
LINE
  5
16E7
330
D1
100
AcDbEntity
  8
0
  6
Continuous
100
AcDbLine
 10
269.5
 20
-52.85759000000002
 30
0.0
 11
241.5
 21
-52.85759000000002
 31
0.0
  0
LINE
  5
16E8
330
D1
100
AcDbEntity
  8
0
  6
Continuous
100
AcDbLine
 10
271.5
 20
-48.85759000000001
 30
0.0
 11
271.5
 21
-50.85759000000002
 31
0.0
  0
LINE
  5
16E9
330
D1
100
AcDbEntity
  8
0
  6
Continuous
100
AcDbLine
 10
239.5
 20
-48.85759000000001
 30
0.0
 11
239.5
 21
-50.85759000000002
 31
0.0
  0
LINE
  5
16EA
330
D1
100
AcDbEntity
  8
0
  6
Continuous
100
AcDbLine
 10
258.5
 20
-30.05758700000001
 30
0.0
 11
252.5
 21
-30.05758700000001
 31
0.0
  0
LINE
  5
16EB
330
D1
100
AcDbEntity
  8
0
  6
Continuous
100
AcDbLine
 10
251.5
 20
-30.32553100000001
 30
0.0
 11
251.5
 21
-34.428192
 31
0.0
  0
LINE
  5
16EC
330
D1
100
AcDbEntity
  8
0
  6
Continuous
100
AcDbLine
 10
250.5
 20
-32.05758700000001
 30
0.0
 11
250.5
 21
-43.85759000000001
 31
0.0
  0
LINE
  5
16ED
330
D1
100
AcDbEntity
  8
0
  6
Continuous
100
AcDbLine
 10
247.75
 20
-18.757599
 30
0.0
 11
247.75
 21
-22.887665
 31
0.0
  0
LINE
  5
16EE
330
D1
100
AcDbEntity
  8
0
  6
Continuous
100
AcDbLine
 10
263.25
 20
-18.757599
 30
0.0
 11
263.25
 21
-22.887665
 31
0.0
  0
LINE
  5
16EF
330
D1
100
AcDbEntity
  8
0
  6
Continuous
100
AcDbLine
 10
249.5
 20
4.0
 30
0.0
 11
268.775024
 21
4.0
 31
0.0
  0
LINE
  5
16F0
330
D1
100
AcDbEntity
  8
0
  6
Continuous
100
AcDbLine
 10
260.5
 20
-32.05758700000001
 30
0.0
 11
260.5
 21
-43.85759000000001
 31
0.0
  0
LINE
  5
16F1
330
D1
100
AcDbEntity
  8
0
  6
Continuous
100
AcDbLine
 10
249.5
 20
-4.0
 30
0.0
 11
268.775024
 21
-4.0
 31
0.0
  0
LINE
  5
16F2
330
D1
100
AcDbEntity
  8
0
  6
Continuous
100
AcDbLine
 10
249.5
 20
-15.0
 30
0.0
 11
260.9487610000001
 21
-15.0
 31
0.0
  0
LINE
  5
16F3
330
D1
100
AcDbEntity
  8
0
  6
Continuous
100
AcDbLine
 10
248.5
 20
14.0
 30
0.0
 11
248.5
 21
5.0
 31
0.0
  0
LINE
  5
16F4
330
D1
100
AcDbEntity
  8
0
  6
Continuous
100
AcDbLine
 10
248.5
 20
-5.0
 30
0.0
 11
248.5
 21
-14.0
 31
0.0
  0
LINE
  5
16F6
330
D1
100
AcDbEntity
  8
0
  6
Continuous
100
AcDbLine
 10
249.5
 20
15.0
 30
0.0
 11
260.9487610000001
 21
15.0
 31
0.0
  0
LINE
  5
16F7
330
D1
100
AcDbEntity
  8
0
  6
Continuous
100
AcDbLine
 10
259.5
 20
3.8431396
 30
0.0
 11
259.5
 21
-4.0
 31
0.0
  0
LINE
  5
16F8
330
D1
100
AcDbEntity
  8
0
  6
Continuous
100
AcDbLine
 10
251.5
 20
3.8431396
 30
0.0
 11
251.5
 21
-4.0
 31
0.0
  0
LINE
  5
16FC
330
D1
100
AcDbEntity
  8
0
  6
Continuous
100
AcDbLine
 10
333.4900320000002
 20
2.110327699999999
 30
0.0
 11
337.7126239999999
 21
3.241767399999986
 31
0.0
  0
LINE
  5
16FF
330
D1
100
AcDbEntity
  8
0
  6
Continuous
100
AcDbLine
 10
333.4900170000001
 20
-2.110362500000007
 30
0.0
 11
337.7111359999999
 21
-3.241408299999988
 31
0.0
  0
LINE
  5
1703
330
D1
100
AcDbEntity
  8
0
  6
Continuous
100
AcDbLine
 10
259.5
 20
-30.32553100000001
 30
0.0
 11
259.5
 21
-34.428192
 31
0.0
  0
LINE
  5
1705
330
D1
100
AcDbEntity
  8
0
  6
Continuous
100
AcDbLine
 10
309.5
 20
-51.0
 30
0.0
 11
290.5
 21
-51.0
 31
0.0
  0
LINE
  5
1706
330
D1
100
AcDbEntity
  8
0
  6
Continuous
100
AcDbLine
 10
281.8457659999999
 20
69.5
 30
0.0
 11
282.7117899999998
 21
70.0
 31
0.0
  0
LINE
  5
1712
330
D1
100
AcDbEntity
  8
0
  6
Continuous
100
AcDbLine
 10
329.4223059999999
 20
69.5
 30
0.0
 11
330.2883320000002
 21
70.0
 31
0.0
  0
LINE
  5
1713
330
D1
100
AcDbEntity
  8
0
  6
Continuous
100
AcDbLine
 10
318.154356
 20
69.5
 30
0.0
 11
317.2883299999999
 21
70.0
 31
0.0
  0
LINE
  5
1714
330
D1
100
AcDbEntity
  8
0
  6
Continuous
100
AcDbLine
 10
317.2883299999999
 20
70.0
 30
0.0
 11
330.2883299999999
 21
70.0
 31
0.0
  0
LINE
  5
1715
330
D1
100
AcDbEntity
  8
0
  6
Continuous
100
AcDbLine
 10
317.2883299999999
 20
76.25
 30
0.0
 11
330.2883299999999
 21
76.25
 31
0.0
  0
LINE
  5
1716
330
D1
100
AcDbEntity
  8
0
  6
Continuous
100
AcDbLine
 10
330.2883299999999
 20
70.0
 30
0.0
 11
330.2883299999999
 21
77.5
 31
0.0
  0
LINE
  5
1717
330
D1
100
AcDbEntity
  8
0
  6
Continuous
100
AcDbLine
 10
317.2883299999999
 20
70.0
 30
0.0
 11
317.2883299999999
 21
77.5
 31
0.0
  0
LINE
  5
1718
330
D1
100
AcDbEntity
  8
0
  6
Continuous
100
AcDbLine
 10
318.154356
 20
69.5
 30
0.0
 11
329.4223040000002
 21
69.5
 31
0.0
  0
LINE
  5
1719
330
D1
100
AcDbEntity
  8
0
  6
Continuous
100
AcDbLine
 10
316.0883290000001
 20
77.5
 30
0.0
 11
331.488331
 21
77.5
 31
0.0
  0
LINE
  5
171A
330
D1
100
AcDbEntity
  8
0
  6
Continuous
100
AcDbLine
 10
268.5117909999999
 20
77.5
 30
0.0
 11
268.5117909999999
 21
79.5
 31
0.0
  0
LINE
  5
171D
330
D1
100
AcDbEntity
  8
0
  6
Continuous
100
AcDbLine
 10
331.488331
 20
77.5
 30
0.0
 11
331.488331
 21
79.5
 31
0.0
  0
LINE
  5
171E
330
D1
100
AcDbEntity
  8
0
  6
Continuous
100
AcDbLine
 10
316.0883290000001
 20
77.5
 30
0.0
 11
316.0883290000001
 21
79.5
 31
0.0
  0
LINE
  5
1721
330
D1
100
AcDbEntity
  8
0
  6
Continuous
100
AcDbLine
 10
267.5
 20
79.5
 30
0.0
 11
332.5
 21
79.5
 31
0.0
  0
LINE
  5
1722
330
D1
100
AcDbEntity
  8
0
  6
Continuous
100
AcDbLine
 10
314.75
 20
79.5
 30
0.0
 11
314.75
 21
49.5
 31
0.0
  0
LINE
  5
1723
330
D1
100
AcDbEntity
  8
0
  6
Continuous
100
AcDbLine
 10
285.25
 20
79.5
 30
0.0
 11
285.25
 21
49.5
 31
0.0
  0
LINE
  5
172A
330
D1
100
AcDbEntity
  8
0
  6
Continuous
100
AcDbLine
 10
284.5
 20
47.5
 30
0.0
 11
284.5
 21
45.49999999999999
 31
0.0
  0
LINE
  5
172B
330
D1
100
AcDbEntity
  8
0
  6
Continuous
100
AcDbLine
 10
315.5
 20
47.5
 30
0.0
 11
315.5
 21
45.49999999999999
 31
0.0
  0
ARC
  5
172C
330
D1
100
AcDbEntity
  8
0
  6
Continuous
100
AcDbCircle
 10
296.6500000999999
 20
191.52704
 30
0.0
 40
1.9
100
AcDbArc
 50
106.0728599999961
 51
180.0
  0
ARC
  5
172D
330
D1
100
AcDbEntity
  8
0
  6
Continuous
100
AcDbCircle
 10
303.3499999
 20
191.52704
 30
0.0
 40
1.9
100
AcDbArc
 50
0.0
 51
73.9271339999923
  0
ARC
  5
172E
330
D1
100
AcDbEntity
  8
0
  6
Continuous
100
AcDbCircle
 10
300.0
 20
179.90002
 30
0.0
 40
14.0
100
AcDbArc
 50
73.92713699999807
 51
106.0728599999961
  0
ARC
  5
172F
330
D1
100
AcDbEntity
  8
0
  6
Continuous
100
AcDbCircle
 10
238.6090349999999
 20
116.87085
 30
0.0
 40
2.7909629
100
AcDbArc
 50
317.7545300000044
 51
42.24547399998814
  0
ARC
  5
1730
330
D1
100
AcDbEntity
  8
0
  6
Continuous
100
AcDbCircle
 10
239.1909639999999
 20
116.87085
 30
0.0
 40
2.7909629
100
AcDbArc
 50
137.7545300000044
 51
222.2454699999957
  0
ARC
  5
1731
330
D1
100
AcDbEntity
  8
0
  6
Continuous
100
AcDbCircle
 10
239.1909639999999
 20
128.12918
 30
0.0
 40
2.7909629
100
AcDbArc
 50
137.7545300000044
 51
222.2454699999957
  0
ARC
  5
1732
330
D1
100
AcDbEntity
  8
0
  6
Continuous
100
AcDbCircle
 10
238.2176589999999
 20
149.66989
 30
0.0
 40
2.317657899999999
100
AcDbArc
 50
141.4810499999925
 51
218.5189500000075
  0
ARC
  5
1733
330
D1
100
AcDbEntity
  8
0
  6
Continuous
100
AcDbCircle
 10
244.414154
 20
154.00002
 30
0.0
 40
8.514156300000001
100
AcDbArc
 50
160.1808099999936
 51
199.8191900000063
  0
ARC
  5
1734
330
D1
100
AcDbEntity
  8
0
  6
Continuous
100
AcDbCircle
 10
238.2176589999999
 20
158.33014
 30
0.0
 40
2.317657899999999
100
AcDbArc
 50
141.4810499999925
 51
218.5189500000075
  0
ARC
  5
1735
330
D1
100
AcDbEntity
  8
0
  6
Continuous
100
AcDbCircle
 10
238.2176589999999
 20
86.669891
 30
0.0
 40
2.317657899999999
100
AcDbArc
 50
141.4810499999925
 51
218.5189500000075
  0
ARC
  5
1736
330
D1
100
AcDbEntity
  8
0
  6
Continuous
100
AcDbCircle
 10
244.414154
 20
91.00001500000002
 30
0.0
 40
8.514156300000001
100
AcDbArc
 50
160.1808099999936
 51
199.8191900000063
  0
ARC
  5
1737
330
D1
100
AcDbEntity
  8
0
  6
Continuous
100
AcDbCircle
 10
238.2176589999999
 20
95.33013900000003
 30
0.0
 40
2.317657899999999
100
AcDbArc
 50
141.4810499999925
 51
218.5189500000075
  0
ARC
  5
1738
330
D1
100
AcDbEntity
  8
0
  6
Continuous
100
AcDbCircle
 10
379.7824020000001
 20
95.33013900000003
 30
0.0
 40
2.317657899999999
100
AcDbArc
 50
321.4810499999925
 51
38.5189500000075
  0
ARC
  5
1739
330
D1
100
AcDbEntity
  8
0
  6
Continuous
100
AcDbCircle
 10
373.5859069999999
 20
91.00001500000002
 30
0.0
 40
8.514156300000001
100
AcDbArc
 50
340.1808200000067
 51
19.81917700000671
  0
ARC
  5
173A
330
D1
100
AcDbEntity
  8
0
  6
Continuous
100
AcDbCircle
 10
379.7824020000001
 20
86.669891
 30
0.0
 40
2.317657899999999
100
AcDbArc
 50
321.4810499999925
 51
38.5189500000075
  0
ARC
  5
173B
330
D1
100
AcDbEntity
  8
0
  6
Continuous
100
AcDbCircle
 10
379.7824020000001
 20
158.33014
 30
0.0
 40
2.317657899999999
100
AcDbArc
 50
321.4810499999925
 51
38.5189500000075
  0
ARC
  5
173C
330
D1
100
AcDbEntity
  8
0
  6
Continuous
100
AcDbCircle
 10
373.5859069999999
 20
154.00002
 30
0.0
 40
8.514156300000001
100
AcDbArc
 50
340.1808200000067
 51
19.81917700000671
  0
ARC
  5
173D
330
D1
100
AcDbEntity
  8
0
  6
Continuous
100
AcDbCircle
 10
379.7824020000001
 20
149.66989
 30
0.0
 40
2.317657899999999
100
AcDbArc
 50
321.4810499999925
 51
38.5189500000075
  0
ARC
  5
173E
330
D1
100
AcDbEntity
  8
0
  6
Continuous
100
AcDbCircle
 10
371.5235520000002
 20
122.50002
 30
0.0
 40
10.076511
100
AcDbArc
 50
338.1345499999965
 51
21.8654519999907
  0
ARC
  5
173F
330
D1
100
AcDbEntity
  8
0
  6
Continuous
100
AcDbCircle
 10
386.6765749999999
 20
122.50002
 30
0.0
 40
10.076511
100
AcDbArc
 50
158.1345499999965
 51
201.8654500000033
  0
ARC
  5
1740
330
D1
100
AcDbEntity
  8
0
  6
Continuous
100
AcDbCircle
 10
379.391022
 20
116.87085
 30
0.0
 40
2.7909629
100
AcDbArc
 50
137.7545300000044
 51
222.2454699999957
  0
ARC
  5
1741
330
D1
100
AcDbEntity
  8
0
  6
Continuous
100
AcDbCircle
 10
379.391022
 20
128.12918
 30
0.0
 40
2.7909629
100
AcDbArc
 50
137.7545300000044
 51
222.2454699999957
  0
ARC
  5
1742
330
D1
100
AcDbEntity
  8
0
  6
Continuous
100
AcDbCircle
 10
228.790962
 20
116.87085
 30
0.0
 40
2.790960799999998
100
AcDbArc
 50
137.7544199999938
 51
222.2455800000062
  0
ARC
  5
1743
330
D1
100
AcDbEntity
  8
0
  6
Continuous
100
AcDbCircle
 10
236.0765000000001
 20
122.50002
 30
0.0
 40
10.0765
100
AcDbArc
 50
158.1345300000035
 51
201.8654699999965
  0
ARC
  5
1744
330
D1
100
AcDbEntity
  8
0
  6
Continuous
100
AcDbCircle
 10
228.790962
 20
128.12918
 30
0.0
 40
2.790960799999998
100
AcDbArc
 50
137.7544199999938
 51
222.2455800000062
  0
ARC
  5
1745
330
D1
100
AcDbEntity
  8
0
  6
Continuous
100
AcDbCircle
 10
378.8090970000002
 20
128.12918
 30
0.0
 40
2.7909629
100
AcDbArc
 50
317.7545300000044
 51
42.24547399998814
  0
ARC
  5
1746
330
D1
100
AcDbEntity
  8
0
  6
Continuous
100
AcDbCircle
 10
378.8090970000002
 20
116.87085
 30
0.0
 40
2.7909629
100
AcDbArc
 50
317.7545300000044
 51
42.24547399998814
  0
ARC
  5
1747
330
D1
100
AcDbEntity
  8
0
  6
Continuous
100
AcDbCircle
 10
389.2090989999999
 20
128.12918
 30
0.0
 40
2.790960799999998
100
AcDbArc
 50
317.7544199999938
 51
42.24558000000611
  0
ARC
  5
1748
330
D1
100
AcDbEntity
  8
0
  6
Continuous
100
AcDbCircle
 10
381.9235610000002
 20
122.50002
 30
0.0
 40
10.0765
100
AcDbArc
 50
338.1345300000035
 51
21.8654689999936
  0
ARC
  5
1749
330
D1
100
AcDbEntity
  8
0
  6
Continuous
100
AcDbCircle
 10
389.2090989999999
 20
116.87085
 30
0.0
 40
2.790960799999998
100
AcDbArc
 50
317.7544199999938
 51
42.24558000000611
  0
ARC
  5
174A
330
D1
100
AcDbEntity
  8
0
  6
Continuous
100
AcDbCircle
 10
246.4765090000001
 20
122.50002
 30
0.0
 40
10.076511
100
AcDbArc
 50
158.1345499999965
 51
201.8654500000033
  0
ARC
  5
174B
330
D1
100
AcDbEntity
  8
0
  6
Continuous
100
AcDbCircle
 10
231.3234860000002
 20
122.50002
 30
0.0
 40
10.076511
100
AcDbArc
 50
338.1345499999965
 51
21.8654519999907
  0
ARC
  5
174C
330
D1
100
AcDbEntity
  8
0
  6
Continuous
100
AcDbCircle
 10
238.6090349999999
 20
128.12918
 30
0.0
 40
2.7909629
100
AcDbArc
 50
317.7545300000044
 51
42.24547399998814
  0
CIRCLE
  5
1751
330
D1
100
AcDbEntity
  8
0
  6
Continuous
100
AcDbCircle
 10
255.5
 20
9.5
 30
0.0
 40
3.5
  0
ARC
  5
1755
330
D1
100
AcDbEntity
  8
0
  6
Continuous
100
AcDbCircle
 10
318.5
 20
50.43666100000002
 30
0.0
 40
9.0
100
AcDbArc
 50
305.0000000000125
 51
0.0
  0
ARC
  5
1756
330
D1
100
AcDbEntity
  8
0
  6
Continuous
100
AcDbCircle
 10
323.0
 20
38.93829699999998
 30
0.0
 40
3.0
100
AcDbArc
 50
125.0000200000049
 51
180.0
  0
ARC
  5
175B
330
D1
100
AcDbEntity
  8
0
  6
Continuous
100
AcDbCircle
 10
281.5
 20
50.43666100000002
 30
0.0
 40
9.0
100
AcDbArc
 50
180.0
 51
201.0774000000056
  0
CIRCLE
  5
175D
330
D1
100
AcDbEntity
  8
0
  6
Continuous
100
AcDbCircle
 10
340.0
 20
8.5
 30
0.0
 40
2.5
  0
ARC
  5
175E
330
D1
100
AcDbEntity
  8
0
  6
Continuous
100
AcDbCircle
 10
328.252661
 20
0.0
 30
0.0
 40
10.0
100
AcDbArc
 50
324.1117000000111
 51
35.88829599998911
  0
ARC
  5
175F
330
D1
100
AcDbEntity
  8
0
  6
Continuous
100
AcDbCircle
 10
340.0
 20
8.5
 30
0.0
 40
4.5
100
AcDbArc
 50
35.8883030000098
 51
215.8883100000046
  0
ARC
  5
1760
330
D1
100
AcDbEntity
  8
0
  6
Continuous
100
AcDbCircle
 10
340.0
 20
-8.5
 30
0.0
 40
4.5
100
AcDbArc
 50
144.1117000000112
 51
324.1117000000111
  0
ARC
  5
1761
330
D1
100
AcDbEntity
  8
0
  6
Continuous
100
AcDbCircle
 10
328.252661
 20
0.0
 30
0.0
 40
19.0
100
AcDbArc
 50
324.1117100000022
 51
35.88829399999961
  0
CIRCLE
  5
1762
330
D1
100
AcDbEntity
  8
0
  6
Continuous
100
AcDbCircle
 10
340.0
 20
-8.5
 30
0.0
 40
2.5
  0
ARC
  5
1769
330
D1
100
AcDbEntity
  8
0
  6
Continuous
100
AcDbCircle
 10
332.4547419999999
 20
-5.974060100000002
 30
0.0
 40
4.0
100
AcDbArc
 50
75.00002300001182
 51
169.57009
  0
ARC
  5
176A
330
D1
100
AcDbEntity
  8
0
  6
Continuous
100
AcDbCircle
 10
332.4547419999999
 20
5.974029499999999
 30
0.0
 40
4.0
100
AcDbArc
 50
190.42983
 51
284.9999800000076
  0
ARC
  5
176B
330
D1
100
AcDbEntity
  8
0
  6
Continuous
100
AcDbCircle
 10
268.775024
 20
7.0
 30
0.0
 40
3.0
100
AcDbArc
 50
270.0
 51
347.3643800000021
  0
ARC
  5
176C
330
D1
100
AcDbEntity
  8
0
  6
Continuous
100
AcDbCircle
 10
300.0
 20
0.0
 30
0.0
 40
29.0
100
AcDbArc
 50
10.42983100000014
 51
167.3643699999973
  0
ARC
  5
176D
330
D1
100
AcDbEntity
  8
0
  6
Continuous
100
AcDbCircle
 10
268.775024
 20
-7.0
 30
0.0
 40
3.0
100
AcDbArc
 50
12.63562299999807
 51
90.0
  0
ARC
  5
176E
330
D1
100
AcDbEntity
  8
0
  6
Continuous
100
AcDbCircle
 10
341.3477170000001
 20
-17.758575
 30
0.0
 40
5.0
100
AcDbArc
 50
107.9032000000013
 51
156.7567600000073
  0
ARC
  5
176F
330
D1
100
AcDbEntity
  8
0
  6
Continuous
100
AcDbCircle
 10
300.0
 20
0.0
 30
0.0
 40
40.0
100
AcDbArc
 50
204.7465199999929
 51
336.7567600000072
  0
ARC
  5
1770
330
D1
100
AcDbEntity
  8
0
  6
Continuous
100
AcDbCircle
 10
341.3477170000001
 20
17.75860599999998
 30
0.0
 40
5.0
100
AcDbArc
 50
203.2432399999928
 51
252.25314999999
  0
ARC
  5
1771
330
D1
100
AcDbEntity
  8
0
  6
Continuous
100
AcDbCircle
 10
260.9487610000001
 20
18.0
 30
0.0
 40
3.0
100
AcDbArc
 50
270.0
 51
335.2534900000021
  0
ARC
  5
1772
330
D1
100
AcDbEntity
  8
0
  6
Continuous
100
AcDbCircle
 10
260.9487610000001
 20
-18.0
 30
0.0
 40
3.0
100
AcDbArc
 50
24.74651299999083
 51
90.0
  0
ARC
  5
1773
330
D1
100
AcDbEntity
  8
0
  6
Continuous
100
AcDbCircle
 10
300.0
 20
0.0
 30
0.0
 40
40.0
100
AcDbArc
 50
23.24323700000359
 51
155.253480000007
  0
ARC
  5
1774
330
D1
100
AcDbEntity
  8
0
  6
Continuous
100
AcDbCircle
 10
300.0
 20
0.0
 30
0.0
 40
29.0
100
AcDbArc
 50
192.6356300000026
 51
349.570100000003
  0
ARC
  5
1775
330
D1
100
AcDbEntity
  8
0
  6
Continuous
100
AcDbCircle
 10
249.5
 20
-14.0
 30
0.0
 40
1.0
100
AcDbArc
 50
180.0
 51
270.0
  0
ARC
  5
1776
330
D1
100
AcDbEntity
  8
0
  6
Continuous
100
AcDbCircle
 10
249.5
 20
-5.0
 30
0.0
 40
1.0
100
AcDbArc
 50
90.0
 51
180.0
  0
ARC
  5
1777
330
D1
100
AcDbEntity
  8
0
  6
Continuous
100
AcDbCircle
 10
249.5
 20
5.0
 30
0.0
 40
1.0
100
AcDbArc
 50
180.0
 51
270.0
  0
ARC
  5
1778
330
D1
100
AcDbEntity
  8
0
  6
Continuous
100
AcDbCircle
 10
249.5
 20
14.0
 30
0.0
 40
1.0
100
AcDbArc
 50
90.0
 51
180.0
  0
ARC
  5
177B
330
D1
100
AcDbEntity
  8
0
  6
Continuous
100
AcDbCircle
 10
273.25
 20
-22.887665
 30
0.0
 40
10.0
100
AcDbArc
 50
179.9999900000006
 51
215.24751000001
  0
ARC
  5
177C
330
D1
100
AcDbEntity
  8
0
  6
Continuous
100
AcDbCircle
 10
236.5
 20
-48.85759000000001
 30
0.0
 40
35.0
100
AcDbArc
 50
0.0000062447440118
 51
35.24750099999101
  0
ARC
  5
177D
330
D1
100
AcDbEntity
  8
0
  6
Continuous
100
AcDbCircle
 10
237.75
 20
-22.887665
 30
0.0
 40
10.0
100
AcDbArc
 50
324.7524999999972
 51
0.0000109283036491
  0
ARC
  5
177E
330
D1
100
AcDbEntity
  8
0
  6
Continuous
100
AcDbCircle
 10
274.5
 20
-48.85759000000001
 30
0.0
 40
35.0
100
AcDbArc
 50
144.7524999999972
 51
179.9999900000006
  0
ARC
  5
177F
330
D1
100
AcDbEntity
  8
0
  6
Continuous
100
AcDbCircle
 10
255.5
 20
-18.77894599999999
 30
0.0
 40
7.75
100
AcDbArc
 50
0.0000141010352856
 51
25.65278699999514
  0
ARC
  5
1780
330
D1
100
AcDbEntity
  8
0
  6
Continuous
100
AcDbCircle
 10
255.5
 20
-18.77894599999999
 30
0.0
 40
7.75
100
AcDbArc
 50
148.8758700000084
 51
179.9999900000006
  0
ARC
  5
1781
330
D1
100
AcDbEntity
  8
0
  6
Continuous
100
AcDbCircle
 10
241.5
 20
-50.85759000000002
 30
0.0
 40
2.0
100
AcDbArc
 50
180.0
 51
270.0
  0
ARC
  5
1782
330
D1
100
AcDbEntity
  8
0
  6
Continuous
100
AcDbCircle
 10
255.5
 20
-27.5
 30
0.0
 40
8.0
100
AcDbArc
 50
240.0000000000001
 51
299.9999999999999
  0
ARC
  5
1783
330
D1
100
AcDbEntity
  8
0
  6
Continuous
100
AcDbCircle
 10
300.0
 20
0.0
 30
0.0
 40
32.0
100
AcDbArc
 50
356.4028299999987
 51
3.597100499999813
  0
ARC
  5
1785
330
D1
100
AcDbEntity
  8
0
  6
Continuous
100
AcDbCircle
 10
255.5
 20
9.5
 30
0.0
 40
6.0
100
AcDbArc
 50
66.44354299999488
 51
113.5564599999896
  0
ARC
  5
1787
330
D1
100
AcDbEntity
  8
0
  6
Continuous
100
AcDbCircle
 10
255.5
 20
-43.85759000000001
 30
0.0
 40
5.0
100
AcDbArc
 50
180.0
 51
359.9893826806964
  0
ARC
  5
1788
330
D1
100
AcDbEntity
  8
0
  6
Continuous
100
AcDbCircle
 10
258.5
 20
-32.05758700000001
 30
0.0
 40
2.0
100
AcDbArc
 50
0.0
 51
90.0
  0
ARC
  5
1789
330
D1
100
AcDbEntity
  8
0
  6
Continuous
100
AcDbCircle
 10
252.5
 20
-32.05758700000001
 30
0.0
 40
2.0
100
AcDbArc
 50
90.0
 51
180.0
  0
ARC
  5
178B
330
D1
100
AcDbEntity
  8
0
  6
Continuous
100
AcDbCircle
 10
300.0
 20
0.0
 30
0.0
 40
32.0
100
AcDbArc
 50
172.8192499999996
 51
187.1807599999992
  0
ARC
  5
178C
330
D1
100
AcDbEntity
  8
0
  6
Continuous
100
AcDbCircle
 10
269.5
 20
-50.85759000000002
 30
0.0
 40
2.0
100
AcDbArc
 50
270.0
 51
0.0
  0
ARC
  5
178D
330
D1
100
AcDbEntity
  8
0
  6
Continuous
100
AcDbCircle
 10
309.5
 20
-43.0
 30
0.0
 40
8.0
100
AcDbArc
 50
270.0
 51
324.3409200000089
  0
ARC
  5
178E
330
D1
100
AcDbEntity
  8
0
  6
Continuous
100
AcDbCircle
 10
290.5
 20
-43.0
 30
0.0
 40
8.0
100
AcDbArc
 50
215.6590799999912
 51
270.000010000001
  0
CIRCLE
  5
178F
330
D1
100
AcDbEntity
  8
0
  6
Continuous
100
AcDbCircle
 10
300.0
 20
0.0
 30
0.0
 40
11.5
  0
CIRCLE
  5
1790
330
D1
100
AcDbEntity
  8
0
  6
Continuous
100
AcDbCircle
 10
300.0
 20
0.0
 30
0.0
 40
25.25
  0
ELLIPSE
  5
1798
330
D1
100
AcDbEntity
  8
0
  6
Continuous
100
AcDbEllipse
 10
318.225258
 20
45.90000199999997
 30
0.0
 11
-0.48302973
 21
0.0
 31
0.0
210
0.0
220
0.0
230
0.9999999999999998
 40
0.82810641
 41
1.5707963
 42
3.141597399999998
  0
SPLINE
  5
179A
330
D1
100
AcDbEntity
  8
0
  6
Continuous
100
AcDbSpline
210
0.0
220
0.0
230
1.0
 70
  1064
 71
     3
 72
    13
 73
     9
 74
     7
 42
0.000000001
 43
0.0000000001
 44
0.00001
 12
0.3961836001156706
 22
-0.918171310268071
 32
0.0
 13
0.8422435502752508
 23
-0.5390972101761805
 33
0.0
 40
0.0
 40
0.0
 40
0.0
 40
0.0
 40
0.9157023021862615
 40
1.831686516977188
 40
2.747947968598515
 40
3.664038834101566
 40
4.580436292155476
 40
5.49399236627239
 40
5.49399236627239
 40
5.49399236627239
 40
5.49399236627239
 10
274.8356439999998
 20
47.20000099999999
 30
0.0
 10
274.9565727449046
 20
46.91974380579537
 30
0.0
 10
275.2248576361771
 20
46.3701054593163
 30
0.0
 10
275.7031670113851
 20
45.58737057053681
 30
0.0
 10
276.2555130202979
 20
44.85456147482325
 30
0.0
 10
276.8808748128314
 20
44.18251146688139
 30
0.0
 10
277.5734231716991
 20
43.58157739212871
 30
0.0
 10
278.0721300962536
 20
43.22845817696533
 30
0.0
 10
278.3286090000002
 20
43.06429300000002
 30
0.0
 11
274.8356439999998
 21
47.20000099999999
 31
0.0
 11
275.237439
 21
46.377156
 31
0.0
 11
275.7154350000001
 21
45.59578099999998
 31
0.0
 11
276.2676959999999
 21
44.86465599999997
 31
0.0
 11
276.8921049999999
 21
44.19432999999997
 31
0.0
 11
277.5834599999998
 21
43.592821
 31
0.0
 11
278.3286090000002
 21
43.06429300000002
 31
0.0
  0
ELLIPSE
  5
179B
330
D1
100
AcDbEntity
  8
0
  6
Continuous
100
AcDbEllipse
 10
281.7747420000001
 20
45.90000199999997
 30
0.0
 11
0.48302973
 21
0.0
 31
0.0
210
0.0
220
0.0
230
0.9999999999999998
 40
0.82810641
 41
3.1415879
 42
4.712388999999999
  0
ELLIPSE
  5
179D
330
D1
100
AcDbEntity
  8
0
  6
Continuous
100
AcDbEllipse
 10
292.0
 20
-43.0
 30
0.0
 11
6.1390149
 21
0.0
 31
0.0
210
0.0
220
0.0
230
1.0
 40
0.7596803100000002
 41
3.1415927
 42
6.283185299999998
  0
ELLIPSE
  5
179E
330
D1
100
AcDbEntity
  8
0
  6
Continuous
100
AcDbEllipse
 10
308.0
 20
-43.0
 30
0.0
 11
-6.1390149
 21
0.0
 31
0.0
210
0.0
220
0.0
230
1.0
 40
0.7596803100000002
 41
0.0
 42
3.1415927
  0
LINE
  5
17A2
330
D1
100
AcDbEntity
  8
0
  6
Continuous
100
AcDbLine
 10
18.00004799999988
 20
130.00557
 30
0.0
 11
24.50004799999988
 21
126.25278
 31
0.0
  0
LINE
  5
17A3
330
D1
100
AcDbEntity
  8
0
  6
Continuous
100
AcDbLine
 10
40.0
 20
188.5000199999999
 30
0.0
 11
40.0
 21
163.5000199999999
 31
0.0
  0
LINE
  5
17A4
330
D1
100
AcDbEntity
  8
0
  6
Continuous
100
AcDbLine
 10
-40.0
 20
163.5000199999999
 30
0.0
 11
40.0
 21
163.5000199999999
 31
0.0
  0
LINE
  5
17A5
330
D1
100
AcDbEntity
  8
0
  6
Continuous
100
AcDbLine
 10
-6.099999900000057
 20
190.0000199999999
 30
0.0
 11
6.099999900000057
 21
190.0000199999999
 31
0.0
  0
LINE
  5
17A6
330
D1
100
AcDbEntity
  8
0
  6
Continuous
100
AcDbLine
 10
5.25
 20
191.5270399999999
 30
0.0
 11
5.25
 21
190.0000199999999
 31
0.0
  0
LINE
  5
17AB
330
D1
100
AcDbEntity
  8
0
  6
Continuous
100
AcDbLine
 10
21.84998099999984
 20
40.0
 30
0.0
 11
38.84998300000006
 21
40.0
 31
0.0
  0
LINE
  5
17AD
330
D1
100
AcDbEntity
  8
0
  6
Continuous
100
AcDbLine
 10
-17.40076799999997
 20
-37.0
 30
0.0
 11
-17.40076799999997
 21
-43.0
 31
0.0
  0
LINE
  5
17AE
330
D1
100
AcDbEntity
  8
0
  6
Continuous
100
AcDbLine
 10
-10.31204500000012
 20
-37.0
 30
0.0
 11
-10.31204500000012
 21
-43.0
 31
0.0
  0
LINE
  5
17AF
330
D1
100
AcDbEntity
  8
0
  6
Continuous
100
AcDbLine
 10
-7.088723700000173
 20
-37.0
 30
0.0
 11
-7.088723700000173
 21
-43.0
 31
0.0
  0
LINE
  5
17B0
330
D1
100
AcDbEntity
  8
0
  6
Continuous
100
AcDbLine
 10
7.088723700000173
 20
-37.0
 30
0.0
 11
7.088723700000173
 21
-43.0
 31
0.0
  0
LINE
  5
17B1
330
D1
100
AcDbEntity
  8
0
  6
Continuous
100
AcDbLine
 10
10.31204500000012
 20
-37.0
 30
0.0
 11
10.31204500000012
 21
-43.0
 31
0.0
  0
LINE
  5
17B2
330
D1
100
AcDbEntity
  8
0
  6
Continuous
100
AcDbLine
 10
17.40076799999997
 20
-37.0
 30
0.0
 11
17.40076799999997
 21
-43.0
 31
0.0
  0
LINE
  5
17BA
330
D1
100
AcDbEntity
  8
0
  6
Continuous
100
AcDbLine
 10
21.84998099999984
 20
-40.0
 30
0.0
 11
21.84998099999984
 21
-15.0
 31
0.0
  0
LINE
  5
17BB
330
D1
100
AcDbEntity
  8
0
  6
Continuous
100
AcDbLine
 10
38.84998300000006
 20
-40.0
 30
0.0
 11
38.84998300000006
 21
-15.0
 31
0.0
  0
LINE
  5
17BC
330
D1
100
AcDbEntity
  8
0
  6
Continuous
100
AcDbLine
 10
33.19997400000011
 20
-40.0
 30
0.0
 11
38.84998300000006
 21
-40.0
 31
0.0
  0
LINE
  5
17BD
330
D1
100
AcDbEntity
  8
0
  6
Continuous
100
AcDbLine
 10
21.84998099999984
 20
-40.0
 30
0.0
 11
27.49997500000018
 21
-40.0
 31
0.0
  0
LINE
  5
17BE
330
D1
100
AcDbEntity
  8
0
  6
Continuous
100
AcDbLine
 10
14.75
 20
79.09687364248455
 30
0.0
 11
14.75
 21
49.5
 31
0.0
  0
LINE
  5
17BF
330
D1
100
AcDbEntity
  8
0
  6
Continuous
100
AcDbLine
 10
-14.75
 20
79.09687364248455
 30
0.0
 11
-14.75
 21
49.5
 31
0.0
  0
LINE
  5
17C0
330
D1
100
AcDbEntity
  8
0
  6
Continuous
100
AcDbLine
 10
-16.08820699999977
 20
77.5
 30
0.0
 11
-16.08820699999977
 21
79.5
 31
0.0
  0
LINE
  5
17C1
330
D1
100
AcDbEntity
  8
0
  6
Continuous
100
AcDbLine
 10
17.28832999999986
 20
70.0
 30
0.0
 11
17.28832999999986
 21
77.5
 31
0.0
  0
LINE
  5
17C3
330
D1
100
AcDbEntity
  8
0
  6
Continuous
100
AcDbLine
 10
32.5
 20
83.49999999999999
 30
0.0
 11
32.5
 21
79.5
 31
0.0
  0
LINE
  5
17C5
330
D1
100
AcDbEntity
  8
0
  6
Continuous
100
AcDbLine
 10
-32.5
 20
83.49999999999999
 30
0.0
 11
-32.5
 21
79.5
 31
0.0
  0
LINE
  5
17C6
330
D1
100
AcDbEntity
  8
0
  6
Continuous
100
AcDbLine
 10
20.0
 20
44.5
 30
0.0
 11
20.0
 21
34.5
 31
0.0
  0
LINE
  5
17C7
330
D1
100
AcDbEntity
  8
0
  6
Continuous
100
AcDbLine
 10
16.08832900000016
 20
77.5
 30
0.0
 11
16.08832900000016
 21
79.5
 31
0.0
  0
LINE
  5
17C9
330
D1
100
AcDbEntity
  8
0
  6
Continuous
100
AcDbLine
 10
-20.0
 20
44.5
 30
0.0
 11
-20.0
 21
34.5
 31
0.0
  0
LINE
  5
17CB
330
D1
100
AcDbEntity
  8
0
  6
Continuous
100
AcDbLine
 10
12.5
 20
75.5
 30
0.0
 11
12.5
 21
40.49999999999999
 31
0.0
  0
LINE
  5
17CC
330
D1
100
AcDbEntity
  8
0
  6
Continuous
100
AcDbLine
 10
-41.0
 20
45.49999999999999
 30
0.0
 11
-12.5
 21
45.49999999999999
 31
0.0
  0
LINE
  5
17CD
330
D1
100
AcDbEntity
  8
0
  6
Continuous
100
AcDbLine
 10
-32.5
 20
79.5
 30
0.0
 11
32.5
 21
79.5
 31
0.0
  0
LINE
  5
17CF
330
D1
100
AcDbEntity
  8
0
  6
Continuous
100
AcDbLine
 10
19.0
 20
45.49999999999999
 30
0.0
 11
20.0
 21
44.5
 31
0.0
  0
LINE
  5
17D0
330
D1
100
AcDbEntity
  8
0
  6
Continuous
100
AcDbLine
 10
12.5
 20
45.49999999999999
 30
0.0
 11
19.0
 21
45.49999999999999
 31
0.0
  0
LINE
  5
17D1
330
D1
100
AcDbEntity
  8
0
  6
Continuous
100
AcDbLine
 10
-19.0
 20
45.49999999999999
 30
0.0
 11
-20.0
 21
44.5
 31
0.0
  0
LINE
  5
17D2
330
D1
100
AcDbEntity
  8
0
  6
Continuous
100
AcDbLine
 10
3.345299499999781
 20
44.20000100000003
 30
0.0
 11
5.654700300000056
 21
44.20000100000003
 31
0.0
  0
LINE
  5
17D4
330
D1
100
AcDbEntity
  8
0
  6
Continuous
100
AcDbLine
 10
5.654701699999803
 20
44.19999699999993
 30
0.0
 11
6.809400999999978
 21
42.20000100000003
 31
0.0
  0
LINE
  5
17D5
330
D1
100
AcDbEntity
  8
0
  6
Continuous
100
AcDbLine
 10
3.345297599999866
 20
44.19999699999993
 30
0.0
 11
2.190598199999839
 21
42.20000100000003
 31
0.0
  0
LINE
  5
17D6
330
D1
100
AcDbEntity
  8
0
  6
Continuous
100
AcDbLine
 10
9.5
 20
42.20000100000003
 30
0.0
 11
9.5
 21
40.49999999999999
 31
0.0
  0
LINE
  5
17D7
330
D1
100
AcDbEntity
  8
0
  6
Continuous
100
AcDbLine
 10
-0.5
 20
42.20000100000003
 30
0.0
 11
-0.5
 21
40.49999999999999
 31
0.0
  0
LINE
  5
17D8
330
D1
100
AcDbEntity
  8
0
  6
Continuous
100
AcDbLine
 10
2.190599900000052
 20
42.19999699999994
 30
0.0
 11
3.345299200000225
 21
40.20000100000003
 31
0.0
  0
LINE
  5
17D9
330
D1
100
AcDbEntity
  8
0
  6
Continuous
100
AcDbLine
 10
6.809400099999947
 20
42.19999699999994
 30
0.0
 11
5.654700799999772
 21
40.20000100000003
 31
0.0
  0
LINE
  5
17DA
330
D1
100
AcDbEntity
  8
0
  6
Continuous
100
AcDbLine
 10
5.654700300000056
 20
40.20000100000003
 30
0.0
 11
3.345299499999781
 21
40.20000100000003
 31
0.0
  0
LINE
  5
17E1
330
D1
100
AcDbEntity
  8
0
  6
Continuous
100
AcDbLine
 10
19.00000200000022
 20
33.5
 30
0.0
 11
20.0
 21
34.5
 31
0.0
  0
LINE
  5
17E2
330
D1
100
AcDbEntity
  8
0
  6
Continuous
100
AcDbLine
 10
30.28832999999986
 20
70.0
 30
0.0
 11
30.28832999999986
 21
77.5
 31
0.0
  0
LINE
  5
17E3
330
D1
100
AcDbEntity
  8
0
  6
Continuous
100
AcDbLine
 10
18.154356
 20
69.5
 30
0.0
 11
29.42230400000017
 21
69.5
 31
0.0
  0
LINE
  5
17E6
330
D1
100
AcDbEntity
  8
0
  6
Continuous
100
AcDbLine
 10
31.48833100000002
 20
77.5
 30
0.0
 11
31.48833100000002
 21
79.5
 31
0.0
  0
LINE
  5
17E8
330
D1
100
AcDbEntity
  8
0
  6
Continuous
100
AcDbLine
 10
12.5
 20
49.5
 30
0.0
 11
15.0
 21
49.5
 31
0.0
  0
LINE
  5
17E9
330
D1
100
AcDbEntity
  8
0
  6
Continuous
100
AcDbLine
 10
15.0
 20
49.5
 30
0.0
 11
15.0
 21
47.5
 31
0.0
  0
LINE
  5
17EA
330
D1
100
AcDbEntity
  8
0
  6
Continuous
100
AcDbLine
 10
-12.5
 20
47.5
 30
0.0
 11
-41.0
 21
47.5
 31
0.0
  0
LINE
  5
17EB
330
D1
100
AcDbEntity
  8
0
  6
Continuous
100
AcDbLine
 10
-15.0
 20
49.5
 30
0.0
 11
-12.5
 21
49.5
 31
0.0
  0
LINE
  5
17EC
330
D1
100
AcDbEntity
  8
0
  6
Continuous
100
AcDbLine
 10
17.5
 20
47.5
 30
0.0
 11
12.5
 21
47.5
 31
0.0
  0
LINE
  5
17ED
330
D1
100
AcDbEntity
  8
0
  6
Continuous
100
AcDbLine
 10
-15.0
 20
49.5
 30
0.0
 11
-15.0
 21
47.5
 31
0.0
  0
LINE
  5
17F1
330
D1
100
AcDbEntity
  8
0
  6
Continuous
100
AcDbLine
 10
38.84998300000006
 20
40.0
 30
0.0
 11
38.84998300000006
 21
15.0
 31
0.0
  0
LINE
  5
17F2
330
D1
100
AcDbEntity
  8
0
  6
Continuous
100
AcDbLine
 10
21.84998099999984
 20
40.0
 30
0.0
 11
21.84998099999984
 21
15.0
 31
0.0
  0
LINE
  5
17F3
330
D1
100
AcDbEntity
  8
0
  6
Continuous
100
AcDbLine
 10
26.09998099999984
 20
-12.85758999999996
 30
0.0
 11
34.59998300000008
 21
-12.85758999999996
 31
0.0
  0
LINE
  5
17F7
330
D1
100
AcDbEntity
  8
0
  6
Continuous
100
AcDbLine
 10
34.59998300000008
 20
-15.0
 30
0.0
 11
34.59998300000008
 21
-4.0
 31
0.0
  0
LINE
  5
17F8
330
D1
100
AcDbEntity
  8
0
  6
Continuous
100
AcDbLine
 10
26.09998099999984
 20
-15.0
 30
0.0
 11
26.09998099999984
 21
-4.0
 31
0.0
  0
LINE
  5
17F9
330
D1
100
AcDbEntity
  8
0
  6
Continuous
100
AcDbLine
 10
22.84998099999985
 20
-28.99998500000004
 30
0.0
 11
22.83591299999989
 21
-28.99998500000004
 31
0.0
  0
LINE
  5
17FA
330
D1
100
AcDbEntity
  8
0
  6
Continuous
100
AcDbLine
 10
37.86403699999983
 20
-28.99998500000004
 30
0.0
 11
37.84998300000007
 21
-28.99998500000004
 31
0.0
  0
LINE
  5
17FE
330
D1
100
AcDbEntity
  8
0
  6
Continuous
100
AcDbLine
 10
34.34998300000007
 20
-30.247208
 30
0.0
 11
34.34998300000007
 21
-34.42819199999997
 31
0.0
  0
LINE
  5
1801
330
D1
100
AcDbEntity
  8
0
  6
Continuous
100
AcDbLine
 10
26.34998099999985
 20
-30.247208
 30
0.0
 11
26.34998099999985
 21
-34.42819199999997
 31
0.0
  0
LINE
  5
1802
330
D1
100
AcDbEntity
  8
0
  6
Continuous
100
AcDbLine
 10
28.49997500000018
 20
-52.85758999999996
 30
0.0
 11
32.19997400000011
 21
-52.85758999999996
 31
0.0
  0
LINE
  5
1803
330
D1
100
AcDbEntity
  8
0
  6
Continuous
100
AcDbLine
 10
33.19997400000011
 20
-32.05758700000001
 30
0.0
 11
33.19997400000011
 21
-51.85758999999996
 31
0.0
  0
LINE
  5
1806
330
D1
100
AcDbEntity
  8
0
  6
Continuous
100
AcDbLine
 10
26.34998099999985
 20
14.42819999999995
 30
0.0
 11
26.34998099999985
 21
-12.85758999999996
 31
0.0
  0
LINE
  5
1809
330
D1
100
AcDbEntity
  8
0
  6
Continuous
100
AcDbLine
 10
34.34998300000007
 20
14.42819999999995
 30
0.0
 11
34.34998300000007
 21
-12.85758999999996
 31
0.0
  0
LINE
  5
180C
330
D1
100
AcDbEntity
  8
0
  6
Continuous
100
AcDbLine
 10
20.84998099999984
 20
15.0
 30
0.0
 11
26.09998099999984
 21
15.0
 31
0.0
  0
LINE
  5
180D
330
D1
100
AcDbEntity
  8
0
  6
Continuous
100
AcDbLine
 10
20.84998099999984
 20
4.0
 30
0.0
 11
26.09998099999984
 21
4.0
 31
0.0
  0
LINE
  5
180E
330
D1
100
AcDbEntity
  8
0
  6
Continuous
100
AcDbLine
 10
20.84998099999984
 20
-4.0
 30
0.0
 11
26.09998099999984
 21
-4.0
 31
0.0
  0
LINE
  5
180F
330
D1
100
AcDbEntity
  8
0
  6
Continuous
100
AcDbLine
 10
20.84998099999984
 20
-15.0
 30
0.0
 11
26.09998099999984
 21
-15.0
 31
0.0
  0
LINE
  5
1811
330
D1
100
AcDbEntity
  8
0
  6
Continuous
100
AcDbLine
 10
26.09998099999984
 20
15.0
 30
0.0
 11
26.09998099999984
 21
4.0
 31
0.0
  0
LINE
  5
1812
330
D1
100
AcDbEntity
  8
0
  6
Continuous
100
AcDbLine
 10
20.84998099999984
 20
15.0
 30
0.0
 11
20.84998099999984
 21
4.0
 31
0.0
  0
LINE
  5
1813
330
D1
100
AcDbEntity
  8
0
  6
Continuous
100
AcDbLine
 10
39.84998300000007
 20
15.0
 30
0.0
 11
39.84998300000007
 21
4.0
 31
0.0
  0
LINE
  5
1814
330
D1
100
AcDbEntity
  8
0
  6
Continuous
100
AcDbLine
 10
20.84998099999984
 20
-4.0
 30
0.0
 11
20.84998099999984
 21
-15.0
 31
0.0
  0
LINE
  5
1815
330
D1
100
AcDbEntity
  8
0
  6
Continuous
100
AcDbLine
 10
34.59998300000008
 20
4.0
 30
0.0
 11
39.84998300000007
 21
4.0
 31
0.0
  0
LINE
  5
1816
330
D1
100
AcDbEntity
  8
0
  6
Continuous
100
AcDbLine
 10
34.59998300000008
 20
15.0
 30
0.0
 11
34.59998300000008
 21
4.0
 31
0.0
  0
LINE
  5
1817
330
D1
100
AcDbEntity
  8
0
  6
Continuous
100
AcDbLine
 10
34.59998300000008
 20
15.0
 30
0.0
 11
39.84998300000007
 21
15.0
 31
0.0
  0
LINE
  5
1818
330
D1
100
AcDbEntity
  8
0
  6
Continuous
100
AcDbLine
 10
39.84998300000007
 20
-15.0
 30
0.0
 11
34.59998300000008
 21
-15.0
 31
0.0
  0
LINE
  5
1819
330
D1
100
AcDbEntity
  8
0
  6
Continuous
100
AcDbLine
 10
39.84998300000007
 20
-4.0
 30
0.0
 11
39.84998300000007
 21
-15.0
 31
0.0
  0
LINE
  5
181A
330
D1
100
AcDbEntity
  8
0
  6
Continuous
100
AcDbLine
 10
24.59998099999984
 20
-30.05758700000001
 30
0.0
 11
36.09998300000007
 21
-30.05758700000001
 31
0.0
  0
LINE
  5
181B
330
D1
100
AcDbEntity
  8
0
  6
Continuous
100
AcDbLine
 10
22.59998099999984
 20
-18.77894600000002
 30
0.0
 11
22.59998099999984
 21
-28.05758700000001
 31
0.0
  0
LINE
  5
181C
330
D1
100
AcDbEntity
  8
0
  6
Continuous
100
AcDbLine
 10
38.09998300000007
 20
-18.77894600000002
 30
0.0
 11
38.09998300000007
 21
-28.05758700000001
 31
0.0
  0
LINE
  5
181D
330
D1
100
AcDbEntity
  8
0
  6
Continuous
100
AcDbLine
 10
39.84998300000007
 20
-4.0
 30
0.0
 11
34.59998300000008
 21
-4.0
 31
0.0
  0
LINE
  5
1820
330
D1
100
AcDbEntity
  8
0
  6
Continuous
100
AcDbLine
 10
27.49997500000018
 20
-32.05758700000001
 30
0.0
 11
27.49997500000018
 21
-51.85758999999996
 31
0.0
  0
LINE
  5
1822
330
D1
100
AcDbEntity
  8
0
  6
Continuous
100
AcDbLine
 10
14.5
 20
-34.0
 30
0.0
 11
-14.5
 21
-34.0
 31
0.0
  0
LINE
  5
1823
330
D1
100
AcDbEntity
  8
0
  6
Continuous
100
AcDbLine
 10
17.5
 20
-43.0
 30
0.0
 11
17.5
 21
-37.0
 31
0.0
  0
LINE
  5
1824
330
D1
100
AcDbEntity
  8
0
  6
Continuous
100
AcDbLine
 10
-17.5
 20
-43.0
 30
0.0
 11
-17.5
 21
-37.0
 31
0.0
  0
LINE
  5
1825
330
D1
100
AcDbEntity
  8
0
  6
Continuous
100
AcDbLine
 10
9.5
 20
-51.0
 30
0.0
 11
-9.5
 21
-51.0
 31
0.0
  0
LINE
  5
1826
330
D1
100
AcDbEntity
  8
0
  6
Continuous
100
AcDbLine
 10
59.75
 20
24.72363700000006
 30
0.0
 11
59.75
 21
-24.19482400000004
 31
0.0
  0
LINE
  5
1827
330
D1
100
AcDbEntity
  8
0
  6
Continuous
100
AcDbLine
 10
62.59997599999997
 20
25.25
 30
0.0
 11
60.31015000000002
 21
25.25
 31
0.0
  0
LINE
  5
1828
330
D1
100
AcDbEntity
  8
0
  6
Continuous
100
AcDbLine
 10
62.59997599999997
 20
25.25
 30
0.0
 11
62.59997599999997
 21
-25.25
 31
0.0
  0
LINE
  5
1829
330
D1
100
AcDbEntity
  8
0
  6
Continuous
100
AcDbLine
 10
53.78173799999991
 20
12.69999700000005
 30
0.0
 11
40.60921099999996
 21
12.69999700000005
 31
0.0
  0
LINE
  5
182A
330
D1
100
AcDbEntity
  8
0
  6
Continuous
100
AcDbLine
 10
53.78173799999991
 20
-12.69999700000005
 30
0.0
 11
39.84998300000007
 21
-12.69999700000005
 31
0.0
  0
LINE
  5
182B
330
D1
100
AcDbEntity
  8
0
  6
Continuous
100
AcDbLine
 10
59.55841800000007
 20
-24.72361000000001
 30
0.0
 11
55.6611479999999
 21
-14.01595499999996
 31
0.0
  0
LINE
  5
182C
330
D1
100
AcDbEntity
  8
0
  6
Continuous
100
AcDbLine
 10
62.59997599999997
 20
-25.25
 30
0.0
 11
60.31015000000002
 21
-25.25
 31
0.0
  0
LINE
  5
182D
330
D1
100
AcDbEntity
  8
0
  6
Continuous
100
AcDbLine
 10
59.558399
 20
24.72363700000006
 30
0.0
 11
55.66112900000007
 21
14.01597800000002
 31
0.0
  0
LINE
  5
182E
330
D1
100
AcDbEntity
  8
0
  6
Continuous
100
AcDbLine
 10
55.18215899999995
 20
-12.69999700000005
 30
0.0
 11
55.18215899999995
 21
12.69999700000005
 31
0.0
  0
LINE
  5
182F
330
D1
100
AcDbEntity
  8
0
  6
Continuous
100
AcDbLine
 10
-33.0
 20
12.69999700000005
 30
0.0
 11
-48.58178700000006
 21
12.69999700000005
 31
0.0
  0
LINE
  5
1830
330
D1
100
AcDbEntity
  8
0
  6
Continuous
100
AcDbLine
 10
-28.0
 20
22.0
 30
0.0
 11
-29.0
 21
22.0
 31
0.0
  0
LINE
  5
1831
330
D1
100
AcDbEntity
  8
0
  6
Continuous
100
AcDbLine
 10
-22.0
 20
27.0
 30
0.0
 11
-23.0
 21
27.0
 31
0.0
  0
LINE
  5
1832
330
D1
100
AcDbEntity
  8
0
  6
Continuous
100
AcDbLine
 10
-19.0
 20
33.5
 30
0.0
 11
-19.0
 21
30.0
 31
0.0
  0
LINE
  5
1833
330
D1
100
AcDbEntity
  8
0
  6
Continuous
100
AcDbLine
 10
-28.0
 20
-22.0
 30
0.0
 11
-29.0
 21
-22.0
 31
0.0
  0
LINE
  5
1834
330
D1
100
AcDbEntity
  8
0
  6
Continuous
100
AcDbLine
 10
-31.0
 20
-20.0
 30
0.0
 11
-31.0
 21
20.0
 31
0.0
  0
LINE
  5
1836
330
D1
100
AcDbEntity
  8
0
  6
Continuous
100
AcDbLine
 10
19.0
 20
33.5
 30
0.0
 11
19.0
 21
30.0
 31
0.0
  0
LINE
  5
1837
330
D1
100
AcDbEntity
  8
0
  6
Continuous
100
AcDbLine
 10
-19.0
 20
33.5
 30
0.0
 11
19.0
 21
33.5
 31
0.0
  0
LINE
  5
1838
330
D1
100
AcDbEntity
  8
0
  6
Continuous
100
AcDbLine
 10
21.84998099999984
 20
-27.0
 30
0.0
 11
14.5
 21
-27.0
 31
0.0
  0
LINE
  5
1839
330
D1
100
AcDbEntity
  8
0
  6
Continuous
100
AcDbLine
 10
11.5
 20
-30.0
 30
0.0
 11
11.5
 21
-33.36525000000006
 31
0.0
  0
LINE
  5
183A
330
D1
100
AcDbEntity
  8
0
  6
Continuous
100
AcDbLine
 10
-11.5
 20
-30.0
 30
0.0
 11
-11.5
 21
-33.36525000000006
 31
0.0
  0
LINE
  5
183B
330
D1
100
AcDbEntity
  8
0
  6
Continuous
100
AcDbLine
 10
-23.0
 20
-27.0
 30
0.0
 11
-14.5
 21
-27.0
 31
0.0
  0
LINE
  5
183C
330
D1
100
AcDbEntity
  8
0
  6
Continuous
100
AcDbLine
 10
-57.40002400000003
 20
25.25
 30
0.0
 11
-57.40002400000003
 21
-25.25
 31
0.0
  0
LINE
  5
183D
330
D1
100
AcDbEntity
  8
0
  6
Continuous
100
AcDbLine
 10
-57.40002400000003
 20
25.25
 30
0.0
 11
-55.11022899999989
 21
25.25
 31
0.0
  0
LINE
  5
183E
330
D1
100
AcDbEntity
  8
0
  6
Continuous
100
AcDbLine
 10
-54.55004899999995
 20
24.723614
 30
0.0
 11
-54.55004899999995
 21
-24.19480899999996
 31
0.0
  0
LINE
  5
183F
330
D1
100
AcDbEntity
  8
0
  6
Continuous
100
AcDbLine
 10
-54.35846300000003
 20
24.723614
 30
0.0
 11
-50.46119700000009
 21
14.01597000000004
 31
0.0
  0
LINE
  5
1840
330
D1
100
AcDbEntity
  8
0
  6
Continuous
100
AcDbLine
 10
-57.40002400000003
 20
-25.25
 30
0.0
 11
-55.11022899999989
 21
-25.25
 31
0.0
  0
LINE
  5
1841
330
D1
100
AcDbEntity
  8
0
  6
Continuous
100
AcDbLine
 10
-54.35846700000002
 20
-24.72360400000003
 30
0.0
 11
-50.46119700000009
 21
-14.01594599999998
 31
0.0
  0
LINE
  5
1842
330
D1
100
AcDbEntity
  8
0
  6
Continuous
100
AcDbLine
 10
-48.58178700000006
 20
-12.69999700000005
 30
0.0
 11
-33.0
 21
-12.69999700000005
 31
0.0
  0
LINE
  5
1843
330
D1
100
AcDbEntity
  8
0
  6
Continuous
100
AcDbLine
 10
-49.98223899999993
 20
-12.69999700000005
 30
0.0
 11
-49.98223899999993
 21
12.69999700000005
 31
0.0
  0
LINE
  5
1844
330
D1
100
AcDbEntity
  8
0
  6
Continuous
100
AcDbLine
 10
-25.0
 20
25.0
 30
0.0
 11
-25.0
 21
-25.0
 31
0.0
  0
LINE
  5
1846
330
D1
100
AcDbEntity
  8
0
  6
Continuous
100
AcDbLine
 10
-20.0
 20
34.5
 30
0.0
 11
-19.00000200000022
 21
33.5
 31
0.0
  0
LINE
  5
1848
330
D1
100
AcDbEntity
  8
0
  6
Continuous
100
AcDbLine
 10
-12.5
 20
75.5
 30
0.0
 11
-12.5
 21
40.49999999999999
 31
0.0
  0
LINE
  5
1849
330
D1
100
AcDbEntity
  8
0
  6
Continuous
100
AcDbLine
 10
-31.4882090000001
 20
77.5
 30
0.0
 11
-31.4882090000001
 21
79.5
 31
0.0
  0
LINE
  5
184A
330
D1
100
AcDbEntity
  8
0
  6
Continuous
100
AcDbLine
 10
16.08832900000016
 20
77.5
 30
0.0
 11
31.48833100000002
 21
77.5
 31
0.0
  0
LINE
  5
184B
330
D1
100
AcDbEntity
  8
0
  6
Continuous
100
AcDbLine
 10
17.28832999999986
 20
76.25
 30
0.0
 11
30.28832999999986
 21
76.25
 31
0.0
  0
LINE
  5
184C
330
D1
100
AcDbEntity
  8
0
  6
Continuous
100
AcDbLine
 10
17.28832999999986
 20
70.0
 30
0.0
 11
30.28832999999986
 21
70.0
 31
0.0
  0
LINE
  5
184D
330
D1
100
AcDbEntity
  8
0
  6
Continuous
100
AcDbLine
 10
18.154356
 20
69.5
 30
0.0
 11
17.28832999999986
 21
70.0
 31
0.0
  0
LINE
  5
184E
330
D1
100
AcDbEntity
  8
0
  6
Continuous
100
AcDbLine
 10
29.42230599999994
 20
69.5
 30
0.0
 11
30.28833200000008
 21
70.0
 31
0.0
  0
LINE
  5
1859
330
D1
100
AcDbEntity
  8
0
  6
Continuous
100
AcDbLine
 10
32.5
 20
83.49999999999999
 30
0.0
 11
-32.5
 21
83.49999999999999
 31
0.0
  0
LINE
  5
185B
330
D1
100
AcDbEntity
  8
0
  6
Continuous
100
AcDbLine
 10
-18.15423400000009
 20
69.5
 30
0.0
 11
-17.28821000000016
 21
70.0
 31
0.0
  0
LINE
  5
185C
330
D1
100
AcDbEntity
  8
0
  6
Continuous
100
AcDbLine
 10
-29.42218400000001
 20
69.5
 30
0.0
 11
-30.28820799999995
 21
70.0
 31
0.0
  0
LINE
  5
185D
330
D1
100
AcDbEntity
  8
0
  6
Continuous
100
AcDbLine
 10
-30.28820799999995
 20
70.0
 30
0.0
 11
-17.28820799999994
 21
70.0
 31
0.0
  0
LINE
  5
185E
330
D1
100
AcDbEntity
  8
0
  6
Continuous
100
AcDbLine
 10
-30.28820799999995
 20
76.25
 30
0.0
 11
-17.28820799999994
 21
76.25
 31
0.0
  0
LINE
  5
1869
330
D1
100
AcDbEntity
  8
0
  6
Continuous
100
AcDbLine
 10
17.5
 20
47.5
 30
0.0
 11
17.5
 21
45.49999999999999
 31
0.0
  0
LINE
  5
186C
330
D1
100
AcDbEntity
  8
0
  6
Continuous
100
AcDbLine
 10
-41.0
 20
47.5
 30
0.0
 11
-41.0
 21
45.49999999999999
 31
0.0
  0
LINE
  5
1870
330
D1
100
AcDbEntity
  8
0
  6
Continuous
100
AcDbLine
 10
-17.28820799999994
 20
70.0
 30
0.0
 11
-17.28820799999994
 21
77.5
 31
0.0
  0
LINE
  5
1871
330
D1
100
AcDbEntity
  8
0
  6
Continuous
100
AcDbLine
 10
-30.28820799999995
 20
70.0
 30
0.0
 11
-30.28820799999995
 21
77.5
 31
0.0
  0
LINE
  5
1872
330
D1
100
AcDbEntity
  8
0
  6
Continuous
100
AcDbLine
 10
-29.4221819999998
 20
69.5
 30
0.0
 11
-18.15423400000009
 21
69.5
 31
0.0
  0
LINE
  5
1873
330
D1
100
AcDbEntity
  8
0
  6
Continuous
100
AcDbLine
 10
-31.4882090000001
 20
77.5
 30
0.0
 11
-16.08820699999977
 21
77.5
 31
0.0
  0
LINE
  5
1874
330
D1
100
AcDbEntity
  8
0
  6
Continuous
100
AcDbLine
 10
-40.0
 20
188.5000199999999
 30
0.0
 11
-40.0
 21
163.5000199999999
 31
0.0
  0
LINE
  5
1875
330
D1
100
AcDbEntity
  8
0
  6
Continuous
100
AcDbLine
 10
-5.25
 20
191.5270399999999
 30
0.0
 11
-5.25
 21
190.0000199999999
 31
0.0
  0
LINE
  5
1876
330
D1
100
AcDbEntity
  8
0
  6
Continuous
100
AcDbLine
 10
28.29998800000021
 20
156.3093999999999
 30
0.0
 11
28.29998800000021
 21
151.69063
 31
0.0
  0
LINE
  5
1877
330
D1
100
AcDbEntity
  8
0
  6
Continuous
100
AcDbLine
 10
24.29999899999984
 20
158.6187999999999
 30
0.0
 11
28.29997400000002
 21
156.30942
 31
0.0
  0
LINE
  5
1878
330
D1
100
AcDbEntity
  8
0
  6
Continuous
100
AcDbLine
 10
-14.79998800000021
 20
83.49999999999999
 30
0.0
 11
-14.79998800000021
 21
85.5
 31
0.0
  0
LINE
  5
1879
330
D1
100
AcDbEntity
  8
0
  6
Continuous
100
AcDbLine
 10
-14.79998800000021
 20
161.5000199999999
 30
0.0
 11
-14.79998800000021
 21
159.5000199999999
 31
0.0
  0
LINE
  5
187A
330
D1
100
AcDbEntity
  8
0
  6
Continuous
100
AcDbLine
 10
15.79998800000021
 20
85.5
 30
0.0
 11
-15.79998800000021
 21
85.5
 31
0.0
  0
LINE
  5
187B
330
D1
100
AcDbEntity
  8
0
  6
Continuous
100
AcDbLine
 10
-28.29998800000021
 20
151.69057
 30
0.0
 11
-28.29998800000021
 21
156.3093999999999
 31
0.0
  0
LINE
  5
187C
330
D1
100
AcDbEntity
  8
0
  6
Continuous
100
AcDbLine
 10
-24.29993999999988
 20
158.61879
 30
0.0
 11
-28.29991500000005
 21
156.3093999999999
 31
0.0
  0
LINE
  5
187D
330
D1
100
AcDbEntity
  8
0
  6
Continuous
100
AcDbLine
 10
24.29995499999995
 20
86.38113399999998
 30
0.0
 11
20.29995300000019
 21
88.69053599999997
 31
0.0
  0
LINE
  5
187E
330
D1
100
AcDbEntity
  8
0
  6
Continuous
100
AcDbLine
 10
20.29998800000021
 20
88.69055200000003
 30
0.0
 11
20.29998800000021
 21
93.30938700000002
 31
0.0
  0
LINE
  5
187F
330
D1
100
AcDbEntity
  8
0
  6
Continuous
100
AcDbLine
 10
24.30002599999989
 20
95.61875899999996
 30
0.0
 11
20.29999499999985
 21
93.30934100000002
 31
0.0
  0
LINE
  5
1880
330
D1
100
AcDbEntity
  8
0
  6
Continuous
100
AcDbLine
 10
28.29995499999995
 20
93.30934100000002
 30
0.0
 11
24.29995300000019
 21
95.61874399999998
 31
0.0
  0
LINE
  5
1881
330
D1
100
AcDbEntity
  8
0
  6
Continuous
100
AcDbLine
 10
28.29998800000021
 20
88.69055200000003
 30
0.0
 11
28.29998800000021
 21
93.30938700000002
 31
0.0
  0
LINE
  5
1882
330
D1
100
AcDbEntity
  8
0
  6
Continuous
100
AcDbLine
 10
24.29999700000008
 20
86.38114199999996
 30
0.0
 11
28.30002800000011
 21
88.69055900000002
 31
0.0
  0
LINE
  5
1883
330
D1
100
AcDbEntity
  8
0
  6
Continuous
100
AcDbLine
 10
-20.30000500000006
 20
156.30936
 30
0.0
 11
-24.29997999999978
 21
158.61874
 31
0.0
  0
LINE
  5
1884
330
D1
100
AcDbEntity
  8
0
  6
Continuous
100
AcDbLine
 10
-20.29998800000021
 20
151.69057
 30
0.0
 11
-20.29998800000021
 21
156.3093999999999
 31
0.0
  0
LINE
  5
1885
330
D1
100
AcDbEntity
  8
0
  6
Continuous
100
AcDbLine
 10
-24.29991500000006
 20
149.3812
 30
0.0
 11
-20.29993800000011
 21
151.6905799999999
 31
0.0
  0
LINE
  5
1886
330
D1
100
AcDbEntity
  8
0
  6
Continuous
100
AcDbLine
 10
11.5
 20
163.5000199999999
 30
0.0
 11
11.5
 21
163.0000199999999
 31
0.0
  0
LINE
  5
1888
330
D1
100
AcDbEntity
  8
0
  6
Continuous
100
AcDbLine
 10
13.80004899999994
 20
163.0000199999999
 30
0.0
 11
13.80004899999994
 21
161.5000199999999
 31
0.0
  0
LINE
  5
1889
330
D1
100
AcDbEntity
  8
0
  6
Continuous
100
AcDbLine
 10
-24.30002000000013
 20
86.38114900000003
 30
0.0
 11
-28.29999499999985
 21
88.69053599999997
 31
0.0
  0
LINE
  5
188A
330
D1
100
AcDbEntity
  8
0
  6
Continuous
100
AcDbLine
 10
-28.29998800000021
 20
88.69055200000003
 30
0.0
 11
-28.29998800000021
 21
93.30938700000002
 31
0.0
  0
LINE
  5
188B
330
D1
100
AcDbEntity
  8
0
  6
Continuous
100
AcDbLine
 10
-24.29995300000019
 20
95.61876700000004
 30
0.0
 11
-28.29998400000022
 21
93.309349
 31
0.0
  0
LINE
  5
188C
330
D1
100
AcDbEntity
  8
0
  6
Continuous
100
AcDbLine
 10
-20.30002000000013
 20
93.309349
 30
0.0
 11
-24.29999499999985
 21
95.618736
 31
0.0
  0
LINE
  5
188D
330
D1
100
AcDbEntity
  8
0
  6
Continuous
100
AcDbLine
 10
-13.79992700000002
 20
163.0000199999999
 30
0.0
 11
13.80004899999994
 21
163.0000199999999
 31
0.0
  0
LINE
  5
188E
330
D1
100
AcDbEntity
  8
0
  6
Continuous
100
AcDbLine
 10
-11.5
 20
163.5000199999999
 30
0.0
 11
-11.5
 21
163.0000199999999
 31
0.0
  0
LINE
  5
188F
330
D1
100
AcDbEntity
  8
0
  6
Continuous
100
AcDbLine
 10
-13.79992700000002
 20
163.0000199999999
 30
0.0
 11
-13.79992700000002
 21
161.5000199999999
 31
0.0
  0
LINE
  5
1890
330
D1
100
AcDbEntity
  8
0
  6
Continuous
100
AcDbLine
 10
0.0
 20
188.5000199999999
 30
0.0
 11
0.0
 21
163.5000199999999
 31
0.0
  0
LINE
  5
1891
330
D1
100
AcDbEntity
  8
0
  6
Continuous
100
AcDbLine
 10
29.79998800000021
 20
161.5000199999999
 30
0.0
 11
17.79998800000021
 21
161.5000199999999
 31
0.0
  0
LINE
  5
1892
330
D1
100
AcDbEntity
  8
0
  6
Continuous
100
AcDbLine
 10
30.79998800000022
 20
84.50000000000001
 30
0.0
 11
30.79998800000022
 21
105.87595
 31
0.0
  0
LINE
  5
1893
330
D1
100
AcDbEntity
  8
0
  6
Continuous
100
AcDbLine
 10
-30.79998800000022
 20
84.50000000000001
 30
0.0
 11
-30.79998800000022
 21
105.87595
 31
0.0
  0
LINE
  5
1894
330
D1
100
AcDbEntity
  8
0
  6
Continuous
100
AcDbLine
 10
30.79998800000022
 20
160.5000199999999
 30
0.0
 11
30.79998800000022
 21
139.1241
 31
0.0
  0
LINE
  5
1895
330
D1
100
AcDbEntity
  8
0
  6
Continuous
100
AcDbLine
 10
-30.79998800000022
 20
160.5000199999999
 30
0.0
 11
-30.79998800000022
 21
139.1241
 31
0.0
  0
LINE
  5
1896
330
D1
100
AcDbEntity
  8
0
  6
Continuous
100
AcDbLine
 10
14.79998800000021
 20
161.5000199999999
 30
0.0
 11
14.79998800000021
 21
159.5000199999999
 31
0.0
  0
LINE
  5
1897
330
D1
100
AcDbEntity
  8
0
  6
Continuous
100
AcDbLine
 10
-20.29998800000021
 20
88.69055200000003
 30
0.0
 11
-20.29998800000021
 21
93.30938700000002
 31
0.0
  0
LINE
  5
1899
330
D1
100
AcDbEntity
  8
0
  6
Continuous
100
AcDbLine
 10
-15.80002100000001
 20
85.50003800000002
 30
0.0
 11
-17.80002400000012
 21
83.50003800000001
 31
0.0
  0
LINE
  5
189A
330
D1
100
AcDbEntity
  8
0
  6
Continuous
100
AcDbLine
 10
17.79997999999977
 20
83.49999200000002
 30
0.0
 11
15.79997800000001
 21
85.49999200000002
 31
0.0
  0
LINE
  5
189B
330
D1
100
AcDbEntity
  8
0
  6
Continuous
100
AcDbLine
 10
18.00007199999981
 20
130.00555
 30
0.0
 11
11.50007199999982
 21
126.25278
 31
0.0
  0
LINE
  5
189C
330
D1
100
AcDbEntity
  8
0
  6
Continuous
100
AcDbLine
 10
24.29997099999992
 20
158.6187999999999
 30
0.0
 11
20.29999399999997
 21
156.30942
 31
0.0
  0
LINE
  5
189D
330
D1
100
AcDbEntity
  8
0
  6
Continuous
100
AcDbLine
 10
20.29998800000021
 20
156.3093999999999
 30
0.0
 11
20.29998800000021
 21
151.69063
 31
0.0
  0
LINE
  5
189E
330
D1
100
AcDbEntity
  8
0
  6
Continuous
100
AcDbLine
 10
11.5
 20
126.25282
 30
0.0
 11
11.5
 21
118.74721
 31
0.0
  0
LINE
  5
189F
330
D1
100
AcDbEntity
  8
0
  6
Continuous
100
AcDbLine
 10
20.29999899999984
 20
151.6906
 30
0.0
 11
24.29997400000002
 21
149.38121
 31
0.0
  0
LINE
  5
18A0
330
D1
100
AcDbEntity
  8
0
  6
Continuous
100
AcDbLine
 10
24.29999399999997
 20
149.3812299999999
 30
0.0
 11
28.29997099999991
 21
151.69061
 31
0.0
  0
LINE
  5
18A1
330
D1
100
AcDbEntity
  8
0
  6
Continuous
100
AcDbLine
 10
11.50004699999999
 20
118.7472299999999
 30
0.0
 11
18.00004799999988
 21
114.99445
 31
0.0
  0
LINE
  5
18A2
330
D1
100
AcDbEntity
  8
0
  6
Continuous
100
AcDbLine
 10
18.00007199999981
 20
114.99445
 30
0.0
 11
24.50007199999982
 21
118.7472299999999
 31
0.0
  0
LINE
  5
18A3
330
D1
100
AcDbEntity
  8
0
  6
Continuous
100
AcDbLine
 10
24.5
 20
126.25282
 30
0.0
 11
24.5
 21
118.74721
 31
0.0
  0
LINE
  5
18A4
330
D1
100
AcDbEntity
  8
0
  6
Continuous
100
AcDbLine
 10
15.79998800000021
 20
159.5000199999999
 30
0.0
 11
-15.79998800000021
 21
159.5000199999999
 31
0.0
  0
LINE
  5
18A5
330
D1
100
AcDbEntity
  8
0
  6
Continuous
100
AcDbLine
 10
14.79998800000021
 20
161.5000199999999
 30
0.0
 11
-14.79998800000021
 21
161.5000199999999
 31
0.0
  0
LINE
  5
18A6
330
D1
100
AcDbEntity
  8
0
  6
Continuous
100
AcDbLine
 10
17.80000699999982
 20
161.5000600000001
 30
0.0
 11
15.80000500000005
 21
159.50006
 31
0.0
  0
LINE
  5
18A7
330
D1
100
AcDbEntity
  8
0
  6
Continuous
100
AcDbLine
 10
14.79998800000021
 20
83.49999999999999
 30
0.0
 11
14.79998800000021
 21
85.5
 31
0.0
  0
LINE
  5
18A8
330
D1
100
AcDbEntity
  8
0
  6
Continuous
100
AcDbLine
 10
-24.29998400000022
 20
86.38114900000003
 30
0.0
 11
-20.29995300000019
 21
88.69056699999999
 31
0.0
  0
LINE
  5
18A9
330
D1
100
AcDbEntity
  8
0
  6
Continuous
100
AcDbLine
 10
-24.30000500000006
 20
149.3811499999999
 30
0.0
 11
-28.29997999999978
 21
151.69054
 31
0.0
  0
LINE
  5
18AB
330
D1
100
AcDbEntity
  8
0
  6
Continuous
100
AcDbLine
 10
-17.79998800000021
 20
161.5000199999999
 30
0.0
 11
-29.79998800000021
 21
161.5000199999999
 31
0.0
  0
LINE
  5
18AD
330
D1
100
AcDbEntity
  8
0
  6
Continuous
100
AcDbLine
 10
-15.80002100000001
 20
159.49998
 30
0.0
 11
-17.80002400000012
 21
161.49998
 31
0.0
  0
LINE
  5
18AE
330
D1
100
AcDbEntity
  8
0
  6
Continuous
100
AcDbLine
 10
-40.0
 20
188.5000199999999
 30
0.0
 11
40.0
 21
188.5000199999999
 31
0.0
  0
LINE
  5
18AF
330
D1
100
AcDbEntity
  8
0
  6
Continuous
100
AcDbLine
 10
6.099999900000057
 20
190.0000199999999
 30
0.0
 11
6.099999900000057
 21
188.5000199999999
 31
0.0
  0
LINE
  5
18B0
330
D1
100
AcDbEntity
  8
0
  6
Continuous
100
AcDbLine
 10
-6.099999900000057
 20
190.0000199999999
 30
0.0
 11
-6.099999900000057
 21
188.5000199999999
 31
0.0
  0
ARC
  5
18BD
330
D1
100
AcDbEntity
  8
0
  6
Continuous
100
AcDbCircle
 10
16.5
 20
75.5
 30
0.0
 40
4.0
100
AcDbArc
 50
90.0
 51
180.0
  0
ARC
  5
18BE
330
D1
100
AcDbEntity
  8
0
  6
Continuous
100
AcDbCircle
 10
-16.5
 20
75.5
 30
0.0
 40
4.0
100
AcDbArc
 50
0.0
 51
90.0
  0
CIRCLE
  5
18BF
330
D1
100
AcDbEntity
  8
0
  6
Continuous
100
AcDbCircle
 10
4.5
 20
42.20000100000003
 30
0.0
 40
4.25
  0
CIRCLE
  5
18C0
330
D1
100
AcDbEntity
  8
0
  6
Continuous
100
AcDbCircle
 10
4.5
 20
42.20000100000003
 30
0.0
 40
3.730384799999998
  0
ARC
  5
18C1
330
D1
100
AcDbEntity
  8
0
  6
Continuous
100
AcDbCircle
 10
4.5
 20
42.20000100000003
 30
0.0
 40
5.0
100
AcDbArc
 50
0.0
 51
180.0
  0
ARC
  5
18C6
330
D1
100
AcDbEntity
  8
0
  6
Continuous
100
AcDbCircle
 10
30.34998099999985
 20
-18.77894600000002
 30
0.0
 40
7.75
100
AcDbArc
 50
0.0000141010417994
 51
29.18334700001351
  0
ARC
  5
18C9
330
D1
100
AcDbEntity
  8
0
  6
Continuous
100
AcDbCircle
 10
30.34998099999985
 20
-27.5
 30
0.0
 40
8.0
100
AcDbArc
 50
239.9999999999995
 51
249.129929999992
  0
ARC
  5
18CA
330
D1
100
AcDbEntity
  8
0
  6
Continuous
100
AcDbCircle
 10
32.19997400000011
 20
-51.85758999999996
 30
0.0
 40
1.0
100
AcDbArc
 50
270.0
 51
0.0
  0
ARC
  5
18CB
330
D1
100
AcDbEntity
  8
0
  6
Continuous
100
AcDbCircle
 10
28.49997500000018
 20
-51.85758999999996
 30
0.0
 40
1.0
100
AcDbArc
 50
180.0
 51
270.0
  0
ARC
  5
18CC
330
D1
100
AcDbEntity
  8
0
  6
Continuous
100
AcDbCircle
 10
35.19997400000011
 20
-32.05758700000001
 30
0.0
 40
2.0
100
AcDbArc
 50
90.0
 51
180.0
  0
ARC
  5
18CD
330
D1
100
AcDbEntity
  8
0
  6
Continuous
100
AcDbCircle
 10
25.49997500000018
 20
-32.05758700000001
 30
0.0
 40
2.0
100
AcDbArc
 50
0.0
 51
90.0
  0
ARC
  5
18CE
330
D1
100
AcDbEntity
  8
0
  6
Continuous
100
AcDbCircle
 10
30.34998099999985
 20
-18.77894600000002
 30
0.0
 40
7.75
100
AcDbArc
 50
150.8166499999942
 51
179.999989999999
  0
ARC
  5
18CF
330
D1
100
AcDbEntity
  8
0
  6
Continuous
100
AcDbCircle
 10
36.09998300000007
 20
-28.05758700000001
 30
0.0
 40
2.0
100
AcDbArc
 50
270.0
 51
0.0
  0
ARC
  5
18D0
330
D1
100
AcDbEntity
  8
0
  6
Continuous
100
AcDbCircle
 10
24.59998099999984
 20
-28.05758700000001
 30
0.0
 40
2.0
100
AcDbArc
 50
180.0
 51
270.0
  0
ARC
  5
18DE
330
D1
100
AcDbEntity
  8
0
  6
Continuous
100
AcDbCircle
 10
30.34998099999985
 20
7.5
 30
0.0
 40
8.0
100
AcDbArc
 50
59.99998600000279
 51
120.0000000000005
  0
ARC
  5
18DF
330
D1
100
AcDbEntity
  8
0
  6
Continuous
100
AcDbCircle
 10
30.34998099999985
 20
-27.5
 30
0.0
 40
8.0
100
AcDbArc
 50
290.8700800000091
 51
300.0000099999935
  0
ARC
  5
18E0
330
D1
100
AcDbEntity
  8
0
  6
Continuous
100
AcDbCircle
 10
14.5
 20
-37.0
 30
0.0
 40
3.0
100
AcDbArc
 50
0.0
 51
90.0
  0
ARC
  5
18E1
330
D1
100
AcDbEntity
  8
0
  6
Continuous
100
AcDbCircle
 10
-14.5
 20
-37.0
 30
0.0
 40
3.0
100
AcDbArc
 50
90.0
 51
180.0
  0
ARC
  5
18E2
330
D1
100
AcDbEntity
  8
0
  6
Continuous
100
AcDbCircle
 10
9.5
 20
-43.0
 30
0.0
 40
8.0
100
AcDbArc
 50
270.0
 51
0.0
  0
ARC
  5
18E3
330
D1
100
AcDbEntity
  8
0
  6
Continuous
100
AcDbCircle
 10
-9.5
 20
-43.0
 30
0.0
 40
8.0
100
AcDbArc
 50
180.0
 51
270.000010000001
  0
ARC
  5
18E4
330
D1
100
AcDbEntity
  8
0
  6
Continuous
100
AcDbCircle
 10
53.78173799999991
 20
14.69999700000005
 30
0.0
 40
2.0
100
AcDbArc
 50
270.0
 51
340.0000200000056
  0
ARC
  5
18E5
330
D1
100
AcDbEntity
  8
0
  6
Continuous
100
AcDbCircle
 10
53.78173799999991
 20
-14.69999700000005
 30
0.0
 40
2.0
100
AcDbArc
 50
19.99997800000564
 51
90.0
  0
ARC
  5
18E6
330
D1
100
AcDbEntity
  8
0
  6
Continuous
100
AcDbCircle
 10
60.31015000000002
 20
24.44999700000006
 30
0.0
 40
0.8000000099999999
100
AcDbArc
 50
90.0
 51
159.999970000006
  0
ARC
  5
18E7
330
D1
100
AcDbEntity
  8
0
  6
Continuous
100
AcDbCircle
 10
60.31015000000002
 20
-24.44999700000006
 30
0.0
 40
0.8000000099999999
100
AcDbArc
 50
200.0000299999939
 51
270.0
  0
ARC
  5
18E8
330
D1
100
AcDbEntity
  8
0
  6
Continuous
100
AcDbCircle
 10
-33.0
 20
14.69999700000005
 30
0.0
 40
2.0
100
AcDbArc
 50
270.0
 51
0.0
  0
ARC
  5
18E9
330
D1
100
AcDbEntity
  8
0
  6
Continuous
100
AcDbCircle
 10
-29.0
 20
20.0
 30
0.0
 40
2.0
100
AcDbArc
 50
90.0
 51
180.0
  0
ARC
  5
18EA
330
D1
100
AcDbEntity
  8
0
  6
Continuous
100
AcDbCircle
 10
-28.0
 20
25.0
 30
0.0
 40
3.0
100
AcDbArc
 50
270.0
 51
0.0
  0
ARC
  5
18EB
330
D1
100
AcDbEntity
  8
0
  6
Continuous
100
AcDbCircle
 10
-23.0
 20
25.0
 30
0.0
 40
2.0
100
AcDbArc
 50
90.0
 51
180.0
  0
ARC
  5
18EC
330
D1
100
AcDbEntity
  8
0
  6
Continuous
100
AcDbCircle
 10
-22.0
 20
30.0
 30
0.0
 40
3.0
100
AcDbArc
 50
270.0
 51
0.0
  0
ARC
  5
18ED
330
D1
100
AcDbEntity
  8
0
  6
Continuous
100
AcDbCircle
 10
-33.0
 20
-14.69999700000005
 30
0.0
 40
2.0
100
AcDbArc
 50
0.0
 51
90.0
  0
ARC
  5
18EE
330
D1
100
AcDbEntity
  8
0
  6
Continuous
100
AcDbCircle
 10
-29.0
 20
-20.0
 30
0.0
 40
2.0
100
AcDbArc
 50
180.0
 51
270.0
  0
ARC
  5
18EF
330
D1
100
AcDbEntity
  8
0
  6
Continuous
100
AcDbCircle
 10
-28.0
 20
-25.0
 30
0.0
 40
3.0
100
AcDbArc
 50
0.0
 51
90.0
  0
ARC
  5
18F0
330
D1
100
AcDbEntity
  8
0
  6
Continuous
100
AcDbCircle
 10
-23.0
 20
-25.0
 30
0.0
 40
2.0
100
AcDbArc
 50
180.0
 51
270.0
  0
ARC
  5
18F1
330
D1
100
AcDbEntity
  8
0
  6
Continuous
100
AcDbCircle
 10
22.0
 20
30.0
 30
0.0
 40
3.0
100
AcDbArc
 50
180.0
 51
267.1336600000117
  0
ARC
  5
18F2
330
D1
100
AcDbEntity
  8
0
  6
Continuous
100
AcDbCircle
 10
14.5
 20
-30.0
 30
0.0
 40
3.0
100
AcDbArc
 50
90.0
 51
180.0
  0
ARC
  5
18F3
330
D1
100
AcDbEntity
  8
0
  6
Continuous
100
AcDbCircle
 10
-14.5
 20
-30.0
 30
0.0
 40
3.0
100
AcDbArc
 50
0.0
 51
90.0
  0
ARC
  5
18F4
330
D1
100
AcDbEntity
  8
0
  6
Continuous
100
AcDbCircle
 10
-12.5
 20
-33.36525000000006
 30
0.0
 40
1.0
100
AcDbArc
 50
320.5985400000126
 51
0.0
  0
ARC
  5
18F5
330
D1
100
AcDbEntity
  8
0
  6
Continuous
100
AcDbCircle
 10
12.5
 20
-33.36525000000006
 30
0.0
 40
1.0
100
AcDbArc
 50
180.0
 51
219.4014599999874
  0
ARC
  5
18F6
330
D1
100
AcDbEntity
  8
0
  6
Continuous
100
AcDbCircle
 10
-48.58178700000006
 20
14.70001200000001
 30
0.0
 40
2.0
100
AcDbArc
 50
199.9999799999943
 51
270.0
  0
ARC
  5
18F7
330
D1
100
AcDbEntity
  8
0
  6
Continuous
100
AcDbCircle
 10
-48.58178700000006
 20
-14.69999700000005
 30
0.0
 40
2.0
100
AcDbArc
 50
90.0
 51
160.0000200000055
  0
ARC
  5
18F8
330
D1
100
AcDbEntity
  8
0
  6
Continuous
100
AcDbCircle
 10
-55.11022899999989
 20
24.45001200000002
 30
0.0
 40
0.8000000099999999
100
AcDbArc
 50
20.00002900000571
 51
90.0
  0
ARC
  5
18F9
330
D1
100
AcDbEntity
  8
0
  6
Continuous
100
AcDbCircle
 10
-55.11022899999989
 20
-24.44999700000006
 30
0.0
 40
0.8000000099999999
100
AcDbArc
 50
270.0
 51
339.999970000006
  0
ARC
  5
18FC
330
D1
100
AcDbEntity
  8
0
  6
Continuous
100
AcDbCircle
 10
18.0
 20
122.5000199999999
 30
0.0
 40
7.5
100
AcDbArc
 50
150.0733299999938
 51
209.9266700000061
  0
ARC
  5
18FD
330
D1
100
AcDbEntity
  8
0
  6
Continuous
100
AcDbCircle
 10
0.0
 20
122.5000199999999
 30
0.0
 40
35.0
100
AcDbArc
 50
331.6423699999888
 51
28.35764699998641
  0
ARC
  5
18FE
330
D1
100
AcDbEntity
  8
0
  6
Continuous
100
AcDbCircle
 10
0.0
 20
122.5000199999999
 30
0.0
 40
35.0
100
AcDbArc
 50
151.6423799999971
 51
208.3576300000112
  0
ARC
  5
18FF
330
D1
100
AcDbEntity
  8
0
  6
Continuous
100
AcDbCircle
 10
-24.29998800000021
 20
154.0000199999999
 30
0.0
 40
4.5
100
AcDbArc
 50
332.7339400000018
 51
27.26605699999129
  0
ARC
  5
1900
330
D1
100
AcDbEntity
  8
0
  6
Continuous
100
AcDbCircle
 10
-24.29998800000021
 20
154.0000199999999
 30
0.0
 40
4.5
100
AcDbArc
 50
32.73389399999015
 51
87.26603400001089
  0
ARC
  5
1901
330
D1
100
AcDbEntity
  8
0
  6
Continuous
100
AcDbCircle
 10
-24.29998800000021
 20
154.0000199999999
 30
0.0
 40
4.5
100
AcDbArc
 50
152.7339400000018
 51
207.2660599999981
  0
ARC
  5
1902
330
D1
100
AcDbEntity
  8
0
  6
Continuous
100
AcDbCircle
 10
-24.29998800000021
 20
154.0000199999999
 30
0.0
 40
4.5
100
AcDbArc
 50
272.733969999988
 51
327.2661099999965
  0
ARC
  5
1903
330
D1
100
AcDbEntity
  8
0
  6
Continuous
100
AcDbCircle
 10
-24.29998800000021
 20
154.0000199999999
 30
0.0
 40
4.5
100
AcDbArc
 50
92.73396599998909
 51
147.2661099999964
  0
ARC
  5
1904
330
D1
100
AcDbEntity
  8
0
  6
Continuous
100
AcDbCircle
 10
-24.29998800000021
 20
154.0000199999999
 30
0.0
 40
4.5
100
AcDbArc
 50
212.7338900000036
 51
267.2660300000119
  0
ARC
  5
1905
330
D1
100
AcDbEntity
  8
0
  6
Continuous
100
AcDbCircle
 10
18.0
 20
122.5000199999999
 30
0.0
 40
7.5
100
AcDbArc
 50
30.07331599998808
 51
89.92667800000226
  0
ARC
  5
1906
330
D1
100
AcDbEntity
  8
0
  6
Continuous
100
AcDbCircle
 10
3.349999900000056
 20
191.5270399999999
 30
0.0
 40
1.9
100
AcDbArc
 50
0.0
 51
73.92713399999234
  0
ARC
  5
1907
330
D1
100
AcDbEntity
  8
0
  6
Continuous
100
AcDbCircle
 10
-3.349999900000056
 20
191.5270399999999
 30
0.0
 40
1.9
100
AcDbArc
 50
106.0728599999964
 51
180.0
  0
ARC
  5
1908
330
D1
100
AcDbEntity
  8
0
  6
Continuous
100
AcDbCircle
 10
0.0
 20
179.90002
 30
0.0
 40
14.0
100
AcDbArc
 50
73.92713699999841
 51
106.0728599999964
  0
ARC
  5
1909
330
D1
100
AcDbEntity
  8
0
  6
Continuous
100
AcDbCircle
 10
29.79998800000021
 20
160.5000199999999
 30
0.0
 40
1.0
100
AcDbArc
 50
0.0
 51
90.0
  0
ARC
  5
190A
330
D1
100
AcDbEntity
  8
0
  6
Continuous
100
AcDbCircle
 10
-29.79998800000021
 20
160.5000199999999
 30
0.0
 40
1.0
100
AcDbArc
 50
90.0
 51
180.0
  0
ARC
  5
190B
330
D1
100
AcDbEntity
  8
0
  6
Continuous
100
AcDbCircle
 10
-29.79998800000021
 20
84.50000000000001
 30
0.0
 40
1.0
100
AcDbArc
 50
180.0
 51
270.0
  0
ARC
  5
190C
330
D1
100
AcDbEntity
  8
0
  6
Continuous
100
AcDbCircle
 10
29.79998800000021
 20
84.50000000000001
 30
0.0
 40
1.0
100
AcDbArc
 50
270.0
 51
0.0
  0
ARC
  5
190D
330
D1
100
AcDbEntity
  8
0
  6
Continuous
100
AcDbCircle
 10
18.0
 20
122.5000199999999
 30
0.0
 40
7.5
100
AcDbArc
 50
270.0742799999874
 51
329.9257399999866
  0
ARC
  5
190E
330
D1
100
AcDbEntity
  8
0
  6
Continuous
100
AcDbCircle
 10
18.0
 20
122.5000199999999
 30
0.0
 40
7.5
100
AcDbArc
 50
210.0733200000017
 51
269.9266600000013
  0
ARC
  5
190F
330
D1
100
AcDbEntity
  8
0
  6
Continuous
100
AcDbCircle
 10
18.0
 20
122.5000199999999
 30
0.0
 40
7.5
100
AcDbArc
 50
90.07332199999771
 51
149.9266799999983
  0
ARC
  5
1910
330
D1
100
AcDbEntity
  8
0
  6
Continuous
100
AcDbCircle
 10
18.0
 20
122.5000199999999
 30
0.0
 40
7.5
100
AcDbArc
 50
330.073539999991
 51
29.92645899999241
  0
CIRCLE
  5
1911
330
D1
100
AcDbEntity
  8
0
  6
Continuous
100
AcDbCircle
 10
18.0
 20
122.5000199999999
 30
0.0
 40
6.5
  0
ARC
  5
1912
330
D1
100
AcDbEntity
  8
0
  6
Continuous
100
AcDbCircle
 10
24.29998800000021
 20
91.0
 30
0.0
 40
4.5
100
AcDbArc
 50
332.7339400000018
 51
27.26605699999129
  0
ARC
  5
1913
330
D1
100
AcDbEntity
  8
0
  6
Continuous
100
AcDbCircle
 10
24.29998800000021
 20
91.0
 30
0.0
 40
4.5
100
AcDbArc
 50
32.73397599999347
 51
87.26603899999643
  0
ARC
  5
1914
330
D1
100
AcDbEntity
  8
0
  6
Continuous
100
AcDbCircle
 10
24.29998800000021
 20
91.0
 30
0.0
 40
4.5
100
AcDbArc
 50
92.73396100000359
 51
147.2660199999957
  0
ARC
  5
1915
330
D1
100
AcDbEntity
  8
0
  6
Continuous
100
AcDbCircle
 10
24.29998800000021
 20
91.0
 30
0.0
 40
4.5
100
AcDbArc
 50
212.7339800000043
 51
267.2660400000093
  0
ARC
  5
1916
330
D1
100
AcDbEntity
  8
0
  6
Continuous
100
AcDbCircle
 10
-24.29998800000021
 20
91.0
 30
0.0
 40
4.5
100
AcDbArc
 50
212.7339800000043
 51
267.2660400000093
  0
ARC
  5
1917
330
D1
100
AcDbEntity
  8
0
  6
Continuous
100
AcDbCircle
 10
-24.29998800000021
 20
91.0
 30
0.0
 40
4.5
100
AcDbArc
 50
92.73396100000359
 51
147.2660199999957
  0
ARC
  5
1918
330
D1
100
AcDbEntity
  8
0
  6
Continuous
100
AcDbCircle
 10
-24.29998800000021
 20
91.0
 30
0.0
 40
4.5
100
AcDbArc
 50
272.7339599999908
 51
327.2660199999957
  0
ARC
  5
1919
330
D1
100
AcDbEntity
  8
0
  6
Continuous
100
AcDbCircle
 10
-24.29998800000021
 20
91.0
 30
0.0
 40
4.5
100
AcDbArc
 50
152.7339400000018
 51
207.2660599999981
  0
ARC
  5
191A
330
D1
100
AcDbEntity
  8
0
  6
Continuous
100
AcDbCircle
 10
-24.29998800000021
 20
91.0
 30
0.0
 40
4.5
100
AcDbArc
 50
32.73397599999347
 51
87.26603899999643
  0
ARC
  5
191B
330
D1
100
AcDbEntity
  8
0
  6
Continuous
100
AcDbCircle
 10
-24.29998800000021
 20
91.0
 30
0.0
 40
4.5
100
AcDbArc
 50
332.7339400000018
 51
27.26605699999129
  0
ARC
  5
191C
330
D1
100
AcDbEntity
  8
0
  6
Continuous
100
AcDbCircle
 10
24.29998800000021
 20
91.0
 30
0.0
 40
4.5
100
AcDbArc
 50
272.7339599999908
 51
327.2660199999957
  0
ARC
  5
191D
330
D1
100
AcDbEntity
  8
0
  6
Continuous
100
AcDbCircle
 10
24.29998800000021
 20
91.0
 30
0.0
 40
4.5
100
AcDbArc
 50
152.7339400000018
 51
207.2660599999981
  0
ARC
  5
191E
330
D1
100
AcDbEntity
  8
0
  6
Continuous
100
AcDbCircle
 10
24.29998800000021
 20
154.0000199999999
 30
0.0
 40
4.5
100
AcDbArc
 50
332.7339400000018
 51
27.26605699999129
  0
ARC
  5
191F
330
D1
100
AcDbEntity
  8
0
  6
Continuous
100
AcDbCircle
 10
24.29998800000021
 20
154.0000199999999
 30
0.0
 40
4.5
100
AcDbArc
 50
92.73396599998909
 51
147.2661099999964
  0
ARC
  5
1920
330
D1
100
AcDbEntity
  8
0
  6
Continuous
100
AcDbCircle
 10
24.29998800000021
 20
154.0000199999999
 30
0.0
 40
4.5
100
AcDbArc
 50
152.7339400000018
 51
207.2660599999981
  0
ARC
  5
1921
330
D1
100
AcDbEntity
  8
0
  6
Continuous
100
AcDbCircle
 10
24.29998800000021
 20
154.0000199999999
 30
0.0
 40
4.5
100
AcDbArc
 50
212.7338900000036
 51
267.2660300000119
  0
ARC
  5
1922
330
D1
100
AcDbEntity
  8
0
  6
Continuous
100
AcDbCircle
 10
24.29998800000021
 20
154.0000199999999
 30
0.0
 40
4.5
100
AcDbArc
 50
272.733969999988
 51
327.2661099999965
  0
ARC
  5
1923
330
D1
100
AcDbEntity
  8
0
  6
Continuous
100
AcDbCircle
 10
24.29998800000021
 20
154.0000199999999
 30
0.0
 40
4.5
100
AcDbArc
 50
32.73389399999015
 51
87.26603400001089
  0
CIRCLE
  5
1924
330
D1
100
AcDbEntity
  8
0
  6
Continuous
100
AcDbCircle
 10
24.29998800000021
 20
154.0000199999999
 30
0.0
 40
4.0
  0
CIRCLE
  5
1925
330
D1
100
AcDbEntity
  8
0
  6
Continuous
100
AcDbCircle
 10
-18.0
 20
122.5000199999999
 30
0.0
 40
4.283
  0
CIRCLE
  5
1926
330
D1
100
AcDbEntity
  8
0
  6
Continuous
100
AcDbCircle
 10
-18.0
 20
122.5000199999999
 30
0.0
 40
4.8639998
  0
CIRCLE
  5
1927
330
D1
100
AcDbEntity
  8
0
  6
Continuous
100
AcDbCircle
 10
24.29998800000021
 20
91.0
 30
0.0
 40
4.0
  0
CIRCLE
  5
1928
330
D1
100
AcDbEntity
  8
0
  6
Continuous
100
AcDbCircle
 10
-24.29998800000021
 20
91.0
 30
0.0
 40
4.0
  0
CIRCLE
  5
1929
330
D1
100
AcDbEntity
  8
0
  6
Continuous
100
AcDbCircle
 10
-24.29998800000021
 20
154.0000199999999
 30
0.0
 40
4.0
  0
ELLIPSE
  5
192E
330
D1
100
AcDbEntity
  8
0
  6
Continuous
100
AcDbEllipse
 10
13.85640700000022
 20
-37.0
 30
0.0
 11
3.544361799999999
 21
0.0
 31
0.0
210
0.0
220
0.0
230
1.0
 40
0.7330166500000001
 41
0.0
 42
3.1415927
  0
ELLIPSE
  5
192F
330
D1
100
AcDbEntity
  8
0
  6
Continuous
100
AcDbEllipse
 10
0.0
 20
-43.0
 30
0.0
 11
7.088723599999998
 21
0.0
 31
0.0
210
0.0
220
0.0
230
1.0
 40
0.6579025600000001
 41
3.1415927
 42
6.283185299999998
  0
ELLIPSE
  5
1930
330
D1
100
AcDbEntity
  8
0
  6
Continuous
100
AcDbEllipse
 10
0.0
 20
-37.0
 30
0.0
 11
-7.088723599999998
 21
0.0
 31
0.0
210
0.0
220
0.0
230
1.0
 40
0.36650832
 41
3.1415927
 42
6.283185299999998
  0
ELLIPSE
  5
1931
330
D1
100
AcDbEntity
  8
0
  6
Continuous
100
AcDbEllipse
 10
13.85640700000022
 20
-43.0
 30
0.0
 11
-0.0000000000002256
 21
4.663689399999999
 31
0.0
210
0.0
220
0.0
230
1.0
 40
0.7599909700000002
 41
1.5707963
 42
4.712388999999999
  0
ELLIPSE
  5
1932
330
D1
100
AcDbEntity
  8
0
  6
Continuous
100
AcDbEllipse
 10
-13.85640700000022
 20
-37.0
 30
0.0
 11
-3.544361799999999
 21
0.0
 31
0.0
210
0.0
220
0.0
230
1.0
 40
0.7330166500000001
 41
3.1415927
 42
6.283185299999998
  0
ELLIPSE
  5
1933
330
D1
100
AcDbEntity
  8
0
  6
Continuous
100
AcDbEllipse
 10
-13.85640700000022
 20
-43.0
 30
0.0
 11
0.0000000000002274
 21
4.663689399999999
 31
0.0
210
0.0
220
0.0
230
1.0
 40
0.7599909700000002
 41
1.5707963
 42
4.712388999999999
  0
LINE
  5
1935
330
D1
100
AcDbEntity
  8
0
  6
Continuous
100
AcDbLine
 10
-17.79998800000021
 20
421.1025059999998
 30
0.0
 11
-17.79998800000021
 21
485.0
 31
0.0
  0
LINE
  5
1936
330
D1
100
AcDbEntity
  8
0
  6
Continuous
100
AcDbLine
 10
17.80001799999991
 20
421.1024929999999
 30
0.0
 11
17.80001799999991
 21
485.0
 31
0.0
  0
LINE
  5
1937
330
D1
100
AcDbEntity
  8
0
  6
Continuous
100
AcDbLine
 10
-15.79998800000021
 20
421.8775049999998
 30
0.0
 11
-15.79998800000021
 21
485.0
 31
0.0
  0
LINE
  5
1938
330
D1
100
AcDbEntity
  8
0
  6
Continuous
100
AcDbLine
 10
-35.0
 20
414.437501
 30
0.0
 11
-35.0
 21
485.0
 31
0.0
  0
LINE
  5
1939
330
D1
100
AcDbEntity
  8
0
  6
Continuous
100
AcDbLine
 10
15.80001799999991
 20
421.8774940000001
 30
0.0
 11
15.80001799999991
 21
485.0
 31
0.0
  0
LINE
  5
193A
330
D1
100
AcDbEntity
  8
0
  6
Continuous
100
AcDbLine
 10
-30.79998800000022
 20
416.0650057999999
 30
0.0
 11
-30.79998800000022
 21
485.0
 31
0.0
  0
LINE
  5
193B
330
D1
100
AcDbEntity
  8
0
  6
Continuous
100
AcDbLine
 10
30.80001799999991
 20
416.0649938999998
 30
0.0
 11
30.80001799999991
 21
485.0
 31
0.0
  0
LINE
  5
193C
330
D1
100
AcDbEntity
  8
0
  6
Continuous
100
AcDbLine
 10
35.0
 20
414.437501
 30
0.0
 11
35.0
 21
485.0
 31
0.0
  0
LINE
  5
193D
330
D1
100
AcDbEntity
  8
0
  6
Continuous
100
AcDbLine
 10
-35.0
 20
485.0
 30
0.0
 11
35.0
 21
485.0
 31
0.0
  0
LINE
  5
193F
330
D1
100
AcDbEntity
  8
0
  6
Continuous
100
AcDbLine
 10
18.05004899999994
 20
351.4000020000001
 30
0.0
 11
18.05004899999994
 21
353.0
 31
0.0
  0
LINE
  5
1940
330
D1
100
AcDbEntity
  8
0
  6
Continuous
100
AcDbLine
 10
30.40004899999985
 20
349.9000020000001
 30
0.0
 11
18.20004800000015
 21
349.9000020000001
 31
0.0
  0
LINE
  5
1943
330
D1
100
AcDbEntity
  8
0
  6
Continuous
100
AcDbLine
 10
18.20004800000015
 20
349.9000020000001
 30
0.0
 11
18.20004800000015
 21
351.4000020000001
 31
0.0
  0
LINE
  5
1944
330
D1
100
AcDbEntity
  8
0
  6
Continuous
100
AcDbLine
 10
30.40004899999985
 20
349.9000020000001
 30
0.0
 11
30.40004899999985
 21
351.4000020000001
 31
0.0
  0
LINE
  5
1945
330
D1
100
AcDbEntity
  8
0
  6
Continuous
100
AcDbLine
 10
18.05004899999994
 20
486.5999979999998
 30
0.0
 11
18.05004899999994
 21
485.0
 31
0.0
  0
LINE
  5
1946
330
D1
100
AcDbEntity
  8
0
  6
Continuous
100
AcDbLine
 10
-35.0
 20
353.0
 30
0.0
 11
35.0
 21
353.0
 31
0.0
  0
LINE
  5
1947
330
D1
100
AcDbEntity
  8
0
  6
Continuous
100
AcDbLine
 10
-35.0
 20
357.5
 30
0.0
 11
35.0
 21
357.5
 31
0.0
  0
LINE
  5
1948
330
D1
100
AcDbEntity
  8
0
  6
Continuous
100
AcDbLine
 10
-18.04998800000021
 20
351.4000020000001
 30
0.0
 11
-18.04998800000021
 21
353.0
 31
0.0
  0
LINE
  5
1949
330
D1
100
AcDbEntity
  8
0
  6
Continuous
100
AcDbLine
 10
-18.04998800000021
 20
351.4000020000001
 30
0.0
 11
-30.54998800000021
 21
351.4000020000001
 31
0.0
  0
LINE
  5
194A
330
D1
100
AcDbEntity
  8
0
  6
Continuous
100
AcDbLine
 10
-30.54998800000021
 20
351.4000020000001
 30
0.0
 11
-30.54998800000021
 21
353.0
 31
0.0
  0
LINE
  5
194B
330
D1
100
AcDbEntity
  8
0
  6
Continuous
100
AcDbLine
 10
-18.19998699999996
 20
349.9000020000001
 30
0.0
 11
-30.39998800000012
 21
349.9000020000001
 31
0.0
  0
LINE
  5
194F
330
D1
100
AcDbEntity
  8
0
  6
Continuous
100
AcDbLine
 10
30.55004899999995
 20
486.5999979999998
 30
0.0
 11
30.55004899999995
 21
485.0
 31
0.0
  0
LINE
  5
1950
330
D1
100
AcDbEntity
  8
0
  6
Continuous
100
AcDbLine
 10
18.20004800000015
 20
488.0999979999998
 30
0.0
 11
30.40004899999985
 21
488.0999979999998
 31
0.0
  0
LINE
  5
1953
330
D1
100
AcDbEntity
  8
0
  6
Continuous
100
AcDbLine
 10
30.40004899999985
 20
488.0999979999998
 30
0.0
 11
30.40004899999985
 21
486.5999979999998
 31
0.0
  0
LINE
  5
1954
330
D1
100
AcDbEntity
  8
0
  6
Continuous
100
AcDbLine
 10
18.20004800000015
 20
488.0999979999998
 30
0.0
 11
18.20004800000015
 21
486.5999979999998
 31
0.0
  0
LINE
  5
1955
330
D1
100
AcDbEntity
  8
0
  6
Continuous
100
AcDbLine
 10
-30.54998800000021
 20
486.5999979999998
 30
0.0
 11
-30.54998800000021
 21
485.0
 31
0.0
  0
LINE
  5
1956
330
D1
100
AcDbEntity
  8
0
  6
Continuous
100
AcDbLine
 10
-30.54998800000021
 20
486.5999979999998
 30
0.0
 11
-18.04998800000021
 21
486.5999979999998
 31
0.0
  0
LINE
  5
1957
330
D1
100
AcDbEntity
  8
0
  6
Continuous
100
AcDbLine
 10
-18.04998800000021
 20
486.5999979999998
 30
0.0
 11
-18.04998800000021
 21
485.0
 31
0.0
  0
LINE
  5
1958
330
D1
100
AcDbEntity
  8
0
  6
Continuous
100
AcDbLine
 10
-30.39998800000012
 20
488.0999979999998
 30
0.0
 11
-18.19998699999996
 21
488.0999979999998
 31
0.0
  0
LINE
  5
195B
330
D1
100
AcDbEntity
  8
0
  6
Continuous
100
AcDbLine
 10
-18.19998699999996
 20
488.0999979999998
 30
0.0
 11
-18.19998699999996
 21
486.5999979999998
 31
0.0
  0
LINE
  5
195D
330
D1
100
AcDbEntity
  8
0
  6
Continuous
100
AcDbLine
 10
-30.39998800000012
 20
488.0999979999998
 30
0.0
 11
-30.39998800000012
 21
486.5999979999998
 31
0.0
  0
LINE
  5
195E
330
D1
100
AcDbEntity
  8
0
  6
Continuous
100
AcDbLine
 10
-21.79998800000021
 20
345.9000020000001
 30
0.0
 11
-26.79998800000021
 21
345.9000020000001
 31
0.0
  0
LINE
  5
195F
330
D1
100
AcDbEntity
  8
0
  6
Continuous
100
AcDbLine
 10
-19.29998800000021
 20
346.4043160000002
 30
0.0
 11
-19.29998800000021
 21
349.9000020000001
 31
0.0
  0
LINE
  5
1960
330
D1
100
AcDbEntity
  8
0
  6
Continuous
100
AcDbLine
 10
-24.29998800000021
 20
346.4043160000002
 30
0.0
 11
-24.29998800000021
 21
349.9000020000001
 31
0.0
  0
LINE
  5
1961
330
D1
100
AcDbEntity
  8
0
  6
Continuous
100
AcDbLine
 10
-29.29998800000021
 20
346.4043160000002
 30
0.0
 11
-29.29998800000021
 21
349.9000020000001
 31
0.0
  0
LINE
  5
1962
330
D1
100
AcDbEntity
  8
0
  6
Continuous
100
AcDbLine
 10
26.80004899999995
 20
345.9000020000001
 30
0.0
 11
21.80004899999994
 21
345.9000020000001
 31
0.0
  0
LINE
  5
1963
330
D1
100
AcDbEntity
  8
0
  6
Continuous
100
AcDbLine
 10
29.30004899999995
 20
346.4043160000002
 30
0.0
 11
29.30004899999995
 21
349.9000020000001
 31
0.0
  0
LINE
  5
1964
330
D1
100
AcDbEntity
  8
0
  6
Continuous
100
AcDbLine
 10
24.30004899999995
 20
346.4043160000002
 30
0.0
 11
24.30004899999995
 21
349.9000020000001
 31
0.0
  0
LINE
  5
1965
330
D1
100
AcDbEntity
  8
0
  6
Continuous
100
AcDbLine
 10
19.30004899999994
 20
346.4043160000002
 30
0.0
 11
19.30004899999994
 21
349.9000020000001
 31
0.0
  0
LINE
  5
1966
330
D1
100
AcDbEntity
  8
0
  6
Continuous
100
AcDbLine
 10
-26.79998800000021
 20
492.0999979999998
 30
0.0
 11
-21.79998800000021
 21
492.0999979999998
 31
0.0
  0
LINE
  5
1967
330
D1
100
AcDbEntity
  8
0
  6
Continuous
100
AcDbLine
 10
-29.29998800000021
 20
491.5956799999998
 30
0.0
 11
-29.29998800000021
 21
488.0999979999998
 31
0.0
  0
LINE
  5
1968
330
D1
100
AcDbEntity
  8
0
  6
Continuous
100
AcDbLine
 10
-24.29998800000021
 20
491.5956799999998
 30
0.0
 11
-24.29998800000021
 21
488.0999979999998
 31
0.0
  0
LINE
  5
1969
330
D1
100
AcDbEntity
  8
0
  6
Continuous
100
AcDbLine
 10
-19.29998800000021
 20
491.5956799999998
 30
0.0
 11
-19.29998800000021
 21
488.0999979999998
 31
0.0
  0
LINE
  5
196A
330
D1
100
AcDbEntity
  8
0
  6
Continuous
100
AcDbLine
 10
21.80004899999994
 20
492.0999979999998
 30
0.0
 11
26.80004899999995
 21
492.0999979999998
 31
0.0
  0
LINE
  5
196B
330
D1
100
AcDbEntity
  8
0
  6
Continuous
100
AcDbLine
 10
19.30004899999994
 20
491.5956799999998
 30
0.0
 11
19.30004899999994
 21
488.0999979999998
 31
0.0
  0
LINE
  5
196C
330
D1
100
AcDbEntity
  8
0
  6
Continuous
100
AcDbLine
 10
24.30004899999995
 20
491.5956799999998
 30
0.0
 11
24.30004899999995
 21
488.0999979999998
 31
0.0
  0
LINE
  5
196D
330
D1
100
AcDbEntity
  8
0
  6
Continuous
100
AcDbLine
 10
29.30004899999995
 20
491.5956799999998
 30
0.0
 11
29.30004899999995
 21
488.0999979999998
 31
0.0
  0
LINE
  5
196E
330
D1
100
AcDbEntity
  8
0
  6
Continuous
100
AcDbLine
 10
24.5
 20
341.5
 30
0.0
 11
11.5
 21
341.5
 31
0.0
  0
LINE
  5
196F
330
D1
100
AcDbEntity
  8
0
  6
Continuous
100
AcDbLine
 10
11.5
 20
336.724892
 30
0.0
 11
11.5
 21
341.5
 31
0.0
  0
LINE
  5
1970
330
D1
100
AcDbEntity
  8
0
  6
Continuous
100
AcDbLine
 10
9.5
 20
351.4000020000001
 30
0.0
 11
9.5
 21
353.0
 31
0.0
  0
LINE
  5
1971
330
D1
100
AcDbEntity
  8
0
  6
Continuous
100
AcDbLine
 10
9.5
 20
351.4000020000001
 30
0.0
 11
30.55004899999995
 21
351.4000020000001
 31
0.0
  0
LINE
  5
1972
330
D1
100
AcDbEntity
  8
0
  6
Continuous
100
AcDbLine
 10
24.5
 20
336.724892
 30
0.0
 11
24.5
 21
341.5
 31
0.0
  0
LINE
  5
1973
330
D1
100
AcDbEntity
  8
0
  6
Continuous
100
AcDbLine
 10
21.25
 20
336.0
 30
0.0
 11
14.75
 21
336.0
 31
0.0
  0
LINE
  5
1974
330
D1
100
AcDbEntity
  8
0
  6
Continuous
100
AcDbLine
 10
18.0
 20
336.724892
 30
0.0
 11
18.0
 21
341.5
 31
0.0
  0
LINE
  5
1975
330
D1
100
AcDbEntity
  8
0
  6
Continuous
100
AcDbLine
 10
-39.91984199999979
 20
412.5310630999998
 30
0.0
 11
0.0000001055977918
 21
428.0
 31
0.0
  0
LINE
  5
1976
330
D1
100
AcDbEntity
  8
0
  6
Continuous
100
AcDbLine
 10
-17.79998800000021
 20
353.0
 30
0.0
 11
-17.79998800000021
 21
398.8974940000002
 31
0.0
  0
LINE
  5
1977
330
D1
100
AcDbEntity
  8
0
  6
Continuous
100
AcDbLine
 10
15.80001799999991
 20
353.0
 30
0.0
 11
15.80001799999991
 21
398.1225059999999
 31
0.0
  0
LINE
  5
1978
330
D1
100
AcDbEntity
  8
0
  6
Continuous
100
AcDbLine
 10
17.80001799999991
 20
353.0
 30
0.0
 11
17.80001799999991
 21
398.8975069999998
 31
0.0
  0
LINE
  5
1979
330
D1
100
AcDbEntity
  8
0
  6
Continuous
100
AcDbLine
 10
35.0
 20
353.0
 30
0.0
 11
35.0
 21
405.5624989999998
 31
0.0
  0
LINE
  5
197A
330
D1
100
AcDbEntity
  8
0
  6
Continuous
100
AcDbLine
 10
-35.0
 20
353.0
 30
0.0
 11
-35.0
 21
405.5624989999998
 31
0.0
  0
LINE
  5
197B
330
D1
100
AcDbEntity
  8
0
  6
Continuous
100
AcDbLine
 10
-15.79998800000021
 20
353.0
 30
0.0
 11
-15.79998800000021
 21
398.1224950000001
 31
0.0
  0
LINE
  5
197C
330
D1
100
AcDbEntity
  8
0
  6
Continuous
100
AcDbLine
 10
18.0
 20
347.1248929999999
 30
0.0
 11
18.0
 21
350.6751059999999
 31
0.0
  0
LINE
  5
197D
330
D1
100
AcDbEntity
  8
0
  6
Continuous
100
AcDbLine
 10
19.31033900000011
 20
346.4000020000002
 30
0.0
 11
14.75
 21
346.4000020000002
 31
0.0
  0
LINE
  5
197E
330
D1
100
AcDbEntity
  8
0
  6
Continuous
100
AcDbLine
 10
11.5
 20
347.1248929999999
 30
0.0
 11
11.5
 21
350.6751059999999
 31
0.0
  0
LINE
  5
197F
330
D1
100
AcDbEntity
  8
0
  6
Continuous
100
AcDbLine
 10
-30.39998800000012
 20
349.9000020000001
 30
0.0
 11
-30.39998800000012
 21
351.4000020000001
 31
0.0
  0
LINE
  5
1980
330
D1
100
AcDbEntity
  8
0
  6
Continuous
100
AcDbLine
 10
-18.19998699999996
 20
349.9000020000001
 30
0.0
 11
-18.19998699999996
 21
351.4000020000001
 31
0.0
  0
LINE
  5
1983
330
D1
100
AcDbEntity
  8
0
  6
Continuous
100
AcDbLine
 10
11.5
 20
501.275108
 30
0.0
 11
11.5
 21
496.4999999999998
 31
0.0
  0
LINE
  5
1984
330
D1
100
AcDbEntity
  8
0
  6
Continuous
100
AcDbLine
 10
22.0
 20
345.9030990000002
 30
0.0
 11
22.0
 21
341.5
 31
0.0
  0
LINE
  5
1985
330
D1
100
AcDbEntity
  8
0
  6
Continuous
100
AcDbLine
 10
14.0
 20
346.4368629999999
 30
0.0
 11
14.0
 21
341.5
 31
0.0
  0
LINE
  5
1986
330
D1
100
AcDbEntity
  8
0
  6
Continuous
100
AcDbLine
 10
9.5
 20
486.5999979999998
 30
0.0
 11
9.5
 21
485.0
 31
0.0
  0
LINE
  5
1987
330
D1
100
AcDbEntity
  8
0
  6
Continuous
100
AcDbLine
 10
30.55004899999995
 20
351.4000020000001
 30
0.0
 11
30.55004899999995
 21
353.0
 31
0.0
  0
LINE
  5
1988
330
D1
100
AcDbEntity
  8
0
  6
Continuous
100
AcDbLine
 10
-30.79998800000022
 20
353.0
 30
0.0
 11
-30.79998800000022
 21
403.9349941999998
 31
0.0
  0
LINE
  5
1989
330
D1
100
AcDbEntity
  8
0
  6
Continuous
100
AcDbLine
 10
9.5
 20
486.5999979999998
 30
0.0
 11
30.55004899999995
 21
486.5999979999998
 31
0.0
  0
LINE
  5
198A
330
D1
100
AcDbEntity
  8
0
  6
Continuous
100
AcDbLine
 10
24.5
 20
501.275108
 30
0.0
 11
24.5
 21
496.4999999999998
 31
0.0
  0
LINE
  5
198B
330
D1
100
AcDbEntity
  8
0
  6
Continuous
100
AcDbLine
 10
24.5
 20
496.4999999999998
 30
0.0
 11
11.5
 21
496.4999999999998
 31
0.0
  0
LINE
  5
198C
330
D1
100
AcDbEntity
  8
0
  6
Continuous
100
AcDbLine
 10
30.80001799999991
 20
353.0
 30
0.0
 11
30.80001799999991
 21
403.9350061
 31
0.0
  0
LINE
  5
198D
330
D1
100
AcDbEntity
  8
0
  6
Continuous
100
AcDbLine
 10
-35.0
 20
480.5001219999998
 30
0.0
 11
35.0
 21
480.5001219999998
 31
0.0
  0
LINE
  5
198E
330
D1
100
AcDbEntity
  8
0
  6
Continuous
100
AcDbLine
 10
18.0
 20
501.275108
 30
0.0
 11
18.0
 21
496.4999999999998
 31
0.0
  0
LINE
  5
198F
330
D1
100
AcDbEntity
  8
0
  6
Continuous
100
AcDbLine
 10
11.5
 20
490.875107
 30
0.0
 11
11.5
 21
487.32489
 31
0.0
  0
LINE
  5
1992
330
D1
100
AcDbEntity
  8
0
  6
Continuous
100
AcDbLine
 10
22.0
 20
492.0969009999998
 30
0.0
 11
22.0
 21
496.4999999999998
 31
0.0
  0
LINE
  5
1993
330
D1
100
AcDbEntity
  8
0
  6
Continuous
100
AcDbLine
 10
14.0
 20
491.563133
 30
0.0
 11
14.0
 21
496.4999999999998
 31
0.0
  0
LINE
  5
1994
330
D1
100
AcDbEntity
  8
0
  6
Continuous
100
AcDbLine
 10
-0.0000001055977918
 20
428.0
 30
0.0
 11
39.91984199999979
 21
412.5310630999998
 31
0.0
  0
LINE
  5
1995
330
D1
100
AcDbEntity
  8
0
  6
Continuous
100
AcDbLine
 10
39.91984199999979
 20
407.4689369
 30
0.0
 11
-0.0000001055977918
 21
392.0
 31
0.0
  0
LINE
  5
1996
330
D1
100
AcDbEntity
  8
0
  6
Continuous
100
AcDbLine
 10
-39.91984199999979
 20
407.4689369
 30
0.0
 11
0.0000001055977918
 21
392.0
 31
0.0
  0
LINE
  5
1998
330
D1
100
AcDbEntity
  8
0
  6
Continuous
100
AcDbLine
 10
19.31033900000011
 20
491.5999979999998
 30
0.0
 11
14.75
 21
491.5999979999998
 31
0.0
  0
LINE
  5
1999
330
D1
100
AcDbEntity
  8
0
  6
Continuous
100
AcDbLine
 10
18.0
 20
490.875107
 30
0.0
 11
18.0
 21
487.32489
 31
0.0
  0
LINE
  5
199A
330
D1
100
AcDbEntity
  8
0
  6
Continuous
100
AcDbLine
 10
21.25
 20
502.0
 30
0.0
 11
14.75
 21
502.0
 31
0.0
  0
LINE
  5
199C
330
D1
100
AcDbEntity
  8
0
  6
Continuous
100
AcDbLine
 10
33.19997400000011
 20
350.499992
 30
0.0
 11
33.19997400000011
 21
353.0
 31
0.0
  0
LINE
  5
199D
330
D1
100
AcDbEntity
  8
0
  6
Continuous
100
AcDbLine
 10
29.30004899999995
 20
349.499992
 30
0.0
 11
32.19997400000011
 21
349.499992
 31
0.0
  0
LINE
  5
19A3
330
D1
100
AcDbEntity
  8
0
  6
Continuous
100
AcDbLine
 10
39.84998300000007
 20
358.499992
 30
0.0
 11
39.84998300000007
 21
380.1055345089491
 31
0.0
  0
LINE
  5
19A4
330
D1
100
AcDbEntity
  8
0
  6
Continuous
100
AcDbLine
 10
35.0
 20
358.499992
 30
0.0
 11
39.84998300000007
 21
358.499992
 31
0.0
  0
LINE
  5
19A6
330
D1
100
AcDbEntity
  8
0
  6
Continuous
100
AcDbLine
 10
38.84998300000006
 20
370.0
 30
0.0
 11
38.84998300000006
 21
407.0543674999998
 31
0.0
  0
LINE
  5
19AA
330
D1
100
AcDbEntity
  8
0
  6
Continuous
100
AcDbLine
 10
35.0
 20
457.2526589999998
 30
0.0
 11
41.84998300000006
 21
457.2526589999998
 31
0.0
  0
LINE
  5
19AB
330
D1
100
AcDbEntity
  8
0
  6
Continuous
100
AcDbLine
 10
41.84998300000006
 20
445.5
 30
0.0
 11
41.84998300000006
 21
457.2526589999998
 31
0.0
  0
LINE
  5
19AC
330
D1
100
AcDbEntity
  8
0
  6
Continuous
100
AcDbLine
 10
41.84998300000006
 20
445.5
 30
0.0
 11
38.84998300000006
 21
445.5
 31
0.0
  0
LINE
  5
19AE
330
D1
100
AcDbEntity
  8
0
  6
Continuous
100
AcDbLine
 10
55.18215899999995
 20
397.3000030000002
 30
0.0
 11
55.18215899999995
 21
422.6999969999998
 31
0.0
  0
LINE
  5
19AF
330
D1
100
AcDbEntity
  8
0
  6
Continuous
100
AcDbLine
 10
62.59997599999997
 20
435.25
 30
0.0
 11
62.59997599999997
 21
384.75
 31
0.0
  0
LINE
  5
19B0
330
D1
100
AcDbEntity
  8
0
  6
Continuous
100
AcDbLine
 10
53.78173799999991
 20
422.6999969999998
 30
0.0
 11
38.84998300000006
 21
422.6999969999998
 31
0.0
  0
LINE
  5
19B1
330
D1
100
AcDbEntity
  8
0
  6
Continuous
100
AcDbLine
 10
-49.98223899999993
 20
397.3000030000002
 30
0.0
 11
-49.98223899999993
 21
422.6999969999998
 31
0.0
  0
LINE
  5
19B2
330
D1
100
AcDbEntity
  8
0
  6
Continuous
100
AcDbLine
 10
-48.58178700000006
 20
397.3000030000002
 30
0.0
 11
-35.0
 21
397.3000030000002
 31
0.0
  0
LINE
  5
19B3
330
D1
100
AcDbEntity
  8
0
  6
Continuous
100
AcDbLine
 10
-54.35846700000002
 20
385.276396
 30
0.0
 11
-50.46119700000009
 21
395.984054
 31
0.0
  0
LINE
  5
19B4
330
D1
100
AcDbEntity
  8
0
  6
Continuous
100
AcDbLine
 10
-57.40002400000003
 20
384.75
 30
0.0
 11
-55.11022899999989
 21
384.75
 31
0.0
  0
LINE
  5
19B5
330
D1
100
AcDbEntity
  8
0
  6
Continuous
100
AcDbLine
 10
-54.35846300000003
 20
434.7236139999998
 30
0.0
 11
-50.46119700000009
 21
424.0159699999998
 31
0.0
  0
LINE
  5
19B6
330
D1
100
AcDbEntity
  8
0
  6
Continuous
100
AcDbLine
 10
-54.55004899999995
 20
434.7236139999998
 30
0.0
 11
-54.55004899999995
 21
385.805191
 31
0.0
  0
LINE
  5
19B7
330
D1
100
AcDbEntity
  8
0
  6
Continuous
100
AcDbLine
 10
-57.40002400000003
 20
435.25
 30
0.0
 11
-55.11022899999989
 21
435.25
 31
0.0
  0
LINE
  5
19B8
330
D1
100
AcDbEntity
  8
0
  6
Continuous
100
AcDbLine
 10
-57.40002400000003
 20
435.25
 30
0.0
 11
-57.40002400000003
 21
384.75
 31
0.0
  0
LINE
  5
19B9
330
D1
100
AcDbEntity
  8
0
  6
Continuous
100
AcDbLine
 10
-35.0
 20
422.6999969999998
 30
0.0
 11
-48.58178700000006
 21
422.6999969999998
 31
0.0
  0
LINE
  5
19BA
330
D1
100
AcDbEntity
  8
0
  6
Continuous
100
AcDbLine
 10
62.59997599999997
 20
384.75
 30
0.0
 11
60.31015000000002
 21
384.75
 31
0.0
  0
LINE
  5
19BB
330
D1
100
AcDbEntity
  8
0
  6
Continuous
100
AcDbLine
 10
59.558399
 20
434.723637
 30
0.0
 11
55.66112900000007
 21
424.0159779999998
 31
0.0
  0
LINE
  5
19BC
330
D1
100
AcDbEntity
  8
0
  6
Continuous
100
AcDbLine
 10
62.59997599999997
 20
435.25
 30
0.0
 11
60.31015000000002
 21
435.25
 31
0.0
  0
LINE
  5
19BD
330
D1
100
AcDbEntity
  8
0
  6
Continuous
100
AcDbLine
 10
59.75
 20
434.723637
 30
0.0
 11
59.75
 21
385.27639
 31
0.0
  0
LINE
  5
19BE
330
D1
100
AcDbEntity
  8
0
  6
Continuous
100
AcDbLine
 10
53.78173799999991
 20
397.3000030000002
 30
0.0
 11
38.84998300000006
 21
397.3000030000002
 31
0.0
  0
LINE
  5
19BF
330
D1
100
AcDbEntity
  8
0
  6
Continuous
100
AcDbLine
 10
59.55841800000007
 20
385.27639
 30
0.0
 11
55.6611479999999
 21
395.9840449999999
 31
0.0
  0
LINE
  5
19C1
330
D1
100
AcDbEntity
  8
0
  6
Continuous
100
AcDbLine
 10
38.84998300000006
 20
412.9456325000001
 30
0.0
 11
38.84998300000006
 21
450.0
 31
0.0
  0
CIRCLE
  5
19C2
330
D1
100
AcDbEntity
  8
0
  6
Continuous
100
AcDbCircle
 10
0.0
 20
410.0
 30
0.0
 40
6.0999999
  0
ARC
  5
19C3
330
D1
100
AcDbEntity
  8
0
  6
Continuous
100
AcDbCircle
 10
21.25
 20
343.7520070000001
 30
0.0
 40
7.647994999999998
100
AcDbArc
 50
113.5026200000055
 51
115.1473800000069
  0
ARC
  5
19C4
330
D1
100
AcDbEntity
  8
0
  6
Continuous
100
AcDbCircle
 10
14.75
 20
343.647995
 30
0.0
 40
7.647994500000001
100
AcDbArc
 50
244.8526400000016
 51
295.1473599999983
  0
ARC
  5
19C5
330
D1
100
AcDbEntity
  8
0
  6
Continuous
100
AcDbCircle
 10
21.25
 20
354.0479969999998
 30
0.0
 40
7.647994999999998
100
AcDbArc
 50
244.8526199999931
 51
255.2286399999958
  0
CIRCLE
  5
19C6
330
D1
100
AcDbEntity
  8
0
  6
Continuous
100
AcDbCircle
 10
23.80001799999991
 20
386.2117920000002
 30
0.0
 40
3.5
  0
CIRCLE
  5
19C7
330
D1
100
AcDbEntity
  8
0
  6
Continuous
100
AcDbCircle
 10
-23.79998800000021
 20
386.2117920000002
 30
0.0
 40
4.0
  0
CIRCLE
  5
19C8
330
D1
100
AcDbEntity
  8
0
  6
Continuous
100
AcDbCircle
 10
23.80001799999991
 20
433.7883299999999
 30
0.0
 40
4.0
  0
CIRCLE
  5
19C9
330
D1
100
AcDbEntity
  8
0
  6
Continuous
100
AcDbCircle
 10
23.80001799999991
 20
386.2117920000002
 30
0.0
 40
4.0
  0
CIRCLE
  5
19CA
330
D1
100
AcDbEntity
  8
0
  6
Continuous
100
AcDbCircle
 10
-23.79998800000021
 20
433.7883299999999
 30
0.0
 40
4.0
  0
ARC
  5
19CB
330
D1
100
AcDbEntity
  8
0
  6
Continuous
100
AcDbCircle
 10
0.0
 20
410.0
 30
0.0
 40
40.0
100
AcDbArc
 50
356.3720999999972
 51
3.627902400005994
  0
ARC
  5
19CC
330
D1
100
AcDbEntity
  8
0
  6
Continuous
100
AcDbCircle
 10
0.0
 20
410.0
 30
0.0
 40
40.0
100
AcDbArc
 50
176.3720999999971
 51
183.6279000000029
  0
CIRCLE
  5
19CD
330
D1
100
AcDbEntity
  8
0
  6
Continuous
100
AcDbCircle
 10
0.0
 20
410.0
 30
0.0
 40
5.25
  0
CIRCLE
  5
19CE
330
D1
100
AcDbEntity
  8
0
  6
Continuous
100
AcDbCircle
 10
-23.79998800000021
 20
433.7883299999999
 30
0.0
 40
3.5
  0
CIRCLE
  5
19CF
330
D1
100
AcDbEntity
  8
0
  6
Continuous
100
AcDbCircle
 10
-23.79998800000021
 20
386.2117920000002
 30
0.0
 40
3.5
  0
CIRCLE
  5
19D0
330
D1
100
AcDbEntity
  8
0
  6
Continuous
100
AcDbCircle
 10
23.80001799999991
 20
433.7883299999999
 30
0.0
 40
3.5
  0
ARC
  5
19D1
330
D1
100
AcDbEntity
  8
0
  6
Continuous
100
AcDbCircle
 10
-21.79998800000021
 20
352.3486600000002
 30
0.0
 40
6.4486594
100
AcDbArc
 50
247.1899399999985
 51
292.8100600000015
  0
ARC
  5
19D2
330
D1
100
AcDbEntity
  8
0
  6
Continuous
100
AcDbCircle
 10
-26.79998800000021
 20
352.3486600000002
 30
0.0
 40
6.4486594
100
AcDbArc
 50
247.1899399999985
 51
292.8100600000015
  0
ARC
  5
19D3
330
D1
100
AcDbEntity
  8
0
  6
Continuous
100
AcDbCircle
 10
14.75
 20
354.0479969999998
 30
0.0
 40
7.647994999999998
100
AcDbArc
 50
244.8526199999931
 51
295.1473800000069
  0
ARC
  5
19D4
330
D1
100
AcDbEntity
  8
0
  6
Continuous
100
AcDbCircle
 10
21.25
 20
494.352005
 30
0.0
 40
7.647994500000001
100
AcDbArc
 50
64.85263700001039
 51
115.1473599999984
  0
ARC
  5
19D5
330
D1
100
AcDbEntity
  8
0
  6
Continuous
100
AcDbCircle
 10
14.75
 20
494.2479929999998
 30
0.0
 40
7.647994999999998
100
AcDbArc
 50
244.8526400000016
 51
295.1473599999983
  0
ARC
  5
19D6
330
D1
100
AcDbEntity
  8
0
  6
Continuous
100
AcDbCircle
 10
14.75
 20
494.352005
 30
0.0
 40
7.647994500000001
100
AcDbArc
 50
64.85263700001039
 51
115.1473599999984
  0
ARC
  5
19D7
330
D1
100
AcDbEntity
  8
0
  6
Continuous
100
AcDbCircle
 10
26.80004899999995
 20
352.3486600000002
 30
0.0
 40
6.4486594
100
AcDbArc
 50
247.1899399999985
 51
292.8100600000015
  0
ARC
  5
19D8
330
D1
100
AcDbEntity
  8
0
  6
Continuous
100
AcDbCircle
 10
21.80004899999994
 20
352.3486600000002
 30
0.0
 40
6.4486594
100
AcDbArc
 50
247.1899399999985
 51
292.8100600000015
  0
ARC
  5
19D9
330
D1
100
AcDbEntity
  8
0
  6
Continuous
100
AcDbCircle
 10
-26.79998800000021
 20
485.651337
 30
0.0
 40
6.4486594
100
AcDbArc
 50
67.18994100000752
 51
112.8100600000015
  0
ARC
  5
19DA
330
D1
100
AcDbEntity
  8
0
  6
Continuous
100
AcDbCircle
 10
-21.79998800000021
 20
485.651337
 30
0.0
 40
6.4486594
100
AcDbArc
 50
67.18994100000752
 51
112.8100600000015
  0
ARC
  5
19DB
330
D1
100
AcDbEntity
  8
0
  6
Continuous
100
AcDbCircle
 10
21.80004899999994
 20
485.651337
 30
0.0
 40
6.4486594
100
AcDbArc
 50
67.18994100000752
 51
112.8100600000015
  0
ARC
  5
19DC
330
D1
100
AcDbEntity
  8
0
  6
Continuous
100
AcDbCircle
 10
26.80004899999995
 20
485.651337
 30
0.0
 40
6.4486594
100
AcDbArc
 50
67.18994100000752
 51
112.8100600000015
  0
ARC
  5
19DD
330
D1
100
AcDbEntity
  8
0
  6
Continuous
100
AcDbCircle
 10
21.25
 20
483.952003
 30
0.0
 40
7.647994999999998
100
AcDbArc
 50
104.7713600000041
 51
115.1473599999984
  0
ARC
  5
19DE
330
D1
100
AcDbEntity
  8
0
  6
Continuous
100
AcDbCircle
 10
14.75
 20
483.952003
 30
0.0
 40
7.647994999999998
100
AcDbArc
 50
64.85263700001039
 51
115.1473599999984
  0
ARC
  5
19DF
330
D1
100
AcDbEntity
  8
0
  6
Continuous
100
AcDbCircle
 10
21.25
 20
343.647995
 30
0.0
 40
7.647994500000001
100
AcDbArc
 50
244.8526400000016
 51
295.1473599999983
  0
ARC
  5
19E0
330
D1
100
AcDbEntity
  8
0
  6
Continuous
100
AcDbCircle
 10
14.75
 20
343.7520070000001
 30
0.0
 40
7.647994999999998
100
AcDbArc
 50
64.85262499998826
 51
115.1473800000069
  0
ARC
  5
19E7
330
D1
100
AcDbEntity
  8
0
  6
Continuous
100
AcDbCircle
 10
32.19997400000011
 20
350.499992
 30
0.0
 40
1.0
100
AcDbArc
 50
270.0
 51
0.0
  0
ARC
  5
19F3
330
D1
100
AcDbEntity
  8
0
  6
Continuous
100
AcDbCircle
 10
-28.0
 20
410.0
 30
0.0
 40
13.0
100
AcDbArc
 50
122.5789700000143
 51
237.4210299999857
  0
ARC
  5
19F4
330
D1
100
AcDbEntity
  8
0
  6
Continuous
100
AcDbCircle
 10
29.49997500000018
 20
351.5
 30
0.0
 40
2.0
100
AcDbArc
 50
264.2629500000081
 51
270.0
  0
ARC
  5
19F5
330
D1
100
AcDbEntity
  8
0
  6
Continuous
100
AcDbCircle
 10
-55.11022899999989
 20
385.5500030000002
 30
0.0
 40
0.8000000099999999
100
AcDbArc
 50
270.0
 51
339.9999700000063
  0
ARC
  5
19F6
330
D1
100
AcDbEntity
  8
0
  6
Continuous
100
AcDbCircle
 10
-55.11022899999989
 20
434.450012
 30
0.0
 40
0.8000000099999999
100
AcDbArc
 50
20.00002900000891
 51
90.0
  0
ARC
  5
19F7
330
D1
100
AcDbEntity
  8
0
  6
Continuous
100
AcDbCircle
 10
-48.58178700000006
 20
395.300003
 30
0.0
 40
2.0
100
AcDbArc
 50
90.0
 51
160.0000200000058
  0
ARC
  5
19F8
330
D1
100
AcDbEntity
  8
0
  6
Continuous
100
AcDbCircle
 10
-48.58178700000006
 20
424.700012
 30
0.0
 40
2.0
100
AcDbArc
 50
199.999979999994
 51
270.0
  0
ARC
  5
19F9
330
D1
100
AcDbEntity
  8
0
  6
Continuous
100
AcDbCircle
 10
53.78173799999991
 20
395.300003
 30
0.0
 40
2.0
100
AcDbArc
 50
19.99997800000535
 51
90.0
  0
ARC
  5
19FA
330
D1
100
AcDbEntity
  8
0
  6
Continuous
100
AcDbCircle
 10
60.31015000000002
 20
434.4499969999998
 30
0.0
 40
0.8000000099999999
100
AcDbArc
 50
90.0
 51
159.9999700000062
  0
ARC
  5
19FB
330
D1
100
AcDbEntity
  8
0
  6
Continuous
100
AcDbCircle
 10
60.31015000000002
 20
385.5500030000002
 30
0.0
 40
0.8000000099999999
100
AcDbArc
 50
200.0000299999937
 51
270.0
  0
ARC
  5
19FC
330
D1
100
AcDbEntity
  8
0
  6
Continuous
100
AcDbCircle
 10
53.78173799999991
 20
424.6999969999998
 30
0.0
 40
2.0
100
AcDbArc
 50
270.0
 51
340.0000200000058
  0
ARC
  5
19FE
330
D1
100
AcDbEntity
  8
0
  6
Continuous
100
AcDbCircle
 10
42.54998800000021
 20
397.3499910000001
 30
0.0
 40
0.050000001
100
AcDbArc
 50
270.0
 51
0.0
  0
ARC
  5
19FF
330
D1
100
AcDbEntity
  8
0
  6
Continuous
100
AcDbCircle
 10
-28.0
 20
410.0
 30
0.0
 40
10.0
100
AcDbArc
 50
134.4270000000091
 51
159.3687999999917
  0
ARC
  5
1A00
330
D1
100
AcDbEntity
  8
0
  6
Continuous
100
AcDbCircle
 10
-28.0
 20
410.0
 30
0.0
 40
10.0
100
AcDbArc
 50
200.6312000000082
 51
225.5729999999909
  0
LINE
  5
1A12
330
D1
100
AcDbEntity
  8
0
  6
CENTER
100
AcDbLine
 10
300.0
 20
-72.09127456049464
 30
0.0
 11
300.0
 21
208.3933376703226
 31
0.0
  0
LINE
  5
1A13
330
D1
100
AcDbEntity
  8
0
  6
CENTER
100
AcDbLine
 10
226.9759322685804
 20
0.0
 30
0.0
 11
367.6103254233094
 21
0.0
 31
0.0
  0
LINE
  5
1A14
330
D1
100
AcDbEntity
  8
0
  6
CENTER
100
AcDbLine
 10
0.0
 20
-72.1321728398566
 30
0.0
 11
0.0
 21
208.3933376703226
 31
0.0
  0
LINE
  5
1A15
330
D1
100
AcDbEntity
  8
0
  6
CENTER
100
AcDbLine
 10
-86.12564670917164
 20
0.0
 30
0.0
 11
84.44107015615555
 21
0.0
 31
0.0
  0
LINE
  5
1A16
330
D1
100
AcDbEntity
  8
0
  6
CENTER
100
AcDbLine
 10
0.0
 20
336.4186810379852
 30
0.0
 11
0.0
 21
499.1459442037212
 31
0.0
  0
LINE
  5
1A17
330
D1
100
AcDbEntity
  8
0
  6
CENTER
100
AcDbLine
 10
-85.2833584326636
 20
410.0
 30
0.0
 11
85.2833584326636
 21
410.0
 31
0.0
  0
TEXT
  5
1A18
330
D1
100
AcDbEntity
  8
0
100
AcDbText
 10
-341.6666666666665
 20
559.1666666666666
 30
0.0
 40
50.0
  1
2MA__T20000  1S
 72
     4
 11
0.0
 21
580.0
 31
0.0
100
AcDbText
  0
LINE
  5
1A19
330
D1
100
AcDbEntity
  8
0
  6
Continuous
100
AcDbLine
 10
39.84998300000007
 20
380.1055345089491
 30
0.0
 11
38.84998300000006
 21
380.1055345089491
 31
0.0
  0
LINE
  5
1A1C
330
D1
100
AcDbEntity
  8
0
  6
Continuous
100
AcDbLine
 10
38.84998300000006
 20
450.0
 30
0.0
 11
35.0
 21
450.0
 31
0.0
  0
LINE
  5
1A1D
330
D1
100
AcDbEntity
  8
0
  6
Continuous
100
AcDbLine
 10
38.84998300000006
 20
370.0
 30
0.0
 11
35.0
 21
370.0
 31
0.0
  0
TEXT
  5
1E01
330
D1
100
AcDbEntity
  8
0
100
AcDbText
 10
-341.6666666666666
 20
659.1666666666666
 30
0.0
 40
50.0
  1
2BA__T20000  1S
 72
     4
 11
0.0
 21
680.0
 31
0.0
100
AcDbText
  0
ENDSEC
  0
SECTION
  2
OBJECTS
  0
DICTIONARY
  5
144B
330
0
100
AcDbDictionary
281
     1
  3
ACAD_BACKGROUND
350
15E4
  3
ACAD_CIP_PREVIOUS_PRODUCT_INFO
350
14A7
  3
ACAD_COLOR
350
1485
  3
ACAD_DETAILVIEWSTYLE
350
1DA2
  3
ACAD_GROUP
350
144C
  3
ACAD_LAYOUT
350
149D
  3
ACAD_MATERIAL
350
1453
  3
ACAD_MLEADERSTYLE
350
149A
  3
ACAD_MLINESTYLE
350
144D
  3
ACAD_PLOTSETTINGS
350
149E
  3
ACAD_PLOTSTYLENAME
350
1451
  3
ACAD_SCALELIST
350
1488
  3
ACAD_SECTIONVIEWSTYLE
350
1DA0
  3
ACAD_TABLESTYLE
350
1486
  3
ACAD_VISUALSTYLE
350
146C
  3
ACDB_RECOMPOSE_DATA
350
1E04
  3
AcDbVariableDictionary
350
15F3
  3
AcmDictionary
350
151A
  3
AEC_PROPERTY_SET_DEFS
350
1A10
  3
AMG
350
14A9
  3
AMGSNAPSETTINGS
350
15B1
  0
DICTIONARY
  5
1A2C
330
E2
100
AcDbDictionary
280
     1
281
     1
  0
DICTIONARY
  5
1A02
330
C8
100
AcDbDictionary
280
     1
281
     1
  3
ACAD_LAYERSTATES
360
1A03
  0
DICTIONARY
  5
15EF
330
C9
100
AcDbDictionary
280
     1
281
     1
  3
ADSK_XREC_LAYER_RECONCILED
360
15F0
  0
DICTIONARY
  5
179F
330
D1
100
AcDbDictionary
280
     1
281
     1
  3
ACAD_SORTENTS
360
17A0
  0
DICTIONARY
  5
15E4
102
{ACAD_REACTORS
330
144B
102
}
330
144B
100
AcDbDictionary
281
     1
  0
XRECORD
  5
14A7
102
{ACAD_REACTORS
330
144B
102
}
330
144B
100
AcDbXrecord
280
     1
300
ACDLT
300
2019
300
ACDLT_F_S
  0
DICTIONARY
  5
1485
102
{ACAD_REACTORS
330
144B
102
}
330
144B
100
AcDbDictionary
281
     1
  0
DICTIONARY
  5
1DA2
102
{ACAD_REACTORS
330
144B
102
}
330
144B
100
AcDbDictionary
281
     1
  3
Metric50
350
1DA3
  0
DICTIONARY
  5
144C
102
{ACAD_REACTORS
330
144B
102
}
330
144B
100
AcDbDictionary
281
     1
  0
DICTIONARY
  5
149D
102
{ACAD_REACTORS
330
144B
102
}
330
144B
100
AcDbDictionary
281
     1
  3
Model
350
149F
  3
レイアウト1
350
14A0
  0
DICTIONARY
  5
1453
102
{ACAD_REACTORS
330
144B
102
}
330
144B
100
AcDbDictionary
281
     1
  3
ByBlock
350
145C
  3
ByLayer
350
1454
  3
Global
350
1464
  0
DICTIONARY
  5
149A
102
{ACAD_REACTORS
330
144B
102
}
330
144B
100
AcDbDictionary
281
     1
  3
Standard
350
149B
  0
DICTIONARY
  5
144D
102
{ACAD_REACTORS
330
144B
102
}
330
144B
100
AcDbDictionary
281
     1
  3
STANDARD
350
144E
  0
DICTIONARY
  5
149E
102
{ACAD_REACTORS
330
144B
102
}
330
144B
100
AcDbDictionary
281
     1
  0
ACDBDICTIONARYWDFLT
  5
1451
102
{ACAD_REACTORS
330
144B
102
}
330
144B
100
AcDbDictionary
281
     1
  3
Normal
350
1452
100
AcDbDictionaryWithDefault
340
1452
  0
DICTIONARY
  5
1488
102
{ACAD_REACTORS
330
144B
102
}
330
144B
100
AcDbDictionary
281
     1
  3
A0
350
1489
  3
A1
350
148A
  3
A2
350
148B
  3
A3
350
148C
  3
A4
350
148D
  3
A5
350
148E
  3
A6
350
148F
  3
A7
350
1490
  3
A8
350
1491
  3
A9
350
1492
  3
B0
350
1493
  3
B1
350
1494
  3
B2
350
1495
  3
B3
350
1496
  3
B4
350
1497
  3
B5
350
1498
  3
B6
350
1499
  0
DICTIONARY
  5
1DA0
102
{ACAD_REACTORS
330
144B
102
}
330
144B
100
AcDbDictionary
281
     1
  3
Metric50
350
1DA1
  0
DICTIONARY
  5
1486
102
{ACAD_REACTORS
330
144B
102
}
330
144B
100
AcDbDictionary
281
     1
  3
Standard
350
1487
  0
DICTIONARY
  5
146C
102
{ACAD_REACTORS
330
144B
102
}
330
144B
100
AcDbDictionary
281
     1
  3
2dWireframe
350
1472
  3
3D Hidden
350
1DE8
  3
3dWireframe
350
1DE7
  3
Basic
350
1471
  3
Brighten
350
1478
  3
ColorChange
350
147C
  3
Conceptual
350
1475
  3
Dim
350
1477
  3
EdgeColorOff
350
1484
  3
Facepattern
350
147B
  3
Flat
350
146D
  3
FlatWithEdges
350
146E
  3
Gouraud
350
146F
  3
GouraudWithEdges
350
1470
  3
Hidden
350
1474
  3
JitterOff
350
1482
  3
Linepattern
350
147A
  3
OverhangOff
350
1483
  3
Realistic
350
1476
  3
Shaded
350
1481
  3
Shaded with edges
350
1480
  3
Shades of Gray
350
147D
  3
Sketchy
350
147E
  3
Thicken
350
1479
  3
Wireframe
350
1473
  3
X-Ray
350
147F
  0
XRECORD
  5
1E04
102
{ACAD_REACTORS
330
144B
102
}
330
144B
100
AcDbXrecord
280
     1
 90
        1
330
1487
  0
DICTIONARY
  5
15F3
102
{ACAD_REACTORS
330
144B
102
}
330
144B
100
AcDbDictionary
281
     1
  3
CANNOSCALE
350
15F7
  3
CMLEADERSTYLE
350
15F5
  3
CTABLESTYLE
350
15F4
  3
CVIEWDETAILSTYLE
350
1DE3
  3
CVIEWSECTIONSTYLE
350
1DE4
  3
DIMASSOC
350
1A68
  3
INDEXCTL
350
1A67
  3
LAYEREVAL
350
15F9
  3
LAYERNOTIFY
350
15FA
  3
LIGHTINGUNITS
350
15F8
  3
MSLTSCALE
350
15F6
  3
SORTENTS
350
1A66
  0
DICTIONARY
  5
151A
102
{ACAD_REACTORS
330
144B
102
}
330
144B
100
AcDbDictionary
281
     1
  3
AcmStdDictionary
350
151B
  0
DICTIONARY
  5
1A10
102
{ACAD_REACTORS
330
144B
102
}
330
144B
100
AcDbDictionary
281
     1
  0
DICTIONARY
  5
14A9
102
{ACAD_REACTORS
330
144B
102
}
330
144B
100
AcDbDictionary
281
     1
  0
DICTIONARY
  5
15B1
102
{ACAD_REACTORS
330
144B
102
}
330
144B
100
AcDbDictionary
281
     1
  0
DICTIONARY
  5
1A03
102
{ACAD_REACTORS
330
1A02
102
}
330
1A02
100
AcDbDictionary
281
     1
  0
XRECORD
  5
15F0
102
{ACAD_REACTORS
330
15EF
102
}
330
15EF
100
AcDbXrecord
280
     1
290
     1
  0
SORTENTSTABLE
  5
17A0
102
{ACAD_REACTORS
330
179F
102
}
330
179F
100
AcDbSortentsTable
330
D1
331
1619
  5
187B
331
161A
  5
187C
331
161B
  5
187D
331
161C
  5
187E
331
161D
  5
187F
331
161E
  5
1880
331
161F
  5
1881
331
1620
  5
1882
331
1621
  5
1883
331
1622
  5
1884
331
1624
  5
1886
331
1625
  5
1887
331
1629
  5
188B
331
162A
  5
188C
331
162B
  5
188D
331
162C
  5
188E
331
162D
  5
188F
331
162E
  5
1890
331
162F
  5
1891
331
1631
  5
1893
331
1632
  5
1894
331
1633
  5
1895
331
1634
  5
1896
331
1635
  5
1897
331
1636
  5
1898
331
1637
  5
1899
331
1638
  5
189A
331
163B
  5
189D
331
163C
  5
189E
331
163D
  5
189F
331
163F
  5
18A1
331
1641
  5
18A3
331
1642
  5
18A4
331
1643
  5
18A5
331
1644
  5
18A6
331
1645
  5
18A7
331
1646
  5
18A8
331
1647
  5
18A9
331
1648
  5
18AA
331
1649
  5
18AB
331
164A
  5
18AC
331
164B
  5
18AD
331
164C
  5
18AE
331
164D
  5
18AF
331
164E
  5
18B0
331
164F
  5
18B1
331
1650
  5
18B2
331
1651
  5
18B3
331
1652
  5
18B4
331
1653
  5
18B5
331
1654
  5
18B6
331
1655
  5
18B7
331
1656
  5
18B8
331
1657
  5
18B9
331
1658
  5
18BA
331
1659
  5
18BB
331
165A
  5
18BC
331
165B
  5
18BD
331
165C
  5
18BE
331
165F
  5
18C1
331
1660
  5
18C2
331
1661
  5
18C3
331
1662
  5
18C4
331
1663
  5
18C5
331
1664
  5
18C6
331
1665
  5
18C7
331
1666
  5
18C8
331
1667
  5
18C9
331
1668
  5
18CA
331
1669
  5
18CB
331
166A
  5
18CC
331
166B
  5
18CD
331
166C
  5
18CE
331
166D
  5
18CF
331
166E
  5
18D0
331
166F
  5
18D1
331
1670
  5
18D2
331
1671
  5
18D3
331
1672
  5
18D4
331
1673
  5
18D5
331
1674
  5
18D6
331
1675
  5
18D7
331
1676
  5
18D8
331
1677
  5
18D9
331
167A
  5
18DC
331
167B
  5
18DD
331
167C
  5
18DE
331
167D
  5
18DF
331
167E
  5
18E0
331
1680
  5
18E2
331
1681
  5
18E3
331
1682
  5
18E4
331
1683
  5
18E5
331
1684
  5
18E6
331
1685
  5
18E7
331
1686
  5
18E8
331
1687
  5
18E9
331
1688
  5
18EA
331
1689
  5
18EB
331
168A
  5
18EC
331
1690
  5
18F2
331
1691
  5
18F3
331
1693
  5
18F5
331
1695
  5
18F7
331
1697
  5
18F9
331
1698
  5
18FA
331
169B
  5
18FD
331
169F
  5
1901
331
16A0
  5
1902
331
16A2
  5
1904
331
16A4
  5
1906
331
16A5
  5
1907
331
16A8
  5
190A
331
16A9
  5
190B
331
16AA
  5
190C
331
16AB
  5
190D
331
16AC
  5
190E
331
16B6
  5
1918
331
16B8
  5
191A
331
16B9
  5
191B
331
16BA
  5
191C
331
16BB
  5
191D
331
16BC
  5
191E
331
16BD
  5
191F
331
16BE
  5
1920
331
16BF
  5
1921
331
16C0
  5
1922
331
16C2
  5
1924
331
16C5
  5
1927
331
16C6
  5
1928
331
16C8
  5
192A
331
16CA
  5
192C
331
16CD
  5
192F
331
16CF
  5
1931
331
16D0
  5
1932
331
16D1
  5
1933
331
16D2
  5
1934
331
16D9
  5
193B
331
16DF
  5
1941
331
16E0
  5
1942
331
16E1
  5
1943
331
16E2
  5
1944
331
16E3
  5
1945
331
16E7
  5
1949
331
16E8
  5
194A
331
16E9
  5
194B
331
16EA
  5
194C
331
16EB
  5
194D
331
16EC
  5
194E
331
16ED
  5
194F
331
16EE
  5
1950
331
16EF
  5
1951
331
16F0
  5
1952
331
16F1
  5
1953
331
16F2
  5
1954
331
16F3
  5
1955
331
16F4
  5
1956
331
16F6
  5
1958
331
16F7
  5
1959
331
16F8
  5
195A
331
16FC
  5
195E
331
16FF
  5
1961
331
1703
  5
1965
331
1705
  5
1967
331
1706
  5
1968
331
1712
  5
1974
331
1713
  5
1975
331
1714
  5
1976
331
1715
  5
1977
331
1716
  5
1978
331
1717
  5
1979
331
1718
  5
197A
331
1719
  5
197B
331
171A
  5
197C
331
171D
  5
197F
331
171E
  5
1980
331
1721
  5
1983
331
1722
  5
1984
331
1723
  5
1985
331
172A
  5
198C
331
172B
  5
198D
331
172C
  5
198E
331
172D
  5
198F
331
172E
  5
1990
331
172F
  5
1991
331
1730
  5
1992
331
1731
  5
1993
331
1732
  5
1994
331
1733
  5
1995
331
1734
  5
1996
331
1735
  5
1997
331
1736
  5
1998
331
1737
  5
1999
331
1738
  5
199A
331
1739
  5
199B
331
173A
  5
199C
331
173B
  5
199D
331
173C
  5
199E
331
173D
  5
199F
331
173E
  5
19A0
331
173F
  5
19A1
331
1740
  5
19A2
331
1741
  5
19A3
331
1742
  5
19A4
331
1743
  5
19A5
331
1744
  5
19A6
331
1745
  5
19A7
331
1746
  5
19A8
331
1747
  5
19A9
331
1748
  5
19AA
331
1749
  5
19AB
331
174A
  5
19AC
331
174B
  5
19AD
331
174C
  5
19AE
331
1751
  5
19B3
331
1755
  5
19B7
331
1756
  5
19B8
331
175B
  5
19BD
331
175D
  5
19BF
331
175E
  5
19C0
331
175F
  5
19C1
331
1760
  5
19C2
331
1761
  5
19C3
331
1762
  5
19C4
331
1769
  5
19CB
331
176A
  5
19CC
331
176B
  5
19CD
331
176C
  5
19CE
331
176D
  5
19CF
331
176E
  5
19D0
331
176F
  5
19D1
331
1770
  5
19D2
331
1771
  5
19D3
331
1772
  5
19D4
331
1773
  5
19D5
331
1774
  5
19D6
331
1775
  5
19D7
331
1776
  5
19D8
331
1777
  5
19D9
331
1778
  5
19DA
331
177B
  5
19DD
331
177C
  5
19DE
331
177D
  5
19DF
331
177E
  5
19E0
331
177F
  5
19E1
331
1780
  5
19E2
331
1781
  5
19E3
331
1782
  5
19E4
331
1783
  5
19E5
331
1785
  5
19E7
331
1787
  5
19E9
331
1788
  5
19EA
331
1789
  5
19EB
331
178B
  5
19ED
331
178C
  5
19EE
331
178D
  5
19EF
331
178E
  5
19F0
331
178F
  5
19F1
331
1790
  5
19F2
331
1798
  5
19FA
331
179A
  5
19FC
331
179B
  5
19FD
331
179D
  5
19FF
331
179E
  5
1A00
331
17A2
  5
16E6
331
17A3
  5
16E7
331
17A4
  5
16E8
331
17A5
  5
16E9
331
17A6
  5
16EA
331
17AB
  5
16EF
331
17AD
  5
16F1
331
17AE
  5
16F2
331
17AF
  5
16F3
331
17B0
  5
16F4
331
17B1
  5
16F5
331
17B2
  5
16F6
331
17BA
  5
16FE
331
17BB
  5
16FF
331
17BC
  5
1700
331
17BD
  5
1701
331
17BE
  5
1702
331
17BF
  5
1703
331
17C0
  5
1704
331
17C1
  5
1705
331
17C3
  5
1707
331
17C5
  5
1709
331
17C6
  5
170A
331
17C7
  5
170B
331
17C9
  5
170D
331
17CB
  5
170F
331
17CC
  5
1710
331
17CD
  5
1711
331
17CF
  5
1713
331
17D0
  5
1714
331
17D1
  5
1715
331
17D2
  5
1716
331
17D4
  5
1718
331
17D5
  5
1719
331
17D6
  5
171A
331
17D7
  5
171B
331
17D8
  5
171C
331
17D9
  5
171D
331
17DA
  5
171E
331
17E1
  5
1725
331
17E2
  5
1726
331
17E3
  5
1727
331
17E6
  5
172A
331
17E8
  5
172C
331
17E9
  5
172D
331
17EA
  5
172E
331
17EB
  5
172F
331
17EC
  5
1730
331
17ED
  5
1731
331
17F1
  5
1735
331
17F2
  5
1736
331
17F3
  5
1737
331
17F7
  5
173B
331
17F8
  5
173C
331
17F9
  5
173D
331
17FA
  5
173E
331
17FE
  5
1742
331
1801
  5
1745
331
1802
  5
1746
331
1803
  5
1747
331
1806
  5
174A
331
1809
  5
174D
331
180C
  5
1750
331
180D
  5
1751
331
180E
  5
1752
331
180F
  5
1753
331
1811
  5
1755
331
1812
  5
1756
331
1813
  5
1757
331
1814
  5
1758
331
1815
  5
1759
331
1816
  5
175A
331
1817
  5
175B
331
1818
  5
175C
331
1819
  5
175D
331
181A
  5
175E
331
181B
  5
175F
331
181C
  5
1760
331
181D
  5
1761
331
1820
  5
1764
331
1822
  5
1766
331
1823
  5
1767
331
1824
  5
1768
331
1825
  5
1769
331
1826
  5
176A
331
1827
  5
176B
331
1828
  5
176C
331
1829
  5
176D
331
182A
  5
176E
331
182B
  5
176F
331
182C
  5
1770
331
182D
  5
1771
331
182E
  5
1772
331
182F
  5
1773
331
1830
  5
1774
331
1831
  5
1775
331
1832
  5
1776
331
1833
  5
1777
331
1834
  5
1778
331
1836
  5
177A
331
1837
  5
177B
331
1838
  5
177C
331
1839
  5
177D
331
183A
  5
177E
331
183B
  5
177F
331
183C
  5
1780
331
183D
  5
1781
331
183E
  5
1782
331
183F
  5
1783
331
1840
  5
1784
331
1841
  5
1785
331
1842
  5
1786
331
1843
  5
1787
331
1844
  5
1788
331
1846
  5
178A
331
1848
  5
178C
331
1849
  5
178D
331
184A
  5
178E
331
184B
  5
178F
331
184C
  5
1790
331
184D
  5
1791
331
184E
  5
1792
331
1859
  5
179D
331
185B
  5
17A1
331
185C
  5
17A2
331
185D
  5
17A3
331
185E
  5
17A4
331
1869
  5
17AF
331
186C
  5
17B2
331
1870
  5
17B6
331
1871
  5
17B7
331
1872
  5
17B8
331
1873
  5
17B9
331
1874
  5
17BA
331
1875
  5
17BB
331
1876
  5
17BC
331
1877
  5
17BD
331
1878
  5
17BE
331
1879
  5
17BF
331
187A
  5
17C0
331
187B
  5
17C1
331
187C
  5
17C2
331
187D
  5
17C3
331
187E
  5
17C4
331
187F
  5
17C5
331
1880
  5
17C6
331
1881
  5
17C7
331
1882
  5
17C8
331
1883
  5
17C9
331
1884
  5
17CA
331
1885
  5
17CB
331
1886
  5
17CC
331
1888
  5
17CE
331
1889
  5
17CF
331
188A
  5
17D0
331
188B
  5
17D1
331
188C
  5
17D2
331
188D
  5
17D3
331
188E
  5
17D4
331
188F
  5
17D5
331
1890
  5
17D6
331
1891
  5
17D7
331
1892
  5
17D8
331
1893
  5
17D9
331
1894
  5
17DA
331
1895
  5
17DB
331
1896
  5
17DC
331
1897
  5
17DD
331
1899
  5
17DF
331
189A
  5
17E0
331
189B
  5
17E1
331
189C
  5
17E2
331
189D
  5
17E3
331
189E
  5
17E4
331
189F
  5
17E5
331
18A0
  5
17E6
331
18A1
  5
17E7
331
18A2
  5
17E8
331
18A3
  5
17E9
331
18A4
  5
17EA
331
18A5
  5
17EB
331
18A6
  5
17EC
331
18A7
  5
17ED
331
18A8
  5
17EE
331
18A9
  5
17EF
331
18AB
  5
17F1
331
18AD
  5
17F3
331
18AE
  5
17F4
331
18AF
  5
17F5
331
18B0
  5
17F6
331
18BD
  5
1803
331
18BE
  5
1804
331
18BF
  5
1805
331
18C0
  5
1806
331
18C1
  5
1807
331
18C6
  5
180C
331
18C9
  5
180F
331
18CA
  5
1810
331
18CB
  5
1811
331
18CC
  5
1812
331
18CD
  5
1813
331
18CE
  5
1814
331
18CF
  5
1815
331
18D0
  5
1816
331
18DE
  5
1824
331
18DF
  5
1825
331
18E0
  5
1826
331
18E1
  5
1827
331
18E2
  5
1828
331
18E3
  5
1829
331
18E4
  5
182A
331
18E5
  5
182B
331
18E6
  5
182C
331
18E7
  5
182D
331
18E8
  5
182E
331
18E9
  5
182F
331
18EA
  5
1830
331
18EB
  5
1831
331
18EC
  5
1832
331
18ED
  5
1833
331
18EE
  5
1834
331
18EF
  5
1835
331
18F0
  5
1836
331
18F1
  5
1837
331
18F2
  5
1838
331
18F3
  5
1839
331
18F4
  5
183A
331
18F5
  5
183B
331
18F6
  5
183C
331
18F7
  5
183D
331
18F8
  5
183E
331
18F9
  5
183F
331
18FC
  5
1842
331
18FD
  5
1843
331
18FE
  5
1844
331
18FF
  5
1845
331
1900
  5
1846
331
1901
  5
1847
331
1902
  5
1848
331
1903
  5
1849
331
1904
  5
184A
331
1905
  5
184B
331
1906
  5
184C
331
1907
  5
184D
331
1908
  5
184E
331
1909
  5
184F
331
190A
  5
1850
331
190B
  5
1851
331
190C
  5
1852
331
190D
  5
1853
331
190E
  5
1854
331
190F
  5
1855
331
1910
  5
1856
331
1911
  5
1857
331
1912
  5
1858
331
1913
  5
1859
331
1914
  5
185A
331
1915
  5
185B
331
1916
  5
185C
331
1917
  5
185D
331
1918
  5
185E
331
1919
  5
185F
331
191A
  5
1860
331
191B
  5
1861
331
191C
  5
1862
331
191D
  5
1863
331
191E
  5
1864
331
191F
  5
1865
331
1920
  5
1866
331
1921
  5
1867
331
1922
  5
1868
331
1923
  5
1869
331
1924
  5
186A
331
1925
  5
186B
331
1926
  5
186C
331
1927
  5
186D
331
1928
  5
186E
331
1929
  5
186F
331
192E
  5
1874
331
192F
  5
1875
331
1930
  5
1876
331
1931
  5
1877
331
1932
  5
1878
331
1933
  5
1879
331
1935
  5
1619
331
1936
  5
161A
331
1937
  5
161B
331
1938
  5
161C
331
1939
  5
161D
331
193A
  5
161E
331
193B
  5
161F
331
193C
  5
1620
331
193D
  5
1621
331
193F
  5
1623
331
1940
  5
1624
331
1943
  5
1627
331
1944
  5
1628
331
1945
  5
1629
331
1946
  5
162A
331
1947
  5
162B
331
1948
  5
162C
331
1949
  5
162D
331
194A
  5
162E
331
194B
  5
162F
331
194F
  5
1633
331
1950
  5
1634
331
1953
  5
1637
331
1954
  5
1638
331
1955
  5
1639
331
1956
  5
163A
331
1957
  5
163B
331
1958
  5
163C
331
195B
  5
163F
331
195D
  5
1641
331
195E
  5
1642
331
195F
  5
1643
331
1960
  5
1644
331
1961
  5
1645
331
1962
  5
1646
331
1963
  5
1647
331
1964
  5
1648
331
1965
  5
1649
331
1966
  5
164A
331
1967
  5
164B
331
1968
  5
164C
331
1969
  5
164D
331
196A
  5
164E
331
196B
  5
164F
331
196C
  5
1650
331
196D
  5
1651
331
196E
  5
1652
331
196F
  5
1653
331
1970
  5
1654
331
1971
  5
1655
331
1972
  5
1656
331
1973
  5
1657
331
1974
  5
1658
331
1975
  5
1659
331
1976
  5
165A
331
1977
  5
165B
331
1978
  5
165C
331
1979
  5
165D
331
197A
  5
165E
331
197B
  5
165F
331
197C
  5
1660
331
197D
  5
1661
331
197E
  5
1662
331
197F
  5
1663
331
1980
  5
1664
331
1983
  5
1667
331
1984
  5
1668
331
1985
  5
1669
331
1986
  5
166A
331
1987
  5
166B
331
1988
  5
166C
331
1989
  5
166D
331
198A
  5
166E
331
198B
  5
166F
331
198C
  5
1670
331
198D
  5
1671
331
198E
  5
1672
331
198F
  5
1673
331
1992
  5
1676
331
1993
  5
1677
331
1994
  5
1678
331
1995
  5
1679
331
1996
  5
167A
331
1998
  5
167C
331
1999
  5
167D
331
199A
  5
167E
331
199C
  5
1680
331
199D
  5
1681
331
19A3
  5
1687
331
19A4
  5
1688
331
19A6
  5
168A
331
19AA
  5
168E
331
19AB
  5
168F
331
19AC
  5
1690
331
19AE
  5
1692
331
19AF
  5
1693
331
19B0
  5
1694
331
19B1
  5
1695
331
19B2
  5
1696
331
19B3
  5
1697
331
19B4
  5
1698
331
19B5
  5
1699
331
19B6
  5
169A
331
19B7
  5
169B
331
19B8
  5
169C
331
19B9
  5
169D
331
19BA
  5
169E
331
19BB
  5
169F
331
19BC
  5
16A0
331
19BD
  5
16A1
331
19BE
  5
16A2
331
19BF
  5
16A3
331
19C1
  5
16A5
331
19C2
  5
16A6
331
19C3
  5
16A7
331
19C4
  5
16A8
331
19C5
  5
16A9
331
19C6
  5
16AA
331
19C7
  5
16AB
331
19C8
  5
16AC
331
19C9
  5
16AD
331
19CA
  5
16AE
331
19CB
  5
16AF
331
19CC
  5
16B0
331
19CD
  5
16B1
331
19CE
  5
16B2
331
19CF
  5
16B3
331
19D0
  5
16B4
331
19D1
  5
16B5
331
19D2
  5
16B6
331
19D3
  5
16B7
331
19D4
  5
16B8
331
19D5
  5
16B9
331
19D6
  5
16BA
331
19D7
  5
16BB
331
19D8
  5
16BC
331
19D9
  5
16BD
331
19DA
  5
16BE
331
19DB
  5
16BF
331
19DC
  5
16C0
331
19DD
  5
16C1
331
19DE
  5
16C2
331
19DF
  5
16C3
331
19E0
  5
16C4
331
19E7
  5
16CB
331
19F3
  5
16D7
331
19F4
  5
16D8
331
19F5
  5
16D9
331
19F6
  5
16DA
331
19F7
  5
16DB
331
19F8
  5
16DC
331
19F9
  5
16DD
331
19FA
  5
16DE
331
19FB
  5
16DF
331
19FC
  5
16E0
331
19FE
  5
16E2
331
19FF
  5
16E3
331
1A00
  5
16E4
  0
ACDBDETAILVIEWSTYLE
  5
1DA3
102
{ACAD_XDICTIONARY
360
1E39
102
}
102
{ACAD_REACTORS
330
1DA2
102
}
330
1DA2
100
AcDbModelDocViewStyle
 70
     0
  3
Metric50
290
     0
100
AcDbDetailViewStyle
 70
     0
 71
     0
 90
        3
 71
     1
340
23
 62
   256
 40
5.0
340
0
 62
   256
 40
5.0
300

 40
0.0
280
     1
 71
     2
340
28
 90
       25
 62
   256
 71
     3
340
23
 62
   256
 40
5.0
 90
        0
 40
15.0
 90
        1
300
%<\AcVar ViewDetailId>% (%<\AcVar ViewScale \f "%sn">%)
 71
     4
340
28
 90
       25
 62
   256
340
28
 90
       25
 62
   256
280
     0
  0
LAYOUT
  5
149F
102
{ACAD_REACTORS
330
149D
102
}
330
149D
100
AcDbPlotSettings
  1

  2
iR C4580
  4

  6

 40
0.0
 41
0.0
 42
0.0
 43
0.0
 44
0.0
 45
0.0
 46
0.0
 47
0.0
 48
0.0
 49
0.0
140
0.0
141
0.0
142
1.0
143
1.0
 70
  1712
 72
     0
 73
     0
 74
     0
  7

 75
     0
147
1.0
 76
     0
 77
     2
 78
   300
148
0.0
149
0.0
100
AcDbLayout
  1
Model
 70
     1
 71
     0
 10
0.0
 20
0.0
 11
12.0
 21
9.0
 12
0.0
 22
0.0
 32
0.0
 14
0.0
 24
0.0
 34
0.0
 15
0.0
 25
0.0
 35
0.0
146
0.0
 13
0.0
 23
0.0
 33
0.0
 16
1.0
 26
0.0
 36
0.0
 17
0.0
 27
1.0
 37
0.0
 76
     0
330
D1
331
14A6
  0
LAYOUT
  5
14A0
102
{ACAD_REACTORS
330
149D
102
}
330
149D
100
AcDbPlotSettings
  1

  2
iR C4580
  4

  6

 40
0.0
 41
0.0
 42
0.0
 43
0.0
 44
0.0
 45
0.0
 46
0.0
 47
0.0
 48
0.0
 49
0.0
140
0.0
141
0.0
142
1.0
143
1.0
 70
   688
 72
     0
 73
     0
 74
     5
  7

 75
    16
147
1.0
 76
     0
 77
     2
 78
   300
148
0.0
149
0.0
100
AcDbLayout
  1
レイアウト1
 70
     1
 71
     1
 10
-2550.0
 20
0.0
 11
0.0
 21
1800.0
 12
0.0
 22
0.0
 32
0.0
 14
-2550.0
 24
0.0
 34
0.0
 15
0.0
 25
1800.0
 35
0.0
146
0.0
 13
0.0
 23
0.0
 33
0.0
 16
1.0
 26
0.0
 36
0.0
 17
0.0
 27
1.0
 37
0.0
 76
     0
330
D2
  0
MATERIAL
  5
145C
102
{ACAD_XDICTIONARY
360
145D
102
}
102
{ACAD_REACTORS
330
1453
102
}
330
1453
100
AcDbMaterial
  1
ByBlock
 72
     0
 43
0.0208333333333333
 43
0.0
 43
0.0
 43
0.0
 43
0.0
 43
0.0208333333333333
 43
0.0
 43
0.0
 43
0.0
 43
0.0
 43
1.0
 43
0.0
 43
0.0
 43
0.0
 43
0.0
 43
1.0
 77
     0
 47
0.0208333333333333
 47
0.0
 47
0.0
 47
0.0
 47
0.0
 47
0.0208333333333333
 47
0.0
 47
0.0
 47
0.0
 47
0.0
 47
1.0
 47
0.0
 47
0.0
 47
0.0
 47
0.0
 47
1.0
171
     0
 49
0.0208333333333333
 49
0.0
 49
0.0
 49
0.0
 49
0.0
 49
0.0208333333333333
 49
0.0
 49
0.0
 49
0.0
 49
0.0
 49
1.0
 49
0.0
 49
0.0
 49
0.0
 49
0.0
 49
1.0
175
     0
142
0.0208333333333333
142
0.0
142
0.0
142
0.0
142
0.0
142
0.0208333333333333
142
0.0
142
0.0
142
0.0
142
0.0
142
1.0
142
0.0
142
0.0
142
0.0
142
0.0
142
1.0
179
     0
144
0.0208333333333333
144
0.0
144
0.0
144
0.0
144
0.0
144
0.0208333333333333
144
0.0
144
0.0
144
0.0
144
0.0
144
1.0
144
0.0
144
0.0
144
0.0
144
0.0
144
1.0
147
0.0208333333333333
147
0.0
147
0.0
147
0.0
147
0.0
147
0.0208333333333333
147
0.0
147
0.0
147
0.0
147
0.0
147
1.0
147
0.0
147
0.0
147
0.0
147
0.0
147
1.0
  0
MATERIAL
  5
1454
102
{ACAD_XDICTIONARY
360
1455
102
}
102
{ACAD_REACTORS
330
1453
102
}
330
1453
100
AcDbMaterial
  1
ByLayer
 72
     0
 43
0.0208333333333333
 43
0.0
 43
0.0
 43
0.0
 43
0.0
 43
0.0208333333333333
 43
0.0
 43
0.0
 43
0.0
 43
0.0
 43
1.0
 43
0.0
 43
0.0
 43
0.0
 43
0.0
 43
1.0
 77
     0
 47
0.0208333333333333
 47
0.0
 47
0.0
 47
0.0
 47
0.0
 47
0.0208333333333333
 47
0.0
 47
0.0
 47
0.0
 47
0.0
 47
1.0
 47
0.0
 47
0.0
 47
0.0
 47
0.0
 47
1.0
171
     0
 49
0.0208333333333333
 49
0.0
 49
0.0
 49
0.0
 49
0.0
 49
0.0208333333333333
 49
0.0
 49
0.0
 49
0.0
 49
0.0
 49
1.0
 49
0.0
 49
0.0
 49
0.0
 49
0.0
 49
1.0
175
     0
142
0.0208333333333333
142
0.0
142
0.0
142
0.0
142
0.0
142
0.0208333333333333
142
0.0
142
0.0
142
0.0
142
0.0
142
1.0
142
0.0
142
0.0
142
0.0
142
0.0
142
1.0
179
     0
144
0.0208333333333333
144
0.0
144
0.0
144
0.0
144
0.0
144
0.0208333333333333
144
0.0
144
0.0
144
0.0
144
0.0
144
1.0
144
0.0
144
0.0
144
0.0
144
0.0
144
1.0
147
0.0208333333333333
147
0.0
147
0.0
147
0.0
147
0.0
147
0.0208333333333333
147
0.0
147
0.0
147
0.0
147
0.0
147
1.0
147
0.0
147
0.0
147
0.0
147
0.0
147
1.0
  0
MATERIAL
  5
1464
102
{ACAD_XDICTIONARY
360
1465
102
}
102
{ACAD_REACTORS
330
1453
102
}
330
1453
100
AcDbMaterial
  1
Global
 72
     0
 43
0.0208333333333333
 43
0.0
 43
0.0
 43
0.0
 43
0.0
 43
0.0208333333333333
 43
0.0
 43
0.0
 43
0.0
 43
0.0
 43
1.0
 43
0.0
 43
0.0
 43
0.0
 43
0.0
 43
1.0
 77
     0
 47
0.0208333333333333
 47
0.0
 47
0.0
 47
0.0
 47
0.0
 47
0.0208333333333333
 47
0.0
 47
0.0
 47
0.0
 47
0.0
 47
1.0
 47
0.0
 47
0.0
 47
0.0
 47
0.0
 47
1.0
171
     0
 49
0.0208333333333333
 49
0.0
 49
0.0
 49
0.0
 49
0.0
 49
0.0208333333333333
 49
0.0
 49
0.0
 49
0.0
 49
0.0
 49
1.0
 49
0.0
 49
0.0
 49
0.0
 49
0.0
 49
1.0
175
     0
142
0.0208333333333333
142
0.0
142
0.0
142
0.0
142
0.0
142
0.0208333333333333
142
0.0
142
0.0
142
0.0
142
0.0
142
1.0
142
0.0
142
0.0
142
0.0
142
0.0
142
1.0
179
     0
144
0.0208333333333333
144
0.0
144
0.0
144
0.0
144
0.0
144
0.0208333333333333
144
0.0
144
0.0
144
0.0
144
0.0
144
1.0
144
0.0
144
0.0
144
0.0
144
0.0
144
1.0
147
0.0208333333333333
147
0.0
147
0.0
147
0.0
147
0.0
147
0.0208333333333333
147
0.0
147
0.0
147
0.0
147
0.0
147
1.0
147
0.0
147
0.0
147
0.0
147
0.0
147
1.0
  0
MLEADERSTYLE
  5
149B
102
{ACAD_XDICTIONARY
360
1E35
102
}
102
{ACAD_REACTORS
330
149A
102
}
330
149A
100
AcDbMLeaderStyle
179
     2
170
     2
171
     1
172
     0
 90
        2
 40
0.0
 41
0.0
173
     1
 91
-1056964608
340
26
 92
       -2
290
     1
 42
2.0
291
     1
 43
0.36
  3
Standard
 44
4.0
300

342
23
174
     1
178
     6
175
     1
176
     0
 93
-1056964608
 45
4.0
292
     0
297
     0
 46
4.0
 94
-1056964608
 47
1.0
 49
1.0
140
1.0
293
     1
141
0.0
294
     1
177
     0
142
1.0
295
     0
296
     0
143
0.125
271
     0
272
     9
273
     9
1001
ACAD_MLEADERVER
1070
     2
  0
MLINESTYLE
  5
144E
102
{ACAD_REACTORS
330
144D
102
}
330
144D
100
AcDbMlineStyle
  2
STANDARD
 70
     0
  3

 62
     0
 51
90.0
 52
90.0
 71
     2
 49
0.5
 62
   256
  6
BYLAYER
 49
-0.5
 62
   256
  6
BYLAYER
  0
ACDBPLACEHOLDER
  5
1452
102
{ACAD_REACTORS
330
1451
102
}
330
1451
  0
SCALE
  5
1489
102
{ACAD_REACTORS
330
1488
102
}
330
1488
100
AcDbScale
 70
     0
300
1:1
140
1.0
141
1.0
290
     1
  0
SCALE
  5
148A
102
{ACAD_REACTORS
330
1488
102
}
330
1488
100
AcDbScale
 70
     0
300
1:2
140
1.0
141
2.0
290
     0
  0
SCALE
  5
148B
102
{ACAD_REACTORS
330
1488
102
}
330
1488
100
AcDbScale
 70
     0
300
1:4
140
1.0
141
4.0
290
     0
  0
SCALE
  5
148C
102
{ACAD_REACTORS
330
1488
102
}
330
1488
100
AcDbScale
 70
     0
300
1:5
140
1.0
141
5.0
290
     0
  0
SCALE
  5
148D
102
{ACAD_REACTORS
330
1488
102
}
330
1488
100
AcDbScale
 70
     0
300
1:8
140
1.0
141
8.0
290
     0
  0
SCALE
  5
148E
102
{ACAD_REACTORS
330
1488
102
}
330
1488
100
AcDbScale
 70
     0
300
1:10
140
1.0
141
10.0
290
     0
  0
SCALE
  5
148F
102
{ACAD_REACTORS
330
1488
102
}
330
1488
100
AcDbScale
 70
     0
300
1:16
140
1.0
141
16.0
290
     0
  0
SCALE
  5
1490
102
{ACAD_REACTORS
330
1488
102
}
330
1488
100
AcDbScale
 70
     0
300
1:20
140
1.0
141
20.0
290
     0
  0
SCALE
  5
1491
102
{ACAD_REACTORS
330
1488
102
}
330
1488
100
AcDbScale
 70
     0
300
1:30
140
1.0
141
30.0
290
     0
  0
SCALE
  5
1492
102
{ACAD_REACTORS
330
1488
102
}
330
1488
100
AcDbScale
 70
     0
300
1:40
140
1.0
141
40.0
290
     0
  0
SCALE
  5
1493
102
{ACAD_REACTORS
330
1488
102
}
330
1488
100
AcDbScale
 70
     0
300
1:50
140
1.0
141
50.0
290
     0
  0
SCALE
  5
1494
102
{ACAD_REACTORS
330
1488
102
}
330
1488
100
AcDbScale
 70
     0
300
1:100
140
1.0
141
100.0
290
     0
  0
SCALE
  5
1495
102
{ACAD_REACTORS
330
1488
102
}
330
1488
100
AcDbScale
 70
     0
300
2:1
140
2.0
141
1.0
290
     0
  0
SCALE
  5
1496
102
{ACAD_REACTORS
330
1488
102
}
330
1488
100
AcDbScale
 70
     0
300
4:1
140
4.0
141
1.0
290
     0
  0
SCALE
  5
1497
102
{ACAD_REACTORS
330
1488
102
}
330
1488
100
AcDbScale
 70
     0
300
8:1
140
8.0
141
1.0
290
     0
  0
SCALE
  5
1498
102
{ACAD_REACTORS
330
1488
102
}
330
1488
100
AcDbScale
 70
     0
300
10:1
140
10.0
141
1.0
290
     0
  0
SCALE
  5
1499
102
{ACAD_REACTORS
330
1488
102
}
330
1488
100
AcDbScale
 70
     0
300
100:1
140
100.0
141
1.0
290
     0
  0
ACDBSECTIONVIEWSTYLE
  5
1DA1
102
{ACAD_XDICTIONARY
360
1E37
102
}
102
{ACAD_REACTORS
330
1DA0
102
}
330
1DA0
100
AcDbModelDocViewStyle
 70
     0
  3
Metric50
290
     0
100
AcDbSectionViewStyle
 70
     0
 71
     0
 90
      102
 71
     1
340
23
 62
   256
 40
5.0
340
0
340
0
 62
   256
 40
5.0
300
I, O, Q, S, X, Z
 40
10.0
 90
        0
 40
2.5
 90
        0
 71
     2
340
28
 90
       25
 62
   256
340
28
 90
       50
 62
   256
 40
5.0
 40
2.5
 40
5.0
 71
     3
340
23
 62
   256
 40
5.0
 90
        0
 40
15.0
 90
        1
300
%<\AcVar ViewSectionStartId>%-%<\AcVar ViewSectionEndId>% (%<\AcVar ViewScale \f "%sn">%)
 71
     4
 62
   256
 62
   257
300
ANSI31
 40
1.0
 90
        0
290
     0
290
     0
 90
        6
 40
0.0
 40
1.570796326794896
 40
0.2617993877991494
 40
1.308996938995747
 40
-0.2617993877991494
 40
1.832595714594046
  0
TABLESTYLE
  5
1487
102
{ACAD_XDICTIONARY
360
1A28
102
}
102
{ACAD_REACTORS
330
1486
102
}
330
1486
100
AcDbTableStyle
280
     0
  3
Standard
 70
     0
 71
     0
 40
1.5
 41
1.5
280
     0
281
     0
  7
STANDARD
140
4.5
170
     2
 62
     0
 63
     7
283
     0
 90
      512
 91
        0
  1

274
    -2
284
     1
 64
     0
275
    -2
285
     1
 65
     0
276
    -2
286
     1
 66
     0
277
    -2
287
     1
 67
     0
278
    -2
288
     1
 68
     0
279
    -2
289
     1
 69
     0
  7
STANDARD
140
6.0
170
     5
 62
     0
 63
     7
283
     0
 90
      512
 91
        0
  1

274
    -2
284
     1
 64
     0
275
    -2
285
     1
 65
     0
276
    -2
286
     1
 66
     0
277
    -2
287
     1
 67
     0
278
    -2
288
     1
 68
     0
279
    -2
289
     1
 69
     0
  7
STANDARD
140
4.5
170
     5
 62
     0
 63
     7
283
     0
 90
      512
 91
        0
  1

274
    -2
284
     1
 64
     0
275
    -2
285
     1
 65
     0
276
    -2
286
     1
 66
     0
277
    -2
287
     1
 67
     0
278
    -2
288
     1
 68
     0
279
    -2
289
     1
 69
     0
  0
VISUALSTYLE
  5
1472
102
{ACAD_XDICTIONARY
360
1E0F
102
}
102
{ACAD_REACTORS
330
146C
102
}
330
146C
100
AcDbVisualStyle
  2

 70
     4
177
     2
291
     0
 71
     0
176
     1
 72
     2
176
     1
 73
     0
176
     1
 90
        0
176
     1
 40
0.6
176
     1
 41
30.0
176
     1
 63
     7
176
     1
 74
     1
176
     1
 91
        4
176
     1
 64
     7
176
     1
 65
   257
176
     1
 75
     1
176
     1
175
     1
176
     1
 42
1.0
176
     1
 92
        0
176
     1
 66
   257
176
     1
 43
1.0
176
     1
 76
     1
176
     1
 77
     6
176
     1
 78
     2
176
     1
 67
     7
176
     1
 79
     5
176
     1
170
     0
176
     1
171
     0
176
     1
290
     0
176
     1
 93
        1
176
     1
 44
0.0
176
     1
173
     0
176
     1
1001
ACAD
1000
AcDbSavedByObjectVersion
1070
     0
  0
VISUALSTYLE
  5
1DE8
102
{ACAD_XDICTIONARY
360
1E3D
102
}
102
{ACAD_REACTORS
330
146C
102
}
330
146C
100
AcDbVisualStyle
  2

 70
     6
177
     2
291
     0
 71
     1
176
     1
 72
     2
176
     1
 73
     2
176
     1
 90
        0
176
     1
 40
0.6
176
     1
 41
30.0
176
     1
 63
     7
421
 16777215
176
     1
 74
     2
176
     1
 91
        2
176
     1
 64
     7
176
     1
 65
   257
176
     1
 75
     2
176
     1
175
     1
176
     1
 42
179.0
176
     1
 92
        0
176
     1
 66
   257
176
     1
 43
1.0
176
     1
 76
     1
176
     1
 77
     6
176
     1
 78
     2
176
     1
 67
     7
176
     1
 79
     3
176
     1
170
     0
176
     1
171
     0
176
     1
290
     0
176
     1
 93
        1
176
     1
 44
0.0
176
     1
173
     0
176
     1
1001
ACAD
1000
AcDbSavedByObjectVersion
1070
     0
  0
VISUALSTYLE
  5
1DE7
102
{ACAD_XDICTIONARY
360
1E3B
102
}
102
{ACAD_REACTORS
330
146C
102
}
330
146C
100
AcDbVisualStyle
  2

 70
     5
177
     2
291
     0
 71
     0
176
     1
 72
     2
176
     1
 73
     0
176
     1
 90
        0
176
     1
 40
0.6
176
     1
 41
30.0
176
     1
 63
     7
421
 16777215
176
     1
 74
     1
176
     1
 91
        4
176
     1
 64
     7
176
     1
 65
   257
176
     1
 75
     1
176
     1
175
     1
176
     1
 42
1.0
176
     1
 92
        0
176
     1
 66
   257
176
     1
 43
1.0
176
     1
 76
     1
176
     1
 77
     6
176
     1
 78
     2
176
     1
 67
     7
176
     1
 79
     5
176
     1
170
     0
176
     1
171
     0
176
     1
290
     0
176
     1
 93
        1
176
     1
 44
0.0
176
     1
173
     0
176
     1
1001
ACAD
1000
AcDbSavedByObjectVersion
1070
     0
  0
VISUALSTYLE
  5
1471
102
{ACAD_XDICTIONARY
360
1E0D
102
}
102
{ACAD_REACTORS
330
146C
102
}
330
146C
100
AcDbVisualStyle
  2

 70
     7
177
     2
291
     1
 71
     1
176
     1
 72
     0
176
     1
 73
     1
176
     1
 90
        0
176
     1
 40
0.6
176
     1
 41
30.0
176
     1
 63
     7
176
     1
 74
     0
176
     1
 91
        4
176
     1
 64
     7
176
     1
 65
   257
176
     1
 75
     1
176
     1
175
     1
176
     1
 42
1.0
176
     1
 92
        8
176
     1
 66
     7
176
     1
 43
1.0
176
     1
 76
     1
176
     1
 77
     6
176
     1
 78
     2
176
     1
 67
     7
176
     1
 79
     5
176
     1
170
     0
176
     1
171
     0
176
     1
290
     0
176
     1
 93
        1
176
     1
 44
0.0
176
     1
173
     0
176
     1
1001
ACAD
1000
AcDbSavedByObjectVersion
1070
     0
  0
VISUALSTYLE
  5
1478
102
{ACAD_XDICTIONARY
360
1E1B
102
}
102
{ACAD_REACTORS
330
146C
102
}
330
146C
100
AcDbVisualStyle
  2

 70
    12
177
     2
291
     1
 71
     2
176
     1
 72
     2
176
     1
 73
     0
176
     1
 90
        0
176
     1
 40
0.6
176
     1
 41
30.0
176
     1
 63
     7
176
     1
 74
     1
176
     1
 91
        4
176
     1
 64
     7
176
     1
 65
   257
176
     1
 75
     1
176
     1
175
     1
176
     1
 42
1.0
176
     1
 92
        8
176
     1
 66
     7
176
     1
 43
1.0
176
     1
 76
     1
176
     1
 77
     6
176
     1
 78
     2
176
     1
 67
     7
176
     1
 79
     5
176
     1
170
     0
176
     1
171
     0
176
     1
290
     0
176
     1
 93
        1
176
     1
 44
50.0
176
     1
173
     0
176
     1
1001
ACAD
1000
AcDbSavedByObjectVersion
1070
     0
  0
VISUALSTYLE
  5
147C
102
{ACAD_XDICTIONARY
360
1E23
102
}
102
{ACAD_REACTORS
330
146C
102
}
330
146C
100
AcDbVisualStyle
  2

 70
    16
177
     2
291
     1
 71
     2
176
     1
 72
     2
176
     1
 73
     3
176
     1
 90
        0
176
     1
 40
0.6
176
     1
 41
30.0
176
     1
 63
     8
176
     1
 74
     1
176
     1
 91
        4
176
     1
 64
     7
176
     1
 65
   257
176
     1
 75
     1
176
     1
175
     1
176
     1
 42
1.0
176
     1
 92
        8
176
     1
 66
     8
176
     1
 43
1.0
176
     1
 76
     1
176
     1
 77
     6
176
     1
 78
     2
176
     1
 67
     7
176
     1
 79
     5
176
     1
170
     0
176
     1
171
     0
176
     1
290
     0
176
     1
 93
        1
176
     1
 44
0.0
176
     1
173
     0
176
     1
1001
ACAD
1000
AcDbSavedByObjectVersion
1070
     0
  0
VISUALSTYLE
  5
1475
102
{ACAD_XDICTIONARY
360
1E15
102
}
102
{ACAD_REACTORS
330
146C
102
}
330
146C
100
AcDbVisualStyle
  2

 70
     9
177
     2
291
     0
 71
     3
176
     1
 72
     2
176
     1
 73
     0
176
     1
 90
        0
176
     1
 40
0.6
176
     1
 41
30.0
176
     1
 63
     7
176
     1
 74
     2
176
     1
 91
        2
176
     1
 64
     7
176
     1
 65
   257
176
     1
 75
     1
176
     1
175
     1
176
     1
 42
179.0
176
     1
 92
        8
176
     1
 66
     7
176
     1
 43
1.0
176
     1
 76
     1
176
     1
 77
     6
176
     1
 78
     2
176
     1
 67
     7
176
     1
 79
     3
176
     1
170
     0
176
     1
171
     0
176
     1
290
     0
176
     1
 93
        1
176
     1
 44
0.0
176
     1
173
     0
176
     1
1001
ACAD
1000
AcDbSavedByObjectVersion
1070
     0
  0
VISUALSTYLE
  5
1477
102
{ACAD_XDICTIONARY
360
1E19
102
}
102
{ACAD_REACTORS
330
146C
102
}
330
146C
100
AcDbVisualStyle
  2

 70
    11
177
     2
291
     1
 71
     2
176
     1
 72
     2
176
     1
 73
     0
176
     1
 90
        0
176
     1
 40
0.6
176
     1
 41
30.0
176
     1
 63
     7
176
     1
 74
     1
176
     1
 91
        4
176
     1
 64
     7
176
     1
 65
   257
176
     1
 75
     1
176
     1
175
     1
176
     1
 42
1.0
176
     1
 92
        8
176
     1
 66
     7
176
     1
 43
1.0
176
     1
 76
     1
176
     1
 77
     6
176
     1
 78
     2
176
     1
 67
     7
176
     1
 79
     5
176
     1
170
     0
176
     1
171
     0
176
     1
290
     0
176
     1
 93
        1
176
     1
 44
-50.0
176
     1
173
     0
176
     1
1001
ACAD
1000
AcDbSavedByObjectVersion
1070
     0
  0
VISUALSTYLE
  5
1484
102
{ACAD_XDICTIONARY
360
1E33
102
}
102
{ACAD_REACTORS
330
146C
102
}
330
146C
100
AcDbVisualStyle
  2

 70
    22
177
     2
291
     1
 71
     2
176
     0
 72
     2
176
     0
 73
     0
176
     0
 90
        0
176
     0
 40
0.6
176
     0
 41
30.0
176
     0
 63
     7
176
     0
 74
     1
176
     0
 91
        4
176
     0
 64
     7
176
     0
 65
   257
176
     0
 75
     1
176
     0
175
     1
176
     0
 42
1.0
176
     0
 92
        8
176
     2
 66
     7
176
     0
 43
1.0
176
     0
 76
     1
176
     0
 77
     6
176
     0
 78
     2
176
     0
 67
     7
176
     0
 79
     5
176
     0
170
     0
176
     0
171
     0
176
     0
290
     0
176
     0
 93
        1
176
     0
 44
0.0
176
     0
173
     0
176
     0
1001
ACAD
1000
AcDbSavedByObjectVersion
1070
     0
  0
VISUALSTYLE
  5
147B
102
{ACAD_XDICTIONARY
360
1E21
102
}
102
{ACAD_REACTORS
330
146C
102
}
330
146C
100
AcDbVisualStyle
  2

 70
    15
177
     2
291
     1
 71
     2
176
     1
 72
     2
176
     1
 73
     0
176
     1
 90
        0
176
     1
 40
0.6
176
     1
 41
30.0
176
     1
 63
     7
176
     1
 74
     1
176
     1
 91
        4
176
     1
 64
     7
176
     1
 65
   257
176
     1
 75
     1
176
     1
175
     1
176
     1
 42
1.0
176
     1
 92
        8
176
     1
 66
     7
176
     1
 43
1.0
176
     1
 76
     1
176
     1
 77
     6
176
     1
 78
     2
176
     1
 67
     7
176
     1
 79
     5
176
     1
170
     0
176
     1
171
     0
176
     1
290
     0
176
     1
 93
        1
176
     1
 44
0.0
176
     1
173
     0
176
     1
1001
ACAD
1000
AcDbSavedByObjectVersion
1070
     0
  0
VISUALSTYLE
  5
146D
102
{ACAD_XDICTIONARY
360
1E05
102
}
102
{ACAD_REACTORS
330
146C
102
}
330
146C
100
AcDbVisualStyle
  2

 70
     0
177
     2
291
     1
 71
     2
176
     1
 72
     1
176
     1
 73
     1
176
     1
 90
        2
176
     1
 40
0.6
176
     1
 41
30.0
176
     1
 63
     7
176
     1
 74
     0
176
     1
 91
        0
176
     1
 64
     7
176
     1
 65
   257
176
     1
 75
     1
176
     1
175
     1
176
     1
 42
1.0
176
     1
 92
        8
176
     1
 66
     7
176
     1
 43
1.0
176
     1
 76
     1
176
     1
 77
     6
176
     1
 78
     2
176
     1
 67
     7
176
     1
 79
     5
176
     1
170
     0
176
     1
171
     0
176
     1
290
     0
176
     1
 93
       13
176
     1
 44
0.0
176
     1
173
     0
176
     1
1001
ACAD
1000
AcDbSavedByObjectVersion
1070
     0
  0
VISUALSTYLE
  5
146E
102
{ACAD_XDICTIONARY
360
1E07
102
}
102
{ACAD_REACTORS
330
146C
102
}
330
146C
100
AcDbVisualStyle
  2

 70
     1
177
     2
291
     1
 71
     2
176
     1
 72
     1
176
     1
 73
     1
176
     1
 90
        2
176
     1
 40
0.6
176
     1
 41
30.0
176
     1
 63
     7
176
     1
 74
     1
176
     1
 91
        0
176
     1
 64
     7
176
     1
 65
   257
176
     1
 75
     1
176
     1
175
     1
176
     1
 42
1.0
176
     1
 92
        0
176
     1
 66
   257
176
     1
 43
1.0
176
     1
 76
     1
176
     1
 77
     6
176
     1
 78
     2
176
     1
 67
     7
176
     1
 79
     5
176
     1
170
     0
176
     1
171
     0
176
     1
290
     0
176
     1
 93
       13
176
     1
 44
0.0
176
     1
173
     0
176
     1
1001
ACAD
1000
AcDbSavedByObjectVersion
1070
     0
  0
VISUALSTYLE
  5
146F
102
{ACAD_XDICTIONARY
360
1E09
102
}
102
{ACAD_REACTORS
330
146C
102
}
330
146C
100
AcDbVisualStyle
  2

 70
     2
177
     2
291
     1
 71
     2
176
     1
 72
     2
176
     1
 73
     1
176
     1
 90
        2
176
     1
 40
0.6
176
     1
 41
30.0
176
     1
 63
     7
176
     1
 74
     0
176
     1
 91
        0
176
     1
 64
     7
176
     1
 65
   257
176
     1
 75
     1
176
     1
175
     1
176
     1
 42
1.0
176
     1
 92
        0
176
     1
 66
     7
176
     1
 43
1.0
176
     1
 76
     1
176
     1
 77
     6
176
     1
 78
     2
176
     1
 67
     7
176
     1
 79
     5
176
     1
170
     0
176
     1
171
     0
176
     1
290
     0
176
     1
 93
       13
176
     1
 44
0.0
176
     1
173
     0
176
     1
1001
ACAD
1000
AcDbSavedByObjectVersion
1070
     0
  0
VISUALSTYLE
  5
1470
102
{ACAD_XDICTIONARY
360
1E0B
102
}
102
{ACAD_REACTORS
330
146C
102
}
330
146C
100
AcDbVisualStyle
  2

 70
     3
177
     2
291
     1
 71
     2
176
     1
 72
     2
176
     1
 73
     1
176
     1
 90
        2
176
     1
 40
0.6
176
     1
 41
30.0
176
     1
 63
     7
176
     1
 74
     1
176
     1
 91
        0
176
     1
 64
     7
176
     1
 65
   257
176
     1
 75
     1
176
     1
175
     1
176
     1
 42
1.0
176
     1
 92
        0
176
     1
 66
   257
176
     1
 43
1.0
176
     1
 76
     1
176
     1
 77
     6
176
     1
 78
     2
176
     1
 67
     7
176
     1
 79
     5
176
     1
170
     0
176
     1
171
     0
176
     1
290
     0
176
     1
 93
       13
176
     1
 44
0.0
176
     1
173
     0
176
     1
1001
ACAD
1000
AcDbSavedByObjectVersion
1070
     0
  0
VISUALSTYLE
  5
1474
102
{ACAD_XDICTIONARY
360
1E13
102
}
102
{ACAD_REACTORS
330
146C
102
}
330
146C
100
AcDbVisualStyle
  2

 70
     6
177
     2
291
     0
 71
     1
176
     1
 72
     2
176
     1
 73
     2
176
     1
 90
        0
176
     1
 40
0.6
176
     1
 41
30.0
176
     1
 63
     7
176
     1
 74
     2
176
     1
 91
        2
176
     1
 64
     7
176
     1
 65
   257
176
     1
 75
     2
176
     1
175
     1
176
     1
 42
40.0
176
     1
 92
        0
176
     1
 66
   257
176
     1
 43
1.0
176
     1
 76
     1
176
     1
 77
     6
176
     1
 78
     2
176
     1
 67
     7
176
     1
 79
     3
176
     1
170
     0
176
     1
171
     0
176
     1
290
     0
176
     1
 93
        1
176
     1
 44
0.0
176
     1
173
     0
176
     1
1001
ACAD
1000
AcDbSavedByObjectVersion
1070
     0
  0
VISUALSTYLE
  5
1482
102
{ACAD_XDICTIONARY
360
1E2F
102
}
102
{ACAD_REACTORS
330
146C
102
}
330
146C
100
AcDbVisualStyle
  2

 70
    20
177
     2
291
     1
 71
     2
176
     0
 72
     2
176
     0
 73
     0
176
     0
 90
        0
176
     0
 40
0.6
176
     0
 41
30.0
176
     0
 63
     7
176
     0
 74
     1
176
     0
 91
        4
176
     0
 64
     7
176
     0
 65
   257
176
     0
 75
     1
176
     0
175
     1
176
     0
 42
1.0
176
     0
 92
       10
176
     2
 66
     7
176
     0
 43
1.0
176
     0
 76
     1
176
     0
 77
     6
176
     0
 78
     2
176
     0
 67
     7
176
     0
 79
     5
176
     0
170
     0
176
     0
171
     0
176
     0
290
     0
176
     0
 93
        1
176
     0
 44
0.0
176
     0
173
     0
176
     0
1001
ACAD
1000
AcDbSavedByObjectVersion
1070
     0
  0
VISUALSTYLE
  5
147A
102
{ACAD_XDICTIONARY
360
1E1F
102
}
102
{ACAD_REACTORS
330
146C
102
}
330
146C
100
AcDbVisualStyle
  2

 70
    14
177
     2
291
     1
 71
     2
176
     1
 72
     2
176
     1
 73
     0
176
     1
 90
        0
176
     1
 40
0.6
176
     1
 41
30.0
176
     1
 63
     7
176
     1
 74
     1
176
     1
 91
        4
176
     1
 64
     7
176
     1
 65
   257
176
     1
 75
     7
176
     1
175
     7
176
     1
 42
1.0
176
     1
 92
        8
176
     1
 66
     7
176
     1
 43
1.0
176
     1
 76
     1
176
     1
 77
     6
176
     1
 78
     2
176
     1
 67
     7
176
     1
 79
     5
176
     1
170
     0
176
     1
171
     0
176
     1
290
     0
176
     1
 93
        1
176
     1
 44
0.0
176
     1
173
     0
176
     1
1001
ACAD
1000
AcDbSavedByObjectVersion
1070
     0
  0
VISUALSTYLE
  5
1483
102
{ACAD_XDICTIONARY
360
1E31
102
}
102
{ACAD_REACTORS
330
146C
102
}
330
146C
100
AcDbVisualStyle
  2

 70
    21
177
     2
291
     1
 71
     2
176
     0
 72
     2
176
     0
 73
     0
176
     0
 90
        0
176
     0
 40
0.6
176
     0
 41
30.0
176
     0
 63
     7
176
     0
 74
     1
176
     0
 91
        4
176
     0
 64
     7
176
     0
 65
   257
176
     0
 75
     1
176
     0
175
     1
176
     0
 42
1.0
176
     0
 92
        9
176
     2
 66
     7
176
     0
 43
1.0
176
     0
 76
     1
176
     0
 77
     6
176
     0
 78
     2
176
     0
 67
     7
176
     0
 79
     5
176
     0
170
     0
176
     0
171
     0
176
     0
290
     0
176
     0
 93
        1
176
     0
 44
0.0
176
     0
173
     0
176
     0
1001
ACAD
1000
AcDbSavedByObjectVersion
1070
     0
  0
VISUALSTYLE
  5
1476
102
{ACAD_XDICTIONARY
360
1E17
102
}
102
{ACAD_REACTORS
330
146C
102
}
330
146C
100
AcDbVisualStyle
  2

 70
     8
177
     2
291
     0
 71
     2
176
     1
 72
     2
176
     1
 73
     0
176
     1
 90
        2
176
     1
 40
0.6
176
     1
 41
30.0
176
     1
 63
     7
176
     1
 74
     0
176
     1
 91
        0
176
     1
 64
     7
176
     1
 65
   257
176
     1
 75
     1
176
     1
175
     1
176
     1
 42
1.0
176
     1
 92
        8
176
     1
 66
   257
176
     1
 43
1.0
176
     1
 76
     1
176
     1
 77
     6
176
     1
 78
     2
176
     1
 67
     7
176
     1
 79
     3
176
     1
170
     0
176
     1
171
     0
176
     1
290
     0
176
     1
 93
       13
176
     1
 44
0.0
176
     1
173
     0
176
     1
1001
ACAD
1000
AcDbSavedByObjectVersion
1070
     0
  0
VISUALSTYLE
  5
1481
102
{ACAD_XDICTIONARY
360
1E2D
102
}
102
{ACAD_REACTORS
330
146C
102
}
330
146C
100
AcDbVisualStyle
  2

 70
    27
177
     2
291
     0
 71
     2
176
     1
 72
     2
176
     1
 73
     1
176
     1
 90
        2
176
     1
 40
0.6
176
     1
 41
30.0
176
     1
 63
     7
176
     1
 74
     0
176
     1
 91
        4
176
     1
 64
     7
176
     1
 65
   257
176
     1
 75
     1
176
     1
175
     1
176
     1
 42
1.0
176
     1
 92
        8
176
     1
 66
   257
176
     1
 43
1.0
176
     1
 76
     1
176
     1
 77
     6
176
     1
 78
     2
176
     1
 67
     8
176
     1
 79
     3
176
     1
170
     0
176
     1
171
     0
176
     1
290
     0
176
     1
 93
        5
176
     1
 44
0.0
176
     1
173
     0
176
     1
1001
ACAD
1000
AcDbSavedByObjectVersion
1070
     0
  0
VISUALSTYLE
  5
1480
102
{ACAD_XDICTIONARY
360
1E2B
102
}
102
{ACAD_REACTORS
330
146C
102
}
330
146C
100
AcDbVisualStyle
  2

 70
    26
177
     2
291
     0
 71
     2
176
     1
 72
     2
176
     1
 73
     1
176
     1
 90
        2
176
     1
 40
0.6
176
     1
 41
30.0
176
     1
 63
     7
176
     1
 74
     1
176
     1
 91
       10
176
     1
 64
     7
176
     1
 65
   257
176
     1
 75
     2
176
     1
175
     1
176
     1
 42
1.0
176
     1
 92
        8
176
     1
 66
   257
176
     1
 43
1.0
176
     1
 76
     1
176
     1
 77
     6
176
     1
 78
     2
176
     1
 67
     7
176
     1
 79
     3
176
     1
170
     0
176
     1
171
     0
176
     1
290
     0
176
     1
 93
        5
176
     1
 44
0.0
176
     1
173
     0
176
     1
1001
ACAD
1000
AcDbSavedByObjectVersion
1070
     0
  0
VISUALSTYLE
  5
147D
102
{ACAD_XDICTIONARY
360
1E25
102
}
102
{ACAD_REACTORS
330
146C
102
}
330
146C
100
AcDbVisualStyle
  2

 70
    23
177
     2
291
     0
 71
     2
176
     1
 72
     2
176
     1
 73
     3
176
     1
 90
        0
176
     1
 40
0.6
176
     1
 41
30.0
176
     1
 63
     7
176
     1
 74
     2
176
     1
 91
        2
176
     1
 64
     7
176
     1
 65
     7
176
     1
 75
     1
176
     1
175
     1
176
     1
 42
40.0
176
     1
 92
        8
176
     1
 66
     7
176
     1
 43
1.0
176
     1
 76
     1
176
     1
 77
     6
176
     1
 78
     2
176
     1
 67
     7
176
     1
 79
     3
176
     1
170
     0
176
     1
171
     0
176
     1
290
     0
176
     1
 93
        1
176
     1
 44
0.0
176
     1
173
     0
176
     1
1001
ACAD
1000
AcDbSavedByObjectVersion
1070
     0
  0
VISUALSTYLE
  5
147E
102
{ACAD_XDICTIONARY
360
1E27
102
}
102
{ACAD_REACTORS
330
146C
102
}
330
146C
100
AcDbVisualStyle
  2

 70
    24
177
     2
291
     0
 71
     1
176
     1
 72
     2
176
     1
 73
     2
176
     1
 90
        0
176
     1
 40
0.6
176
     1
 41
30.0
176
     1
 63
     7
176
     1
 74
     2
176
     1
 91
        2
176
     1
 64
     7
176
     1
 65
     7
176
     1
 75
     1
176
     1
175
     1
176
     1
 42
40.0
176
     1
 92
       11
176
     1
 66
     7
176
     1
 43
1.0
176
     1
 76
     1
176
     1
 77
     6
176
     1
 78
     2
176
     1
 67
     7
176
     1
 79
     6
176
     1
170
     0
176
     1
171
     0
176
     1
290
     0
176
     1
 93
        1
176
     1
 44
0.0
176
     1
173
     0
176
     1
1001
ACAD
1000
AcDbSavedByObjectVersion
1070
     0
  0
VISUALSTYLE
  5
1479
102
{ACAD_XDICTIONARY
360
1E1D
102
}
102
{ACAD_REACTORS
330
146C
102
}
330
146C
100
AcDbVisualStyle
  2

 70
    13
177
     2
291
     1
 71
     2
176
     1
 72
     2
176
     1
 73
     0
176
     1
 90
        0
176
     1
 40
0.6
176
     1
 41
30.0
176
     1
 63
     7
176
     1
 74
     1
176
     1
 91
        4
176
     1
 64
     7
176
     1
 65
   257
176
     1
 75
     1
176
     1
175
     1
176
     1
 42
1.0
176
     1
 92
       12
176
     1
 66
     7
176
     1
 43
1.0
176
     1
 76
     1
176
     1
 77
     6
176
     1
 78
     2
176
     1
 67
     7
176
     1
 79
     5
176
     1
170
     0
176
     1
171
     0
176
     1
290
     0
176
     1
 93
        1
176
     1
 44
0.0
176
     1
173
     0
176
     1
1001
ACAD
1000
AcDbSavedByObjectVersion
1070
     0
  0
VISUALSTYLE
  5
1473
102
{ACAD_XDICTIONARY
360
1E11
102
}
102
{ACAD_REACTORS
330
146C
102
}
330
146C
100
AcDbVisualStyle
  2

 70
     5
177
     2
291
     0
 71
     0
176
     1
 72
     2
176
     1
 73
     0
176
     1
 90
        0
176
     1
 40
0.6
176
     1
 41
30.0
176
     1
 63
     7
176
     1
 74
     1
176
     1
 91
        4
176
     1
 64
     7
176
     1
 65
   257
176
     1
 75
     1
176
     1
175
     1
176
     1
 42
1.0
176
     1
 92
        0
176
     1
 66
   257
176
     1
 43
1.0
176
     1
 76
     1
176
     1
 77
     6
176
     1
 78
     2
176
     1
 67
     7
176
     1
 79
     3
176
     1
170
     0
176
     1
171
     0
176
     1
290
     0
176
     1
 93
        1
176
     1
 44
0.0
176
     1
173
     0
176
     1
1001
ACAD
1000
AcDbSavedByObjectVersion
1070
     0
  0
VISUALSTYLE
  5
147F
102
{ACAD_XDICTIONARY
360
1E29
102
}
102
{ACAD_REACTORS
330
146C
102
}
330
146C
100
AcDbVisualStyle
  2

 70
    25
177
     2
291
     0
 71
     2
176
     1
 72
     2
176
     1
 73
     1
176
     1
 90
        1
176
     1
 40
0.5
176
     1
 41
30.0
176
     1
 63
     7
176
     1
 74
     1
176
     1
 91
        0
176
     1
 64
     7
176
     1
 65
   257
176
     1
 75
     1
176
     1
175
     1
176
     1
 42
1.0
176
     1
 92
        8
176
     1
 66
     7
176
     1
 43
1.0
176
     1
 76
     1
176
     1
 77
     6
176
     1
 78
     2
176
     1
 67
     7
176
     1
 79
     3
176
     1
170
     0
176
     1
171
     0
176
     1
290
     0
176
     1
 93
       13
176
     1
 44
0.0
176
     1
173
     0
176
     1
1001
ACAD
1000
AcDbSavedByObjectVersion
1070
     0
  0
DICTIONARYVAR
  5
15F7
102
{ACAD_REACTORS
330
15F3
102
}
330
15F3
100
DictionaryVariables
280
     0
  1
1:1
  0
DICTIONARYVAR
  5
15F5
102
{ACAD_REACTORS
330
15F3
102
}
330
15F3
100
DictionaryVariables
280
     0
  1
STANDARD
  0
DICTIONARYVAR
  5
15F4
102
{ACAD_REACTORS
330
15F3
102
}
330
15F3
100
DictionaryVariables
280
     0
  1
STANDARD
  0
DICTIONARYVAR
  5
1DE3
102
{ACAD_REACTORS
330
15F3
102
}
330
15F3
100
DictionaryVariables
280
     0
  1
Metric50
  0
DICTIONARYVAR
  5
1DE4
102
{ACAD_REACTORS
330
15F3
102
}
330
15F3
100
DictionaryVariables
280
     0
  1
Metric50
  0
DICTIONARYVAR
  5
1A68
102
{ACAD_REACTORS
330
15F3
102
}
330
15F3
100
DictionaryVariables
280
     0
  1
1
  0
DICTIONARYVAR
  5
1A67
102
{ACAD_REACTORS
330
15F3
102
}
330
15F3
100
DictionaryVariables
280
     0
  1
0
  0
DICTIONARYVAR
  5
15F9
102
{ACAD_REACTORS
330
15F3
102
}
330
15F3
100
DictionaryVariables
280
     0
  1
1
  0
DICTIONARYVAR
  5
15FA
102
{ACAD_REACTORS
330
15F3
102
}
330
15F3
100
DictionaryVariables
280
     0
  1
15
  0
DICTIONARYVAR
  5
15F8
102
{ACAD_REACTORS
330
15F3
102
}
330
15F3
100
DictionaryVariables
280
     0
  1
0
  0
DICTIONARYVAR
  5
15F6
102
{ACAD_REACTORS
330
15F3
102
}
330
15F3
100
DictionaryVariables
280
     0
  1
0
  0
DICTIONARYVAR
  5
1A66
102
{ACAD_REACTORS
330
15F3
102
}
330
15F3
100
DictionaryVariables
280
     0
  1
127
  0
DICTIONARY
  5
151B
102
{ACAD_REACTORS
330
151A
102
}
330
151A
100
AcDbDictionary
281
     1
  0
DICTIONARY
  5
1E39
330
1DA3
100
AcDbDictionary
280
     1
281
     1
  3
ACAD_XREC_ROUNDTRIP
360
1E3A
  0
DICTIONARY
  5
145D
330
145C
100
AcDbDictionary
280
     1
281
     1
  3
ACAD_XREC_ROUNDTRIP
360
1DF6
  3
BUMPTILE
360
145F
  3
DIFFUSETILE
360
145E
  3
OPACITYTILE
360
1462
  3
REFLECTIONTILE
360
1461
  3
REFRACTIONTILE
360
1463
  3
SPECULARTILE
360
1460
  0
DICTIONARY
  5
1455
330
1454
100
AcDbDictionary
280
     1
281
     1
  3
ACAD_XREC_ROUNDTRIP
360
1DF5
  3
BUMPTILE
360
1457
  3
DIFFUSETILE
360
1456
  3
OPACITYTILE
360
145A
  3
REFLECTIONTILE
360
1459
  3
REFRACTIONTILE
360
145B
  3
SPECULARTILE
360
1458
  0
DICTIONARY
  5
1465
330
1464
100
AcDbDictionary
280
     1
281
     1
  3
ACAD_XREC_ROUNDTRIP
360
1DF7
  3
BUMPTILE
360
1467
  3
DIFFUSETILE
360
1466
  3
OPACITYTILE
360
146A
  3
REFLECTIONTILE
360
1469
  3
REFRACTIONTILE
360
146B
  3
SPECULARTILE
360
1468
  0
DICTIONARY
  5
1E35
330
149B
100
AcDbDictionary
280
     1
281
     1
  3
ACAD_XREC_ROUNDTRIP
360
1E36
  0
DICTIONARY
  5
1E37
330
1DA1
100
AcDbDictionary
280
     1
281
     1
  3
ACAD_XREC_ROUNDTRIP
360
1E38
  0
DICTIONARY
  5
1A28
330
1487
100
AcDbDictionary
280
     1
281
     1
  3
ACAD_ROUNDTRIP_2008_TABLESTYLE_CELLSTYLEMAP
360
1E03
  0
DICTIONARY
  5
1E0F
330
1472
100
AcDbDictionary
280
     1
281
     1
  3
ACAD_XREC_ROUNDTRIP
360
1E10
  0
DICTIONARY
  5
1E3D
330
1DE8
100
AcDbDictionary
280
     1
281
     1
  3
ACAD_XREC_ROUNDTRIP
360
1E3E
  0
DICTIONARY
  5
1E3B
330
1DE7
100
AcDbDictionary
280
     1
281
     1
  3
ACAD_XREC_ROUNDTRIP
360
1E3C
  0
DICTIONARY
  5
1E0D
330
1471
100
AcDbDictionary
280
     1
281
     1
  3
ACAD_XREC_ROUNDTRIP
360
1E0E
  0
DICTIONARY
  5
1E1B
330
1478
100
AcDbDictionary
280
     1
281
     1
  3
ACAD_XREC_ROUNDTRIP
360
1E1C
  0
DICTIONARY
  5
1E23
330
147C
100
AcDbDictionary
280
     1
281
     1
  3
ACAD_XREC_ROUNDTRIP
360
1E24
  0
DICTIONARY
  5
1E15
330
1475
100
AcDbDictionary
280
     1
281
     1
  3
ACAD_XREC_ROUNDTRIP
360
1E16
  0
DICTIONARY
  5
1E19
330
1477
100
AcDbDictionary
280
     1
281
     1
  3
ACAD_XREC_ROUNDTRIP
360
1E1A
  0
DICTIONARY
  5
1E33
330
1484
100
AcDbDictionary
280
     1
281
     1
  3
ACAD_XREC_ROUNDTRIP
360
1E34
  0
DICTIONARY
  5
1E21
330
147B
100
AcDbDictionary
280
     1
281
     1
  3
ACAD_XREC_ROUNDTRIP
360
1E22
  0
DICTIONARY
  5
1E05
330
146D
100
AcDbDictionary
280
     1
281
     1
  3
ACAD_XREC_ROUNDTRIP
360
1E06
  0
DICTIONARY
  5
1E07
330
146E
100
AcDbDictionary
280
     1
281
     1
  3
ACAD_XREC_ROUNDTRIP
360
1E08
  0
DICTIONARY
  5
1E09
330
146F
100
AcDbDictionary
280
     1
281
     1
  3
ACAD_XREC_ROUNDTRIP
360
1E0A
  0
DICTIONARY
  5
1E0B
330
1470
100
AcDbDictionary
280
     1
281
     1
  3
ACAD_XREC_ROUNDTRIP
360
1E0C
  0
DICTIONARY
  5
1E13
330
1474
100
AcDbDictionary
280
     1
281
     1
  3
ACAD_XREC_ROUNDTRIP
360
1E14
  0
DICTIONARY
  5
1E2F
330
1482
100
AcDbDictionary
280
     1
281
     1
  3
ACAD_XREC_ROUNDTRIP
360
1E30
  0
DICTIONARY
  5
1E1F
330
147A
100
AcDbDictionary
280
     1
281
     1
  3
ACAD_XREC_ROUNDTRIP
360
1E20
  0
DICTIONARY
  5
1E31
330
1483
100
AcDbDictionary
280
     1
281
     1
  3
ACAD_XREC_ROUNDTRIP
360
1E32
  0
DICTIONARY
  5
1E17
330
1476
100
AcDbDictionary
280
     1
281
     1
  3
ACAD_XREC_ROUNDTRIP
360
1E18
  0
DICTIONARY
  5
1E2D
330
1481
100
AcDbDictionary
280
     1
281
     1
  3
ACAD_XREC_ROUNDTRIP
360
1E2E
  0
DICTIONARY
  5
1E2B
330
1480
100
AcDbDictionary
280
     1
281
     1
  3
ACAD_XREC_ROUNDTRIP
360
1E2C
  0
DICTIONARY
  5
1E25
330
147D
100
AcDbDictionary
280
     1
281
     1
  3
ACAD_XREC_ROUNDTRIP
360
1E26
  0
DICTIONARY
  5
1E27
330
147E
100
AcDbDictionary
280
     1
281
     1
  3
ACAD_XREC_ROUNDTRIP
360
1E28
  0
DICTIONARY
  5
1E1D
330
1479
100
AcDbDictionary
280
     1
281
     1
  3
ACAD_XREC_ROUNDTRIP
360
1E1E
  0
DICTIONARY
  5
1E11
330
1473
100
AcDbDictionary
280
     1
281
     1
  3
ACAD_XREC_ROUNDTRIP
360
1E12
  0
DICTIONARY
  5
1E29
330
147F
100
AcDbDictionary
280
     1
281
     1
  3
ACAD_XREC_ROUNDTRIP
360
1E2A
  0
XRECORD
  5
1E3A
102
{ACAD_REACTORS
330
1E39
102
}
330
1E39
100
AcDbXrecord
280
     1
102
DISPLAYNAME
  1
Metric50
102
FLAGS
 90
        0
  0
XRECORD
  5
1DF6
102
{ACAD_REACTORS
330
145D
102
}
330
145D
100
AcDbXrecord
280
     1
102
MATERIAL
148
0.0
149
0.0
149
0.0
 93
        0
 94
      127
282
     0
 72
     0
 77
     0
171
     0
175
     0
179
     0
273
     0
  0
XRECORD
  5
145F
102
{ACAD_REACTORS
330
145D
102
}
330
145D
100
AcDbXrecord
280
     1
270
     1
271
     1
  0
XRECORD
  5
145E
102
{ACAD_REACTORS
330
145D
102
}
330
145D
100
AcDbXrecord
280
     1
270
     1
271
     1
  0
XRECORD
  5
1462
102
{ACAD_REACTORS
330
145D
102
}
330
145D
100
AcDbXrecord
280
     1
270
     1
271
     1
  0
XRECORD
  5
1461
102
{ACAD_REACTORS
330
145D
102
}
330
145D
100
AcDbXrecord
280
     1
270
     1
271
     1
  0
XRECORD
  5
1463
102
{ACAD_REACTORS
330
145D
102
}
330
145D
100
AcDbXrecord
280
     1
270
     1
271
     1
  0
XRECORD
  5
1460
102
{ACAD_REACTORS
330
145D
102
}
330
145D
100
AcDbXrecord
280
     1
270
     1
271
     1
  0
XRECORD
  5
1DF5
102
{ACAD_REACTORS
330
1455
102
}
330
1455
100
AcDbXrecord
280
     1
102
MATERIAL
148
0.0
149
0.0
149
0.0
 93
        0
 94
      127
282
     0
 72
     0
 77
     0
171
     0
175
     0
179
     0
273
     0
  0
XRECORD
  5
1457
102
{ACAD_REACTORS
330
1455
102
}
330
1455
100
AcDbXrecord
280
     1
270
     1
271
     1
  0
XRECORD
  5
1456
102
{ACAD_REACTORS
330
1455
102
}
330
1455
100
AcDbXrecord
280
     1
270
     1
271
     1
  0
XRECORD
  5
145A
102
{ACAD_REACTORS
330
1455
102
}
330
1455
100
AcDbXrecord
280
     1
270
     1
271
     1
  0
XRECORD
  5
1459
102
{ACAD_REACTORS
330
1455
102
}
330
1455
100
AcDbXrecord
280
     1
270
     1
271
     1
  0
XRECORD
  5
145B
102
{ACAD_REACTORS
330
1455
102
}
330
1455
100
AcDbXrecord
280
     1
270
     1
271
     1
  0
XRECORD
  5
1458
102
{ACAD_REACTORS
330
1455
102
}
330
1455
100
AcDbXrecord
280
     1
270
     1
271
     1
  0
XRECORD
  5
1DF7
102
{ACAD_REACTORS
330
1465
102
}
330
1465
100
AcDbXrecord
280
     1
102
MATERIAL
148
0.0
149
0.0
149
0.0
 93
        0
 94
      127
282
     0
 72
     0
 77
     0
171
     0
175
     0
179
     0
273
     0
  0
XRECORD
  5
1467
102
{ACAD_REACTORS
330
1465
102
}
330
1465
100
AcDbXrecord
280
     1
270
     1
271
     1
  0
XRECORD
  5
1466
102
{ACAD_REACTORS
330
1465
102
}
330
1465
100
AcDbXrecord
280
     1
270
     1
271
     1
  0
XRECORD
  5
146A
102
{ACAD_REACTORS
330
1465
102
}
330
1465
100
AcDbXrecord
280
     1
270
     1
271
     1
  0
XRECORD
  5
1469
102
{ACAD_REACTORS
330
1465
102
}
330
1465
100
AcDbXrecord
280
     1
270
     1
271
     1
  0
XRECORD
  5
146B
102
{ACAD_REACTORS
330
1465
102
}
330
1465
100
AcDbXrecord
280
     1
270
     1
271
     1
  0
XRECORD
  5
1468
102
{ACAD_REACTORS
330
1465
102
}
330
1465
100
AcDbXrecord
280
     1
270
     1
271
     1
  0
XRECORD
  5
1E36
102
{ACAD_REACTORS
330
1E35
102
}
330
1E35
100
AcDbXrecord
280
     1
102
ACAD_ROUNDTRIP_2012_MLEADER_STYLE
298
     1
  0
XRECORD
  5
1E38
102
{ACAD_REACTORS
330
1E37
102
}
330
1E37
100
AcDbXrecord
280
     1
102
DISPLAYNAME
  1
Metric50
102
FLAGS
 90
        0
  0
CELLSTYLEMAP
  5
1E03
102
{ACAD_REACTORS
330
1A28
102
}
330
1A28
100
AcDbCellStyleMap
 90
        3
300
CELLSTYLE
  1
TABLEFORMAT_BEGIN
 90
        5
170
     1
 91
        0
 92
    32768
 62
   257
 93
        1
300
CONTENTFORMAT
  1
CONTENTFORMAT_BEGIN
 90
        0
 91
        0
 92
      512
 93
        0
300

 40
0.0
140
1.0
 94
        5
 62
     0
340
23
144
6.0
309
CONTENTFORMAT_END
171
     1
301
MARGIN
  1
CELLMARGIN_BEGIN
 40
1.5
 40
1.5
 40
1.5
 40
1.5
 40
0.18
 40
0.18
309
CELLMARGIN_END
 94
        6
 95
        1
302
GRIDFORMAT
  1
GRIDFORMAT_BEGIN
 90
        0
 91
        1
 62
     0
 92
       -2
340
0
 93
        0
 40
1.125
309
GRIDFORMAT_END
 95
        2
302
GRIDFORMAT
  1
GRIDFORMAT_BEGIN
 90
        0
 91
        1
 62
     0
 92
       -2
340
0
 93
        0
 40
1.125
309
GRIDFORMAT_END
 95
        4
302
GRIDFORMAT
  1
GRIDFORMAT_BEGIN
 90
        0
 91
        1
 62
     0
 92
       -2
340
0
 93
        0
 40
1.125
309
GRIDFORMAT_END
 95
        8
302
GRIDFORMAT
  1
GRIDFORMAT_BEGIN
 90
        0
 91
        1
 62
     0
 92
       -2
340
0
 93
        0
 40
1.125
309
GRIDFORMAT_END
 95
       16
302
GRIDFORMAT
  1
GRIDFORMAT_BEGIN
 90
        0
 91
        1
 62
     0
 92
       -2
340
0
 93
        0
 40
1.125
309
GRIDFORMAT_END
 95
       32
302
GRIDFORMAT
  1
GRIDFORMAT_BEGIN
 90
        0
 91
        1
 62
     0
 92
       -2
340
0
 93
        0
 40
1.125
309
GRIDFORMAT_END
309
TABLEFORMAT_END
  1
CELLSTYLE_BEGIN
 90
        1
 91
        1
300
_TITLE
309
CELLSTYLE_END
300
CELLSTYLE
  1
TABLEFORMAT_BEGIN
 90
        5
170
     1
 91
        0
 92
        0
 62
   257
 93
        1
300
CONTENTFORMAT
  1
CONTENTFORMAT_BEGIN
 90
        0
 91
        0
 92
      512
 93
        0
300

 40
0.0
140
1.0
 94
        5
 62
     0
340
23
144
4.5
309
CONTENTFORMAT_END
171
     1
301
MARGIN
  1
CELLMARGIN_BEGIN
 40
1.5
 40
1.5
 40
1.5
 40
1.5
 40
0.18
 40
0.18
309
CELLMARGIN_END
 94
        6
 95
        1
302
GRIDFORMAT
  1
GRIDFORMAT_BEGIN
 90
        0
 91
        1
 62
     0
 92
       -2
340
0
 93
        0
 40
1.125
309
GRIDFORMAT_END
 95
        2
302
GRIDFORMAT
  1
GRIDFORMAT_BEGIN
 90
        0
 91
        1
 62
     0
 92
       -2
340
0
 93
        0
 40
1.125
309
GRIDFORMAT_END
 95
        4
302
GRIDFORMAT
  1
GRIDFORMAT_BEGIN
 90
        0
 91
        1
 62
     0
 92
       -2
340
0
 93
        0
 40
1.125
309
GRIDFORMAT_END
 95
        8
302
GRIDFORMAT
  1
GRIDFORMAT_BEGIN
 90
        0
 91
        1
 62
     0
 92
       -2
340
0
 93
        0
 40
1.125
309
GRIDFORMAT_END
 95
       16
302
GRIDFORMAT
  1
GRIDFORMAT_BEGIN
 90
        0
 91
        1
 62
     0
 92
       -2
340
0
 93
        0
 40
1.125
309
GRIDFORMAT_END
 95
       32
302
GRIDFORMAT
  1
GRIDFORMAT_BEGIN
 90
        0
 91
        1
 62
     0
 92
       -2
340
0
 93
        0
 40
1.125
309
GRIDFORMAT_END
309
TABLEFORMAT_END
  1
CELLSTYLE_BEGIN
 90
        2
 91
        1
300
_HEADER
309
CELLSTYLE_END
300
CELLSTYLE
  1
TABLEFORMAT_BEGIN
 90
        5
170
     1
 91
        0
 92
        0
 62
   257
 93
        1
300
CONTENTFORMAT
  1
CONTENTFORMAT_BEGIN
 90
        0
 91
        0
 92
      512
 93
        0
300

 40
0.0
140
1.0
 94
        2
 62
     0
340
23
144
4.5
309
CONTENTFORMAT_END
171
     1
301
MARGIN
  1
CELLMARGIN_BEGIN
 40
1.5
 40
1.5
 40
1.5
 40
1.5
 40
0.18
 40
0.18
309
CELLMARGIN_END
 94
        6
 95
        1
302
GRIDFORMAT
  1
GRIDFORMAT_BEGIN
 90
        0
 91
        1
 62
     0
 92
       -2
340
0
 93
        0
 40
1.125
309
GRIDFORMAT_END
 95
        2
302
GRIDFORMAT
  1
GRIDFORMAT_BEGIN
 90
        0
 91
        1
 62
     0
 92
       -2
340
0
 93
        0
 40
1.125
309
GRIDFORMAT_END
 95
        4
302
GRIDFORMAT
  1
GRIDFORMAT_BEGIN
 90
        0
 91
        1
 62
     0
 92
       -2
340
0
 93
        0
 40
1.125
309
GRIDFORMAT_END
 95
        8
302
GRIDFORMAT
  1
GRIDFORMAT_BEGIN
 90
        0
 91
        1
 62
     0
 92
       -2
340
0
 93
        0
 40
1.125
309
GRIDFORMAT_END
 95
       16
302
GRIDFORMAT
  1
GRIDFORMAT_BEGIN
 90
        0
 91
        1
 62
     0
 92
       -2
340
0
 93
        0
 40
1.125
309
GRIDFORMAT_END
 95
       32
302
GRIDFORMAT
  1
GRIDFORMAT_BEGIN
 90
        0
 91
        1
 62
     0
 92
       -2
340
0
 93
        0
 40
1.125
309
GRIDFORMAT_END
309
TABLEFORMAT_END
  1
CELLSTYLE_BEGIN
 90
        3
 91
        2
300
_DATA
309
CELLSTYLE_END
  0
XRECORD
  5
1E10
102
{ACAD_REACTORS
330
1E0F
102
}
330
1E0F
100
AcDbXrecord
280
     1
102
RTVSPost2010Prop28
280
     1
102
RTVSPost2010PropOp28
 70
     1
102
RTVSPost2010Prop29
280
     1
102
RTVSPost2010PropOp29
 70
     1
102
RTVSPost2010Prop30
280
     0
102
RTVSPost2010PropOp30
 70
     1
102
RTVSPost2010Prop31
280
     0
102
RTVSPost2010PropOp31
 70
     1
102
RTVSPost2010Prop32
280
     0
102
RTVSPost2010PropOp32
 70
     1
102
RTVSPost2010Prop33
280
     0
102
RTVSPost2010PropOp33
 70
     1
102
RTVSPost2010Prop34
280
     0
102
RTVSPost2010PropOp34
 70
     1
102
RTVSPost2010Prop35
280
     0
102
RTVSPost2010PropOp35
 70
     1
102
RTVSPost2010Prop36
280
     0
102
RTVSPost2010PropOp36
 70
     1
102
RTVSPost2010Prop37
 90
       50
102
RTVSPost2010PropOp37
 70
     1
102
RTVSPost2010Prop38
140
0.0
102
RTVSPost2010PropOp38
 70
     1
102
RTVSPost2010Prop39
140
1.0
102
RTVSPost2010PropOp39
 70
     1
102
RTVSPost2010Prop40
 90
        0
102
RTVSPost2010PropOp40
 70
     1
102
RTVSPost2010Prop41ColorIndex
 90
       18
102
RTVSPost2010Prop41ColorRGB
 90
        0
102
RTVSPost2010PropOp41
 70
     1
102
RTVSPost2010Prop42
 90
       50
102
RTVSPost2010PropOp42
 70
     1
102
RTVSPost2010Prop43
 90
        3
102
RTVSPost2010PropOp43
 70
     1
102
RTVSPost2010Prop44ColorIndex
 90
        5
102
RTVSPost2010Prop44ColorRGB
 90
      255
102
RTVSPost2010PropOp44
 70
     1
102
RTVSPost2010Prop45
280
     0
102
RTVSPost2010PropOp45
 70
     1
102
RTVSPost2010Prop46
 90
       50
102
RTVSPost2010PropOp46
 70
     1
102
RTVSPost2010Prop47
 90
       50
102
RTVSPost2010PropOp47
 70
     1
102
RTVSPost2010Prop48
 90
       50
102
RTVSPost2010PropOp48
 70
     1
102
RTVSPost2010Prop49
280
     0
102
RTVSPost2010PropOp49
 70
     1
102
RTVSPost2010Prop50
 90
       50
102
RTVSPost2010PropOp50
 70
     1
102
RTVSPost2010Prop51ColorIndex
 90
      256
102
RTVSPost2010Prop51ColorRGB
 90
-16777216
102
RTVSPost2010PropOp51
 70
     0
102
RTVSPost2010Prop52
140
1.0
102
RTVSPost2010PropOp52
 70
     0
102
RTVSPost2010Prop53
 90
        2
102
RTVSPost2010PropOp53
 70
     1
102
RTVSPost2010Prop54
  1
strokes_ogs.tif
102
RTVSPost2010PropOp54
 70
     1
102
RTVSPost2010Prop55
280
     0
102
RTVSPost2010PropOp55
 70
     1
102
RTVSPost2010Prop56
140
1.0
102
RTVSPost2010PropOp56
 70
     1
102
RTVSPost2010Prop57
140
1.0
102
RTVSPost2010PropOp57
 70
     1
  0
XRECORD
  5
1E3E
102
{ACAD_REACTORS
330
1E3D
102
}
330
1E3D
100
AcDbXrecord
280
     1
102
RTVSPost2010Prop28
280
     0
102
RTVSPost2010PropOp28
 70
     1
102
RTVSPost2010Prop29
280
     1
102
RTVSPost2010PropOp29
 70
     1
102
RTVSPost2010Prop30
280
     1
102
RTVSPost2010PropOp30
 70
     1
102
RTVSPost2010Prop31
280
     0
102
RTVSPost2010PropOp31
 70
     1
102
RTVSPost2010Prop32
280
     0
102
RTVSPost2010PropOp32
 70
     1
102
RTVSPost2010Prop33
280
     0
102
RTVSPost2010PropOp33
 70
     1
102
RTVSPost2010Prop34
280
     0
102
RTVSPost2010PropOp34
 70
     1
102
RTVSPost2010Prop35
280
     0
102
RTVSPost2010PropOp35
 70
     1
102
RTVSPost2010Prop36
280
     0
102
RTVSPost2010PropOp36
 70
     1
102
RTVSPost2010Prop37
 90
       50
102
RTVSPost2010PropOp37
 70
     1
102
RTVSPost2010Prop38
140
0.0
102
RTVSPost2010PropOp38
 70
     1
102
RTVSPost2010Prop39
140
1.0
102
RTVSPost2010PropOp39
 70
     1
102
RTVSPost2010Prop40
 90
        0
102
RTVSPost2010PropOp40
 70
     1
102
RTVSPost2010Prop41ColorIndex
 90
       18
102
RTVSPost2010Prop41ColorRGB
 90
        0
102
RTVSPost2010PropOp41
 70
     1
102
RTVSPost2010Prop42
 90
       50
102
RTVSPost2010PropOp42
 70
     1
102
RTVSPost2010Prop43
 90
        3
102
RTVSPost2010PropOp43
 70
     1
102
RTVSPost2010Prop44ColorIndex
 90
        5
102
RTVSPost2010Prop44ColorRGB
 90
      255
102
RTVSPost2010PropOp44
 70
     1
102
RTVSPost2010Prop45
280
     0
102
RTVSPost2010PropOp45
 70
     1
102
RTVSPost2010Prop46
 90
       50
102
RTVSPost2010PropOp46
 70
     1
102
RTVSPost2010Prop47
 90
       50
102
RTVSPost2010PropOp47
 70
     1
102
RTVSPost2010Prop48
 90
       50
102
RTVSPost2010PropOp48
 70
     1
102
RTVSPost2010Prop49
280
     0
102
RTVSPost2010PropOp49
 70
     1
102
RTVSPost2010Prop50
 90
       50
102
RTVSPost2010PropOp50
 70
     1
102
RTVSPost2010Prop51ColorIndex
 90
      256
102
RTVSPost2010Prop51ColorRGB
 90
-16777216
102
RTVSPost2010PropOp51
 70
     0
102
RTVSPost2010Prop52
140
1.0
102
RTVSPost2010PropOp52
 70
     0
102
RTVSPost2010Prop53
 90
        2
102
RTVSPost2010PropOp53
 70
     1
102
RTVSPost2010Prop54
  1
strokes_ogs.tif
102
RTVSPost2010PropOp54
 70
     1
102
RTVSPost2010Prop55
280
     0
102
RTVSPost2010PropOp55
 70
     1
102
RTVSPost2010Prop56
140
1.0
102
RTVSPost2010PropOp56
 70
     1
102
RTVSPost2010Prop57
140
1.0
102
RTVSPost2010PropOp57
 70
     1
  0
XRECORD
  5
1E3C
102
{ACAD_REACTORS
330
1E3B
102
}
330
1E3B
100
AcDbXrecord
280
     1
102
RTVSPost2010Prop28
280
     0
102
RTVSPost2010PropOp28
 70
     1
102
RTVSPost2010Prop29
280
     1
102
RTVSPost2010PropOp29
 70
     1
102
RTVSPost2010Prop30
280
     1
102
RTVSPost2010PropOp30
 70
     1
102
RTVSPost2010Prop31
280
     0
102
RTVSPost2010PropOp31
 70
     1
102
RTVSPost2010Prop32
280
     0
102
RTVSPost2010PropOp32
 70
     1
102
RTVSPost2010Prop33
280
     0
102
RTVSPost2010PropOp33
 70
     1
102
RTVSPost2010Prop34
280
     0
102
RTVSPost2010PropOp34
 70
     1
102
RTVSPost2010Prop35
280
     0
102
RTVSPost2010PropOp35
 70
     1
102
RTVSPost2010Prop36
280
     0
102
RTVSPost2010PropOp36
 70
     1
102
RTVSPost2010Prop37
 90
       50
102
RTVSPost2010PropOp37
 70
     1
102
RTVSPost2010Prop38
140
0.0
102
RTVSPost2010PropOp38
 70
     1
102
RTVSPost2010Prop39
140
1.0
102
RTVSPost2010PropOp39
 70
     1
102
RTVSPost2010Prop40
 90
        0
102
RTVSPost2010PropOp40
 70
     1
102
RTVSPost2010Prop41ColorIndex
 90
       18
102
RTVSPost2010Prop41ColorRGB
 90
        0
102
RTVSPost2010PropOp41
 70
     1
102
RTVSPost2010Prop42
 90
       50
102
RTVSPost2010PropOp42
 70
     1
102
RTVSPost2010Prop43
 90
        3
102
RTVSPost2010PropOp43
 70
     1
102
RTVSPost2010Prop44ColorIndex
 90
        5
102
RTVSPost2010Prop44ColorRGB
 90
      255
102
RTVSPost2010PropOp44
 70
     1
102
RTVSPost2010Prop45
280
     0
102
RTVSPost2010PropOp45
 70
     1
102
RTVSPost2010Prop46
 90
       50
102
RTVSPost2010PropOp46
 70
     1
102
RTVSPost2010Prop47
 90
       50
102
RTVSPost2010PropOp47
 70
     1
102
RTVSPost2010Prop48
 90
       50
102
RTVSPost2010PropOp48
 70
     1
102
RTVSPost2010Prop49
280
     0
102
RTVSPost2010PropOp49
 70
     1
102
RTVSPost2010Prop50
 90
       50
102
RTVSPost2010PropOp50
 70
     1
102
RTVSPost2010Prop51ColorIndex
 90
      256
102
RTVSPost2010Prop51ColorRGB
 90
-16777216
102
RTVSPost2010PropOp51
 70
     0
102
RTVSPost2010Prop52
140
1.0
102
RTVSPost2010PropOp52
 70
     0
102
RTVSPost2010Prop53
 90
        2
102
RTVSPost2010PropOp53
 70
     1
102
RTVSPost2010Prop54
  1
strokes_ogs.tif
102
RTVSPost2010PropOp54
 70
     1
102
RTVSPost2010Prop55
280
     0
102
RTVSPost2010PropOp55
 70
     1
102
RTVSPost2010Prop56
140
1.0
102
RTVSPost2010PropOp56
 70
     1
102
RTVSPost2010Prop57
140
1.0
102
RTVSPost2010PropOp57
 70
     1
  0
XRECORD
  5
1E0E
102
{ACAD_REACTORS
330
1E0D
102
}
330
1E0D
100
AcDbXrecord
280
     1
102
RTVSPost2010Prop28
280
     0
102
RTVSPost2010PropOp28
 70
     1
102
RTVSPost2010Prop29
280
     1
102
RTVSPost2010PropOp29
 70
     1
102
RTVSPost2010Prop30
280
     1
102
RTVSPost2010PropOp30
 70
     1
102
RTVSPost2010Prop31
280
     0
102
RTVSPost2010PropOp31
 70
     1
102
RTVSPost2010Prop32
280
     0
102
RTVSPost2010PropOp32
 70
     1
102
RTVSPost2010Prop33
280
     0
102
RTVSPost2010PropOp33
 70
     1
102
RTVSPost2010Prop34
280
     0
102
RTVSPost2010PropOp34
 70
     1
102
RTVSPost2010Prop35
280
     0
102
RTVSPost2010PropOp35
 70
     1
102
RTVSPost2010Prop36
280
     0
102
RTVSPost2010PropOp36
 70
     1
102
RTVSPost2010Prop37
 90
       50
102
RTVSPost2010PropOp37
 70
     1
102
RTVSPost2010Prop38
140
0.0
102
RTVSPost2010PropOp38
 70
     1
102
RTVSPost2010Prop39
140
1.0
102
RTVSPost2010PropOp39
 70
     1
102
RTVSPost2010Prop40
 90
        0
102
RTVSPost2010PropOp40
 70
     1
102
RTVSPost2010Prop41ColorIndex
 90
       18
102
RTVSPost2010Prop41ColorRGB
 90
        0
102
RTVSPost2010PropOp41
 70
     1
102
RTVSPost2010Prop42
 90
       50
102
RTVSPost2010PropOp42
 70
     1
102
RTVSPost2010Prop43
 90
        3
102
RTVSPost2010PropOp43
 70
     1
102
RTVSPost2010Prop44ColorIndex
 90
        5
102
RTVSPost2010Prop44ColorRGB
 90
      255
102
RTVSPost2010PropOp44
 70
     1
102
RTVSPost2010Prop45
280
     0
102
RTVSPost2010PropOp45
 70
     1
102
RTVSPost2010Prop46
 90
       50
102
RTVSPost2010PropOp46
 70
     1
102
RTVSPost2010Prop47
 90
       50
102
RTVSPost2010PropOp47
 70
     1
102
RTVSPost2010Prop48
 90
       50
102
RTVSPost2010PropOp48
 70
     1
102
RTVSPost2010Prop49
280
     0
102
RTVSPost2010PropOp49
 70
     1
102
RTVSPost2010Prop50
 90
       50
102
RTVSPost2010PropOp50
 70
     1
102
RTVSPost2010Prop51ColorIndex
 90
      256
102
RTVSPost2010Prop51ColorRGB
 90
-16777216
102
RTVSPost2010PropOp51
 70
     0
102
RTVSPost2010Prop52
140
1.0
102
RTVSPost2010PropOp52
 70
     0
102
RTVSPost2010Prop53
 90
        2
102
RTVSPost2010PropOp53
 70
     1
102
RTVSPost2010Prop54
  1
strokes_ogs.tif
102
RTVSPost2010PropOp54
 70
     1
102
RTVSPost2010Prop55
280
     0
102
RTVSPost2010PropOp55
 70
     1
102
RTVSPost2010Prop56
140
1.0
102
RTVSPost2010PropOp56
 70
     1
102
RTVSPost2010Prop57
140
1.0
102
RTVSPost2010PropOp57
 70
     1
  0
XRECORD
  5
1E1C
102
{ACAD_REACTORS
330
1E1B
102
}
330
1E1B
100
AcDbXrecord
280
     1
102
RTVSPost2010Prop28
280
     0
102
RTVSPost2010PropOp28
 70
     1
102
RTVSPost2010Prop29
280
     1
102
RTVSPost2010PropOp29
 70
     1
102
RTVSPost2010Prop30
280
     1
102
RTVSPost2010PropOp30
 70
     1
102
RTVSPost2010Prop31
280
     0
102
RTVSPost2010PropOp31
 70
     1
102
RTVSPost2010Prop32
280
     0
102
RTVSPost2010PropOp32
 70
     1
102
RTVSPost2010Prop33
280
     0
102
RTVSPost2010PropOp33
 70
     1
102
RTVSPost2010Prop34
280
     0
102
RTVSPost2010PropOp34
 70
     1
102
RTVSPost2010Prop35
280
     0
102
RTVSPost2010PropOp35
 70
     1
102
RTVSPost2010Prop36
280
     0
102
RTVSPost2010PropOp36
 70
     1
102
RTVSPost2010Prop37
 90
       50
102
RTVSPost2010PropOp37
 70
     1
102
RTVSPost2010Prop38
140
0.0
102
RTVSPost2010PropOp38
 70
     1
102
RTVSPost2010Prop39
140
1.0
102
RTVSPost2010PropOp39
 70
     1
102
RTVSPost2010Prop40
 90
        0
102
RTVSPost2010PropOp40
 70
     1
102
RTVSPost2010Prop41ColorIndex
 90
       18
102
RTVSPost2010Prop41ColorRGB
 90
        0
102
RTVSPost2010PropOp41
 70
     1
102
RTVSPost2010Prop42
 90
       50
102
RTVSPost2010PropOp42
 70
     1
102
RTVSPost2010Prop43
 90
        3
102
RTVSPost2010PropOp43
 70
     1
102
RTVSPost2010Prop44ColorIndex
 90
        5
102
RTVSPost2010Prop44ColorRGB
 90
      255
102
RTVSPost2010PropOp44
 70
     1
102
RTVSPost2010Prop45
280
     0
102
RTVSPost2010PropOp45
 70
     1
102
RTVSPost2010Prop46
 90
       50
102
RTVSPost2010PropOp46
 70
     1
102
RTVSPost2010Prop47
 90
       50
102
RTVSPost2010PropOp47
 70
     1
102
RTVSPost2010Prop48
 90
       50
102
RTVSPost2010PropOp48
 70
     1
102
RTVSPost2010Prop49
280
     0
102
RTVSPost2010PropOp49
 70
     1
102
RTVSPost2010Prop50
 90
       50
102
RTVSPost2010PropOp50
 70
     1
102
RTVSPost2010Prop51ColorIndex
 90
      256
102
RTVSPost2010Prop51ColorRGB
 90
-16777216
102
RTVSPost2010PropOp51
 70
     0
102
RTVSPost2010Prop52
140
1.0
102
RTVSPost2010PropOp52
 70
     0
102
RTVSPost2010Prop53
 90
        2
102
RTVSPost2010PropOp53
 70
     1
102
RTVSPost2010Prop54
  1
strokes_ogs.tif
102
RTVSPost2010PropOp54
 70
     1
102
RTVSPost2010Prop55
280
     0
102
RTVSPost2010PropOp55
 70
     1
102
RTVSPost2010Prop56
140
1.0
102
RTVSPost2010PropOp56
 70
     1
102
RTVSPost2010Prop57
140
1.0
102
RTVSPost2010PropOp57
 70
     1
  0
XRECORD
  5
1E24
102
{ACAD_REACTORS
330
1E23
102
}
330
1E23
100
AcDbXrecord
280
     1
102
RTVSPost2010Prop28
280
     0
102
RTVSPost2010PropOp28
 70
     1
102
RTVSPost2010Prop29
280
     1
102
RTVSPost2010PropOp29
 70
     1
102
RTVSPost2010Prop30
280
     1
102
RTVSPost2010PropOp30
 70
     1
102
RTVSPost2010Prop31
280
     0
102
RTVSPost2010PropOp31
 70
     1
102
RTVSPost2010Prop32
280
     0
102
RTVSPost2010PropOp32
 70
     1
102
RTVSPost2010Prop33
280
     0
102
RTVSPost2010PropOp33
 70
     1
102
RTVSPost2010Prop34
280
     0
102
RTVSPost2010PropOp34
 70
     1
102
RTVSPost2010Prop35
280
     0
102
RTVSPost2010PropOp35
 70
     1
102
RTVSPost2010Prop36
280
     0
102
RTVSPost2010PropOp36
 70
     1
102
RTVSPost2010Prop37
 90
       50
102
RTVSPost2010PropOp37
 70
     1
102
RTVSPost2010Prop38
140
0.0
102
RTVSPost2010PropOp38
 70
     1
102
RTVSPost2010Prop39
140
1.0
102
RTVSPost2010PropOp39
 70
     1
102
RTVSPost2010Prop40
 90
        0
102
RTVSPost2010PropOp40
 70
     1
102
RTVSPost2010Prop41ColorIndex
 90
       18
102
RTVSPost2010Prop41ColorRGB
 90
        0
102
RTVSPost2010PropOp41
 70
     1
102
RTVSPost2010Prop42
 90
       50
102
RTVSPost2010PropOp42
 70
     1
102
RTVSPost2010Prop43
 90
        3
102
RTVSPost2010PropOp43
 70
     1
102
RTVSPost2010Prop44ColorIndex
 90
        5
102
RTVSPost2010Prop44ColorRGB
 90
      255
102
RTVSPost2010PropOp44
 70
     1
102
RTVSPost2010Prop45
280
     0
102
RTVSPost2010PropOp45
 70
     1
102
RTVSPost2010Prop46
 90
       50
102
RTVSPost2010PropOp46
 70
     1
102
RTVSPost2010Prop47
 90
       50
102
RTVSPost2010PropOp47
 70
     1
102
RTVSPost2010Prop48
 90
       50
102
RTVSPost2010PropOp48
 70
     1
102
RTVSPost2010Prop49
280
     0
102
RTVSPost2010PropOp49
 70
     1
102
RTVSPost2010Prop50
 90
       50
102
RTVSPost2010PropOp50
 70
     1
102
RTVSPost2010Prop51ColorIndex
 90
      256
102
RTVSPost2010Prop51ColorRGB
 90
-16777216
102
RTVSPost2010PropOp51
 70
     0
102
RTVSPost2010Prop52
140
1.0
102
RTVSPost2010PropOp52
 70
     0
102
RTVSPost2010Prop53
 90
        2
102
RTVSPost2010PropOp53
 70
     1
102
RTVSPost2010Prop54
  1
strokes_ogs.tif
102
RTVSPost2010PropOp54
 70
     1
102
RTVSPost2010Prop55
280
     0
102
RTVSPost2010PropOp55
 70
     1
102
RTVSPost2010Prop56
140
1.0
102
RTVSPost2010PropOp56
 70
     1
102
RTVSPost2010Prop57
140
1.0
102
RTVSPost2010PropOp57
 70
     1
  0
XRECORD
  5
1E16
102
{ACAD_REACTORS
330
1E15
102
}
330
1E15
100
AcDbXrecord
280
     1
102
RTVSPost2010Prop28
280
     0
102
RTVSPost2010PropOp28
 70
     1
102
RTVSPost2010Prop29
280
     1
102
RTVSPost2010PropOp29
 70
     1
102
RTVSPost2010Prop30
280
     1
102
RTVSPost2010PropOp30
 70
     1
102
RTVSPost2010Prop31
280
     0
102
RTVSPost2010PropOp31
 70
     1
102
RTVSPost2010Prop32
280
     0
102
RTVSPost2010PropOp32
 70
     1
102
RTVSPost2010Prop33
280
     0
102
RTVSPost2010PropOp33
 70
     1
102
RTVSPost2010Prop34
280
     0
102
RTVSPost2010PropOp34
 70
     1
102
RTVSPost2010Prop35
280
     0
102
RTVSPost2010PropOp35
 70
     1
102
RTVSPost2010Prop36
280
     0
102
RTVSPost2010PropOp36
 70
     1
102
RTVSPost2010Prop37
 90
       50
102
RTVSPost2010PropOp37
 70
     1
102
RTVSPost2010Prop38
140
0.0
102
RTVSPost2010PropOp38
 70
     1
102
RTVSPost2010Prop39
140
1.0
102
RTVSPost2010PropOp39
 70
     1
102
RTVSPost2010Prop40
 90
        0
102
RTVSPost2010PropOp40
 70
     1
102
RTVSPost2010Prop41ColorIndex
 90
       18
102
RTVSPost2010Prop41ColorRGB
 90
        0
102
RTVSPost2010PropOp41
 70
     1
102
RTVSPost2010Prop42
 90
       50
102
RTVSPost2010PropOp42
 70
     1
102
RTVSPost2010Prop43
 90
        3
102
RTVSPost2010PropOp43
 70
     1
102
RTVSPost2010Prop44ColorIndex
 90
        5
102
RTVSPost2010Prop44ColorRGB
 90
      255
102
RTVSPost2010PropOp44
 70
     1
102
RTVSPost2010Prop45
280
     0
102
RTVSPost2010PropOp45
 70
     1
102
RTVSPost2010Prop46
 90
       50
102
RTVSPost2010PropOp46
 70
     1
102
RTVSPost2010Prop47
 90
       50
102
RTVSPost2010PropOp47
 70
     1
102
RTVSPost2010Prop48
 90
       50
102
RTVSPost2010PropOp48
 70
     1
102
RTVSPost2010Prop49
280
     0
102
RTVSPost2010PropOp49
 70
     1
102
RTVSPost2010Prop50
 90
       50
102
RTVSPost2010PropOp50
 70
     1
102
RTVSPost2010Prop51ColorIndex
 90
      256
102
RTVSPost2010Prop51ColorRGB
 90
-16777216
102
RTVSPost2010PropOp51
 70
     0
102
RTVSPost2010Prop52
140
1.0
102
RTVSPost2010PropOp52
 70
     0
102
RTVSPost2010Prop53
 90
        2
102
RTVSPost2010PropOp53
 70
     1
102
RTVSPost2010Prop54
  1
strokes_ogs.tif
102
RTVSPost2010PropOp54
 70
     1
102
RTVSPost2010Prop55
280
     0
102
RTVSPost2010PropOp55
 70
     1
102
RTVSPost2010Prop56
140
1.0
102
RTVSPost2010PropOp56
 70
     1
102
RTVSPost2010Prop57
140
1.0
102
RTVSPost2010PropOp57
 70
     1
  0
XRECORD
  5
1E1A
102
{ACAD_REACTORS
330
1E19
102
}
330
1E19
100
AcDbXrecord
280
     1
102
RTVSPost2010Prop28
280
     0
102
RTVSPost2010PropOp28
 70
     1
102
RTVSPost2010Prop29
280
     1
102
RTVSPost2010PropOp29
 70
     1
102
RTVSPost2010Prop30
280
     1
102
RTVSPost2010PropOp30
 70
     1
102
RTVSPost2010Prop31
280
     0
102
RTVSPost2010PropOp31
 70
     1
102
RTVSPost2010Prop32
280
     0
102
RTVSPost2010PropOp32
 70
     1
102
RTVSPost2010Prop33
280
     0
102
RTVSPost2010PropOp33
 70
     1
102
RTVSPost2010Prop34
280
     0
102
RTVSPost2010PropOp34
 70
     1
102
RTVSPost2010Prop35
280
     0
102
RTVSPost2010PropOp35
 70
     1
102
RTVSPost2010Prop36
280
     0
102
RTVSPost2010PropOp36
 70
     1
102
RTVSPost2010Prop37
 90
       50
102
RTVSPost2010PropOp37
 70
     1
102
RTVSPost2010Prop38
140
0.0
102
RTVSPost2010PropOp38
 70
     1
102
RTVSPost2010Prop39
140
1.0
102
RTVSPost2010PropOp39
 70
     1
102
RTVSPost2010Prop40
 90
        0
102
RTVSPost2010PropOp40
 70
     1
102
RTVSPost2010Prop41ColorIndex
 90
       18
102
RTVSPost2010Prop41ColorRGB
 90
        0
102
RTVSPost2010PropOp41
 70
     1
102
RTVSPost2010Prop42
 90
       50
102
RTVSPost2010PropOp42
 70
     1
102
RTVSPost2010Prop43
 90
        3
102
RTVSPost2010PropOp43
 70
     1
102
RTVSPost2010Prop44ColorIndex
 90
        5
102
RTVSPost2010Prop44ColorRGB
 90
      255
102
RTVSPost2010PropOp44
 70
     1
102
RTVSPost2010Prop45
280
     0
102
RTVSPost2010PropOp45
 70
     1
102
RTVSPost2010Prop46
 90
       50
102
RTVSPost2010PropOp46
 70
     1
102
RTVSPost2010Prop47
 90
       50
102
RTVSPost2010PropOp47
 70
     1
102
RTVSPost2010Prop48
 90
       50
102
RTVSPost2010PropOp48
 70
     1
102
RTVSPost2010Prop49
280
     0
102
RTVSPost2010PropOp49
 70
     1
102
RTVSPost2010Prop50
 90
       50
102
RTVSPost2010PropOp50
 70
     1
102
RTVSPost2010Prop51ColorIndex
 90
      256
102
RTVSPost2010Prop51ColorRGB
 90
-16777216
102
RTVSPost2010PropOp51
 70
     0
102
RTVSPost2010Prop52
140
1.0
102
RTVSPost2010PropOp52
 70
     0
102
RTVSPost2010Prop53
 90
        2
102
RTVSPost2010PropOp53
 70
     1
102
RTVSPost2010Prop54
  1
strokes_ogs.tif
102
RTVSPost2010PropOp54
 70
     1
102
RTVSPost2010Prop55
280
     0
102
RTVSPost2010PropOp55
 70
     1
102
RTVSPost2010Prop56
140
1.0
102
RTVSPost2010PropOp56
 70
     1
102
RTVSPost2010Prop57
140
1.0
102
RTVSPost2010PropOp57
 70
     1
  0
XRECORD
  5
1E34
102
{ACAD_REACTORS
330
1E33
102
}
330
1E33
100
AcDbXrecord
280
     1
102
RTVSPost2010Prop28
280
     0
102
RTVSPost2010PropOp28
 70
     1
102
RTVSPost2010Prop29
280
     1
102
RTVSPost2010PropOp29
 70
     1
102
RTVSPost2010Prop30
280
     1
102
RTVSPost2010PropOp30
 70
     1
102
RTVSPost2010Prop31
280
     0
102
RTVSPost2010PropOp31
 70
     1
102
RTVSPost2010Prop32
280
     0
102
RTVSPost2010PropOp32
 70
     1
102
RTVSPost2010Prop33
280
     0
102
RTVSPost2010PropOp33
 70
     1
102
RTVSPost2010Prop34
280
     0
102
RTVSPost2010PropOp34
 70
     1
102
RTVSPost2010Prop35
280
     0
102
RTVSPost2010PropOp35
 70
     1
102
RTVSPost2010Prop36
280
     0
102
RTVSPost2010PropOp36
 70
     1
102
RTVSPost2010Prop37
 90
       50
102
RTVSPost2010PropOp37
 70
     1
102
RTVSPost2010Prop38
140
0.0
102
RTVSPost2010PropOp38
 70
     1
102
RTVSPost2010Prop39
140
1.0
102
RTVSPost2010PropOp39
 70
     1
102
RTVSPost2010Prop40
 90
        0
102
RTVSPost2010PropOp40
 70
     1
102
RTVSPost2010Prop41ColorIndex
 90
       18
102
RTVSPost2010Prop41ColorRGB
 90
        0
102
RTVSPost2010PropOp41
 70
     1
102
RTVSPost2010Prop42
 90
       50
102
RTVSPost2010PropOp42
 70
     1
102
RTVSPost2010Prop43
 90
        3
102
RTVSPost2010PropOp43
 70
     1
102
RTVSPost2010Prop44ColorIndex
 90
        5
102
RTVSPost2010Prop44ColorRGB
 90
      255
102
RTVSPost2010PropOp44
 70
     1
102
RTVSPost2010Prop45
280
     0
102
RTVSPost2010PropOp45
 70
     1
102
RTVSPost2010Prop46
 90
       50
102
RTVSPost2010PropOp46
 70
     1
102
RTVSPost2010Prop47
 90
       50
102
RTVSPost2010PropOp47
 70
     1
102
RTVSPost2010Prop48
 90
       50
102
RTVSPost2010PropOp48
 70
     1
102
RTVSPost2010Prop49
280
     0
102
RTVSPost2010PropOp49
 70
     1
102
RTVSPost2010Prop50
 90
       50
102
RTVSPost2010PropOp50
 70
     1
102
RTVSPost2010Prop51ColorIndex
 90
      256
102
RTVSPost2010Prop51ColorRGB
 90
-16777216
102
RTVSPost2010PropOp51
 70
     0
102
RTVSPost2010Prop52
140
1.0
102
RTVSPost2010PropOp52
 70
     0
102
RTVSPost2010Prop53
 90
        2
102
RTVSPost2010PropOp53
 70
     1
102
RTVSPost2010Prop54
  1
strokes_ogs.tif
102
RTVSPost2010PropOp54
 70
     1
102
RTVSPost2010Prop55
280
     0
102
RTVSPost2010PropOp55
 70
     1
102
RTVSPost2010Prop56
140
1.0
102
RTVSPost2010PropOp56
 70
     1
102
RTVSPost2010Prop57
140
1.0
102
RTVSPost2010PropOp57
 70
     1
  0
XRECORD
  5
1E22
102
{ACAD_REACTORS
330
1E21
102
}
330
1E21
100
AcDbXrecord
280
     1
102
RTVSPost2010Prop28
280
     0
102
RTVSPost2010PropOp28
 70
     1
102
RTVSPost2010Prop29
280
     1
102
RTVSPost2010PropOp29
 70
     1
102
RTVSPost2010Prop30
280
     1
102
RTVSPost2010PropOp30
 70
     1
102
RTVSPost2010Prop31
280
     0
102
RTVSPost2010PropOp31
 70
     1
102
RTVSPost2010Prop32
280
     0
102
RTVSPost2010PropOp32
 70
     1
102
RTVSPost2010Prop33
280
     0
102
RTVSPost2010PropOp33
 70
     1
102
RTVSPost2010Prop34
280
     0
102
RTVSPost2010PropOp34
 70
     1
102
RTVSPost2010Prop35
280
     0
102
RTVSPost2010PropOp35
 70
     1
102
RTVSPost2010Prop36
280
     0
102
RTVSPost2010PropOp36
 70
     1
102
RTVSPost2010Prop37
 90
       50
102
RTVSPost2010PropOp37
 70
     1
102
RTVSPost2010Prop38
140
0.0
102
RTVSPost2010PropOp38
 70
     1
102
RTVSPost2010Prop39
140
1.0
102
RTVSPost2010PropOp39
 70
     1
102
RTVSPost2010Prop40
 90
        0
102
RTVSPost2010PropOp40
 70
     1
102
RTVSPost2010Prop41ColorIndex
 90
       18
102
RTVSPost2010Prop41ColorRGB
 90
        0
102
RTVSPost2010PropOp41
 70
     1
102
RTVSPost2010Prop42
 90
       50
102
RTVSPost2010PropOp42
 70
     1
102
RTVSPost2010Prop43
 90
        3
102
RTVSPost2010PropOp43
 70
     1
102
RTVSPost2010Prop44ColorIndex
 90
        5
102
RTVSPost2010Prop44ColorRGB
 90
      255
102
RTVSPost2010PropOp44
 70
     1
102
RTVSPost2010Prop45
280
     0
102
RTVSPost2010PropOp45
 70
     1
102
RTVSPost2010Prop46
 90
       50
102
RTVSPost2010PropOp46
 70
     1
102
RTVSPost2010Prop47
 90
       50
102
RTVSPost2010PropOp47
 70
     1
102
RTVSPost2010Prop48
 90
       50
102
RTVSPost2010PropOp48
 70
     1
102
RTVSPost2010Prop49
280
     0
102
RTVSPost2010PropOp49
 70
     1
102
RTVSPost2010Prop50
 90
       50
102
RTVSPost2010PropOp50
 70
     1
102
RTVSPost2010Prop51ColorIndex
 90
      256
102
RTVSPost2010Prop51ColorRGB
 90
-16777216
102
RTVSPost2010PropOp51
 70
     0
102
RTVSPost2010Prop52
140
1.0
102
RTVSPost2010PropOp52
 70
     0
102
RTVSPost2010Prop53
 90
        2
102
RTVSPost2010PropOp53
 70
     1
102
RTVSPost2010Prop54
  1
strokes_ogs.tif
102
RTVSPost2010PropOp54
 70
     1
102
RTVSPost2010Prop55
280
     0
102
RTVSPost2010PropOp55
 70
     1
102
RTVSPost2010Prop56
140
1.0
102
RTVSPost2010PropOp56
 70
     1
102
RTVSPost2010Prop57
140
1.0
102
RTVSPost2010PropOp57
 70
     1
  0
XRECORD
  5
1E06
102
{ACAD_REACTORS
330
1E05
102
}
330
1E05
100
AcDbXrecord
280
     1
102
RTVSPost2010Prop28
280
     0
102
RTVSPost2010PropOp28
 70
     1
102
RTVSPost2010Prop29
280
     1
102
RTVSPost2010PropOp29
 70
     1
102
RTVSPost2010Prop30
280
     1
102
RTVSPost2010PropOp30
 70
     1
102
RTVSPost2010Prop31
280
     0
102
RTVSPost2010PropOp31
 70
     1
102
RTVSPost2010Prop32
280
     0
102
RTVSPost2010PropOp32
 70
     1
102
RTVSPost2010Prop33
280
     0
102
RTVSPost2010PropOp33
 70
     1
102
RTVSPost2010Prop34
280
     0
102
RTVSPost2010PropOp34
 70
     1
102
RTVSPost2010Prop35
280
     0
102
RTVSPost2010PropOp35
 70
     1
102
RTVSPost2010Prop36
280
     0
102
RTVSPost2010PropOp36
 70
     1
102
RTVSPost2010Prop37
 90
       50
102
RTVSPost2010PropOp37
 70
     1
102
RTVSPost2010Prop38
140
0.0
102
RTVSPost2010PropOp38
 70
     1
102
RTVSPost2010Prop39
140
1.0
102
RTVSPost2010PropOp39
 70
     1
102
RTVSPost2010Prop40
 90
        0
102
RTVSPost2010PropOp40
 70
     1
102
RTVSPost2010Prop41ColorIndex
 90
       18
102
RTVSPost2010Prop41ColorRGB
 90
        0
102
RTVSPost2010PropOp41
 70
     1
102
RTVSPost2010Prop42
 90
       50
102
RTVSPost2010PropOp42
 70
     1
102
RTVSPost2010Prop43
 90
        3
102
RTVSPost2010PropOp43
 70
     1
102
RTVSPost2010Prop44ColorIndex
 90
        5
102
RTVSPost2010Prop44ColorRGB
 90
      255
102
RTVSPost2010PropOp44
 70
     1
102
RTVSPost2010Prop45
280
     0
102
RTVSPost2010PropOp45
 70
     1
102
RTVSPost2010Prop46
 90
       50
102
RTVSPost2010PropOp46
 70
     1
102
RTVSPost2010Prop47
 90
       50
102
RTVSPost2010PropOp47
 70
     1
102
RTVSPost2010Prop48
 90
       50
102
RTVSPost2010PropOp48
 70
     1
102
RTVSPost2010Prop49
280
     0
102
RTVSPost2010PropOp49
 70
     1
102
RTVSPost2010Prop50
 90
       50
102
RTVSPost2010PropOp50
 70
     1
102
RTVSPost2010Prop51ColorIndex
 90
      256
102
RTVSPost2010Prop51ColorRGB
 90
-16777216
102
RTVSPost2010PropOp51
 70
     0
102
RTVSPost2010Prop52
140
1.0
102
RTVSPost2010PropOp52
 70
     0
102
RTVSPost2010Prop53
 90
        2
102
RTVSPost2010PropOp53
 70
     1
102
RTVSPost2010Prop54
  1
strokes_ogs.tif
102
RTVSPost2010PropOp54
 70
     1
102
RTVSPost2010Prop55
280
     0
102
RTVSPost2010PropOp55
 70
     1
102
RTVSPost2010Prop56
140
1.0
102
RTVSPost2010PropOp56
 70
     1
102
RTVSPost2010Prop57
140
1.0
102
RTVSPost2010PropOp57
 70
     1
  0
XRECORD
  5
1E08
102
{ACAD_REACTORS
330
1E07
102
}
330
1E07
100
AcDbXrecord
280
     1
102
RTVSPost2010Prop28
280
     0
102
RTVSPost2010PropOp28
 70
     1
102
RTVSPost2010Prop29
280
     1
102
RTVSPost2010PropOp29
 70
     1
102
RTVSPost2010Prop30
280
     1
102
RTVSPost2010PropOp30
 70
     1
102
RTVSPost2010Prop31
280
     0
102
RTVSPost2010PropOp31
 70
     1
102
RTVSPost2010Prop32
280
     0
102
RTVSPost2010PropOp32
 70
     1
102
RTVSPost2010Prop33
280
     0
102
RTVSPost2010PropOp33
 70
     1
102
RTVSPost2010Prop34
280
     0
102
RTVSPost2010PropOp34
 70
     1
102
RTVSPost2010Prop35
280
     0
102
RTVSPost2010PropOp35
 70
     1
102
RTVSPost2010Prop36
280
     0
102
RTVSPost2010PropOp36
 70
     1
102
RTVSPost2010Prop37
 90
       50
102
RTVSPost2010PropOp37
 70
     1
102
RTVSPost2010Prop38
140
0.0
102
RTVSPost2010PropOp38
 70
     1
102
RTVSPost2010Prop39
140
1.0
102
RTVSPost2010PropOp39
 70
     1
102
RTVSPost2010Prop40
 90
        0
102
RTVSPost2010PropOp40
 70
     1
102
RTVSPost2010Prop41ColorIndex
 90
       18
102
RTVSPost2010Prop41ColorRGB
 90
        0
102
RTVSPost2010PropOp41
 70
     1
102
RTVSPost2010Prop42
 90
       50
102
RTVSPost2010PropOp42
 70
     1
102
RTVSPost2010Prop43
 90
        3
102
RTVSPost2010PropOp43
 70
     1
102
RTVSPost2010Prop44ColorIndex
 90
        5
102
RTVSPost2010Prop44ColorRGB
 90
      255
102
RTVSPost2010PropOp44
 70
     1
102
RTVSPost2010Prop45
280
     0
102
RTVSPost2010PropOp45
 70
     1
102
RTVSPost2010Prop46
 90
       50
102
RTVSPost2010PropOp46
 70
     1
102
RTVSPost2010Prop47
 90
       50
102
RTVSPost2010PropOp47
 70
     1
102
RTVSPost2010Prop48
 90
       50
102
RTVSPost2010PropOp48
 70
     1
102
RTVSPost2010Prop49
280
     0
102
RTVSPost2010PropOp49
 70
     1
102
RTVSPost2010Prop50
 90
       50
102
RTVSPost2010PropOp50
 70
     1
102
RTVSPost2010Prop51ColorIndex
 90
      256
102
RTVSPost2010Prop51ColorRGB
 90
-16777216
102
RTVSPost2010PropOp51
 70
     0
102
RTVSPost2010Prop52
140
1.0
102
RTVSPost2010PropOp52
 70
     0
102
RTVSPost2010Prop53
 90
        2
102
RTVSPost2010PropOp53
 70
     1
102
RTVSPost2010Prop54
  1
strokes_ogs.tif
102
RTVSPost2010PropOp54
 70
     1
102
RTVSPost2010Prop55
280
     0
102
RTVSPost2010PropOp55
 70
     1
102
RTVSPost2010Prop56
140
1.0
102
RTVSPost2010PropOp56
 70
     1
102
RTVSPost2010Prop57
140
1.0
102
RTVSPost2010PropOp57
 70
     1
  0
XRECORD
  5
1E0A
102
{ACAD_REACTORS
330
1E09
102
}
330
1E09
100
AcDbXrecord
280
     1
102
RTVSPost2010Prop28
280
     0
102
RTVSPost2010PropOp28
 70
     1
102
RTVSPost2010Prop29
280
     1
102
RTVSPost2010PropOp29
 70
     1
102
RTVSPost2010Prop30
280
     1
102
RTVSPost2010PropOp30
 70
     1
102
RTVSPost2010Prop31
280
     0
102
RTVSPost2010PropOp31
 70
     1
102
RTVSPost2010Prop32
280
     0
102
RTVSPost2010PropOp32
 70
     1
102
RTVSPost2010Prop33
280
     0
102
RTVSPost2010PropOp33
 70
     1
102
RTVSPost2010Prop34
280
     0
102
RTVSPost2010PropOp34
 70
     1
102
RTVSPost2010Prop35
280
     0
102
RTVSPost2010PropOp35
 70
     1
102
RTVSPost2010Prop36
280
     0
102
RTVSPost2010PropOp36
 70
     1
102
RTVSPost2010Prop37
 90
       50
102
RTVSPost2010PropOp37
 70
     1
102
RTVSPost2010Prop38
140
0.0
102
RTVSPost2010PropOp38
 70
     1
102
RTVSPost2010Prop39
140
1.0
102
RTVSPost2010PropOp39
 70
     1
102
RTVSPost2010Prop40
 90
        0
102
RTVSPost2010PropOp40
 70
     1
102
RTVSPost2010Prop41ColorIndex
 90
       18
102
RTVSPost2010Prop41ColorRGB
 90
        0
102
RTVSPost2010PropOp41
 70
     1
102
RTVSPost2010Prop42
 90
       50
102
RTVSPost2010PropOp42
 70
     1
102
RTVSPost2010Prop43
 90
        3
102
RTVSPost2010PropOp43
 70
     1
102
RTVSPost2010Prop44ColorIndex
 90
        5
102
RTVSPost2010Prop44ColorRGB
 90
      255
102
RTVSPost2010PropOp44
 70
     1
102
RTVSPost2010Prop45
280
     0
102
RTVSPost2010PropOp45
 70
     1
102
RTVSPost2010Prop46
 90
       50
102
RTVSPost2010PropOp46
 70
     1
102
RTVSPost2010Prop47
 90
       50
102
RTVSPost2010PropOp47
 70
     1
102
RTVSPost2010Prop48
 90
       50
102
RTVSPost2010PropOp48
 70
     1
102
RTVSPost2010Prop49
280
     0
102
RTVSPost2010PropOp49
 70
     1
102
RTVSPost2010Prop50
 90
       50
102
RTVSPost2010PropOp50
 70
     1
102
RTVSPost2010Prop51ColorIndex
 90
      256
102
RTVSPost2010Prop51ColorRGB
 90
-16777216
102
RTVSPost2010PropOp51
 70
     0
102
RTVSPost2010Prop52
140
1.0
102
RTVSPost2010PropOp52
 70
     0
102
RTVSPost2010Prop53
 90
        2
102
RTVSPost2010PropOp53
 70
     1
102
RTVSPost2010Prop54
  1
strokes_ogs.tif
102
RTVSPost2010PropOp54
 70
     1
102
RTVSPost2010Prop55
280
     0
102
RTVSPost2010PropOp55
 70
     1
102
RTVSPost2010Prop56
140
1.0
102
RTVSPost2010PropOp56
 70
     1
102
RTVSPost2010Prop57
140
1.0
102
RTVSPost2010PropOp57
 70
     1
  0
XRECORD
  5
1E0C
102
{ACAD_REACTORS
330
1E0B
102
}
330
1E0B
100
AcDbXrecord
280
     1
102
RTVSPost2010Prop28
280
     0
102
RTVSPost2010PropOp28
 70
     1
102
RTVSPost2010Prop29
280
     1
102
RTVSPost2010PropOp29
 70
     1
102
RTVSPost2010Prop30
280
     1
102
RTVSPost2010PropOp30
 70
     1
102
RTVSPost2010Prop31
280
     0
102
RTVSPost2010PropOp31
 70
     1
102
RTVSPost2010Prop32
280
     0
102
RTVSPost2010PropOp32
 70
     1
102
RTVSPost2010Prop33
280
     0
102
RTVSPost2010PropOp33
 70
     1
102
RTVSPost2010Prop34
280
     0
102
RTVSPost2010PropOp34
 70
     1
102
RTVSPost2010Prop35
280
     0
102
RTVSPost2010PropOp35
 70
     1
102
RTVSPost2010Prop36
280
     0
102
RTVSPost2010PropOp36
 70
     1
102
RTVSPost2010Prop37
 90
       50
102
RTVSPost2010PropOp37
 70
     1
102
RTVSPost2010Prop38
140
0.0
102
RTVSPost2010PropOp38
 70
     1
102
RTVSPost2010Prop39
140
1.0
102
RTVSPost2010PropOp39
 70
     1
102
RTVSPost2010Prop40
 90
        0
102
RTVSPost2010PropOp40
 70
     1
102
RTVSPost2010Prop41ColorIndex
 90
       18
102
RTVSPost2010Prop41ColorRGB
 90
        0
102
RTVSPost2010PropOp41
 70
     1
102
RTVSPost2010Prop42
 90
       50
102
RTVSPost2010PropOp42
 70
     1
102
RTVSPost2010Prop43
 90
        3
102
RTVSPost2010PropOp43
 70
     1
102
RTVSPost2010Prop44ColorIndex
 90
        5
102
RTVSPost2010Prop44ColorRGB
 90
      255
102
RTVSPost2010PropOp44
 70
     1
102
RTVSPost2010Prop45
280
     0
102
RTVSPost2010PropOp45
 70
     1
102
RTVSPost2010Prop46
 90
       50
102
RTVSPost2010PropOp46
 70
     1
102
RTVSPost2010Prop47
 90
       50
102
RTVSPost2010PropOp47
 70
     1
102
RTVSPost2010Prop48
 90
       50
102
RTVSPost2010PropOp48
 70
     1
102
RTVSPost2010Prop49
280
     0
102
RTVSPost2010PropOp49
 70
     1
102
RTVSPost2010Prop50
 90
       50
102
RTVSPost2010PropOp50
 70
     1
102
RTVSPost2010Prop51ColorIndex
 90
      256
102
RTVSPost2010Prop51ColorRGB
 90
-16777216
102
RTVSPost2010PropOp51
 70
     0
102
RTVSPost2010Prop52
140
1.0
102
RTVSPost2010PropOp52
 70
     0
102
RTVSPost2010Prop53
 90
        2
102
RTVSPost2010PropOp53
 70
     1
102
RTVSPost2010Prop54
  1
strokes_ogs.tif
102
RTVSPost2010PropOp54
 70
     1
102
RTVSPost2010Prop55
280
     0
102
RTVSPost2010PropOp55
 70
     1
102
RTVSPost2010Prop56
140
1.0
102
RTVSPost2010PropOp56
 70
     1
102
RTVSPost2010Prop57
140
1.0
102
RTVSPost2010PropOp57
 70
     1
  0
XRECORD
  5
1E14
102
{ACAD_REACTORS
330
1E13
102
}
330
1E13
100
AcDbXrecord
280
     1
102
RTVSPost2010Prop28
280
     0
102
RTVSPost2010PropOp28
 70
     1
102
RTVSPost2010Prop29
280
     1
102
RTVSPost2010PropOp29
 70
     1
102
RTVSPost2010Prop30
280
     1
102
RTVSPost2010PropOp30
 70
     1
102
RTVSPost2010Prop31
280
     0
102
RTVSPost2010PropOp31
 70
     1
102
RTVSPost2010Prop32
280
     0
102
RTVSPost2010PropOp32
 70
     1
102
RTVSPost2010Prop33
280
     0
102
RTVSPost2010PropOp33
 70
     1
102
RTVSPost2010Prop34
280
     0
102
RTVSPost2010PropOp34
 70
     1
102
RTVSPost2010Prop35
280
     0
102
RTVSPost2010PropOp35
 70
     1
102
RTVSPost2010Prop36
280
     0
102
RTVSPost2010PropOp36
 70
     1
102
RTVSPost2010Prop37
 90
       50
102
RTVSPost2010PropOp37
 70
     1
102
RTVSPost2010Prop38
140
0.0
102
RTVSPost2010PropOp38
 70
     1
102
RTVSPost2010Prop39
140
1.0
102
RTVSPost2010PropOp39
 70
     1
102
RTVSPost2010Prop40
 90
        0
102
RTVSPost2010PropOp40
 70
     1
102
RTVSPost2010Prop41ColorIndex
 90
       18
102
RTVSPost2010Prop41ColorRGB
 90
        0
102
RTVSPost2010PropOp41
 70
     1
102
RTVSPost2010Prop42
 90
       50
102
RTVSPost2010PropOp42
 70
     1
102
RTVSPost2010Prop43
 90
        3
102
RTVSPost2010PropOp43
 70
     1
102
RTVSPost2010Prop44ColorIndex
 90
        5
102
RTVSPost2010Prop44ColorRGB
 90
      255
102
RTVSPost2010PropOp44
 70
     1
102
RTVSPost2010Prop45
280
     0
102
RTVSPost2010PropOp45
 70
     1
102
RTVSPost2010Prop46
 90
       50
102
RTVSPost2010PropOp46
 70
     1
102
RTVSPost2010Prop47
 90
       50
102
RTVSPost2010PropOp47
 70
     1
102
RTVSPost2010Prop48
 90
       50
102
RTVSPost2010PropOp48
 70
     1
102
RTVSPost2010Prop49
280
     0
102
RTVSPost2010PropOp49
 70
     1
102
RTVSPost2010Prop50
 90
       50
102
RTVSPost2010PropOp50
 70
     1
102
RTVSPost2010Prop51ColorIndex
 90
      256
102
RTVSPost2010Prop51ColorRGB
 90
-16777216
102
RTVSPost2010PropOp51
 70
     0
102
RTVSPost2010Prop52
140
1.0
102
RTVSPost2010PropOp52
 70
     0
102
RTVSPost2010Prop53
 90
        2
102
RTVSPost2010PropOp53
 70
     1
102
RTVSPost2010Prop54
  1
strokes_ogs.tif
102
RTVSPost2010PropOp54
 70
     1
102
RTVSPost2010Prop55
280
     0
102
RTVSPost2010PropOp55
 70
     1
102
RTVSPost2010Prop56
140
1.0
102
RTVSPost2010PropOp56
 70
     1
102
RTVSPost2010Prop57
140
1.0
102
RTVSPost2010PropOp57
 70
     1
  0
XRECORD
  5
1E30
102
{ACAD_REACTORS
330
1E2F
102
}
330
1E2F
100
AcDbXrecord
280
     1
102
RTVSPost2010Prop28
280
     0
102
RTVSPost2010PropOp28
 70
     1
102
RTVSPost2010Prop29
280
     1
102
RTVSPost2010PropOp29
 70
     1
102
RTVSPost2010Prop30
280
     1
102
RTVSPost2010PropOp30
 70
     1
102
RTVSPost2010Prop31
280
     0
102
RTVSPost2010PropOp31
 70
     1
102
RTVSPost2010Prop32
280
     0
102
RTVSPost2010PropOp32
 70
     1
102
RTVSPost2010Prop33
280
     0
102
RTVSPost2010PropOp33
 70
     1
102
RTVSPost2010Prop34
280
     0
102
RTVSPost2010PropOp34
 70
     1
102
RTVSPost2010Prop35
280
     0
102
RTVSPost2010PropOp35
 70
     1
102
RTVSPost2010Prop36
280
     0
102
RTVSPost2010PropOp36
 70
     1
102
RTVSPost2010Prop37
 90
       50
102
RTVSPost2010PropOp37
 70
     1
102
RTVSPost2010Prop38
140
0.0
102
RTVSPost2010PropOp38
 70
     1
102
RTVSPost2010Prop39
140
1.0
102
RTVSPost2010PropOp39
 70
     1
102
RTVSPost2010Prop40
 90
        0
102
RTVSPost2010PropOp40
 70
     1
102
RTVSPost2010Prop41ColorIndex
 90
       18
102
RTVSPost2010Prop41ColorRGB
 90
        0
102
RTVSPost2010PropOp41
 70
     1
102
RTVSPost2010Prop42
 90
       50
102
RTVSPost2010PropOp42
 70
     1
102
RTVSPost2010Prop43
 90
        3
102
RTVSPost2010PropOp43
 70
     1
102
RTVSPost2010Prop44ColorIndex
 90
        5
102
RTVSPost2010Prop44ColorRGB
 90
      255
102
RTVSPost2010PropOp44
 70
     1
102
RTVSPost2010Prop45
280
     0
102
RTVSPost2010PropOp45
 70
     1
102
RTVSPost2010Prop46
 90
       50
102
RTVSPost2010PropOp46
 70
     1
102
RTVSPost2010Prop47
 90
       50
102
RTVSPost2010PropOp47
 70
     1
102
RTVSPost2010Prop48
 90
       50
102
RTVSPost2010PropOp48
 70
     1
102
RTVSPost2010Prop49
280
     0
102
RTVSPost2010PropOp49
 70
     1
102
RTVSPost2010Prop50
 90
       50
102
RTVSPost2010PropOp50
 70
     1
102
RTVSPost2010Prop51ColorIndex
 90
      256
102
RTVSPost2010Prop51ColorRGB
 90
-16777216
102
RTVSPost2010PropOp51
 70
     0
102
RTVSPost2010Prop52
140
1.0
102
RTVSPost2010PropOp52
 70
     0
102
RTVSPost2010Prop53
 90
        2
102
RTVSPost2010PropOp53
 70
     1
102
RTVSPost2010Prop54
  1
strokes_ogs.tif
102
RTVSPost2010PropOp54
 70
     1
102
RTVSPost2010Prop55
280
     0
102
RTVSPost2010PropOp55
 70
     1
102
RTVSPost2010Prop56
140
1.0
102
RTVSPost2010PropOp56
 70
     1
102
RTVSPost2010Prop57
140
1.0
102
RTVSPost2010PropOp57
 70
     1
  0
XRECORD
  5
1E20
102
{ACAD_REACTORS
330
1E1F
102
}
330
1E1F
100
AcDbXrecord
280
     1
102
RTVSPost2010Prop28
280
     0
102
RTVSPost2010PropOp28
 70
     1
102
RTVSPost2010Prop29
280
     1
102
RTVSPost2010PropOp29
 70
     1
102
RTVSPost2010Prop30
280
     1
102
RTVSPost2010PropOp30
 70
     1
102
RTVSPost2010Prop31
280
     0
102
RTVSPost2010PropOp31
 70
     1
102
RTVSPost2010Prop32
280
     0
102
RTVSPost2010PropOp32
 70
     1
102
RTVSPost2010Prop33
280
     0
102
RTVSPost2010PropOp33
 70
     1
102
RTVSPost2010Prop34
280
     0
102
RTVSPost2010PropOp34
 70
     1
102
RTVSPost2010Prop35
280
     0
102
RTVSPost2010PropOp35
 70
     1
102
RTVSPost2010Prop36
280
     0
102
RTVSPost2010PropOp36
 70
     1
102
RTVSPost2010Prop37
 90
       50
102
RTVSPost2010PropOp37
 70
     1
102
RTVSPost2010Prop38
140
0.0
102
RTVSPost2010PropOp38
 70
     1
102
RTVSPost2010Prop39
140
1.0
102
RTVSPost2010PropOp39
 70
     1
102
RTVSPost2010Prop40
 90
        0
102
RTVSPost2010PropOp40
 70
     1
102
RTVSPost2010Prop41ColorIndex
 90
       18
102
RTVSPost2010Prop41ColorRGB
 90
        0
102
RTVSPost2010PropOp41
 70
     1
102
RTVSPost2010Prop42
 90
       50
102
RTVSPost2010PropOp42
 70
     1
102
RTVSPost2010Prop43
 90
        3
102
RTVSPost2010PropOp43
 70
     1
102
RTVSPost2010Prop44ColorIndex
 90
        5
102
RTVSPost2010Prop44ColorRGB
 90
      255
102
RTVSPost2010PropOp44
 70
     1
102
RTVSPost2010Prop45
280
     0
102
RTVSPost2010PropOp45
 70
     1
102
RTVSPost2010Prop46
 90
       50
102
RTVSPost2010PropOp46
 70
     1
102
RTVSPost2010Prop47
 90
       50
102
RTVSPost2010PropOp47
 70
     1
102
RTVSPost2010Prop48
 90
       50
102
RTVSPost2010PropOp48
 70
     1
102
RTVSPost2010Prop49
280
     0
102
RTVSPost2010PropOp49
 70
     1
102
RTVSPost2010Prop50
 90
       50
102
RTVSPost2010PropOp50
 70
     1
102
RTVSPost2010Prop51ColorIndex
 90
      256
102
RTVSPost2010Prop51ColorRGB
 90
-16777216
102
RTVSPost2010PropOp51
 70
     0
102
RTVSPost2010Prop52
140
1.0
102
RTVSPost2010PropOp52
 70
     0
102
RTVSPost2010Prop53
 90
        2
102
RTVSPost2010PropOp53
 70
     1
102
RTVSPost2010Prop54
  1
strokes_ogs.tif
102
RTVSPost2010PropOp54
 70
     1
102
RTVSPost2010Prop55
280
     0
102
RTVSPost2010PropOp55
 70
     1
102
RTVSPost2010Prop56
140
1.0
102
RTVSPost2010PropOp56
 70
     1
102
RTVSPost2010Prop57
140
1.0
102
RTVSPost2010PropOp57
 70
     1
  0
XRECORD
  5
1E32
102
{ACAD_REACTORS
330
1E31
102
}
330
1E31
100
AcDbXrecord
280
     1
102
RTVSPost2010Prop28
280
     0
102
RTVSPost2010PropOp28
 70
     1
102
RTVSPost2010Prop29
280
     1
102
RTVSPost2010PropOp29
 70
     1
102
RTVSPost2010Prop30
280
     1
102
RTVSPost2010PropOp30
 70
     1
102
RTVSPost2010Prop31
280
     0
102
RTVSPost2010PropOp31
 70
     1
102
RTVSPost2010Prop32
280
     0
102
RTVSPost2010PropOp32
 70
     1
102
RTVSPost2010Prop33
280
     0
102
RTVSPost2010PropOp33
 70
     1
102
RTVSPost2010Prop34
280
     0
102
RTVSPost2010PropOp34
 70
     1
102
RTVSPost2010Prop35
280
     0
102
RTVSPost2010PropOp35
 70
     1
102
RTVSPost2010Prop36
280
     0
102
RTVSPost2010PropOp36
 70
     1
102
RTVSPost2010Prop37
 90
       50
102
RTVSPost2010PropOp37
 70
     1
102
RTVSPost2010Prop38
140
0.0
102
RTVSPost2010PropOp38
 70
     1
102
RTVSPost2010Prop39
140
1.0
102
RTVSPost2010PropOp39
 70
     1
102
RTVSPost2010Prop40
 90
        0
102
RTVSPost2010PropOp40
 70
     1
102
RTVSPost2010Prop41ColorIndex
 90
       18
102
RTVSPost2010Prop41ColorRGB
 90
        0
102
RTVSPost2010PropOp41
 70
     1
102
RTVSPost2010Prop42
 90
       50
102
RTVSPost2010PropOp42
 70
     1
102
RTVSPost2010Prop43
 90
        3
102
RTVSPost2010PropOp43
 70
     1
102
RTVSPost2010Prop44ColorIndex
 90
        5
102
RTVSPost2010Prop44ColorRGB
 90
      255
102
RTVSPost2010PropOp44
 70
     1
102
RTVSPost2010Prop45
280
     0
102
RTVSPost2010PropOp45
 70
     1
102
RTVSPost2010Prop46
 90
       50
102
RTVSPost2010PropOp46
 70
     1
102
RTVSPost2010Prop47
 90
       50
102
RTVSPost2010PropOp47
 70
     1
102
RTVSPost2010Prop48
 90
       50
102
RTVSPost2010PropOp48
 70
     1
102
RTVSPost2010Prop49
280
     0
102
RTVSPost2010PropOp49
 70
     1
102
RTVSPost2010Prop50
 90
       50
102
RTVSPost2010PropOp50
 70
     1
102
RTVSPost2010Prop51ColorIndex
 90
      256
102
RTVSPost2010Prop51ColorRGB
 90
-16777216
102
RTVSPost2010PropOp51
 70
     0
102
RTVSPost2010Prop52
140
1.0
102
RTVSPost2010PropOp52
 70
     0
102
RTVSPost2010Prop53
 90
        2
102
RTVSPost2010PropOp53
 70
     1
102
RTVSPost2010Prop54
  1
strokes_ogs.tif
102
RTVSPost2010PropOp54
 70
     1
102
RTVSPost2010Prop55
280
     0
102
RTVSPost2010PropOp55
 70
     1
102
RTVSPost2010Prop56
140
1.0
102
RTVSPost2010PropOp56
 70
     1
102
RTVSPost2010Prop57
140
1.0
102
RTVSPost2010PropOp57
 70
     1
  0
XRECORD
  5
1E18
102
{ACAD_REACTORS
330
1E17
102
}
330
1E17
100
AcDbXrecord
280
     1
102
RTVSPost2010Prop28
280
     0
102
RTVSPost2010PropOp28
 70
     1
102
RTVSPost2010Prop29
280
     1
102
RTVSPost2010PropOp29
 70
     1
102
RTVSPost2010Prop30
280
     1
102
RTVSPost2010PropOp30
 70
     1
102
RTVSPost2010Prop31
280
     0
102
RTVSPost2010PropOp31
 70
     1
102
RTVSPost2010Prop32
280
     0
102
RTVSPost2010PropOp32
 70
     1
102
RTVSPost2010Prop33
280
     0
102
RTVSPost2010PropOp33
 70
     1
102
RTVSPost2010Prop34
280
     0
102
RTVSPost2010PropOp34
 70
     1
102
RTVSPost2010Prop35
280
     0
102
RTVSPost2010PropOp35
 70
     1
102
RTVSPost2010Prop36
280
     0
102
RTVSPost2010PropOp36
 70
     1
102
RTVSPost2010Prop37
 90
       50
102
RTVSPost2010PropOp37
 70
     1
102
RTVSPost2010Prop38
140
0.0
102
RTVSPost2010PropOp38
 70
     1
102
RTVSPost2010Prop39
140
1.0
102
RTVSPost2010PropOp39
 70
     1
102
RTVSPost2010Prop40
 90
        0
102
RTVSPost2010PropOp40
 70
     1
102
RTVSPost2010Prop41ColorIndex
 90
       18
102
RTVSPost2010Prop41ColorRGB
 90
        0
102
RTVSPost2010PropOp41
 70
     1
102
RTVSPost2010Prop42
 90
       50
102
RTVSPost2010PropOp42
 70
     1
102
RTVSPost2010Prop43
 90
        3
102
RTVSPost2010PropOp43
 70
     1
102
RTVSPost2010Prop44ColorIndex
 90
        5
102
RTVSPost2010Prop44ColorRGB
 90
      255
102
RTVSPost2010PropOp44
 70
     1
102
RTVSPost2010Prop45
280
     0
102
RTVSPost2010PropOp45
 70
     1
102
RTVSPost2010Prop46
 90
       50
102
RTVSPost2010PropOp46
 70
     1
102
RTVSPost2010Prop47
 90
       50
102
RTVSPost2010PropOp47
 70
     1
102
RTVSPost2010Prop48
 90
       50
102
RTVSPost2010PropOp48
 70
     1
102
RTVSPost2010Prop49
280
     0
102
RTVSPost2010PropOp49
 70
     1
102
RTVSPost2010Prop50
 90
       50
102
RTVSPost2010PropOp50
 70
     1
102
RTVSPost2010Prop51ColorIndex
 90
      256
102
RTVSPost2010Prop51ColorRGB
 90
-16777216
102
RTVSPost2010PropOp51
 70
     0
102
RTVSPost2010Prop52
140
1.0
102
RTVSPost2010PropOp52
 70
     0
102
RTVSPost2010Prop53
 90
        2
102
RTVSPost2010PropOp53
 70
     1
102
RTVSPost2010Prop54
  1
strokes_ogs.tif
102
RTVSPost2010PropOp54
 70
     1
102
RTVSPost2010Prop55
280
     0
102
RTVSPost2010PropOp55
 70
     1
102
RTVSPost2010Prop56
140
1.0
102
RTVSPost2010PropOp56
 70
     1
102
RTVSPost2010Prop57
140
1.0
102
RTVSPost2010PropOp57
 70
     1
  0
XRECORD
  5
1E2E
102
{ACAD_REACTORS
330
1E2D
102
}
330
1E2D
100
AcDbXrecord
280
     1
102
RTVSPost2010Prop28
280
     0
102
RTVSPost2010PropOp28
 70
     1
102
RTVSPost2010Prop29
280
     1
102
RTVSPost2010PropOp29
 70
     1
102
RTVSPost2010Prop30
280
     1
102
RTVSPost2010PropOp30
 70
     1
102
RTVSPost2010Prop31
280
     0
102
RTVSPost2010PropOp31
 70
     1
102
RTVSPost2010Prop32
280
     0
102
RTVSPost2010PropOp32
 70
     1
102
RTVSPost2010Prop33
280
     0
102
RTVSPost2010PropOp33
 70
     1
102
RTVSPost2010Prop34
280
     0
102
RTVSPost2010PropOp34
 70
     1
102
RTVSPost2010Prop35
280
     0
102
RTVSPost2010PropOp35
 70
     1
102
RTVSPost2010Prop36
280
     0
102
RTVSPost2010PropOp36
 70
     1
102
RTVSPost2010Prop37
 90
       50
102
RTVSPost2010PropOp37
 70
     1
102
RTVSPost2010Prop38
140
0.0
102
RTVSPost2010PropOp38
 70
     1
102
RTVSPost2010Prop39
140
1.0
102
RTVSPost2010PropOp39
 70
     1
102
RTVSPost2010Prop40
 90
        0
102
RTVSPost2010PropOp40
 70
     1
102
RTVSPost2010Prop41ColorIndex
 90
       18
102
RTVSPost2010Prop41ColorRGB
 90
        0
102
RTVSPost2010PropOp41
 70
     1
102
RTVSPost2010Prop42
 90
       50
102
RTVSPost2010PropOp42
 70
     1
102
RTVSPost2010Prop43
 90
        3
102
RTVSPost2010PropOp43
 70
     1
102
RTVSPost2010Prop44ColorIndex
 90
        5
102
RTVSPost2010Prop44ColorRGB
 90
      255
102
RTVSPost2010PropOp44
 70
     1
102
RTVSPost2010Prop45
280
     0
102
RTVSPost2010PropOp45
 70
     1
102
RTVSPost2010Prop46
 90
       50
102
RTVSPost2010PropOp46
 70
     1
102
RTVSPost2010Prop47
 90
       50
102
RTVSPost2010PropOp47
 70
     1
102
RTVSPost2010Prop48
 90
       50
102
RTVSPost2010PropOp48
 70
     1
102
RTVSPost2010Prop49
280
     0
102
RTVSPost2010PropOp49
 70
     1
102
RTVSPost2010Prop50
 90
       50
102
RTVSPost2010PropOp50
 70
     1
102
RTVSPost2010Prop51ColorIndex
 90
      256
102
RTVSPost2010Prop51ColorRGB
 90
-16777216
102
RTVSPost2010PropOp51
 70
     0
102
RTVSPost2010Prop52
140
1.0
102
RTVSPost2010PropOp52
 70
     0
102
RTVSPost2010Prop53
 90
        2
102
RTVSPost2010PropOp53
 70
     1
102
RTVSPost2010Prop54
  1
strokes_ogs.tif
102
RTVSPost2010PropOp54
 70
     1
102
RTVSPost2010Prop55
280
     0
102
RTVSPost2010PropOp55
 70
     1
102
RTVSPost2010Prop56
140
1.0
102
RTVSPost2010PropOp56
 70
     1
102
RTVSPost2010Prop57
140
1.0
102
RTVSPost2010PropOp57
 70
     1
  0
XRECORD
  5
1E2C
102
{ACAD_REACTORS
330
1E2B
102
}
330
1E2B
100
AcDbXrecord
280
     1
102
RTVSPost2010Prop28
280
     0
102
RTVSPost2010PropOp28
 70
     1
102
RTVSPost2010Prop29
280
     1
102
RTVSPost2010PropOp29
 70
     1
102
RTVSPost2010Prop30
280
     1
102
RTVSPost2010PropOp30
 70
     1
102
RTVSPost2010Prop31
280
     0
102
RTVSPost2010PropOp31
 70
     1
102
RTVSPost2010Prop32
280
     0
102
RTVSPost2010PropOp32
 70
     1
102
RTVSPost2010Prop33
280
     0
102
RTVSPost2010PropOp33
 70
     1
102
RTVSPost2010Prop34
280
     0
102
RTVSPost2010PropOp34
 70
     1
102
RTVSPost2010Prop35
280
     0
102
RTVSPost2010PropOp35
 70
     1
102
RTVSPost2010Prop36
280
     0
102
RTVSPost2010PropOp36
 70
     1
102
RTVSPost2010Prop37
 90
       50
102
RTVSPost2010PropOp37
 70
     1
102
RTVSPost2010Prop38
140
0.0
102
RTVSPost2010PropOp38
 70
     1
102
RTVSPost2010Prop39
140
1.0
102
RTVSPost2010PropOp39
 70
     1
102
RTVSPost2010Prop40
 90
        0
102
RTVSPost2010PropOp40
 70
     1
102
RTVSPost2010Prop41ColorIndex
 90
       18
102
RTVSPost2010Prop41ColorRGB
 90
        0
102
RTVSPost2010PropOp41
 70
     1
102
RTVSPost2010Prop42
 90
       50
102
RTVSPost2010PropOp42
 70
     1
102
RTVSPost2010Prop43
 90
        3
102
RTVSPost2010PropOp43
 70
     1
102
RTVSPost2010Prop44ColorIndex
 90
        5
102
RTVSPost2010Prop44ColorRGB
 90
      255
102
RTVSPost2010PropOp44
 70
     1
102
RTVSPost2010Prop45
280
     0
102
RTVSPost2010PropOp45
 70
     1
102
RTVSPost2010Prop46
 90
       50
102
RTVSPost2010PropOp46
 70
     1
102
RTVSPost2010Prop47
 90
       50
102
RTVSPost2010PropOp47
 70
     1
102
RTVSPost2010Prop48
 90
       50
102
RTVSPost2010PropOp48
 70
     1
102
RTVSPost2010Prop49
280
     0
102
RTVSPost2010PropOp49
 70
     1
102
RTVSPost2010Prop50
 90
       50
102
RTVSPost2010PropOp50
 70
     1
102
RTVSPost2010Prop51ColorIndex
 90
      256
102
RTVSPost2010Prop51ColorRGB
 90
-16777216
102
RTVSPost2010PropOp51
 70
     0
102
RTVSPost2010Prop52
140
1.0
102
RTVSPost2010PropOp52
 70
     0
102
RTVSPost2010Prop53
 90
        2
102
RTVSPost2010PropOp53
 70
     1
102
RTVSPost2010Prop54
  1
strokes_ogs.tif
102
RTVSPost2010PropOp54
 70
     1
102
RTVSPost2010Prop55
280
     0
102
RTVSPost2010PropOp55
 70
     1
102
RTVSPost2010Prop56
140
1.0
102
RTVSPost2010PropOp56
 70
     1
102
RTVSPost2010Prop57
140
1.0
102
RTVSPost2010PropOp57
 70
     1
  0
XRECORD
  5
1E26
102
{ACAD_REACTORS
330
1E25
102
}
330
1E25
100
AcDbXrecord
280
     1
102
RTVSPost2010Prop28
280
     0
102
RTVSPost2010PropOp28
 70
     1
102
RTVSPost2010Prop29
280
     1
102
RTVSPost2010PropOp29
 70
     1
102
RTVSPost2010Prop30
280
     1
102
RTVSPost2010PropOp30
 70
     1
102
RTVSPost2010Prop31
280
     0
102
RTVSPost2010PropOp31
 70
     1
102
RTVSPost2010Prop32
280
     0
102
RTVSPost2010PropOp32
 70
     1
102
RTVSPost2010Prop33
280
     0
102
RTVSPost2010PropOp33
 70
     1
102
RTVSPost2010Prop34
280
     0
102
RTVSPost2010PropOp34
 70
     1
102
RTVSPost2010Prop35
280
     0
102
RTVSPost2010PropOp35
 70
     1
102
RTVSPost2010Prop36
280
     0
102
RTVSPost2010PropOp36
 70
     1
102
RTVSPost2010Prop37
 90
       50
102
RTVSPost2010PropOp37
 70
     1
102
RTVSPost2010Prop38
140
0.0
102
RTVSPost2010PropOp38
 70
     1
102
RTVSPost2010Prop39
140
1.0
102
RTVSPost2010PropOp39
 70
     1
102
RTVSPost2010Prop40
 90
        0
102
RTVSPost2010PropOp40
 70
     1
102
RTVSPost2010Prop41ColorIndex
 90
       18
102
RTVSPost2010Prop41ColorRGB
 90
        0
102
RTVSPost2010PropOp41
 70
     1
102
RTVSPost2010Prop42
 90
       50
102
RTVSPost2010PropOp42
 70
     1
102
RTVSPost2010Prop43
 90
        3
102
RTVSPost2010PropOp43
 70
     1
102
RTVSPost2010Prop44ColorIndex
 90
        5
102
RTVSPost2010Prop44ColorRGB
 90
      255
102
RTVSPost2010PropOp44
 70
     1
102
RTVSPost2010Prop45
280
     0
102
RTVSPost2010PropOp45
 70
     1
102
RTVSPost2010Prop46
 90
       50
102
RTVSPost2010PropOp46
 70
     1
102
RTVSPost2010Prop47
 90
       50
102
RTVSPost2010PropOp47
 70
     1
102
RTVSPost2010Prop48
 90
       50
102
RTVSPost2010PropOp48
 70
     1
102
RTVSPost2010Prop49
280
     0
102
RTVSPost2010PropOp49
 70
     1
102
RTVSPost2010Prop50
 90
       50
102
RTVSPost2010PropOp50
 70
     1
102
RTVSPost2010Prop51ColorIndex
 90
      256
102
RTVSPost2010Prop51ColorRGB
 90
-16777216
102
RTVSPost2010PropOp51
 70
     0
102
RTVSPost2010Prop52
140
1.0
102
RTVSPost2010PropOp52
 70
     0
102
RTVSPost2010Prop53
 90
        2
102
RTVSPost2010PropOp53
 70
     1
102
RTVSPost2010Prop54
  1
strokes_ogs.tif
102
RTVSPost2010PropOp54
 70
     1
102
RTVSPost2010Prop55
280
     0
102
RTVSPost2010PropOp55
 70
     1
102
RTVSPost2010Prop56
140
1.0
102
RTVSPost2010PropOp56
 70
     1
102
RTVSPost2010Prop57
140
1.0
102
RTVSPost2010PropOp57
 70
     1
  0
XRECORD
  5
1E28
102
{ACAD_REACTORS
330
1E27
102
}
330
1E27
100
AcDbXrecord
280
     1
102
RTVSPost2010Prop28
280
     0
102
RTVSPost2010PropOp28
 70
     1
102
RTVSPost2010Prop29
280
     1
102
RTVSPost2010PropOp29
 70
     1
102
RTVSPost2010Prop30
280
     1
102
RTVSPost2010PropOp30
 70
     1
102
RTVSPost2010Prop31
280
     0
102
RTVSPost2010PropOp31
 70
     1
102
RTVSPost2010Prop32
280
     0
102
RTVSPost2010PropOp32
 70
     1
102
RTVSPost2010Prop33
280
     0
102
RTVSPost2010PropOp33
 70
     1
102
RTVSPost2010Prop34
280
     0
102
RTVSPost2010PropOp34
 70
     1
102
RTVSPost2010Prop35
280
     0
102
RTVSPost2010PropOp35
 70
     1
102
RTVSPost2010Prop36
280
     0
102
RTVSPost2010PropOp36
 70
     1
102
RTVSPost2010Prop37
 90
       50
102
RTVSPost2010PropOp37
 70
     1
102
RTVSPost2010Prop38
140
0.0
102
RTVSPost2010PropOp38
 70
     1
102
RTVSPost2010Prop39
140
1.0
102
RTVSPost2010PropOp39
 70
     1
102
RTVSPost2010Prop40
 90
        0
102
RTVSPost2010PropOp40
 70
     1
102
RTVSPost2010Prop41ColorIndex
 90
       18
102
RTVSPost2010Prop41ColorRGB
 90
        0
102
RTVSPost2010PropOp41
 70
     1
102
RTVSPost2010Prop42
 90
       50
102
RTVSPost2010PropOp42
 70
     1
102
RTVSPost2010Prop43
 90
        3
102
RTVSPost2010PropOp43
 70
     1
102
RTVSPost2010Prop44ColorIndex
 90
        5
102
RTVSPost2010Prop44ColorRGB
 90
      255
102
RTVSPost2010PropOp44
 70
     1
102
RTVSPost2010Prop45
280
     0
102
RTVSPost2010PropOp45
 70
     1
102
RTVSPost2010Prop46
 90
       50
102
RTVSPost2010PropOp46
 70
     1
102
RTVSPost2010Prop47
 90
       50
102
RTVSPost2010PropOp47
 70
     1
102
RTVSPost2010Prop48
 90
       50
102
RTVSPost2010PropOp48
 70
     1
102
RTVSPost2010Prop49
280
     0
102
RTVSPost2010PropOp49
 70
     1
102
RTVSPost2010Prop50
 90
       50
102
RTVSPost2010PropOp50
 70
     1
102
RTVSPost2010Prop51ColorIndex
 90
      256
102
RTVSPost2010Prop51ColorRGB
 90
-16777216
102
RTVSPost2010PropOp51
 70
     0
102
RTVSPost2010Prop52
140
1.0
102
RTVSPost2010PropOp52
 70
     0
102
RTVSPost2010Prop53
 90
        2
102
RTVSPost2010PropOp53
 70
     1
102
RTVSPost2010Prop54
  1
strokes_ogs.tif
102
RTVSPost2010PropOp54
 70
     1
102
RTVSPost2010Prop55
280
     0
102
RTVSPost2010PropOp55
 70
     1
102
RTVSPost2010Prop56
140
1.0
102
RTVSPost2010PropOp56
 70
     1
102
RTVSPost2010Prop57
140
1.0
102
RTVSPost2010PropOp57
 70
     1
  0
XRECORD
  5
1E1E
102
{ACAD_REACTORS
330
1E1D
102
}
330
1E1D
100
AcDbXrecord
280
     1
102
RTVSPost2010Prop28
280
     0
102
RTVSPost2010PropOp28
 70
     1
102
RTVSPost2010Prop29
280
     1
102
RTVSPost2010PropOp29
 70
     1
102
RTVSPost2010Prop30
280
     1
102
RTVSPost2010PropOp30
 70
     1
102
RTVSPost2010Prop31
280
     0
102
RTVSPost2010PropOp31
 70
     1
102
RTVSPost2010Prop32
280
     0
102
RTVSPost2010PropOp32
 70
     1
102
RTVSPost2010Prop33
280
     0
102
RTVSPost2010PropOp33
 70
     1
102
RTVSPost2010Prop34
280
     0
102
RTVSPost2010PropOp34
 70
     1
102
RTVSPost2010Prop35
280
     0
102
RTVSPost2010PropOp35
 70
     1
102
RTVSPost2010Prop36
280
     0
102
RTVSPost2010PropOp36
 70
     1
102
RTVSPost2010Prop37
 90
       50
102
RTVSPost2010PropOp37
 70
     1
102
RTVSPost2010Prop38
140
0.0
102
RTVSPost2010PropOp38
 70
     1
102
RTVSPost2010Prop39
140
1.0
102
RTVSPost2010PropOp39
 70
     1
102
RTVSPost2010Prop40
 90
        0
102
RTVSPost2010PropOp40
 70
     1
102
RTVSPost2010Prop41ColorIndex
 90
       18
102
RTVSPost2010Prop41ColorRGB
 90
        0
102
RTVSPost2010PropOp41
 70
     1
102
RTVSPost2010Prop42
 90
       50
102
RTVSPost2010PropOp42
 70
     1
102
RTVSPost2010Prop43
 90
        3
102
RTVSPost2010PropOp43
 70
     1
102
RTVSPost2010Prop44ColorIndex
 90
        5
102
RTVSPost2010Prop44ColorRGB
 90
      255
102
RTVSPost2010PropOp44
 70
     1
102
RTVSPost2010Prop45
280
     0
102
RTVSPost2010PropOp45
 70
     1
102
RTVSPost2010Prop46
 90
       50
102
RTVSPost2010PropOp46
 70
     1
102
RTVSPost2010Prop47
 90
       50
102
RTVSPost2010PropOp47
 70
     1
102
RTVSPost2010Prop48
 90
       50
102
RTVSPost2010PropOp48
 70
     1
102
RTVSPost2010Prop49
280
     0
102
RTVSPost2010PropOp49
 70
     1
102
RTVSPost2010Prop50
 90
       50
102
RTVSPost2010PropOp50
 70
     1
102
RTVSPost2010Prop51ColorIndex
 90
      256
102
RTVSPost2010Prop51ColorRGB
 90
-16777216
102
RTVSPost2010PropOp51
 70
     0
102
RTVSPost2010Prop52
140
1.0
102
RTVSPost2010PropOp52
 70
     0
102
RTVSPost2010Prop53
 90
        2
102
RTVSPost2010PropOp53
 70
     1
102
RTVSPost2010Prop54
  1
strokes_ogs.tif
102
RTVSPost2010PropOp54
 70
     1
102
RTVSPost2010Prop55
280
     0
102
RTVSPost2010PropOp55
 70
     1
102
RTVSPost2010Prop56
140
1.0
102
RTVSPost2010PropOp56
 70
     1
102
RTVSPost2010Prop57
140
1.0
102
RTVSPost2010PropOp57
 70
     1
  0
XRECORD
  5
1E12
102
{ACAD_REACTORS
330
1E11
102
}
330
1E11
100
AcDbXrecord
280
     1
102
RTVSPost2010Prop28
280
     0
102
RTVSPost2010PropOp28
 70
     1
102
RTVSPost2010Prop29
280
     1
102
RTVSPost2010PropOp29
 70
     1
102
RTVSPost2010Prop30
280
     1
102
RTVSPost2010PropOp30
 70
     1
102
RTVSPost2010Prop31
280
     0
102
RTVSPost2010PropOp31
 70
     1
102
RTVSPost2010Prop32
280
     0
102
RTVSPost2010PropOp32
 70
     1
102
RTVSPost2010Prop33
280
     0
102
RTVSPost2010PropOp33
 70
     1
102
RTVSPost2010Prop34
280
     0
102
RTVSPost2010PropOp34
 70
     1
102
RTVSPost2010Prop35
280
     0
102
RTVSPost2010PropOp35
 70
     1
102
RTVSPost2010Prop36
280
     0
102
RTVSPost2010PropOp36
 70
     1
102
RTVSPost2010Prop37
 90
       50
102
RTVSPost2010PropOp37
 70
     1
102
RTVSPost2010Prop38
140
0.0
102
RTVSPost2010PropOp38
 70
     1
102
RTVSPost2010Prop39
140
1.0
102
RTVSPost2010PropOp39
 70
     1
102
RTVSPost2010Prop40
 90
        0
102
RTVSPost2010PropOp40
 70
     1
102
RTVSPost2010Prop41ColorIndex
 90
       18
102
RTVSPost2010Prop41ColorRGB
 90
        0
102
RTVSPost2010PropOp41
 70
     1
102
RTVSPost2010Prop42
 90
       50
102
RTVSPost2010PropOp42
 70
     1
102
RTVSPost2010Prop43
 90
        3
102
RTVSPost2010PropOp43
 70
     1
102
RTVSPost2010Prop44ColorIndex
 90
        5
102
RTVSPost2010Prop44ColorRGB
 90
      255
102
RTVSPost2010PropOp44
 70
     1
102
RTVSPost2010Prop45
280
     0
102
RTVSPost2010PropOp45
 70
     1
102
RTVSPost2010Prop46
 90
       50
102
RTVSPost2010PropOp46
 70
     1
102
RTVSPost2010Prop47
 90
       50
102
RTVSPost2010PropOp47
 70
     1
102
RTVSPost2010Prop48
 90
       50
102
RTVSPost2010PropOp48
 70
     1
102
RTVSPost2010Prop49
280
     0
102
RTVSPost2010PropOp49
 70
     1
102
RTVSPost2010Prop50
 90
       50
102
RTVSPost2010PropOp50
 70
     1
102
RTVSPost2010Prop51ColorIndex
 90
      256
102
RTVSPost2010Prop51ColorRGB
 90
-16777216
102
RTVSPost2010PropOp51
 70
     0
102
RTVSPost2010Prop52
140
1.0
102
RTVSPost2010PropOp52
 70
     0
102
RTVSPost2010Prop53
 90
        2
102
RTVSPost2010PropOp53
 70
     1
102
RTVSPost2010Prop54
  1
strokes_ogs.tif
102
RTVSPost2010PropOp54
 70
     1
102
RTVSPost2010Prop55
280
     0
102
RTVSPost2010PropOp55
 70
     1
102
RTVSPost2010Prop56
140
1.0
102
RTVSPost2010PropOp56
 70
     1
102
RTVSPost2010Prop57
140
1.0
102
RTVSPost2010PropOp57
 70
     1
  0
XRECORD
  5
1E2A
102
{ACAD_REACTORS
330
1E29
102
}
330
1E29
100
AcDbXrecord
280
     1
102
RTVSPost2010Prop28
280
     0
102
RTVSPost2010PropOp28
 70
     1
102
RTVSPost2010Prop29
280
     1
102
RTVSPost2010PropOp29
 70
     1
102
RTVSPost2010Prop30
280
     1
102
RTVSPost2010PropOp30
 70
     1
102
RTVSPost2010Prop31
280
     0
102
RTVSPost2010PropOp31
 70
     1
102
RTVSPost2010Prop32
280
     0
102
RTVSPost2010PropOp32
 70
     1
102
RTVSPost2010Prop33
280
     0
102
RTVSPost2010PropOp33
 70
     1
102
RTVSPost2010Prop34
280
     0
102
RTVSPost2010PropOp34
 70
     1
102
RTVSPost2010Prop35
280
     0
102
RTVSPost2010PropOp35
 70
     1
102
RTVSPost2010Prop36
280
     0
102
RTVSPost2010PropOp36
 70
     1
102
RTVSPost2010Prop37
 90
       50
102
RTVSPost2010PropOp37
 70
     1
102
RTVSPost2010Prop38
140
0.0
102
RTVSPost2010PropOp38
 70
     1
102
RTVSPost2010Prop39
140
1.0
102
RTVSPost2010PropOp39
 70
     1
102
RTVSPost2010Prop40
 90
        0
102
RTVSPost2010PropOp40
 70
     1
102
RTVSPost2010Prop41ColorIndex
 90
       18
102
RTVSPost2010Prop41ColorRGB
 90
        0
102
RTVSPost2010PropOp41
 70
     1
102
RTVSPost2010Prop42
 90
       50
102
RTVSPost2010PropOp42
 70
     1
102
RTVSPost2010Prop43
 90
        3
102
RTVSPost2010PropOp43
 70
     1
102
RTVSPost2010Prop44ColorIndex
 90
        5
102
RTVSPost2010Prop44ColorRGB
 90
      255
102
RTVSPost2010PropOp44
 70
     1
102
RTVSPost2010Prop45
280
     0
102
RTVSPost2010PropOp45
 70
     1
102
RTVSPost2010Prop46
 90
       50
102
RTVSPost2010PropOp46
 70
     1
102
RTVSPost2010Prop47
 90
       50
102
RTVSPost2010PropOp47
 70
     1
102
RTVSPost2010Prop48
 90
       50
102
RTVSPost2010PropOp48
 70
     1
102
RTVSPost2010Prop49
280
     0
102
RTVSPost2010PropOp49
 70
     1
102
RTVSPost2010Prop50
 90
       50
102
RTVSPost2010PropOp50
 70
     1
102
RTVSPost2010Prop51ColorIndex
 90
      256
102
RTVSPost2010Prop51ColorRGB
 90
-16777216
102
RTVSPost2010PropOp51
 70
     0
102
RTVSPost2010Prop52
140
1.0
102
RTVSPost2010PropOp52
 70
     0
102
RTVSPost2010Prop53
 90
        2
102
RTVSPost2010PropOp53
 70
     1
102
RTVSPost2010Prop54
  1
strokes_ogs.tif
102
RTVSPost2010PropOp54
 70
     1
102
RTVSPost2010Prop55
280
     0
102
RTVSPost2010PropOp55
 70
     1
102
RTVSPost2010Prop56
140
1.0
102
RTVSPost2010PropOp56
 70
     1
102
RTVSPost2010Prop57
140
1.0
102
RTVSPost2010PropOp57
 70
     1
  0
ENDSEC
  0
EOF
