  0
SECTION
  2
HEADER
  9
$ACADVER
  1
AC1009
  9
$INSBASE
 10
0.0
 20
0.0
 30
0.0
  9
$EXTMIN
 10
-107.0000000000002
 20
-107.0
 30
0.0
  9
$EXTMAX
 10
268.99999999999972
 20
118.9145188432737
 30
0.0
  9
$LIMMIN
 10
0.0
 20
0.0
  9
$LIMMAX
 10
12.0
 20
9.0
  9
$ORTHOMODE
 70
     0
  9
$REGENMODE
 70
     1
  9
$FILLMODE
 70
     1
  9
$QTEXTMODE
 70
     0
  9
$MIRRTEXT
 70
     1
  9
$DRAGMODE
 70
     2
  9
$LTSCALE
 40
1.0
  9
$OSMODE
 70
    37
  9
$ATTMODE
 70
     1
  9
$TEXTSIZE
 40
0.2
  9
$TRACEWID
 40
0.05
  9
$TEXTSTYLE
  7
STANDARD
  9
$CLAYER
  8
0
  9
$CELTYPE
  6
BYLAYER
  9
$CECOLOR
 62
   256
  9
$DIMSCALE
 40
1.0
  9
$DIMASZ
 40
0.18
  9
$DIMEXO
 40
0.0625
  9
$DIMDLI
 40
0.38
  9
$DIMRND
 40
0.0
  9
$DIMDLE
 40
0.0
  9
$DIMEXE
 40
0.18
  9
$DIMTP
 40
0.0
  9
$DIMTM
 40
0.0
  9
$DIMTXT
 40
0.18
  9
$DIMCEN
 40
0.09
  9
$DIMTSZ
 40
0.0
  9
$DIMTOL
 70
     0
  9
$DIMLIM
 70
     0
  9
$DIMTIH
 70
     1
  9
$DIMTOH
 70
     1
  9
$DIMSE1
 70
     0
  9
$DIMSE2
 70
     0
  9
$DIMTAD
 70
     0
  9
$DIMZIN
 70
     0
  9
$DIMBLK
  1

  9
$DIMASO
 70
     1
  9
$DIMSHO
 70
     1
  9
$DIMPOST
  1

  9
$DIMAPOST
  1

  9
$DIMALT
 70
     0
  9
$DIMALTD
 70
     2
  9
$DIMALTF
 40
25.399999999999999
  9
$DIMLFAC
 40
1.0
  9
$DIMTOFL
 70
     0
  9
$DIMTVP
 40
0.0
  9
$DIMTIX
 70
     0
  9
$DIMSOXD
 70
     0
  9
$DIMSAH
 70
     0
  9
$DIMBLK1
  1

  9
$DIMBLK2
  1

  9
$DIMSTYLE
  2
STANDARD
  9
$DIMCLRD
 70
     0
  9
$DIMCLRE
 70
     0
  9
$DIMCLRT
 70
     0
  9
$DIMTFAC
 40
1.0
  9
$DIMGAP
 40
0.09
  9
$LUNITS
 70
     2
  9
$LUPREC
 70
     4
  9
$SKETCHINC
 40
0.1
  9
$FILLETRAD
 40
0.5
  9
$AUNITS
 70
     0
  9
$AUPREC
 70
     0
  9
$MENU
  1
.
  9
$ELEVATION
 40
0.0
  9
$PELEVATION
 40
0.0
  9
$THICKNESS
 40
0.0
  9
$LIMCHECK
 70
     0
  9
$BLIPMODE
 70
     0
  9
$CHAMFERA
 40
0.5
  9
$CHAMFERB
 40
0.5
  9
$SKPOLY
 70
     0
  9
$TDCREATE
 40
2451955.1727028699
  9
$TDUPDATE
 40
2454728.8789176382
  9
$TDINDWG
 40
0.0167608912
  9
$TDUSRTIMER
 40
0.0167607176
  9
$USRTIMER
 70
     1
  9
$ANGBASE
 50
0.0
  9
$ANGDIR
 70
     0
  9
$PDMODE
 70
     0
  9
$PDSIZE
 40
0.0
  9
$PLINEWID
 40
0.0
  9
$COORDS
 70
     1
  9
$SPLFRAME
 70
     0
  9
$SPLINETYPE
 70
     6
  9
$SPLINESEGS
 70
     8
  9
$ATTDIA
 70
     0
  9
$ATTREQ
 70
     1
  9
$HANDLING
 70
 22529
  9
$HANDSEED
  5
FFC
  9
$SURFTAB1
 70
     6
  9
$SURFTAB2
 70
     6
  9
$SURFTYPE
 70
     6
  9
$SURFU
 70
     6
  9
$SURFV
 70
     6
  9
$UCSNAME
  2

  9
$UCSORG
 10
0.0
 20
0.0
 30
0.0
  9
$UCSXDIR
 10
1.0
 20
0.0
 30
0.0
  9
$UCSYDIR
 10
0.0
 20
1.0
 30
0.0
  9
$PUCSNAME
  2

  9
$PUCSORG
 10
0.0
 20
0.0
 30
0.0
  9
$PUCSXDIR
 10
1.0
 20
0.0
 30
0.0
  9
$PUCSYDIR
 10
0.0
 20
1.0
 30
0.0
  9
$USERI1
 70
     0
  9
$USERI2
 70
     0
  9
$USERI3
 70
     0
  9
$USERI4
 70
     0
  9
$USERI5
 70
     0
  9
$USERR1
 40
0.0
  9
$USERR2
 40
0.0
  9
$USERR3
 40
0.0
  9
$USERR4
 40
0.0
  9
$USERR5
 40
0.0
  9
$WORLDVIEW
 70
     1
  9
$SHADEDGE
 70
     3
  9
$SHADEDIF
 70
    70
  9
$TILEMODE
 70
     1
  9
$MAXACTVP
 70
    48
  9
$PLIMCHECK
 70
     0
  9
$PEXTMIN
 10
1.049636599258096
 20
0.7996597240971113
 30
-0.0015258207003583
  9
$PEXTMAX
 10
9.4503627310769716
 20
7.2003400826974584
 30
0.0000000349246037
  9
$PLIMMIN
 10
-0.2500002402958907
 20
-0.2499999962453767
  9
$PLIMMAX
 10
10.74999951940821
 20
8.2499997634587316
  9
$UNITMODE
 70
     0
  9
$VISRETAIN
 70
     1
  9
$PLINEGEN
 70
     0
  9
$PSLTSCALE
 70
     1
  0
ENDSEC
  0
SECTION
  2
TABLES
  0
TABLE
  2
VPORT
 70
     2
  0
VPORT
  2
*ACTIVE
 70
     0
 10
0.0
 20
0.0
 11
1.0
 21
1.0
 12
81.00000087544305
 22
5.9572599476349799
 13
0.0
 23
0.0
 14
0.5
 24
0.5
 15
0.5
 25
0.5
 16
0.0
 26
0.0
 36
1.0
 17
0.0
 27
0.0
 37
0.0
 40
251.40654441436519
 41
1.5031210986267161
 42
50.0
 43
0.0
 44
0.0
 50
0.0
 51
0.0
 71
     0
 72
   100
 73
     1
 74
     3
 75
     0
 76
     0
 77
     0
 78
     0
  0
ENDTAB
  0
TABLE
  2
LTYPE
 70
     2
  0
LTYPE
  2
CONTINUOUS
 70
     0
  3
Solid line
 72
    65
 73
     0
 40
0.0
  0
LTYPE
  2
CENTER
 70
     0
  3
__ . __
 72
    65
 73
     4
 40
7.0
 49
4.0
 49
-1.0
 49
1.0
 49
-1.0
  0
ENDTAB
  0
TABLE
  2
LAYER
 70
     1
  0
LAYER
  2
0
 70
     0
 62
     7
  6
CONTINUOUS
  0
ENDTAB
  0
TABLE
  2
STYLE
 70
     1
  0
STYLE
  2
STANDARD
 70
     0
 40
0.0
 41
1.0
 50
0.0
 71
     0
 42
0.2
  3
txt
  4

  0
ENDTAB
  0
TABLE
  2
VIEW
 70
     0
  0
ENDTAB
  0
TABLE
  2
UCS
 70
     0
  0
ENDTAB
  0
TABLE
  2
APPID
 70
    23
  0
APPID
  2
ACAD
 70
     0
  0
APPID
  2
GENIUS_GENODEF_13
 70
     0
  0
APPID
  2
ACAD_DSTYLE_DIMARC_LENGTH_
 70
     0
  0
APPID
  2
ACAD_DSTYLE_DIMJOGGED_JOGA
 70
     0
  0
APPID
  2
GENIUS_GENOBJ-N-FIL_13
 70
     0
  0
APPID
  2
GENIUS_GENOBJ-N-CEN_13
 70
     0
  0
APPID
  2
GENIUS_GENCEN_19
 70
     0
  0
APPID
  2
GENIUS_GENFIL_13
 70
     0
  0
APPID
  2
GENIUS_GENOBJ-N-CHA_13
 70
     0
  0
APPID
  2
ACAD_MLEADERVER
 70
     0
  0
APPID
  2
MCAD_NO_VIS
 70
     0
  0
APPID
  2
ACAD_TEMP_GRAPHIC
 70
     0
  0
APPID
  2
AD_DRAW
 70
     0
  0
APPID
  2
ACATTRIBSERVICES
 70
     0
  0
APPID
  2
DESIGNERASSEMBLIES
 70
     0
  0
APPID
  2
ACADM_DIM_EDIT
 70
     0
  0
APPID
  2
AMDT_DM_ADJ
 70
     0
  0
APPID
  2
GENIUS_GENSCREG_15
 70
     0
  0
APPID
  2
GENIUS_GENOBJ-N-SDF_13
 70
     0
  0
APPID
  2
ACAD_DSTYLE_DIM_LINETYPE
 70
     0
  0
APPID
  2
ACAD_DSTYLE_DIM_EXT1_LINETYPE
 70
     0
  0
APPID
  2
ACAD_DSTYLE_DIM_EXT2_LINETYPE
 70
     0
  0
APPID
  2
ACAD_EXEMPT_FROM_CAD_STANDARDS
 70
     0
  0
ENDTAB
  0
TABLE
  2
DIMSTYLE
 70
     1
  0
DIMSTYLE
  2
STANDARD
 70
     0
  3

  4

  5

  6

  7

 40
1.0
 41
0.18
 42
0.0625
 43
0.38
 44
0.18
 45
0.0
 46
0.0
 47
0.0
 48
0.0
140
0.18
141
0.09
142
0.0
143
25.399999999999999
144
1.0
145
0.0
146
1.0
147
0.09
 71
     0
 72
     0
 73
     1
 74
     1
 75
     0
 76
     0
 77
     0
 78
     0
170
     0
171
     2
172
     0
173
     0
174
     0
175
     0
176
     0
177
     0
178
     0
  0
ENDTAB
  0
ENDSEC
  0
SECTION
  2
BLOCKS
  0
BLOCK
  8
0
  2
$MODEL_SPACE
 70
     0
 10
0.0
 20
0.0
 30
0.0
  3
$MODEL_SPACE
  1

  0
ENDBLK
  5
21
  8
0
  0
BLOCK
 67
     1
  8
0
  2
$PAPER_SPACE
 70
     0
 10
0.0
 20
0.0
 30
0.0
  3
$PAPER_SPACE
  1

  0
ENDBLK
  5
60
 67
     1
  8
0
  0
ENDSEC
  0
SECTION
  2
ENTITIES
  0
TEXT
  5
658
  8
0
 10
169.9999999999998
 20
113.9145188432737
 30
0.0
 40
5.0
  1
F-ADAPTER-N 4SX100A
  0
LINE
  5
F15
  8
0
 10
187.99999999999989
 20
105.0
 30
0.0
 11
187.99999999999989
 21
-105.0
 31
0.0
  0
LINE
  5
F16
  8
0
 10
169.9999999999998
 20
-105.0
 30
0.0
 11
169.9999999999998
 21
105.0
 31
0.0
  0
LINE
  5
F17
  8
0
  6
CENTER
 10
161.99999999999989
 20
-87.5
 30
0.0
 11
197.9999999999998
 21
-87.5
 31
0.0
  0
LINE
  5
F18
  8
0
 10
187.99999999999989
 20
-105.0
 30
0.0
 11
169.9999999999998
 21
-105.0
 31
0.0
  0
LINE
  5
F1B
  8
0
  6
CENTER
 10
161.99999999999989
 20
87.5
 30
0.0
 11
197.9999999999998
 21
87.5
 31
0.0
  0
LINE
  5
F1C
  8
0
 10
169.9999999999998
 20
105.0
 30
0.0
 11
187.99999999999989
 21
105.0
 31
0.0
  0
LINE
  5
F1F
  8
0
  6
CENTER
 10
-107.0000000000002
 20
0.0
 30
0.0
 11
107.0
 21
0.0
 31
0.0
  0
LINE
  5
F21
  8
0
  6
CENTER
 10
-62.823808210767879
 20
26.022473400826119
 30
0.0
 11
-98.855109978707901
 21
40.947127263064601
 31
0.0
  0
LINE
  5
F22
  8
0
  6
CENTER
 10
-62.823808210767879
 20
-26.022473400826069
 30
0.0
 11
-98.855109978707901
 21
-40.947127263064601
 31
0.0
  0
LINE
  5
F25
  8
0
  6
CENTER
 10
-26.022473400826239
 20
-62.823808210767481
 30
0.0
 11
-40.947127263064992
 21
-98.855109978707674
 31
0.0
  0
LINE
  5
F29
  8
0
  6
CENTER
 10
-26.022473400826239
 20
62.823808210767481
 30
0.0
 11
-40.947127263064992
 21
98.855109978707674
 31
0.0
  0
LINE
  5
F2A
  8
0
 10
229.9999999999998
 20
54.349999999999909
 30
0.0
 11
229.99999999999969
 21
0.0
 31
0.0
  0
LINE
  5
F2C
  8
0
  6
CENTER
 10
-0.0000000000001137
 20
107.0000000000001
 30
0.0
 11
-0.0000000000001137
 21
-107.0
 31
0.0
  0
LINE
  5
F2D
  8
0
  6
CENTER
 10
62.823808210767652
 20
26.022473400826119
 30
0.0
 11
98.855109978707674
 21
40.947127263064601
 31
0.0
  0
LINE
  5
F2E
  8
0
  6
CENTER
 10
62.823808210767652
 20
-26.022473400826069
 30
0.0
 11
98.855109978707674
 21
-40.947127263064601
 31
0.0
  0
LINE
  5
F31
  8
0
  6
CENTER
 10
26.022473400826009
 20
-62.823808210767481
 30
0.0
 11
40.947127263064772
 21
-98.855109978707674
 31
0.0
  0
LINE
  5
F35
  8
0
  6
CENTER
 10
26.022473400826009
 20
62.823808210767481
 30
0.0
 11
40.947127263064772
 21
98.855109978707674
 31
0.0
  0
LINE
  5
F36
  8
0
  6
CENTER
 10
198.99999999999969
 20
0.0
 30
0.0
 11
268.99999999999972
 21
0.0
 31
0.0
  0
LINE
  5
F37
  8
0
 10
215.9999999999998
 20
64.000000000000057
 30
0.0
 11
215.99999999999969
 21
54.25
 31
0.0
  0
LINE
  5
F38
  8
0
 10
253.9999999999998
 20
64.000000000000057
 30
0.0
 11
253.9999999999998
 21
-64.000000000000057
 31
0.0
  0
LINE
  5
F39
  8
0
 10
220.99999999999969
 20
58.009999999999991
 30
0.0
 11
220.99999999999969
 21
0.0
 31
0.0
  0
LINE
  5
F3A
  8
0
 10
215.99999999999969
 20
55.0
 30
0.0
 11
220.99999999999969
 21
54.999999999999943
 31
0.0
  0
LINE
  5
F3B
  8
0
 10
227.9999999999998
 20
60.375
 30
0.0
 11
227.9999999999998
 21
54.349999999999909
 31
0.0
  0
LINE
  5
F3C
  8
0
 10
251.23497999999969
 20
58.009999999999991
 30
0.0
 11
251.23497999999969
 21
0.0
 31
0.0
  0
LINE
  5
F3D
  8
0
 10
228.0000311769129
 20
60.374999999999943
 30
0.0
 11
223.9036999999997
 21
58.009982000000029
 31
0.0
  0
LINE
  5
F3E
  8
0
 10
215.9999999999998
 20
64.000000000000057
 30
0.0
 11
222.38291610519741
 21
75.055534994651794
 31
0.0
  0
LINE
  5
F3F
  8
0
 10
253.9999999999998
 20
64.0
 30
0.0
 11
247.61708389480231
 21
75.055534994651893
 31
0.0
  0
LINE
  5
F40
  8
0
 10
222.38291610519741
 20
75.055534994651794
 30
0.0
 11
247.61708389480211
 21
75.055534994651794
 31
0.0
  0
LINE
  5
F41
  8
0
 10
215.9999999999998
 20
-64.000000000000057
 30
0.0
 11
215.99999999999969
 21
0.0
 31
0.0
  0
LINE
  5
F43
  8
0
 10
215.9999999999998
 20
-64.000000000000057
 30
0.0
 11
222.38291610519741
 21
-75.055534994651794
 31
0.0
  0
LINE
  5
F44
  8
0
 10
253.9999999999998
 20
-64.0
 30
0.0
 11
247.61708389480231
 21
-75.055534994651893
 31
0.0
  0
LINE
  5
F45
  8
0
 10
222.38291610519741
 20
-37.52776749732589
 30
0.0
 11
247.61708389480211
 21
-37.52776749732589
 31
0.0
  0
ARC
  5
F46
  8
0
 10
322.28074793510098
 20
-1.2299260275886461
 30
0.0
 40
106.2878643104559
 50
179.33697846195059
 51
199.9685958569504
  0
ARC
  5
F47
  8
0
 10
269.80342288317121
 20
-62.96730956097889
 30
0.0
 40
53.813332581138511
 50
151.78790539669129
 51
181.09958690713319
  0
ARC
  5
F48
  8
0
 10
147.71925206489851
 20
-1.2299260275886461
 30
0.0
 40
106.2878643104559
 50
340.03140414304949
 51
0.6630215380493877
  0
ARC
  5
F49
  8
0
 10
200.19657711682839
 20
-62.96730956097889
 30
0.0
 40
53.813332581138511
 50
358.9004130928667
 51
28.212094603306848
  0
LINE
  5
F4A
  8
0
 10
222.38291610519741
 20
-75.055534994651794
 30
0.0
 11
247.61708389480211
 21
-75.055534994651794
 31
0.0
  0
LINE
  5
F4B
  8
0
 10
220.99999999999969
 20
58.010000000000048
 30
0.0
 11
251.23497999999969
 21
58.010000000000048
 31
0.0
  0
LINE
  5
F4C
  8
0
 10
228.0000311769129
 20
60.375
 30
0.0
 11
253.59999710669049
 21
60.374999999999943
 31
0.0
  0
LINE
  5
F4D
  8
0
 10
253.9999999999998
 20
60.77499999999997
 30
0.0
 11
251.23497999999969
 21
58.010000000000048
 31
0.0
  0
LINE
  5
F4E
  8
0
 10
187.99999999999989
 20
50.799999999999727
 30
0.0
 11
212.99999999999969
 21
50.799999999999727
 31
0.0
  0
ARC
  5
F4F
  8
0
 10
212.99999999999969
 20
52.79999999999972
 30
0.0
 40
2.0
 50
270.0
 51
0.0
1001
GENIUS_GENOBJ-N-FIL_13
1002
{
1000
OWNER
1000
GEN
1002
}
1001
GENIUS_GENODEF_13
1002
{
1000
HIER
1070
     0
1002
}
1002
{
1000
MANEDIT
1070
     0
1002
}
1002
{
1000
NOSEL
1070
     0
1002
}
1002
{
1000
BEHIND
1070
     0
1002
}
1002
{
1000
OTHER
1070
     0
1002
}
1002
{
1000
REACTOR
1002
}
  0
LINE
  5
F50
  8
0
 10
214.99999999999969
 20
54.25
 30
0.0
 11
214.99999999999969
 21
-54.25
 31
0.0
  0
LINE
  5
F51
  8
0
 10
214.99999999999969
 20
54.25
 30
0.0
 11
220.99999999999969
 21
54.25
 31
0.0
  0
LINE
  5
F53
  8
0
 10
220.99999999999969
 20
57.049999999999947
 30
0.0
 11
226.99999999999969
 21
57.049999999999947
 31
0.0
  0
LINE
  5
F54
  8
0
 10
226.99999999999969
 20
57.049999999999947
 30
0.0
 11
226.99999999999969
 21
0.0
 31
0.0
  0
LINE
  5
F55
  8
0
 10
226.99999999999969
 20
54.349999999999909
 30
0.0
 11
229.99999999999969
 21
54.349999999999909
 31
0.0
  0
LINE
  5
F59
  8
0
 10
187.99999999999989
 20
-50.799999999999727
 30
0.0
 11
212.99999999999969
 21
-50.799999999999727
 31
0.0
  0
ARC
  5
F5A
  8
0
 10
212.99999999999969
 20
-52.79999999999972
 30
0.0
 40
2.0
 50
0.0
 51
90.0
1001
GENIUS_GENOBJ-N-FIL_13
1002
{
1000
OWNER
1000
GEN
1002
}
1001
GENIUS_GENODEF_13
1002
{
1000
HIER
1070
     0
1002
}
1002
{
1000
MANEDIT
1070
     0
1002
}
1002
{
1000
NOSEL
1070
     0
1002
}
1002
{
1000
BEHIND
1070
     0
1002
}
1002
{
1000
OTHER
1070
     0
1002
}
1002
{
1000
REACTOR
1002
}
  0
LINE
  5
F5C
  8
0
 10
214.99999999999969
 20
-54.25
 30
0.0
 11
215.99999999999969
 21
-54.25
 31
0.0
  0
CIRCLE
  5
F82
  8
0
 10
-33.484800331945387
 20
-80.839459094737535
 30
0.0
 40
9.5
  0
CIRCLE
  5
F83
  8
0
 10
-80.839459094737876
 20
33.484800331945387
 30
0.0
 40
9.5
  0
CIRCLE
  5
F84
  8
0
 10
-80.839459094737876
 20
-33.48480033194533
 30
0.0
 40
9.5
  0
CIRCLE
  5
F85
  8
0
 10
-33.484800331945387
 20
80.839459094737606
 30
0.0
 40
9.5
  0
CIRCLE
  5
F86
  8
0
 10
33.484800331945159
 20
-80.839459094737535
 30
0.0
 40
9.5
  0
CIRCLE
  5
F87
  8
0
 10
80.839459094737677
 20
33.484800331945387
 30
0.0
 40
9.5
  0
CIRCLE
  5
F88
  8
0
 10
80.839459094737677
 20
-33.48480033194533
 30
0.0
 40
9.5
  0
CIRCLE
  5
F89
  8
0
 10
33.484800331945159
 20
80.839459094737606
 30
0.0
 40
9.5
  0
CIRCLE
  5
F8A
  8
0
  6
CENTER
 10
-0.0000000000001137
 20
0.0
 30
0.0
 40
87.5
  0
VIEWPORT
  5
79
 67
     1
  8
0
 10
5.2499996395561617
 20
3.9999998836066761
 30
0.0
 40
15.015580297613511
 41
8.5939224089826052
 68
     1
 69
     1
1001
ACAD
1000
MVIEW
1002
{
1070
    16
1010
0.0
1020
0.0
1030
0.0
1010
0.0
1020
0.0
1030
1.0
1040
0.0
1040
8.5939224089826052
1040
5.2499996395561617
1040
3.9999998836066761
1040
50.0
1040
0.0
1040
0.0
1070
     0
1070
   100
1070
     1
1070
     1
1070
     0
1070
     0
1070
     0
1070
     0
1040
0.0
1040
0.0
1040
0.0
1040
10.0
1040
10.0
1040
10.0
1040
10.0
1070
     0
1002
{
1002
}
1002
}
1001
GENIUS_GENOBJ-N-SDF_13
1002
{
1000
OWNER
1000
GEN
1002
}
1001
GENIUS_GENODEF_13
1002
{
1000
HIER
1070
     0
1002
}
1002
{
1000
MANEDIT
1070
     0
1002
}
1002
{
1000
NOSEL
1070
     0
1002
}
1002
{
1000
BEHIND
1070
     0
1002
}
1002
{
1000
OTHER
1070
     0
1002
}
1002
{
1000
REACTOR
1002
}
1001
GENIUS_GENSCREG_15
1000
PF
1040
1.0
1000
DF
1040
1.0
1000
MIN
1011
-2.2577905092505972
1021
0.0
1031
0.0
1021
-0.2969613208846251
1031
0.0
1000
MAX
1011
12.757789788362921
1021
0.0
1031
0.0
1021
8.2969610880979801
1031
0.0
1000
FLAGS
1070
     4
  0
VIEWPORT
  5
7B
 67
     1
  8
0
 10
5.24999976158142
 20
3.99999976158142
 30
0.0
 40
8.3999996185302717
 41
6.3999996185302717
 68
     2
 69
     2
1001
ACAD
1000
MVIEW
1002
{
1070
    16
1010
0.0
1020
0.0
1030
0.0
1010
0.0
1020
0.0
1030
1.0
1040
0.0
1040
9.2590797717467002
1040
6.0
1040
4.5
1040
50.0
1040
0.0
1040
0.0
1070
     0
1070
   100
1070
     1
1070
     3
1070
     0
1070
     0
1070
     0
1070
     0
1040
0.0
1040
0.0
1040
0.0
1040
0.5
1040
0.5
1040
0.5
1040
0.5
1070
     0
1002
{
1002
}
1002
}
1001
GENIUS_GENODEF_13
1002
{
1000
HIER
1070
     0
1002
}
1002
{
1000
MANEDIT
1070
     0
1002
}
1002
{
1000
NOSEL
1070
     0
1002
}
1002
{
1000
BEHIND
1070
     0
1002
}
1002
{
1000
OTHER
1070
     0
1002
}
1002
{
1000
REACTOR
1002
}
1001
GENIUS_GENOBJ-N-SDF_13
1002
{
1000
OWNER
1000
GEN
1002
}
1001
GENIUS_GENSCREG_15
1000
PF
1040
0.0
1000
DF
1040
0.0
1000
MIN
1011
1.049999952316284
1021
0.0
1031
0.0
1021
0.7999999523162842
1031
0.0
1000
MAX
1011
9.4499995708465558
1021
0.0
1031
0.0
1021
7.1999995708465558
1031
0.0
1000
FLAGS
1070
     4
  0
ENDSEC
  0
EOF
